  0
SECTION
  2
HEADER
  9
$ACADVER
  1
AC1009
  9
$INSBASE
 10
0.0
 20
0.0
 30
0.0
  9
$EXTMIN
 10
-447.19999999999987
 20
-577.31025241000918
 30
0.0
  9
$EXTMAX
 10
447.20000000000016
 20
427.82961279235315
 30
0.0
  9
$LIMMIN
 10
-475.14999999999986
 20
-608.72087319758305
  9
$LIMMAX
 10
475.15000000000015
 20
459.24023357992695
  9
$ORTHOMODE
 70
               0
  9
$REGENMODE
 70
               1
  9
$FILLMODE
 70
               1
  9
$QTEXTMODE
 70
               0
  9
$MIRRTEXT
 70
               1
  9
$DRAGMODE
 70
               2
  9
$LTSCALE
 40
1.0
  9
$OSMODE
 70
               0
  9
$ATTMODE
 70
               1
  9
$TEXTSIZE
 40
0.2
  9
$TRACEWID
 40
0.05
  9
$TEXTSTYLE
  7
STANDARD
  9
$CLAYER
  8
0
  9
$CELTYPE
  6
CONTINUOUS
  9
$CECOLOR
 62
             256
  9
$DIMSCALE
 40
1.0
  9
$DIMASZ
 40
0.18
  9
$DIMEXO
 40
0.0625
  9
$DIMDLI
 40
0.38
  9
$DIMRND
 40
0.0
  9
$DIMDLE
 40
0.0
  9
$DIMEXE
 40
0.18
  9
$DIMTP
 40
0.0
  9
$DIMTM
 40
0.0
  9
$DIMTXT
 40
0.18
  9
$DIMCEN
 40
0.09
  9
$DIMTSZ
 40
0.0
  9
$DIMTOL
 70
               0
  9
$DIMLIM
 70
               0
  9
$DIMTIH
 70
               1
  9
$DIMTOH
 70
               1
  9
$DIMSE1
 70
               0
  9
$DIMSE2
 70
               0
  9
$DIMTAD
 70
               0
  9
$DIMZIN
 70
               0
  9
$DIMBLK
  1

  9
$DIMASO
 70
               1
  9
$DIMSHO
 70
               1
  9
$DIMPOST
  1

  9
$DIMAPOST
  1

  9
$DIMALT
 70
               0
  9
$DIMALTD
 70
               2
  9
$DIMALTF
 40
25.399999999999999
  9
$DIMLFAC
 40
1.0
  9
$DIMTOFL
 70
               0
  9
$DIMTVP
 40
0.0
  9
$DIMTIX
 70
               0
  9
$DIMSOXD
 70
               0
  9
$DIMSAH
 70
               0
  9
$DIMBLK1
  1

  9
$DIMBLK2
  1

  9
$DIMSTYLE
  2
STANDARD
  9
$DIMCLRD
 70
               0
  9
$DIMCLRE
 70
               0
  9
$DIMCLRT
 70
               0
  9
$DIMTFAC
 40
1.0
  9
$DIMGAP
 40
0.09
  9
$LUNITS
 70
               2
  9
$LUPREC
 70
               4
  9
$AXISMODE
 70
               0
  9
$AXISUNIT
 10
0.0
 20
0.0
  9
$SKETCHINC
 40
0.1
  9
$FILLETRAD
 40
0.0
  9
$AUNITS
 70
               0
  9
$AUPREC
 70
               0
  9
$MENU
  1
acad
  9
$ELEVATION
 40
0.0
  9
$PELEVATION
 40
0.0
  9
$THICKNESS
 40
0.0
  9
$LIMCHECK
 70
               0
  9
$BLIPMODE
 70
               1
  9
$CHAMFERA
 40
0.0
  9
$CHAMFERB
 40
0.0
  9
$SKPOLY
 70
               0
  9
$TDCREATE
 40
0.000000000
  9
$TDUPDATE
 40
0.000000000
  9
$TDINDWG
 40
0.0000000000
  9
$TDUSRTIMER
 40
0.0000000000
  9
$USRTIMER
 70
               1
  9
$ANGBASE
 50
0.0
  9
$ANGDIR
 70
               0
  9
$PDMODE
 70
               0
  9
$PDSIZE
 40
1.0
  9
$PLINEWID
 40
0.0
  9
$COORDS
 70
               1
  9
$SPLFRAME
 70
               0
  9
$SPLINETYPE
 70
               6
  9
$SPLINESEGS
 70
               8
  9
$ATTDIA
 70
               0
  9
$ATTREQ
 70
               1
  9
$HANDLING
 70
               1
  9
$HANDSEED
  5
2CA
  9
$SURFTAB1
 70
               6
  9
$SURFTAB2
 70
               6
  9
$SURFTYPE
 70
               6
  9
$SURFU
 70
               6
  9
$SURFV
 70
               6
  9
$UCSNAME
  2

  9
$UCSORG
 10
0.0
 20
0.0
 30
0.0
  9
$UCSXDIR
 10
1.0
 20
0.0
 30
0.0
  9
$UCSYDIR
 10
0.0
 20
1.0
 30
0.0
  9
$PUCSNAME
  2

  9
$PUCSORG
 10
0.0
 20
0.0
 30
0.0
  9
$PUCSXDIR
 10
1.0
 20
0.0
 30
0.0
  9
$PUCSYDIR
 10
0.0
 20
1.0
 30
0.0
  9
$USERI1
 70
               0
  9
$USERI2
 70
               0
  9
$USERI3
 70
               0
  9
$USERI4
 70
               0
  9
$USERI5
 70
               0
  9
$USERR1
 40
0.0
  9
$USERR2
 40
0.0
  9
$USERR3
 40
0.0
  9
$USERR4
 40
0.0
  9
$USERR5
 40
0.0
  9
$WORLDVIEW
 70
               1
  9
$SHADEDGE
 70
               3
  9
$SHADEDIF
 70
              70
  9
$TILEMODE
 70
               1
  9
$MAXACTVP
 70
              16
  9
$PINSBASE
 10
0.0
 20
0.0
 30
0.0
  9
$PLIMCHECK
 70
               0
  9
$PEXTMIN
 10
1.0000000000000000E+20
 20
1.0000000000000000E+20
 30
1.0000000000000000E+20
  9
$PEXTMAX
 10
-1.0000000000000000E+20
 20
-1.0000000000000000E+20
 30
-1.0000000000000000E+20
  9
$PLIMMIN
 10
0.0
 20
0.0
  9
$PLIMMAX
 10
12.0
 20
9.0
  9
$UNITMODE
 70
               0
  9
$VISRETAIN
 70
               0
  9
$PLINEGEN
 70
               1
  9
$PSLTSCALE
 70
               0
  9
$TREEDEPTH
 70
            3020
  9
$DWGCODEPAGE
  3
dos932
  0
ENDSEC
  0
SECTION
  2
TABLES
  0
TABLE
  2
VPORT
 70
               1
  0
VPORT
  2
*ACTIVE
 70
               0
 10
0.0
 20
0.0
 11
1.0
 21
1.0
 12
0.0000000000001421
 22
-74.740319808828048
 13
0.0
 23
0.0
 14
1.0
 24
1.0
 15
0.0
 25
0.0
 16
0.0
 26
0.0
 36
1.0
 17
0.0
 27
0.0
 37
0.0
 40
1067.9611067775099
 41
0.8898264121878527
 42
50.0
 43
0.0
 44
0.0
 50
0.0
 51
0.0
 71
               0
 72
             100
 73
               1
 74
               1
 75
               0
 76
               0
 77
               0
 78
               0
  0
ENDTAB
  0
TABLE
  2
LTYPE
 70
              26
  0
LTYPE
  2
CONTINUOUS
 70
               0
  3
Solid line
 72
              65
 73
               0
 40
0.0
  0
LTYPE
  2
HIDDENX2
 70
               0
  3
CADPAC FUSION LINETYPE
 72
              65
 73
               2
 40
47.560000000000002
 49
35.670000000000002
 49
-11.890000000000001
  0
LTYPE
  2
HIDDEN
 70
               0
  3
CADPAC FUSION LINETYPE
 72
              65
 73
               2
 40
35.670000000000002
 49
23.780000000000001
 49
-11.890000000000001
  0
LTYPE
  2
HIDDEN2
 70
               0
  3
CADPAC FUSION LINETYPE
 72
              65
 73
               2
 40
29.725000000000001
 49
17.835000000000001
 49
-11.890000000000001
  0
LTYPE
  2
DASHED
 70
               0
  3
CADPAC FUSION LINETYPE
 72
              65
 73
               2
 40
35.670000000000002
 49
23.780000000000001
 49
-11.890000000000001
  0
LTYPE
  2
DASHED2
 70
               0
  3
CADPAC FUSION LINETYPE
 72
              65
 73
               2
 40
26.752500000000001
 49
17.835000000000001
 49
-8.9175000000000004
  0
LTYPE
  2
DASHEDX2
 70
               0
  3
CADPAC FUSION LINETYPE
 72
              65
 73
               2
 40
53.505000000000003
 49
35.670000000000002
 49
-17.835000000000001
  0
LTYPE
  2
DOTX2
 70
               0
  3
CADPAC FUSION LINETYPE
 72
              65
 73
               2
 40
14.862500000000001
 49
0.0
 49
-14.862500000000001
  0
LTYPE
  2
DOT
 70
               0
  3
CADPAC FUSION LINETYPE
 72
              65
 73
               2
 40
11.890000000000001
 49
0.0
 49
-11.890000000000001
  0
LTYPE
  2
DOTS
 70
               0
  3
CADPAC FUSION LINETYPE
 72
              65
 73
               2
 40
11.890000000000001
 49
0.0
 49
-11.890000000000001
  0
LTYPE
  2
DOT2
 70
               0
  3
CADPAC FUSION LINETYPE
 72
              65
 73
               2
 40
8.9175000000000004
 49
0.0
 49
-8.9175000000000004
  0
LTYPE
  2
CENTERX2
 70
               0
  3
CADPAC FUSION LINETYPE
 72
              65
 73
               4
 40
71.340000000000003
 49
29.725000000000001
 49
-14.862500000000001
 49
11.890000000000001
 49
-14.862500000000001
  0
LTYPE
  2
CENTER
 70
               0
  3
CADPAC FUSION LINETYPE
 72
              65
 73
               4
 40
54.694000000000003
 49
23.780000000000001
 49
-11.890000000000001
 49
7.1340000000000003
 49
-11.890000000000001
  0
LTYPE
  2
CENTER2
 70
               0
  3
CADPAC FUSION LINETYPE
 72
              65
 73
               4
 40
38.048000000000002
 49
17.835000000000001
 49
-8.9175000000000004
 49
2.3780000000000001
 49
-8.9175000000000004
  0
LTYPE
  2
DASHDOTX2
 70
               0
  3
CADPAC FUSION LINETYPE
 72
              65
 73
               4
 40
59.450000000000003
 49
29.725000000000001
 49
-14.862500000000001
 49
0.0
 49
-14.862500000000001
  0
LTYPE
  2
DASHDOT
 70
               0
  3
CADPAC FUSION LINETYPE
 72
              65
 73
               4
 40
47.560000000000002
 49
23.780000000000001
 49
-11.890000000000001
 49
0.0
 49
-11.890000000000001
  0
LTYPE
  2
DASHDOT2
 70
               0
  3
CADPAC FUSION LINETYPE
 72
              65
 73
               4
 40
35.670000000000002
 49
17.835000000000001
 49
-8.9175000000000004
 49
0.0
 49
-8.9175000000000004
  0
LTYPE
  2
DIVIDEX2
 70
               0
  3
CADPAC FUSION LINETYPE
 72
              65
 73
               6
 40
74.3125
 49
29.725000000000001
 49
-14.862500000000001
 49
0.0
 49
-14.862500000000001
 49
0.0
 49
-14.862500000000001
  0
LTYPE
  2
DIVIDE
 70
               0
  3
CADPAC FUSION LINETYPE
 72
              65
 73
               6
 40
59.450000000000003
 49
23.780000000000001
 49
-11.890000000000001
 49
0.0
 49
-11.890000000000001
 49
0.0
 49
-11.890000000000001
  0
LTYPE
  2
DIVIDE2
 70
               0
  3
CADPAC FUSION LINETYPE
 72
              65
 73
               6
 40
44.587500000000006
 49
17.835000000000001
 49
-8.9175000000000004
 49
0.0
 49
-8.9175000000000004
 49
0.0
 49
-8.9175000000000004
  0
LTYPE
  2
BORDERX2
 70
               0
  3
CADPAC FUSION LINETYPE
 72
              65
 73
               6
 40
104.03750000000001
 49
29.725000000000001
 49
-14.862500000000001
 49
29.725000000000001
 49
-14.862500000000001
 49
0.0
 49
-14.862500000000001
  0
LTYPE
  2
BORDER
 70
               0
  3
CADPAC FUSION LINETYPE
 72
              65
 73
               6
 40
83.230000000000004
 49
23.780000000000001
 49
-11.890000000000001
 49
23.780000000000001
 49
-11.890000000000001
 49
0.0
 49
-11.890000000000001
  0
LTYPE
  2
BORDER2
 70
               0
  3
CADPAC FUSION LINETYPE
 72
              65
 73
               6
 40
62.422499999999999
 49
17.835000000000001
 49
-8.9175000000000004
 49
17.835000000000001
 49
-8.9175000000000004
 49
0.0
 49
-8.9175000000000004
  0
LTYPE
  2
PHANTOMX2
 70
               0
  3
CADPAC FUSION LINETYPE
 72
              65
 73
               6
 40
89.175000000000011
 49
29.725000000000001
 49
-11.890000000000001
 49
11.890000000000001
 49
-11.890000000000001
 49
11.890000000000001
 49
-11.890000000000001
  0
LTYPE
  2
PHANTOM
 70
               0
  3
CADPAC FUSION LINETYPE
 72
              65
 73
               6
 40
73.718000000000004
 49
23.780000000000001
 49
-11.890000000000001
 49
7.1340000000000003
 49
-11.890000000000001
 49
7.1340000000000003
 49
-11.890000000000001
  0
LTYPE
  2
PHANTOM2
 70
               0
  3
CADPAC FUSION LINETYPE
 72
              65
 73
               6
 40
63.017000000000003
 49
17.835000000000001
 49
-11.890000000000001
 49
4.7560000000000002
 49
-11.890000000000001
 49
4.7560000000000002
 49
-11.890000000000001
  0
ENDTAB
  0
TABLE
  2
LAYER
 70
             256
  0
LAYER
  2
0
 70
               0
 62
               7
  6
CONTINUOUS
  0
LAYER
  2
LAYER001
 70
               0
 62
               7
  6
CONTINUOUS
  0
LAYER
  2
LAYER002
 70
               0
 62
               7
  6
CONTINUOUS
  0
LAYER
  2
LAYER003
 70
               0
 62
               7
  6
CONTINUOUS
  0
LAYER
  2
LAYER004
 70
               0
 62
               7
  6
CONTINUOUS
  0
LAYER
  2
LAYER005
 70
               0
 62
               7
  6
CONTINUOUS
  0
LAYER
  2
LAYER006
 70
               0
 62
               7
  6
CONTINUOUS
  0
LAYER
  2
LAYER007
 70
               0
 62
               7
  6
CONTINUOUS
  0
LAYER
  2
LAYER008
 70
               0
 62
               7
  6
CONTINUOUS
  0
LAYER
  2
LAYER009
 70
               0
 62
               7
  6
CONTINUOUS
  0
LAYER
  2
LAYER010
 70
               0
 62
               7
  6
CONTINUOUS
  0
LAYER
  2
LAYER011
 70
               0
 62
               7
  6
CONTINUOUS
  0
LAYER
  2
LAYER012
 70
               0
 62
               7
  6
CONTINUOUS
  0
LAYER
  2
LAYER013
 70
               0
 62
               7
  6
CONTINUOUS
  0
LAYER
  2
LAYER014
 70
               0
 62
               7
  6
CONTINUOUS
  0
LAYER
  2
LAYER015
 70
               0
 62
               7
  6
CONTINUOUS
  0
LAYER
  2
LAYER016
 70
               0
 62
               7
  6
CONTINUOUS
  0
LAYER
  2
LAYER017
 70
               0
 62
               7
  6
CONTINUOUS
  0
LAYER
  2
LAYER018
 70
               0
 62
               7
  6
CONTINUOUS
  0
LAYER
  2
LAYER019
 70
               0
 62
               7
  6
CONTINUOUS
  0
LAYER
  2
LAYER020
 70
               0
 62
               7
  6
CONTINUOUS
  0
LAYER
  2
LAYER021
 70
               0
 62
               7
  6
CONTINUOUS
  0
LAYER
  2
LAYER022
 70
               0
 62
               7
  6
CONTINUOUS
  0
LAYER
  2
LAYER023
 70
               0
 62
               7
  6
CONTINUOUS
  0
LAYER
  2
LAYER024
 70
               0
 62
               7
  6
CONTINUOUS
  0
LAYER
  2
LAYER025
 70
               0
 62
               7
  6
CONTINUOUS
  0
LAYER
  2
LAYER026
 70
               0
 62
               7
  6
CONTINUOUS
  0
LAYER
  2
LAYER027
 70
               0
 62
               7
  6
CONTINUOUS
  0
LAYER
  2
LAYER028
 70
               0
 62
               7
  6
CONTINUOUS
  0
LAYER
  2
LAYER029
 70
               0
 62
               7
  6
CONTINUOUS
  0
LAYER
  2
LAYER030
 70
               0
 62
               7
  6
CONTINUOUS
  0
LAYER
  2
LAYER031
 70
               0
 62
               7
  6
CONTINUOUS
  0
LAYER
  2
LAYER032
 70
               0
 62
               7
  6
CONTINUOUS
  0
LAYER
  2
LAYER033
 70
               0
 62
               7
  6
CONTINUOUS
  0
LAYER
  2
LAYER034
 70
               0
 62
               7
  6
CONTINUOUS
  0
LAYER
  2
LAYER035
 70
               0
 62
               7
  6
CONTINUOUS
  0
LAYER
  2
LAYER036
 70
               0
 62
               7
  6
CONTINUOUS
  0
LAYER
  2
LAYER037
 70
               0
 62
               7
  6
CONTINUOUS
  0
LAYER
  2
LAYER038
 70
               0
 62
               7
  6
CONTINUOUS
  0
LAYER
  2
LAYER039
 70
               0
 62
               7
  6
CONTINUOUS
  0
LAYER
  2
LAYER040
 70
               0
 62
               7
  6
CONTINUOUS
  0
LAYER
  2
LAYER041
 70
               0
 62
               7
  6
CONTINUOUS
  0
LAYER
  2
LAYER042
 70
               0
 62
               7
  6
CONTINUOUS
  0
LAYER
  2
LAYER043
 70
               0
 62
               7
  6
CONTINUOUS
  0
LAYER
  2
LAYER044
 70
               0
 62
               7
  6
CONTINUOUS
  0
LAYER
  2
LAYER045
 70
               0
 62
               7
  6
CONTINUOUS
  0
LAYER
  2
LAYER046
 70
               0
 62
               7
  6
CONTINUOUS
  0
LAYER
  2
LAYER047
 70
               0
 62
               7
  6
CONTINUOUS
  0
LAYER
  2
LAYER048
 70
               0
 62
               7
  6
CONTINUOUS
  0
LAYER
  2
LAYER049
 70
               0
 62
               7
  6
CONTINUOUS
  0
LAYER
  2
LAYER050
 70
               0
 62
               7
  6
CONTINUOUS
  0
LAYER
  2
LAYER051
 70
               0
 62
               7
  6
CONTINUOUS
  0
LAYER
  2
LAYER052
 70
               0
 62
               7
  6
CONTINUOUS
  0
LAYER
  2
LAYER053
 70
               0
 62
               7
  6
CONTINUOUS
  0
LAYER
  2
LAYER054
 70
               0
 62
               7
  6
CONTINUOUS
  0
LAYER
  2
LAYER055
 70
               0
 62
               7
  6
CONTINUOUS
  0
LAYER
  2
LAYER056
 70
               0
 62
               7
  6
CONTINUOUS
  0
LAYER
  2
LAYER057
 70
               0
 62
               7
  6
CONTINUOUS
  0
LAYER
  2
LAYER058
 70
               0
 62
               7
  6
CONTINUOUS
  0
LAYER
  2
LAYER059
 70
               0
 62
               7
  6
CONTINUOUS
  0
LAYER
  2
LAYER060
 70
               0
 62
               7
  6
CONTINUOUS
  0
LAYER
  2
LAYER061
 70
               0
 62
               7
  6
CONTINUOUS
  0
LAYER
  2
LAYER062
 70
               0
 62
               7
  6
CONTINUOUS
  0
LAYER
  2
LAYER063
 70
               0
 62
               7
  6
CONTINUOUS
  0
LAYER
  2
LAYER064
 70
               0
 62
               7
  6
CONTINUOUS
  0
LAYER
  2
LAYER065
 70
               0
 62
               7
  6
CONTINUOUS
  0
LAYER
  2
LAYER066
 70
               0
 62
               7
  6
CONTINUOUS
  0
LAYER
  2
LAYER067
 70
               0
 62
               7
  6
CONTINUOUS
  0
LAYER
  2
LAYER068
 70
               0
 62
               7
  6
CONTINUOUS
  0
LAYER
  2
LAYER069
 70
               0
 62
               7
  6
CONTINUOUS
  0
LAYER
  2
LAYER070
 70
               0
 62
               7
  6
CONTINUOUS
  0
LAYER
  2
LAYER071
 70
               0
 62
               7
  6
CONTINUOUS
  0
LAYER
  2
LAYER072
 70
               0
 62
               7
  6
CONTINUOUS
  0
LAYER
  2
LAYER073
 70
               0
 62
               7
  6
CONTINUOUS
  0
LAYER
  2
LAYER074
 70
               0
 62
               7
  6
CONTINUOUS
  0
LAYER
  2
LAYER075
 70
               0
 62
               7
  6
CONTINUOUS
  0
LAYER
  2
LAYER076
 70
               0
 62
               7
  6
CONTINUOUS
  0
LAYER
  2
LAYER077
 70
               0
 62
               7
  6
CONTINUOUS
  0
LAYER
  2
LAYER078
 70
               0
 62
               7
  6
CONTINUOUS
  0
LAYER
  2
LAYER079
 70
               0
 62
               7
  6
CONTINUOUS
  0
LAYER
  2
LAYER080
 70
               0
 62
               7
  6
CONTINUOUS
  0
LAYER
  2
LAYER081
 70
               0
 62
               7
  6
CONTINUOUS
  0
LAYER
  2
LAYER082
 70
               0
 62
               7
  6
CONTINUOUS
  0
LAYER
  2
LAYER083
 70
               0
 62
               7
  6
CONTINUOUS
  0
LAYER
  2
LAYER084
 70
               0
 62
               7
  6
CONTINUOUS
  0
LAYER
  2
LAYER085
 70
               0
 62
               7
  6
CONTINUOUS
  0
LAYER
  2
LAYER086
 70
               0
 62
               7
  6
CONTINUOUS
  0
LAYER
  2
LAYER087
 70
               0
 62
               7
  6
CONTINUOUS
  0
LAYER
  2
LAYER088
 70
               0
 62
               7
  6
CONTINUOUS
  0
LAYER
  2
LAYER089
 70
               0
 62
               7
  6
CONTINUOUS
  0
LAYER
  2
LAYER090
 70
               0
 62
               7
  6
CONTINUOUS
  0
LAYER
  2
LAYER091
 70
               0
 62
               7
  6
CONTINUOUS
  0
LAYER
  2
LAYER092
 70
               0
 62
               7
  6
CONTINUOUS
  0
LAYER
  2
LAYER093
 70
               0
 62
               7
  6
CONTINUOUS
  0
LAYER
  2
LAYER094
 70
               0
 62
               7
  6
CONTINUOUS
  0
LAYER
  2
LAYER095
 70
               0
 62
               7
  6
CONTINUOUS
  0
LAYER
  2
LAYER096
 70
               0
 62
               7
  6
CONTINUOUS
  0
LAYER
  2
LAYER097
 70
               0
 62
               7
  6
CONTINUOUS
  0
LAYER
  2
LAYER098
 70
               0
 62
               7
  6
CONTINUOUS
  0
LAYER
  2
LAYER099
 70
               0
 62
               7
  6
CONTINUOUS
  0
LAYER
  2
LAYER100
 70
               0
 62
               7
  6
CONTINUOUS
  0
LAYER
  2
LAYER101
 70
               0
 62
               7
  6
CONTINUOUS
  0
LAYER
  2
LAYER102
 70
               0
 62
               7
  6
CONTINUOUS
  0
LAYER
  2
LAYER103
 70
               0
 62
               7
  6
CONTINUOUS
  0
LAYER
  2
LAYER104
 70
               0
 62
               7
  6
CONTINUOUS
  0
LAYER
  2
LAYER105
 70
               0
 62
               7
  6
CONTINUOUS
  0
LAYER
  2
LAYER106
 70
               0
 62
               7
  6
CONTINUOUS
  0
LAYER
  2
LAYER107
 70
               0
 62
               7
  6
CONTINUOUS
  0
LAYER
  2
LAYER108
 70
               0
 62
               7
  6
CONTINUOUS
  0
LAYER
  2
LAYER109
 70
               0
 62
               7
  6
CONTINUOUS
  0
LAYER
  2
LAYER110
 70
               0
 62
               7
  6
CONTINUOUS
  0
LAYER
  2
LAYER111
 70
               0
 62
               7
  6
CONTINUOUS
  0
LAYER
  2
LAYER112
 70
               0
 62
               7
  6
CONTINUOUS
  0
LAYER
  2
LAYER113
 70
               0
 62
               7
  6
CONTINUOUS
  0
LAYER
  2
LAYER114
 70
               0
 62
               7
  6
CONTINUOUS
  0
LAYER
  2
LAYER115
 70
               0
 62
               7
  6
CONTINUOUS
  0
LAYER
  2
LAYER116
 70
               0
 62
               7
  6
CONTINUOUS
  0
LAYER
  2
LAYER117
 70
               0
 62
               7
  6
CONTINUOUS
  0
LAYER
  2
LAYER118
 70
               0
 62
               7
  6
CONTINUOUS
  0
LAYER
  2
LAYER119
 70
               0
 62
               7
  6
CONTINUOUS
  0
LAYER
  2
LAYER120
 70
               0
 62
               7
  6
CONTINUOUS
  0
LAYER
  2
LAYER121
 70
               0
 62
               7
  6
CONTINUOUS
  0
LAYER
  2
LAYER122
 70
               0
 62
               7
  6
CONTINUOUS
  0
LAYER
  2
LAYER123
 70
               0
 62
               7
  6
CONTINUOUS
  0
LAYER
  2
LAYER124
 70
               0
 62
               7
  6
CONTINUOUS
  0
LAYER
  2
LAYER125
 70
               0
 62
               7
  6
CONTINUOUS
  0
LAYER
  2
LAYER126
 70
               0
 62
               7
  6
CONTINUOUS
  0
LAYER
  2
LAYER127
 70
               0
 62
               7
  6
CONTINUOUS
  0
LAYER
  2
LAYER128
 70
               0
 62
               7
  6
CONTINUOUS
  0
LAYER
  2
LAYER129
 70
               0
 62
               7
  6
CONTINUOUS
  0
LAYER
  2
LAYER130
 70
               0
 62
               7
  6
CONTINUOUS
  0
LAYER
  2
LAYER131
 70
               0
 62
               7
  6
CONTINUOUS
  0
LAYER
  2
LAYER132
 70
               0
 62
               7
  6
CONTINUOUS
  0
LAYER
  2
LAYER133
 70
               0
 62
               7
  6
CONTINUOUS
  0
LAYER
  2
LAYER134
 70
               0
 62
               7
  6
CONTINUOUS
  0
LAYER
  2
LAYER135
 70
               0
 62
               7
  6
CONTINUOUS
  0
LAYER
  2
LAYER136
 70
               0
 62
               7
  6
CONTINUOUS
  0
LAYER
  2
LAYER137
 70
               0
 62
               7
  6
CONTINUOUS
  0
LAYER
  2
LAYER138
 70
               0
 62
               7
  6
CONTINUOUS
  0
LAYER
  2
LAYER139
 70
               0
 62
               7
  6
CONTINUOUS
  0
LAYER
  2
LAYER140
 70
               0
 62
               7
  6
CONTINUOUS
  0
LAYER
  2
LAYER141
 70
               0
 62
               7
  6
CONTINUOUS
  0
LAYER
  2
LAYER142
 70
               0
 62
               7
  6
CONTINUOUS
  0
LAYER
  2
LAYER143
 70
               0
 62
               7
  6
CONTINUOUS
  0
LAYER
  2
LAYER144
 70
               0
 62
               7
  6
CONTINUOUS
  0
LAYER
  2
LAYER145
 70
               0
 62
               7
  6
CONTINUOUS
  0
LAYER
  2
LAYER146
 70
               0
 62
               7
  6
CONTINUOUS
  0
LAYER
  2
LAYER147
 70
               0
 62
               7
  6
CONTINUOUS
  0
LAYER
  2
LAYER148
 70
               0
 62
               7
  6
CONTINUOUS
  0
LAYER
  2
LAYER149
 70
               0
 62
               7
  6
CONTINUOUS
  0
LAYER
  2
LAYER150
 70
               0
 62
               7
  6
CONTINUOUS
  0
LAYER
  2
LAYER151
 70
               0
 62
               7
  6
CONTINUOUS
  0
LAYER
  2
LAYER152
 70
               0
 62
               7
  6
CONTINUOUS
  0
LAYER
  2
LAYER153
 70
               0
 62
               7
  6
CONTINUOUS
  0
LAYER
  2
LAYER154
 70
               0
 62
               7
  6
CONTINUOUS
  0
LAYER
  2
LAYER155
 70
               0
 62
               7
  6
CONTINUOUS
  0
LAYER
  2
LAYER156
 70
               0
 62
               7
  6
CONTINUOUS
  0
LAYER
  2
LAYER157
 70
               0
 62
               7
  6
CONTINUOUS
  0
LAYER
  2
LAYER158
 70
               0
 62
               7
  6
CONTINUOUS
  0
LAYER
  2
LAYER159
 70
               0
 62
               7
  6
CONTINUOUS
  0
LAYER
  2
LAYER160
 70
               0
 62
               7
  6
CONTINUOUS
  0
LAYER
  2
LAYER161
 70
               0
 62
               7
  6
CONTINUOUS
  0
LAYER
  2
LAYER162
 70
               0
 62
               7
  6
CONTINUOUS
  0
LAYER
  2
LAYER163
 70
               0
 62
               7
  6
CONTINUOUS
  0
LAYER
  2
LAYER164
 70
               0
 62
               7
  6
CONTINUOUS
  0
LAYER
  2
LAYER165
 70
               0
 62
               7
  6
CONTINUOUS
  0
LAYER
  2
LAYER166
 70
               0
 62
               7
  6
CONTINUOUS
  0
LAYER
  2
LAYER167
 70
               0
 62
               7
  6
CONTINUOUS
  0
LAYER
  2
LAYER168
 70
               0
 62
               7
  6
CONTINUOUS
  0
LAYER
  2
LAYER169
 70
               0
 62
               7
  6
CONTINUOUS
  0
LAYER
  2
LAYER170
 70
               0
 62
               7
  6
CONTINUOUS
  0
LAYER
  2
LAYER171
 70
               0
 62
               7
  6
CONTINUOUS
  0
LAYER
  2
LAYER172
 70
               0
 62
               7
  6
CONTINUOUS
  0
LAYER
  2
LAYER173
 70
               0
 62
               7
  6
CONTINUOUS
  0
LAYER
  2
LAYER174
 70
               0
 62
               7
  6
CONTINUOUS
  0
LAYER
  2
LAYER175
 70
               0
 62
               7
  6
CONTINUOUS
  0
LAYER
  2
LAYER176
 70
               0
 62
               7
  6
CONTINUOUS
  0
LAYER
  2
LAYER177
 70
               0
 62
               7
  6
CONTINUOUS
  0
LAYER
  2
LAYER178
 70
               0
 62
               7
  6
CONTINUOUS
  0
LAYER
  2
LAYER179
 70
               0
 62
               7
  6
CONTINUOUS
  0
LAYER
  2
LAYER180
 70
               0
 62
               7
  6
CONTINUOUS
  0
LAYER
  2
LAYER181
 70
               0
 62
               7
  6
CONTINUOUS
  0
LAYER
  2
LAYER182
 70
               0
 62
               7
  6
CONTINUOUS
  0
LAYER
  2
LAYER183
 70
               0
 62
               7
  6
CONTINUOUS
  0
LAYER
  2
LAYER184
 70
               0
 62
               7
  6
CONTINUOUS
  0
LAYER
  2
LAYER185
 70
               0
 62
               7
  6
CONTINUOUS
  0
LAYER
  2
LAYER186
 70
               0
 62
               7
  6
CONTINUOUS
  0
LAYER
  2
LAYER187
 70
               0
 62
               7
  6
CONTINUOUS
  0
LAYER
  2
LAYER188
 70
               0
 62
               7
  6
CONTINUOUS
  0
LAYER
  2
LAYER189
 70
               0
 62
               7
  6
CONTINUOUS
  0
LAYER
  2
LAYER190
 70
               0
 62
               7
  6
CONTINUOUS
  0
LAYER
  2
LAYER191
 70
               0
 62
               7
  6
CONTINUOUS
  0
LAYER
  2
LAYER192
 70
               0
 62
               7
  6
CONTINUOUS
  0
LAYER
  2
LAYER193
 70
               0
 62
               7
  6
CONTINUOUS
  0
LAYER
  2
LAYER194
 70
               0
 62
               7
  6
CONTINUOUS
  0
LAYER
  2
LAYER195
 70
               0
 62
               7
  6
CONTINUOUS
  0
LAYER
  2
LAYER196
 70
               0
 62
               7
  6
CONTINUOUS
  0
LAYER
  2
LAYER197
 70
               0
 62
               7
  6
CONTINUOUS
  0
LAYER
  2
LAYER198
 70
               0
 62
               7
  6
CONTINUOUS
  0
LAYER
  2
LAYER199
 70
               0
 62
               7
  6
CONTINUOUS
  0
LAYER
  2
LAYER200
 70
               0
 62
               7
  6
CONTINUOUS
  0
LAYER
  2
LAYER201
 70
               0
 62
               7
  6
CONTINUOUS
  0
LAYER
  2
LAYER202
 70
               0
 62
               7
  6
CONTINUOUS
  0
LAYER
  2
LAYER203
 70
               0
 62
               7
  6
CONTINUOUS
  0
LAYER
  2
LAYER204
 70
               0
 62
               7
  6
CONTINUOUS
  0
LAYER
  2
LAYER205
 70
               0
 62
               7
  6
CONTINUOUS
  0
LAYER
  2
LAYER206
 70
               0
 62
               7
  6
CONTINUOUS
  0
LAYER
  2
LAYER207
 70
               0
 62
               7
  6
CONTINUOUS
  0
LAYER
  2
LAYER208
 70
               0
 62
               7
  6
CONTINUOUS
  0
LAYER
  2
LAYER209
 70
               0
 62
               7
  6
CONTINUOUS
  0
LAYER
  2
LAYER210
 70
               0
 62
               7
  6
CONTINUOUS
  0
LAYER
  2
LAYER211
 70
               0
 62
               7
  6
CONTINUOUS
  0
LAYER
  2
LAYER212
 70
               0
 62
               7
  6
CONTINUOUS
  0
LAYER
  2
LAYER213
 70
               0
 62
               7
  6
CONTINUOUS
  0
LAYER
  2
LAYER214
 70
               0
 62
               7
  6
CONTINUOUS
  0
LAYER
  2
LAYER215
 70
               0
 62
               7
  6
CONTINUOUS
  0
LAYER
  2
LAYER216
 70
               0
 62
               7
  6
CONTINUOUS
  0
LAYER
  2
LAYER217
 70
               0
 62
               7
  6
CONTINUOUS
  0
LAYER
  2
LAYER218
 70
               0
 62
               7
  6
CONTINUOUS
  0
LAYER
  2
LAYER219
 70
               0
 62
               7
  6
CONTINUOUS
  0
LAYER
  2
LAYER220
 70
               0
 62
               7
  6
CONTINUOUS
  0
LAYER
  2
LAYER221
 70
               0
 62
               7
  6
CONTINUOUS
  0
LAYER
  2
LAYER222
 70
               0
 62
               7
  6
CONTINUOUS
  0
LAYER
  2
LAYER223
 70
               0
 62
               7
  6
CONTINUOUS
  0
LAYER
  2
LAYER224
 70
               0
 62
               7
  6
CONTINUOUS
  0
LAYER
  2
LAYER225
 70
               0
 62
               7
  6
CONTINUOUS
  0
LAYER
  2
LAYER226
 70
               0
 62
               7
  6
CONTINUOUS
  0
LAYER
  2
LAYER227
 70
               0
 62
               7
  6
CONTINUOUS
  0
LAYER
  2
LAYER228
 70
               0
 62
               7
  6
CONTINUOUS
  0
LAYER
  2
LAYER229
 70
               0
 62
               7
  6
CONTINUOUS
  0
LAYER
  2
LAYER230
 70
               0
 62
               7
  6
CONTINUOUS
  0
LAYER
  2
LAYER231
 70
               0
 62
               7
  6
CONTINUOUS
  0
LAYER
  2
LAYER232
 70
               0
 62
               7
  6
CONTINUOUS
  0
LAYER
  2
LAYER233
 70
               0
 62
               7
  6
CONTINUOUS
  0
LAYER
  2
LAYER234
 70
               0
 62
               7
  6
CONTINUOUS
  0
LAYER
  2
LAYER235
 70
               0
 62
               7
  6
CONTINUOUS
  0
LAYER
  2
LAYER236
 70
               0
 62
               7
  6
CONTINUOUS
  0
LAYER
  2
LAYER237
 70
               0
 62
               7
  6
CONTINUOUS
  0
LAYER
  2
LAYER238
 70
               0
 62
               7
  6
CONTINUOUS
  0
LAYER
  2
LAYER239
 70
               0
 62
               7
  6
CONTINUOUS
  0
LAYER
  2
LAYER240
 70
               0
 62
               7
  6
CONTINUOUS
  0
LAYER
  2
LAYER241
 70
               0
 62
               7
  6
CONTINUOUS
  0
LAYER
  2
LAYER242
 70
               0
 62
               7
  6
CONTINUOUS
  0
LAYER
  2
LAYER243
 70
               0
 62
               7
  6
CONTINUOUS
  0
LAYER
  2
LAYER244
 70
               0
 62
               7
  6
CONTINUOUS
  0
LAYER
  2
LAYER245
 70
               0
 62
               7
  6
CONTINUOUS
  0
LAYER
  2
LAYER246
 70
               0
 62
               7
  6
CONTINUOUS
  0
LAYER
  2
LAYER247
 70
               0
 62
               7
  6
CONTINUOUS
  0
LAYER
  2
LAYER248
 70
               0
 62
               7
  6
CONTINUOUS
  0
LAYER
  2
LAYER249
 70
               0
 62
               7
  6
CONTINUOUS
  0
LAYER
  2
LAYER250
 70
               0
 62
               7
  6
CONTINUOUS
  0
LAYER
  2
LAYER251
 70
               0
 62
               7
  6
CONTINUOUS
  0
LAYER
  2
LAYER252
 70
               0
 62
               7
  6
CONTINUOUS
  0
LAYER
  2
LAYER253
 70
               0
 62
               7
  6
CONTINUOUS
  0
LAYER
  2
LAYER254
 70
               0
 62
               7
  6
CONTINUOUS
  0
LAYER
  2
LAYER255
 70
               0
 62
               7
  6
CONTINUOUS
  0
ENDTAB
  0
TABLE
  2
STYLE
 70
               1
  0
STYLE
  2
STANDARD
 70
               0
 40
0.0
 41
1.0
 50
0.0
 71
               0
 42
0.0
  3
txt
  4

  0
ENDTAB
  0
TABLE
  2
VIEW
 70
               0
  0
VIEW
  2
QQQQ
 70
               0
 40
1067.9611067775099
 10
0.0000000000001421
 20
-74.740319808828048
 41
950.29999999999995
 11
0.0
 21
0.0
 31
1.0
 12
100.0
 22
100.0
 32
0.0
 42
50.0
 43
0.0
 44
0.0
 50
0.0
 71
               0
  0
ENDTAB
  0
TABLE
  2
UCS
 70
               0
  0
ENDTAB
  0
TABLE
  2
APPID
 70
               1
  0
APPID
  2
ACAD
 70
               0
  0
ENDTAB
  0
TABLE
  2
DIMSTYLE
 70
               1
  0
DIMSTYLE
  2
STANDARD
 70
               0
  3

  4

  5

  6

  7

 40
1.0
 41
0.18
 42
0.0625
 43
0.38
 44
0.18
 45
0.0
 46
0.0
 47
0.0
 48
0.0
140
0.18
141
0.09
142
0.0
143
25.399999999999999
144
1.0
145
0.0
146
1.0
147
0.09
 71
               0
 72
               0
 73
               1
 74
               1
 75
               0
 76
               0
 77
               0
 78
               0
170
               0
171
               2
172
               0
173
               0
174
               0
175
               0
176
               0
177
               0
178
               0
  0
ENDTAB
  0
ENDSEC
  0
SECTION
  2
BLOCKS
  0
ENDSEC
  0
SECTION
  2
ENTITIES
  0
CIRCLE
  8
0
  6
CONTINUOUS
 62
               3
  5
136
 10
0.0000000000000995
 20
300.0
 30
0.0
 40
52.5
  0
LINE
  8
0
  6
CONTINUOUS
 62
               3
  5
137
 10
-47.668123520860959
 20
277.99999999999955
 30
0.0
 11
47.668123520860021
 21
277.99999999999955
 31
0.0
  0
ARC
  8
0
  6
CONTINUOUS
 62
               3
  5
138
 10
12.503611649381227
 20
308.70639762761903
 30
0.0
 40
54.763804151667173
 50
141.3859176368376
 51
145.15009542095353
  0
ARC
  8
0
  6
CONTINUOUS
 62
               3
  5
139
 10
0.0000000000000995
 20
300.0
 30
0.0
 40
51.5
 50
334.71098847345695
 51
410.9593273636396
  0
ARC
  8
0
  6
CONTINUOUS
 62
               3
  5
13A
 10
0.0000000000000995
 20
300.0
 30
0.0
 40
51.5
 50
129.04067263635963
 51
205.28901152654183
  0
LINE
  8
0
  6
CONTINUOUS
 62
               3
  5
13B
 10
-32.438403166617505
 20
339.99999999999977
 30
0.0
 11
0.0000000000000995
 21
339.99999999999977
 31
0.0
  0
LINE
  8
0
  6
CONTINUOUS
 62
               3
  5
13C
 10
0.0000000000000995
 20
339.99999999999977
 30
0.0
 11
34.003676271838785
 21
339.99999999999977
 31
0.0
  0
ARC
  8
0
  6
CONTINUOUS
 62
               3
  5
13D
 10
0.0000000000000995
 20
300.0
 30
0.0
 40
75.0
 50
333.62767005498534
 51
693.44264624740731
  0
LINE
  8
0
  6
CONTINUOUS
 62
               3
  5
13E
 10
-75.000000000000369
 20
101.91246498599375
 30
0.0
 11
74.999999999999631
 21
101.91246498599375
 31
0.0
  0
ARC
  8
0
  6
CONTINUOUS
 62
               3
  5
13F
 10
-77.000000000000256
 20
80.32988929103837
 30
0.0
 40
4.9999999999999991
 50
0.0
 51
66.421821521798009
  0
LINE
  8
0
  6
CONTINUOUS
 62
               3
  5
140
 10
-75.000000000000369
 20
84.912464985994092
 30
0.0
 11
74.999999999999631
 21
84.912464985994092
 31
0.0
  0
LINE
  8
0
  6
CONTINUOUS
 62
               3
  5
141
 10
-72.000000000000256
 20
80.32988929103837
 30
0.0
 11
-72.000000000000256
 21
10.448118738846546
 31
0.0
  0
LINE
  8
0
  6
CONTINUOUS
 62
               3
  5
142
 10
71.999999999999517
 20
10.448118738846546
 30
0.0
 11
71.999999999999517
 21
80.32988929103837
 31
0.0
  0
LINE
  8
0
  6
CONTINUOUS
 62
               3
  5
143
 10
-58.000000000000483
 20
-225.08753501400668
 30
0.0
 11
-75.000000000000369
 21
-76.087535014006249
 31
0.0
  0
LINE
  8
0
  6
CONTINUOUS
 62
               3
  5
144
 10
-72.000000000000256
 20
10.448118738846546
 30
0.0
 11
71.999999999999517
 21
10.448118738846546
 31
0.0
  0
ARC
  8
0
  6
CONTINUOUS
 62
               3
  5
145
 10
76.999999999999517
 20
80.32988929103837
 30
0.0
 40
4.9999999999999991
 50
113.57817847820161
 51
179.9999999999996
  0
LINE
  8
0
  6
CONTINUOUS
 62
               3
  5
146
 10
-75.000000000000369
 20
-76.087535014006249
 30
0.0
 11
-46.368107792057266
 21
-76.087535014006249
 31
0.0
  0
LINE
  8
0
  6
CONTINUOUS
 62
               3
  5
147
 10
-1.9728332801512696
 20
-76.087535014006249
 30
0.0
 11
74.496765133649404
 21
-76.087535014006249
 31
0.0
  0
ARC
  8
0
  6
CONTINUOUS
 62
               3
  5
148
 10
-55.000000000000377
 20
-0.0875350140062494
 30
0.0
 40
19.999999999999996
 50
148.21166938294786
 51
179.9999999999996
  0
LINE
  8
0
  6
CONTINUOUS
 62
               3
  5
149
 10
-75.000000000000369
 20
-0.0875350140062494
 30
0.0
 11
-75.000000000000369
 21
-76.087535014006249
 31
0.0
  0
LINE
  8
0
  6
CONTINUOUS
 62
               3
  5
14A
 10
57.999999999999801
 20
-225.0875350140067
 30
0.0
 11
74.999999999999673
 21
-76.087535014006249
 31
0.0
  0
LINE
  8
0
  6
CONTINUOUS
 62
               3
  5
14B
 10
-75.000000000000369
 20
101.91246498599375
 30
0.0
 11
-75.000000000000369
 21
84.912464985994092
 31
0.0
  0
LINE
  8
0
  6
CONTINUOUS
 62
               3
  5
14C
 10
74.999999999999631
 20
101.91246498599375
 30
0.0
 11
74.999999999999645
 21
84.912464985994092
 31
0.0
  0
ARC
  8
0
  6
CONTINUOUS
 62
               3
  5
14D
 10
54.999999999999659
 20
-0.0875350140062494
 30
0.0
 40
19.999999999999996
 50
0.000000000000014
 51
31.788330617051741
  0
LINE
  8
0
  6
CONTINUOUS
 62
               3
  5
14E
 10
74.999999999999673
 20
-0.0875350140062494
 30
0.0
 11
74.999999999999673
 21
-76.087535014006249
 31
0.0
  0
LINE
  8
0
  6
CONTINUOUS
 62
               3
  5
14F
 10
-425.00000000000034
 20
101.91246498599375
 30
0.0
 11
-275.00000000000034
 21
101.91246498599375
 31
0.0
  0
ARC
  8
0
  6
CONTINUOUS
 62
               3
  5
150
 10
-427.00000000000023
 20
80.32988929103837
 30
0.0
 40
4.9999999999999991
 50
0.0
 51
66.421821521798009
  0
LINE
  8
0
  6
CONTINUOUS
 62
               3
  5
151
 10
-425.00000000000034
 20
84.912464985994092
 30
0.0
 11
-275.00000000000034
 21
84.912464985994092
 31
0.0
  0
LINE
  8
0
  6
CONTINUOUS
 62
               3
  5
152
 10
-422.00000000000023
 20
80.32988929103837
 30
0.0
 11
-422.00000000000023
 21
10.448118738846546
 31
0.0
  0
LINE
  8
0
  6
CONTINUOUS
 62
               3
  5
153
 10
-278.00000000000045
 20
10.448118738846546
 30
0.0
 11
-278.00000000000045
 21
80.32988929103837
 31
0.0
  0
LINE
  8
0
  6
CONTINUOUS
 62
               3
  5
154
 10
-408.00000000000045
 20
-225.0875350140067
 30
0.0
 11
-425.00000000000034
 21
-76.087535014006249
 31
0.0
  0
LINE
  8
0
  6
CONTINUOUS
 62
               3
  5
155
 10
-422.00000000000023
 20
10.448118738846546
 30
0.0
 11
-278.00000000000045
 21
10.448118738846546
 31
0.0
  0
ARC
  8
0
  6
CONTINUOUS
 62
               3
  5
156
 10
-273.00000000000045
 20
80.32988929103837
 30
0.0
 40
4.9999999999999991
 50
113.57817847820161
 51
179.9999999999996
  0
ARC
  8
0
  6
CONTINUOUS
 62
               3
  5
157
 10
-405.00000000000034
 20
-0.0875350140062494
 30
0.0
 40
19.999999999999996
 50
148.21166938294786
 51
179.9999999999996
  0
LINE
  8
0
  6
CONTINUOUS
 62
               3
  5
158
 10
-425.00000000000034
 20
-0.0875350140062494
 30
0.0
 11
-425.00000000000034
 21
-76.087535014006249
 31
0.0
  0
LINE
  8
0
  6
CONTINUOUS
 62
               3
  5
159
 10
-292.00000000000011
 20
-225.0875350140067
 30
0.0
 11
-275.00000000000028
 21
-76.087535014006249
 31
0.0
  0
LINE
  8
0
  6
CONTINUOUS
 62
               3
  5
15A
 10
-425.00000000000034
 20
101.91246498599375
 30
0.0
 11
-425.00000000000034
 21
84.912464985994092
 31
0.0
  0
LINE
  8
0
  6
CONTINUOUS
 62
               3
  5
15B
 10
-275.00000000000034
 20
101.91246498599375
 30
0.0
 11
-275.00000000000028
 21
84.912464985994092
 31
0.0
  0
ARC
  8
0
  6
CONTINUOUS
 62
               3
  5
15C
 10
-295.00000000000028
 20
-0.0875350140062494
 30
0.0
 40
19.999999999999996
 50
0.000000000000014
 51
31.788330617051741
  0
LINE
  8
0
  6
CONTINUOUS
 62
               3
  5
15D
 10
-275.00000000000028
 20
-0.0875350140062494
 30
0.0
 11
-275.00000000000028
 21
-76.087535014006249
 31
0.0
  0
LINE
  8
0
  6
CONTINUOUS
 62
               3
  5
15E
 10
274.99999999999955
 20
101.91246498599375
 30
0.0
 11
424.99999999999955
 21
101.91246498599375
 31
0.0
  0
ARC
  8
0
  6
CONTINUOUS
 62
               3
  5
15F
 10
272.99999999999966
 20
80.32988929103837
 30
0.0
 40
4.9999999999999991
 50
0.0
 51
66.421821521798009
  0
LINE
  8
0
  6
CONTINUOUS
 62
               3
  5
160
 10
274.99999999999955
 20
84.912464985994092
 30
0.0
 11
424.99999999999955
 21
84.912464985994092
 31
0.0
  0
LINE
  8
0
  6
CONTINUOUS
 62
               3
  5
161
 10
277.99999999999966
 20
80.32988929103837
 30
0.0
 11
277.99999999999966
 21
10.448118738846546
 31
0.0
  0
LINE
  8
0
  6
CONTINUOUS
 62
               3
  5
162
 10
421.99999999999943
 20
10.448118738846546
 30
0.0
 11
421.99999999999943
 21
80.32988929103837
 31
0.0
  0
LINE
  8
0
  6
CONTINUOUS
 62
               3
  5
163
 10
291.99999999999943
 20
-225.0875350140067
 30
0.0
 11
274.99999999999955
 21
-76.087535014006249
 31
0.0
  0
LINE
  8
0
  6
CONTINUOUS
 62
               3
  5
164
 10
277.99999999999966
 20
10.448118738846546
 30
0.0
 11
421.99999999999943
 21
10.448118738846546
 31
0.0
  0
ARC
  8
0
  6
CONTINUOUS
 62
               3
  5
165
 10
426.99999999999943
 20
80.32988929103837
 30
0.0
 40
4.9999999999999991
 50
113.57817847820161
 51
179.9999999999996
  0
LINE
  8
0
  6
CONTINUOUS
 62
               3
  5
166
 10
291.99999999999943
 20
-225.08753501400614
 30
0.0
 11
407.99999999999966
 21
-225.0875350140067
 31
0.0
  0
ARC
  8
0
  6
CONTINUOUS
 62
               3
  5
167
 10
294.99999999999955
 20
-0.0875350140062494
 30
0.0
 40
19.999999999999996
 50
148.21166938294786
 51
179.9999999999996
  0
LINE
  8
0
  6
CONTINUOUS
 62
               3
  5
168
 10
274.99999999999955
 20
-0.0875350140062494
 30
0.0
 11
274.99999999999955
 21
-76.087535014006249
 31
0.0
  0
LINE
  8
0
  6
CONTINUOUS
 62
               3
  5
169
 10
407.99999999999977
 20
-225.0875350140067
 30
0.0
 11
424.9999999999996
 21
-76.087535014006249
 31
0.0
  0
LINE
  8
0
  6
CONTINUOUS
 62
               3
  5
16A
 10
274.99999999999955
 20
101.91246498599375
 30
0.0
 11
274.99999999999955
 21
84.912464985994092
 31
0.0
  0
LINE
  8
0
  6
CONTINUOUS
 62
               3
  5
16B
 10
424.99999999999955
 20
101.91246498599375
 30
0.0
 11
424.9999999999996
 21
84.912464985994092
 31
0.0
  0
ARC
  8
0
  6
CONTINUOUS
 62
               3
  5
16C
 10
404.9999999999996
 20
-0.0875350140062494
 30
0.0
 40
19.999999999999996
 50
0.000000000000014
 51
31.788330617051741
  0
LINE
  8
0
  6
CONTINUOUS
 62
               3
  5
16D
 10
424.9999999999996
 20
-0.0875350140062494
 30
0.0
 11
424.9999999999996
 21
-76.087535014006249
 31
0.0
  0
LINE
  8
0
  6
CONTINUOUS
 62
               3
  5
16E
 10
-408.0000000000004
 20
-225.08753501400173
 30
0.0
 11
-292.00000000000017
 21
-225.0875350140023
 31
0.0
  0
LINE
  8
0
  6
CONTINUOUS
 62
               3
  5
16F
 10
-425.00000000000028
 20
-76.087535014001844
 30
0.0
 11
-291.05100000000022
 21
-76.08753501400156
 31
0.0
  0
LINE
  8
0
  6
CONTINUOUS
 62
               3
  5
170
 10
-278.24363345646105
 20
-76.08753501400156
 30
0.0
 11
-275.00000000000085
 21
-76.08753501400156
 31
0.0
  0
LINE
  8
0
  6
CONTINUOUS
 62
               3
  5
171
 10
-277.39985704623928
 20
-97.121576183974483
 30
0.0
 11
-275.00000000000085
 21
-76.08753501400156
 31
0.0
  0
LINE
  8
0
  6
CONTINUOUS
 62
               3
  5
172
 10
424.9999999999996
 20
-76.087535014006306
 30
0.0
 11
358.21699999999925
 21
-76.087535014006306
 31
0.0
  0
LINE
  8
0
  6
CONTINUOUS
 62
               3
  5
173
 10
341.78299999999939
 20
-76.087535014006306
 30
0.0
 11
274.9999999999996
 21
-76.087535014006306
 31
0.0
  0
LINE
  8
0
  6
CONTINUOUS
 62
               3
  5
174
 10
-58.000000000000767
 20
-236.58753501400579
 30
0.0
 11
-58.000000000000483
 21
-225.08753501400668
 31
0.0
  0
LINE
  8
0
  6
CONTINUOUS
 62
               3
  5
175
 10
57.999999999999744
 20
-225.08753501400668
 30
0.0
 11
57.999999999999744
 21
-236.58753501400534
 31
0.0
  0
LINE
  8
0
  6
CONTINUOUS
 62
               3
  5
176
 10
57.999999999999744
 20
-225.08753501400611
 30
0.0
 11
-58.000000000000483
 21
-225.08753501400668
 31
0.0
  0
LINE
  8
0
  6
CONTINUOUS
 62
               3
  5
177
 10
-57.000000000000369
 20
-273.08753501400622
 30
0.0
 11
-57.000000000000369
 21
-237.58753501400619
 31
0.0
  0
LINE
  8
0
  6
CONTINUOUS
 62
               3
  5
178
 10
56.999999999999631
 20
-273.08753501400622
 30
0.0
 11
56.999999999999631
 21
-237.58753501400619
 31
0.0
  0
LINE
  8
0
  6
CONTINUOUS
 62
               3
  5
179
 10
56.999999999999623
 20
-237.58753501400619
 30
0.0
 11
57.999999999999744
 21
-236.58753501400605
 31
0.0
  0
LINE
  8
0
  6
CONTINUOUS
 62
               3
  5
17A
 10
-57.000000000000369
 20
-237.58753501400619
 30
0.0
 11
-58.000000000000767
 21
-236.58753501400579
 31
0.0
  0
LINE
  8
0
  6
CONTINUOUS
 62
               3
  5
17B
 10
-408.00000000000068
 20
-236.58753501400577
 30
0.0
 11
-408.00000000000045
 21
-225.08753501400665
 31
0.0
  0
LINE
  8
0
  6
CONTINUOUS
 62
               3
  5
17C
 10
-292.00000000000023
 20
-225.08753501400665
 30
0.0
 11
-292.00000000000023
 21
-236.58753501400531
 31
0.0
  0
LINE
  8
0
  6
CONTINUOUS
 62
               3
  5
17D
 10
-292.00000000000023
 20
-225.08753501400608
 30
0.0
 11
-408.00000000000045
 21
-225.08753501400665
 31
0.0
  0
LINE
  8
0
  6
CONTINUOUS
 62
               3
  5
17E
 10
-407.00000000000034
 20
-273.08753501400622
 30
0.0
 11
-407.00000000000034
 21
-237.58753501400616
 31
0.0
  0
LINE
  8
0
  6
CONTINUOUS
 62
               3
  5
17F
 10
-293.00000000000034
 20
-273.08753501400622
 30
0.0
 11
-293.00000000000034
 21
-237.58753501400616
 31
0.0
  0
LINE
  8
0
  6
CONTINUOUS
 62
               3
  5
180
 10
-293.00000000000034
 20
-237.58753501400616
 30
0.0
 11
-292.00000000000023
 21
-236.58753501400602
 31
0.0
  0
LINE
  8
0
  6
CONTINUOUS
 62
               3
  5
181
 10
-407.00000000000034
 20
-237.58753501400616
 30
0.0
 11
-408.00000000000068
 21
-236.58753501400577
 31
0.0
  0
LINE
  8
0
  6
CONTINUOUS
 62
               3
  5
182
 10
291.9999999999992
 20
-236.58753501400577
 30
0.0
 11
291.99999999999943
 21
-225.08753501400665
 31
0.0
  0
LINE
  8
0
  6
CONTINUOUS
 62
               3
  5
183
 10
407.99999999999966
 20
-225.08753501400665
 30
0.0
 11
407.99999999999966
 21
-236.58753501400531
 31
0.0
  0
LINE
  8
0
  6
CONTINUOUS
 62
               3
  5
184
 10
407.99999999999966
 20
-225.08753501400608
 30
0.0
 11
291.99999999999943
 21
-225.08753501400665
 31
0.0
  0
LINE
  8
0
  6
CONTINUOUS
 62
               3
  5
185
 10
292.99999999999955
 20
-273.08753501400622
 30
0.0
 11
292.99999999999955
 21
-237.58753501400616
 31
0.0
  0
LINE
  8
0
  6
CONTINUOUS
 62
               3
  5
186
 10
406.99999999999955
 20
-273.08753501400622
 30
0.0
 11
406.99999999999955
 21
-237.58753501400616
 31
0.0
  0
LINE
  8
0
  6
CONTINUOUS
 62
               3
  5
187
 10
406.99999999999955
 20
-237.58753501400616
 30
0.0
 11
407.99999999999966
 21
-236.58753501400602
 31
0.0
  0
LINE
  8
0
  6
CONTINUOUS
 62
               3
  5
188
 10
292.99999999999955
 20
-237.58753501400616
 30
0.0
 11
291.9999999999992
 21
-236.58753501400577
 31
0.0
  0
CIRCLE
  8
0
  6
CONTINUOUS
 62
               3
  5
189
 10
0.0000000000000995
 20
300.0
 30
0.0
 40
59.0
  0
LINE
  8
0
  6
CONTINUOUS
 62
               3
  5
18A
 10
-412.00000000000045
 20
-418.08753501400508
 30
0.0
 11
-412.00000000000045
 21
-403.08753501400599
 31
0.0
  0
LINE
  8
0
  6
CONTINUOUS
 62
               3
  5
18B
 10
-415.00000000000028
 20
-418.08753501400508
 30
0.0
 11
-285.00000000000028
 21
-418.08753501400508
 31
0.0
  0
ARC
  8
0
  6
CONTINUOUS
 62
               3
  5
18C
 10
-425.99999999999966
 20
-277.0875350140069
 30
0.0
 40
4.0
 50
89.999999999982236
 51
179.99999999996518
  0
LINE
  8
0
  6
CONTINUOUS
 62
               3
  5
18D
 10
-429.99999999999966
 20
-277.08753501400452
 30
0.0
 11
-429.99999999999989
 21
-296.0875350140069
 31
0.0
  0
LINE
  8
0
  6
CONTINUOUS
 62
               3
  5
18E
 10
-365.99999999999972
 20
-273.08753501400633
 30
0.0
 11
-425.99999999999972
 21
-273.0875350140069
 31
0.0
  0
LINE
  8
0
  6
CONTINUOUS
 62
               3
  5
18F
 10
-365.99999999999972
 20
-404.08753501400497
 30
0.0
 11
-333.9999999999992
 21
-404.08753501400452
 31
0.0
  0
ARC
  8
0
  6
CONTINUOUS
 62
               3
  5
190
 10
-425.99999999999937
 20
-399.08753501400599
 30
0.0
 40
4.0
 50
179.99999999996601
 51
269.99999999994901
  0
LINE
  8
0
  6
CONTINUOUS
 62
               3
  5
191
 10
-429.99999999999943
 20
-399.08753501400599
 30
0.0
 11
-429.99999999999932
 21
-380.58753501400577
 31
0.0
  0
LINE
  8
0
  6
CONTINUOUS
 62
               3
  5
192
 10
-365.99999999999972
 20
-403.08753501400531
 30
0.0
 11
-426.0000000000029
 21
-403.08753501400599
 31
0.0
  0
LINE
  8
0
  6
CONTINUOUS
 62
               3
  5
193
 10
-365.99999999999972
 20
-380.5875350140052
 30
0.0
 11
-429.99999999999943
 21
-380.58753501400577
 31
0.0
  0
LINE
  8
0
  6
CONTINUOUS
 62
               3
  5
194
 10
-429.99999999999989
 20
-296.0875350140069
 30
0.0
 11
-365.99999999999972
 21
-296.0875350140069
 31
0.0
  0
LINE
  8
0
  6
CONTINUOUS
 62
               3
  5
195
 10
-426.99999999999989
 20
-296.0875350140069
 30
0.0
 11
-427.00000000000045
 21
-380.58753501400577
 31
0.0
  0
LINE
  8
0
  6
CONTINUOUS
 62
               3
  5
196
 10
-333.99999999999972
 20
-273.08753501400633
 30
0.0
 11
-270.99999999999994
 21
-273.0875350140069
 31
0.0
  0
LINE
  8
0
  6
CONTINUOUS
 62
               3
  5
197
 10
-333.9999999999992
 20
-403.08753501400531
 30
0.0
 11
-274.00000000000125
 21
-403.08753501400599
 31
0.0
  0
LINE
  8
0
  6
CONTINUOUS
 62
               3
  5
198
 10
-333.9999999999992
 20
-380.58753501400531
 30
0.0
 11
-270.00000000000114
 21
-380.58753501400577
 31
0.0
  0
LINE
  8
0
  6
CONTINUOUS
 62
               3
  5
199
 10
-269.99999999999972
 20
-296.0875350140069
 30
0.0
 11
-333.99999999999972
 21
-296.0875350140069
 31
0.0
  0
LINE
  8
0
  6
CONTINUOUS
 62
               3
  5
19A
 10
-288.0000000000004
 20
-418.08753501400508
 30
0.0
 11
-288.0000000000004
 21
-403.08753501400599
 31
0.0
  0
LINE
  8
0
  6
CONTINUOUS
 62
               3
  5
19B
 10
-365.99999999999972
 20
-272.0875350140069
 30
0.0
 11
-365.99999999999972
 21
-404.08753501400497
 31
0.0
  0
LINE
  8
0
  6
CONTINUOUS
 62
               3
  5
19C
 10
-333.9999999999992
 20
-404.08753501400452
 30
0.0
 11
-333.99999999999972
 21
-272.0875350140069
 31
0.0
  0
LINE
  8
0
  6
CONTINUOUS
 62
               3
  5
19D
 10
-366.00000000000028
 20
-272.0875350140069
 30
0.0
 11
-334.00000000000028
 21
-272.0875350140069
 31
0.0
  0
LINE
  8
0
  6
CONTINUOUS
 62
               3
  5
19E
 10
-365.99999999999972
 20
-339.08753501400577
 30
0.0
 11
-333.9999999999992
 21
-339.08753501400577
 31
0.0
  0
LINE
  8
0
  6
CONTINUOUS
 62
               3
  5
19F
 10
-365.99999999999972
 20
-338.08753501400599
 30
0.0
 11
-333.9999999999992
 21
-338.08753501400599
 31
0.0
  0
LINE
  8
0
  6
CONTINUOUS
 62
               3
  5
1A0
 10
-365.99999999999972
 20
-340.08753501400599
 30
0.0
 11
-333.9999999999992
 21
-340.08753501400599
 31
0.0
  0
ARC
  8
0
  6
CONTINUOUS
 62
               3
  5
1A1
 10
-274.00000000000091
 20
-277.0875350140069
 30
0.0
 40
4.0
 50
0.0000000000344079
 51
90.000000000017366
  0
LINE
  8
0
  6
CONTINUOUS
 62
               3
  5
1A2
 10
-270.00000000000091
 20
-277.08753501400452
 30
0.0
 11
-270.00000000000068
 21
-296.0875350140069
 31
0.0
  0
ARC
  8
0
  6
CONTINUOUS
 62
               3
  5
1A3
 10
-274.00000000000119
 20
-399.08753501400599
 30
0.0
 40
4.0
 50
270.00000000004979
 51
360.0000000000328
  0
LINE
  8
0
  6
CONTINUOUS
 62
               3
  5
1A4
 10
-270.00000000000114
 20
-399.08753501400599
 30
0.0
 11
-270.00000000000125
 21
-380.58753501400577
 31
0.0
  0
LINE
  8
0
  6
CONTINUOUS
 62
               3
  5
1A5
 10
-273.00000000000068
 20
-296.0875350140069
 30
0.0
 11
-273.00000000000011
 21
-380.58753501400577
 31
0.0
  0
LINE
  8
0
  6
CONTINUOUS
 62
               3
  5
1A6
 10
287.99999999999943
 20
-418.08753501400508
 30
0.0
 11
287.99999999999943
 21
-403.08753501400599
 31
0.0
  0
LINE
  8
0
  6
CONTINUOUS
 62
               3
  5
1A7
 10
284.9999999999996
 20
-418.08753501400508
 30
0.0
 11
414.9999999999996
 21
-418.08753501400508
 31
0.0
  0
ARC
  8
0
  6
CONTINUOUS
 62
               3
  5
1A8
 10
274.00000000000023
 20
-277.0875350140069
 30
0.0
 40
4.0
 50
89.999999999982236
 51
179.99999999996518
  0
LINE
  8
0
  6
CONTINUOUS
 62
               3
  5
1A9
 10
270.00000000000023
 20
-277.08753501400452
 30
0.0
 11
270.0
 21
-296.0875350140069
 31
0.0
  0
LINE
  8
0
  6
CONTINUOUS
 62
               3
  5
1AA
 10
334.00000000000017
 20
-273.08753501400633
 30
0.0
 11
274.00000000000017
 21
-273.0875350140069
 31
0.0
  0
LINE
  8
0
  6
CONTINUOUS
 62
               3
  5
1AB
 10
334.00000000000017
 20
-404.08753501400497
 30
0.0
 11
366.00000000000068
 21
-404.08753501400452
 31
0.0
  0
ARC
  8
0
  6
CONTINUOUS
 62
               3
  5
1AC
 10
274.00000000000051
 20
-399.08753501400599
 30
0.0
 40
4.0
 50
179.99999999996601
 51
269.99999999994901
  0
LINE
  8
0
  6
CONTINUOUS
 62
               3
  5
1AD
 10
270.00000000000045
 20
-399.08753501400599
 30
0.0
 11
270.00000000000057
 21
-380.58753501400577
 31
0.0
  0
LINE
  8
0
  6
CONTINUOUS
 62
               3
  5
1AE
 10
334.00000000000017
 20
-403.08753501400531
 30
0.0
 11
273.99999999999699
 21
-403.08753501400599
 31
0.0
  0
LINE
  8
0
  6
CONTINUOUS
 62
               3
  5
1AF
 10
334.00000000000017
 20
-380.5875350140052
 30
0.0
 11
270.00000000000045
 21
-380.58753501400577
 31
0.0
  0
LINE
  8
0
  6
CONTINUOUS
 62
               3
  5
1B0
 10
270.0
 20
-296.0875350140069
 30
0.0
 11
334.00000000000017
 21
-296.0875350140069
 31
0.0
  0
LINE
  8
0
  6
CONTINUOUS
 62
               3
  5
1B1
 10
273.0
 20
-296.0875350140069
 30
0.0
 11
272.99999999999943
 21
-380.58753501400577
 31
0.0
  0
LINE
  8
0
  6
CONTINUOUS
 62
               3
  5
1B2
 10
366.00000000000017
 20
-273.08753501400633
 30
0.0
 11
428.99999999999994
 21
-273.0875350140069
 31
0.0
  0
LINE
  8
0
  6
CONTINUOUS
 62
               3
  5
1B3
 10
366.00000000000068
 20
-403.08753501400531
 30
0.0
 11
425.99999999999864
 21
-403.08753501400599
 31
0.0
  0
LINE
  8
0
  6
CONTINUOUS
 62
               3
  5
1B4
 10
366.00000000000068
 20
-380.58753501400531
 30
0.0
 11
429.99999999999875
 21
-380.58753501400577
 31
0.0
  0
LINE
  8
0
  6
CONTINUOUS
 62
               3
  5
1B5
 10
430.00000000000017
 20
-296.0875350140069
 30
0.0
 11
366.00000000000017
 21
-296.0875350140069
 31
0.0
  0
LINE
  8
0
  6
CONTINUOUS
 62
               3
  5
1B6
 10
411.99999999999949
 20
-418.08753501400508
 30
0.0
 11
411.99999999999949
 21
-403.08753501400599
 31
0.0
  0
LINE
  8
0
  6
CONTINUOUS
 62
               3
  5
1B7
 10
334.00000000000017
 20
-272.0875350140069
 30
0.0
 11
334.00000000000017
 21
-404.08753501400497
 31
0.0
  0
LINE
  8
0
  6
CONTINUOUS
 62
               3
  5
1B8
 10
366.00000000000068
 20
-404.08753501400452
 30
0.0
 11
366.00000000000017
 21
-272.0875350140069
 31
0.0
  0
LINE
  8
0
  6
CONTINUOUS
 62
               3
  5
1B9
 10
333.9999999999996
 20
-272.0875350140069
 30
0.0
 11
365.9999999999996
 21
-272.0875350140069
 31
0.0
  0
LINE
  8
0
  6
CONTINUOUS
 62
               3
  5
1BA
 10
334.00000000000017
 20
-339.08753501400577
 30
0.0
 11
366.00000000000068
 21
-339.08753501400577
 31
0.0
  0
LINE
  8
0
  6
CONTINUOUS
 62
               3
  5
1BB
 10
334.00000000000017
 20
-338.08753501400599
 30
0.0
 11
366.00000000000068
 21
-338.08753501400599
 31
0.0
  0
LINE
  8
0
  6
CONTINUOUS
 62
               3
  5
1BC
 10
334.00000000000017
 20
-340.08753501400599
 30
0.0
 11
366.00000000000068
 21
-340.08753501400599
 31
0.0
  0
ARC
  8
0
  6
CONTINUOUS
 62
               3
  5
1BD
 10
425.99999999999898
 20
-277.0875350140069
 30
0.0
 40
4.0
 50
0.0000000000344079
 51
90.000000000017366
  0
LINE
  8
0
  6
CONTINUOUS
 62
               3
  5
1BE
 10
429.99999999999898
 20
-277.08753501400452
 30
0.0
 11
429.9999999999992
 21
-296.0875350140069
 31
0.0
  0
ARC
  8
0
  6
CONTINUOUS
 62
               3
  5
1BF
 10
425.99999999999869
 20
-399.08753501400599
 30
0.0
 40
4.0
 50
270.00000000004979
 51
360.0000000000328
  0
LINE
  8
0
  6
CONTINUOUS
 62
               3
  5
1C0
 10
429.99999999999875
 20
-399.08753501400599
 30
0.0
 11
429.99999999999864
 21
-380.58753501400577
 31
0.0
  0
LINE
  8
0
  6
CONTINUOUS
 62
               3
  5
1C1
 10
426.9999999999992
 20
-296.0875350140069
 30
0.0
 11
426.99999999999977
 21
-380.58753501400577
 31
0.0
  0
LINE
  8
0
  6
CONTINUOUS
 62
               3
  5
1C2
 10
-62.00000000000054
 20
-418.08753501400508
 30
0.0
 11
-62.00000000000054
 21
-403.08753501400599
 31
0.0
  0
LINE
  8
0
  6
CONTINUOUS
 62
               3
  5
1C3
 10
-65.000000000000369
 20
-418.08753501400508
 30
0.0
 11
64.999999999999616
 21
-418.08753501400508
 31
0.0
  0
ARC
  8
0
  6
CONTINUOUS
 62
               3
  5
1C4
 10
-75.999999999999744
 20
-277.0875350140069
 30
0.0
 40
4.0
 50
89.999999999982236
 51
179.99999999996518
  0
ARC
  8
0
  6
CONTINUOUS
 62
               3
  5
1C5
 10
-78.999999999999716
 20
-274.0875350140069
 30
0.0
 40
1.0000000000000004
 50
89.999999999981483
 51
179.99999999996524
  0
ARC
  8
0
  6
CONTINUOUS
 62
               3
  5
1C6
 10
-78.999999999999716
 20
-274.0875350140069
 30
0.0
 40
1.9999999999999996
 50
89.999999999983004
 51
179.99999999996524
  0
LINE
  8
0
  6
CONTINUOUS
 62
               3
  5
1C7
 10
-80.999999999999744
 20
-274.0875350140069
 30
0.0
 11
-81.000000000000313
 21
-337.08753501400577
 31
0.0
  0
LINE
  8
0
  6
CONTINUOUS
 62
               3
  5
1C8
 10
-79.999999999999943
 20
-274.0875350140069
 30
0.0
 11
-80.000000000000512
 21
-337.08753501400577
 31
0.0
  0
ARC
  8
0
  6
CONTINUOUS
 62
               3
  5
1C9
 10
-82.000000000000256
 20
-337.08753501400577
 30
0.0
 40
1.9999999999999996
 50
269.99999999994748
 51
359.99999999993048
  0
ARC
  8
0
  6
CONTINUOUS
 62
               3
  5
1CA
 10
-82.000000000000256
 20
-337.08753501400577
 30
0.0
 40
1.0000000000000004
 50
269.99999999994748
 51
359.99999999993048
  0
LINE
  8
0
  6
CONTINUOUS
 62
               3
  5
1CB
 10
-82.000000000000256
 20
-339.08753501400577
 30
0.0
 11
-145.00000000000037
 21
-339.08753501400622
 31
0.0
  0
LINE
  8
0
  6
CONTINUOUS
 62
               3
  5
1CC
 10
-82.000000000000256
 20
-338.08753501400577
 30
0.0
 11
-145.00000000000037
 21
-338.08753501400622
 31
0.0
  0
LINE
  8
0
  6
CONTINUOUS
 62
               3
  5
1CD
 10
-64.999999999999943
 20
-272.0875350140069
 30
0.0
 11
-78.999999999999716
 21
-272.0875350140069
 31
0.0
  0
LINE
  8
0
  6
CONTINUOUS
 62
               3
  5
1CE
 10
0.000000000000199
 20
-273.08753501400622
 30
0.0
 11
-78.999999999999716
 21
-273.0875350140069
 31
0.0
  0
LINE
  8
0
  6
CONTINUOUS
 62
               3
  5
1CF
 10
-64.999999999999943
 20
-272.0875350140069
 30
0.0
 11
-64.999999999999943
 21
-273.08753501400679
 31
0.0
  0
LINE
  8
0
  6
CONTINUOUS
 62
               3
  5
1D0
 10
-64.999999999999375
 20
-404.08753501400577
 30
0.0
 11
-78.999999999999289
 21
-404.08753501400599
 31
0.0
  0
ARC
  8
0
  6
CONTINUOUS
 62
               3
  5
1D1
 10
-78.999999999999289
 20
-402.08753501400599
 30
0.0
 40
1.0000000000000004
 50
179.99999999996601
 51
269.99999999994748
  0
ARC
  8
0
  6
CONTINUOUS
 62
               3
  5
1D2
 10
-78.999999999999289
 20
-402.08753501400599
 30
0.0
 40
1.9999999999999996
 50
179.99999999996601
 51
269.99999999994901
  0
ARC
  8
0
  6
CONTINUOUS
 62
               3
  5
1D3
 10
-75.99999999999946
 20
-399.08753501400599
 30
0.0
 40
4.0
 50
179.99999999996601
 51
269.99999999994901
  0
LINE
  8
0
  6
CONTINUOUS
 62
               3
  5
1D4
 10
-64.999999999999375
 20
-404.08753501400577
 30
0.0
 11
-64.999999999999375
 21
-403.08753501400599
 31
0.0
  0
LINE
  8
0
  6
CONTINUOUS
 62
               3
  5
1D5
 10
-80.99999999999946
 20
-402.08753501400599
 30
0.0
 11
-81.000000000000313
 21
-341.08753501400577
 31
0.0
  0
LINE
  8
0
  6
CONTINUOUS
 62
               3
  5
1D6
 10
-79.999999999999375
 20
-402.08753501400599
 30
0.0
 11
-80.000000000000369
 21
-341.08753501400577
 31
0.0
  0
LINE
  8
0
  6
CONTINUOUS
 62
               3
  5
1D7
 10
-0.0000000000003695
 20
-403.08753501400508
 30
0.0
 11
-78.999999999999289
 21
-403.08753501400599
 31
0.0
  0
LINE
  8
0
  6
CONTINUOUS
 62
               3
  5
1D8
 10
-0.0000000000003695
 20
-380.58753501400508
 30
0.0
 11
-79.999999999999517
 21
-380.58753501400577
 31
0.0
  0
ARC
  8
0
  6
CONTINUOUS
 62
               3
  5
1D9
 10
-82.000000000000256
 20
-341.08753501400577
 30
0.0
 40
1.9999999999999996
 50
0.000000000001145
 51
89.999999999983004
  0
ARC
  8
0
  6
CONTINUOUS
 62
               3
  5
1DA
 10
-82.000000000000256
 20
-341.08753501400577
 30
0.0
 40
1.0000000000000004
 50
0.0000000000007633
 51
89.999999999984539
  0
LINE
  8
0
  6
CONTINUOUS
 62
               3
  5
1DB
 10
-82.000000000000256
 20
-340.08753501400577
 30
0.0
 11
-145.00000000000037
 21
-340.08753501400622
 31
0.0
  0
LINE
  8
0
  6
CONTINUOUS
 62
               3
  5
1DC
 10
-79.999999999999943
 20
-296.0875350140069
 30
0.0
 11
0.000000000000199
 21
-296.0875350140069
 31
0.0
  0
LINE
  8
0
  6
CONTINUOUS
 62
               3
  5
1DD
 10
-76.999999999999972
 20
-296.0875350140069
 30
0.0
 11
-77.00000000000054
 21
-380.58753501400577
 31
0.0
  0
LINE
  8
0
  6
CONTINUOUS
 62
               3
  5
1DE
 10
-145.00000000000037
 20
-338.08753501400622
 30
0.0
 11
-145.00000000000037
 21
-339.08753501400622
 31
0.0
  0
LINE
  8
0
  6
CONTINUOUS
 62
               3
  5
1DF
 10
-145.00000000000037
 20
-340.08753501400622
 30
0.0
 11
-145.00000000000037
 21
-339.08753501400622
 31
0.0
  0
LINE
  8
0
  6
CONTINUOUS
 62
               3
  5
1E0
 10
-87.250000000000313
 20
-336.58753501400577
 30
0.0
 11
-94.750000000000313
 21
-336.58753501400577
 31
0.0
  0
LINE
  8
0
  6
CONTINUOUS
 62
               3
  5
1E1
 10
-87.250000000000313
 20
-341.58753501400577
 30
0.0
 11
-94.750000000000313
 21
-341.58753501400599
 31
0.0
  0
LINE
  8
0
  6
CONTINUOUS
 62
               3
  5
1E2
 10
-87.250000000000313
 20
-336.58753501400577
 30
0.0
 11
-87.250000000000313
 21
-338.08753501400577
 31
0.0
  0
LINE
  8
0
  6
CONTINUOUS
 62
               3
  5
1E3
 10
-87.250000000000313
 20
-340.08753501400577
 30
0.0
 11
-87.250000000000313
 21
-341.58753501400577
 31
0.0
  0
LINE
  8
0
  6
CONTINUOUS
 62
               3
  5
1E4
 10
-94.750000000000313
 20
-336.58753501400577
 30
0.0
 11
-94.750000000000313
 21
-338.08753501400577
 31
0.0
  0
LINE
  8
0
  6
CONTINUOUS
 62
               3
  5
1E5
 10
-94.750000000000313
 20
-340.08753501400599
 30
0.0
 11
-94.750000000000313
 21
-341.58753501400599
 31
0.0
  0
ARC
  8
0
  6
CONTINUOUS
 62
               3
  5
1E6
 10
76.000000000000014
 20
-277.0875350140069
 30
0.0
 40
4.0
 50
0.0000000000344079
 51
90.000000000017366
  0
ARC
  8
0
  6
CONTINUOUS
 62
               3
  5
1E7
 10
78.999999999999957
 20
-274.0875350140069
 30
0.0
 40
1.0000000000000004
 50
0.000000000034357
 51
90.000000000018133
  0
ARC
  8
0
  6
CONTINUOUS
 62
               3
  5
1E8
 10
78.999999999999957
 20
-274.0875350140069
 30
0.0
 40
1.9999999999999996
 50
0.000000000034357
 51
90.000000000016598
  0
LINE
  8
0
  6
CONTINUOUS
 62
               3
  5
1E9
 10
81.000000000000014
 20
-274.0875350140069
 30
0.0
 11
80.999999999999446
 21
-337.08753501400577
 31
0.0
  0
LINE
  8
0
  6
CONTINUOUS
 62
               3
  5
1EA
 10
80.000000000000185
 20
-274.0875350140069
 30
0.0
 11
79.999999999999616
 21
-337.08753501400577
 31
0.0
  0
ARC
  8
0
  6
CONTINUOUS
 62
               3
  5
1EB
 10
81.999999999999503
 20
-337.08753501400577
 30
0.0
 40
1.9999999999999996
 50
180.0000000000683
 51
270.00000000005133
  0
ARC
  8
0
  6
CONTINUOUS
 62
               3
  5
1EC
 10
81.999999999999503
 20
-337.08753501400577
 30
0.0
 40
1.0000000000000004
 50
180.0000000000683
 51
270.00000000005133
  0
LINE
  8
0
  6
CONTINUOUS
 62
               3
  5
1ED
 10
81.999999999999503
 20
-339.08753501400577
 30
0.0
 11
144.9999999999996
 21
-339.08753501400622
 31
0.0
  0
LINE
  8
0
  6
CONTINUOUS
 62
               3
  5
1EE
 10
81.999999999999503
 20
-338.08753501400577
 30
0.0
 11
144.9999999999996
 21
-338.08753501400622
 31
0.0
  0
LINE
  8
0
  6
CONTINUOUS
 62
               3
  5
1EF
 10
65.000000000000185
 20
-272.0875350140069
 30
0.0
 11
78.999999999999957
 21
-272.0875350140069
 31
0.0
  0
LINE
  8
0
  6
CONTINUOUS
 62
               3
  5
1F0
 10
0.000000000000199
 20
-273.08753501400622
 30
0.0
 11
78.999999999999957
 21
-273.0875350140069
 31
0.0
  0
LINE
  8
0
  6
CONTINUOUS
 62
               3
  5
1F1
 10
65.000000000000185
 20
-272.0875350140069
 30
0.0
 11
65.000000000000185
 21
-273.08753501400679
 31
0.0
  0
LINE
  8
0
  6
CONTINUOUS
 62
               3
  5
1F2
 10
64.999999999998479
 20
-404.08753501400577
 30
0.0
 11
78.999999999998536
 21
-404.08753501400599
 31
0.0
  0
ARC
  8
0
  6
CONTINUOUS
 62
               3
  5
1F3
 10
78.999999999998536
 20
-402.08753501400599
 30
0.0
 40
1.0000000000000004
 50
270.00000000005133
 51
360.0000000000328
  0
ARC
  8
0
  6
CONTINUOUS
 62
               3
  5
1F4
 10
78.999999999998536
 20
-402.08753501400599
 30
0.0
 40
1.9999999999999996
 50
270.00000000004979
 51
360.0000000000328
  0
ARC
  8
0
  6
CONTINUOUS
 62
               3
  5
1F5
 10
75.999999999998593
 20
-399.08753501400599
 30
0.0
 40
4.0
 50
270.00000000004979
 51
360.0000000000328
  0
LINE
  8
0
  6
CONTINUOUS
 62
               3
  5
1F6
 10
64.999999999998479
 20
-404.08753501400577
 30
0.0
 11
64.999999999998479
 21
-403.08753501400599
 31
0.0
  0
LINE
  8
0
  6
CONTINUOUS
 62
               3
  5
1F7
 10
80.999999999998423
 20
-402.08753501400599
 30
0.0
 11
80.999999999999446
 21
-341.08753501400577
 31
0.0
  0
LINE
  8
0
  6
CONTINUOUS
 62
               3
  5
1F8
 10
79.999999999998479
 20
-402.08753501400599
 30
0.0
 11
79.999999999999503
 21
-341.08753501400577
 31
0.0
  0
LINE
  8
0
  6
CONTINUOUS
 62
               3
  5
1F9
 10
-0.0000000000003695
 20
-403.08753501400508
 30
0.0
 11
78.999999999998536
 21
-403.08753501400599
 31
0.0
  0
LINE
  8
0
  6
CONTINUOUS
 62
               3
  5
1FA
 10
-0.0000000000003695
 20
-380.58753501400508
 30
0.0
 11
79.999999999998764
 21
-380.58753501400577
 31
0.0
  0
ARC
  8
0
  6
CONTINUOUS
 62
               3
  5
1FB
 10
81.999999999999503
 20
-341.08753501400577
 30
0.0
 40
1.9999999999999996
 50
90.000000000016598
 51
179.99999999999847
  0
ARC
  8
0
  6
CONTINUOUS
 62
               3
  5
1FC
 10
81.999999999999503
 20
-341.08753501400577
 30
0.0
 40
1.0000000000000004
 50
90.000000000015078
 51
179.99999999999883
  0
LINE
  8
0
  6
CONTINUOUS
 62
               3
  5
1FD
 10
81.999999999999503
 20
-340.08753501400577
 30
0.0
 11
144.9999999999996
 21
-340.08753501400622
 31
0.0
  0
LINE
  8
0
  6
CONTINUOUS
 62
               3
  5
1FE
 10
80.000000000000185
 20
-296.0875350140069
 30
0.0
 11
0.000000000000199
 21
-296.0875350140069
 31
0.0
  0
LINE
  8
0
  6
CONTINUOUS
 62
               3
  5
1FF
 10
77.000000000000071
 20
-296.0875350140069
 30
0.0
 11
76.999999999999503
 21
-380.58753501400577
 31
0.0
  0
LINE
  8
0
  6
CONTINUOUS
 62
               3
  5
200
 10
144.9999999999996
 20
-338.08753501400622
 30
0.0
 11
144.9999999999996
 21
-339.08753501400622
 31
0.0
  0
LINE
  8
0
  6
CONTINUOUS
 62
               3
  5
201
 10
144.9999999999996
 20
-340.08753501400622
 30
0.0
 11
144.9999999999996
 21
-339.08753501400622
 31
0.0
  0
LINE
  8
0
  6
CONTINUOUS
 62
               3
  5
202
 10
87.249999999999446
 20
-336.58753501400577
 30
0.0
 11
94.749999999999446
 21
-336.58753501400577
 31
0.0
  0
LINE
  8
0
  6
CONTINUOUS
 62
               3
  5
203
 10
87.249999999999446
 20
-341.58753501400577
 30
0.0
 11
94.749999999999446
 21
-341.58753501400599
 31
0.0
  0
LINE
  8
0
  6
CONTINUOUS
 62
               3
  5
204
 10
87.249999999999446
 20
-336.58753501400577
 30
0.0
 11
87.249999999999446
 21
-338.08753501400577
 31
0.0
  0
LINE
  8
0
  6
CONTINUOUS
 62
               3
  5
205
 10
87.249999999999446
 20
-340.08753501400577
 30
0.0
 11
87.249999999999446
 21
-341.58753501400577
 31
0.0
  0
LINE
  8
0
  6
CONTINUOUS
 62
               3
  5
206
 10
94.749999999999446
 20
-336.58753501400577
 30
0.0
 11
94.749999999999446
 21
-338.08753501400577
 31
0.0
  0
LINE
  8
0
  6
CONTINUOUS
 62
               3
  5
207
 10
94.749999999999446
 20
-340.08753501400599
 30
0.0
 11
94.749999999999446
 21
-341.58753501400599
 31
0.0
  0
LINE
  8
0
  6
CONTINUOUS
 62
               3
  5
208
 10
61.999999999999517
 20
-418.08753501400508
 30
0.0
 11
61.999999999999517
 21
-403.08753501400599
 31
0.0
  0
LINE
  8
0
  6
DASHDOT
 62
               4
  5
209
 10
0.0000000000000995
 20
408.5
 30
0.0
 11
0.0000000000000995
 21
191.5
 31
0.0
  0
LINE
  8
0
  6
DASHDOT
 62
               4
  5
20A
 10
-112.21774057569554
 20
300.0
 30
0.0
 11
108.50000000000031
 21
300.0
 31
0.0
  0
LINE
  8
0
  6
DASHDOT
 62
               4
  5
20B
 10
-0.0000000000003675
 20
151.08753501400477
 30
0.0
 11
-0.0000000000003241
 21
-557.98063961765604
 31
0.0
  0
LINE
  8
0
  6
DASHDOT
 62
               4
  5
20C
 10
-350.00000000000028
 20
151.08753501400477
 30
0.0
 11
-350.00000000000011
 21
-557.98063961765604
 31
0.0
  0
LINE
  8
0
  6
DASHDOT
 62
               4
  5
20D
 10
349.9999999999996
 20
151.08753501400477
 30
0.0
 11
349.99999999999966
 21
-557.98063961765604
 31
0.0
  0
LINE
  8
0
  6
DASHDOT
 62
               4
  5
20E
 10
-125.00000000000037
 20
-217.09743301600088
 30
0.0
 11
-125.00000000000037
 21
-381.4757946354913
 31
0.0
  0
LINE
  8
0
  6
DASHDOT
 62
               4
  5
20F
 10
124.99999999999962
 20
-217.09743301600088
 30
0.0
 11
124.99999999999962
 21
-381.4757946354913
 31
0.0
  0
LINE
  8
0
  6
CONTINUOUS
 62
               4
  5
210
 10
58.141132586505556
 20
-129.8720440702061
 30
0.0
 11
-65.512000000000882
 21
-26.114746122953221
 31
0.0
  0
ARC
  8
0
  6
CONTINUOUS
 62
               4
  5
211
 10
-914.2723201005399
 20
-1170.6731632499018
 30
0.0
 40
1424.9238755783815
 50
50.189956146266432
 51
53.440796050731763
  0
ARC
  8
0
  6
CONTINUOUS
 62
               4
  5
212
 10
63.579388837032603
 20
-5.3148760991601591
 30
0.0
 40
130.75634311527989
 50
189.15312334030369
 51
212.76918311275256
  0
ARC
  8
0
  6
CONTINUOUS
 62
               4
  5
213
 10
61.364025499550699
 20
4.8191446520801549
 30
0.0
 40
134.72974192119386
 50
216.90649751133719
 51
268.62928723410664
  0
ARC
  8
0
  6
CONTINUOUS
 62
               4
  5
214
 10
-733.63034809850865
 20
-954.33420592501511
 30
0.0
 40
1143.0835201141012
 50
46.158732653425403
 51
50.202696616656226
  0
ARC
  8
0
  6
CONTINUOUS
 62
               4
  5
215
 10
-628.92922884912514
 20
-197.7599334254644
 30
0.0
 40
359.11818398045398
 50
13.306177675730206
 51
28.552443501618434
  0
ARC
  8
0
  6
CONTINUOUS
 62
               4
  5
216
 10
-350.33118646999441
 20
-89.513257522895174
 30
0.0
 40
73.327111796148202
 50
342.62945642130711
 51
419.8368916056188
  0
LINE
  8
0
  6
CONTINUOUS
 62
               4
  5
217
 10
358.21699999999925
 20
-76.087535014006306
 30
0.0
 11
341.78299999999939
 21
-76.087535014006306
 31
0.0
  0
ARC
  8
0
  6
CONTINUOUS
 62
               4
  5
218
 10
335.02192705347187
 20
-80.384784667587923
 30
0.0
 40
59.149634972654262
 50
186.49999999999955
 51
236.78754046668743
  0
ARC
  8
0
  6
CONTINUOUS
 62
               4
  5
219
 10
355.92691953069351
 20
-68.535767568836292
 30
0.0
 40
81.261593956721953
 50
186.49999999999955
 51
229.00792456454158
  0
ARC
  8
0
  6
CONTINUOUS
 62
               4
  5
21A
 10
210.68129117650432
 20
-152.87328639353095
 30
0.0
 40
204.24864340422488
 50
353.49999999999915
 51
373.43680216747674
  0
ARC
  8
0
  6
CONTINUOUS
 62
               4
  5
21B
 10
248.37230094456532
 20
-150.58886932412324
 30
0.0
 40
167.18634723772169
 50
351.25933879893398
 51
375.67746336854231
  0
LINE
  8
0
  6
CONTINUOUS
 62
               4
  5
21C
 10
-57.000000000000369
 20
-237.58753501400619
 30
0.0
 11
56.999999999999623
 21
-237.58753501400619
 31
0.0
  0
LINE
  8
0
  6
CONTINUOUS
 62
               4
  5
21D
 10
-58.000000000000767
 20
-236.58753501400579
 30
0.0
 11
57.999999999999176
 21
-236.58753501400534
 31
0.0
  0
LINE
  8
0
  6
CONTINUOUS
 62
               4
  5
21E
 10
-407.00000000000034
 20
-237.58753501400616
 30
0.0
 11
-293.00000000000034
 21
-237.58753501400616
 31
0.0
  0
LINE
  8
0
  6
CONTINUOUS
 62
               4
  5
21F
 10
-408.00000000000068
 20
-236.58753501400577
 30
0.0
 11
-292.0000000000008
 21
-236.58753501400531
 31
0.0
  0
LINE
  8
0
  6
CONTINUOUS
 62
               4
  5
220
 10
292.99999999999955
 20
-237.58753501400616
 30
0.0
 11
406.99999999999955
 21
-237.58753501400616
 31
0.0
  0
LINE
  8
0
  6
CONTINUOUS
 62
               4
  5
221
 10
291.9999999999992
 20
-236.58753501400577
 30
0.0
 11
407.99999999999909
 21
-236.58753501400531
 31
0.0
  0
LINE
  8
0
  6
CONTINUOUS
 62
               4
  5
222
 10
-415.50000000000125
 20
-443.08753501400508
 30
0.0
 11
-284.49999999999932
 21
-443.08753501400508
 31
0.0
  0
LINE
  8
0
  6
CONTINUOUS
 62
               4
  5
223
 10
284.49999999999864
 20
-443.08753501400508
 30
0.0
 11
415.50000000000057
 21
-443.08753501400508
 31
0.0
  0
LINE
  8
0
  6
CONTINUOUS
 62
               4
  5
224
 10
-91.000000000000313
 20
-343.83275680132863
 30
0.0
 11
-91.000000000000313
 21
-333.95847059427285
 31
0.0
  0
LINE
  8
0
  6
CONTINUOUS
 62
               4
  5
225
 10
90.999999999999446
 20
-343.83275680132863
 30
0.0
 11
90.999999999999446
 21
-333.95847059427285
 31
0.0
  0
LINE
  8
0
  6
CONTINUOUS
 62
               4
  5
226
 10
-65.500000000001336
 20
-443.08753501400508
 30
0.0
 11
65.500000000000583
 21
-443.08753501400508
 31
0.0
  0
LINE
  8
0
  6
DASHED2
 62
               4
  5
227
 10
-57.000000000000263
 20
41.912464985993751
 30
0.0
 11
56.99999999999951
 21
41.912464985993751
 31
0.0
  0
LINE
  8
0
  6
DASHED2
 62
               4
  5
228
 10
-407.00000000000023
 20
41.912464985993751
 30
0.0
 11
-293.00000000000045
 21
41.912464985993751
 31
0.0
  0
LINE
  8
0
  6
DASHED2
 62
               4
  5
229
 10
292.99999999999966
 20
41.912464985993751
 30
0.0
 11
406.99999999999943
 21
41.912464985993751
 31
0.0
  0
LINE
  8
0
  6
DASHED2
 62
               4
  5
22A
 10
-406.99999999999932
 20
-273.08753501400577
 30
0.0
 11
-406.99999999999932
 21
-338.08753501400622
 31
0.0
  0
LINE
  8
0
  6
DASHED2
 62
               4
  5
22B
 10
-407.50000000000267
 20
-353.08753501400736
 30
0.0
 11
-407.50000000000267
 21
-418.08753501400508
 31
0.0
  0
LINE
  8
0
  6
DASHED2
 62
               4
  5
22C
 10
-349.99999999999972
 20
-338.08753501400622
 30
0.0
 11
-406.99999999999989
 21
-338.08753501400622
 31
0.0
  0
LINE
  8
0
  6
DASHED2
 62
               4
  5
22D
 10
-407.50000000000267
 20
-353.08753501400736
 30
0.0
 11
-350.00000000000085
 21
-353.08753501400622
 31
0.0
  0
LINE
  8
0
  6
DASHED2
 62
               4
  5
22E
 10
-293.00000000000011
 20
-273.08753501400679
 30
0.0
 11
-293.00000000000011
 21
-338.08753501400622
 31
0.0
  0
LINE
  8
0
  6
DASHED2
 62
               4
  5
22F
 10
-349.99999999999972
 20
-338.08753501400622
 30
0.0
 11
-292.99999999999983
 21
-338.08753501400622
 31
0.0
  0
LINE
  8
0
  6
DASHED2
 62
               4
  5
230
 10
-292.49999999999801
 20
-353.08753501400736
 30
0.0
 11
-349.99999999999972
 21
-353.08753501400622
 31
0.0
  0
LINE
  8
0
  6
DASHED2
 62
               4
  5
231
 10
-292.49999999999801
 20
-353.08753501400736
 30
0.0
 11
-292.49999999999801
 21
-418.08753501400508
 31
0.0
  0
LINE
  8
0
  6
DASHED2
 62
               4
  5
232
 10
-361.7600000000005
 20
-338.08753501400622
 30
0.0
 11
-361.7600000000005
 21
-329.561406514699
 31
0.0
  0
LINE
  8
0
  6
DASHED2
 62
               4
  5
233
 10
-355.87102725426604
 20
-329.561406514699
 30
0.0
 11
-355.87102725426604
 21
-338.08753501400622
 31
0.0
  0
LINE
  8
0
  6
DASHED2
 62
               4
  5
234
 10
-358.81551362713316
 20
-328.48753501400608
 30
0.0
 11
-341.18448637286718
 21
-328.48753501400608
 31
0.0
  0
LINE
  8
0
  6
DASHED2
 62
               4
  5
235
 10
-338.24000000000018
 20
-338.08753501400622
 30
0.0
 11
-338.24000000000018
 21
-329.561406514699
 31
0.0
  0
LINE
  8
0
  6
DASHED2
 62
               4
  5
236
 10
-344.12897274573487
 20
-338.08753501400622
 30
0.0
 11
-344.12897274573487
 21
-329.561406514699
 31
0.0
  0
ARC
  8
0
  6
DASHED2
 62
               4
  5
237
 10
-358.81551362713316
 20
-333.06126659812207
 30
0.0
 40
4.5737315841157447
 50
49.925579661612304
 51
130.07442033835341
  0
ARC
  8
0
  6
DASHED2
 62
               4
  5
238
 10
-341.18448637286718
 20
-333.06126659812207
 30
0.0
 40
4.5737315841157686
 50
49.925579661612304
 51
130.07442033835341
  0
ARC
  8
0
  6
DASHED2
 62
               4
  5
239
 10
-350.00000000000028
 20
-345.07339328352657
 30
0.0
 40
16.58585826952007
 50
69.269184858547646
 51
110.73081514141818
  0
LINE
  8
0
  6
DASHED2
 62
               4
  5
23A
 10
-361.76000000000187
 20
-340.08753501400656
 30
0.0
 11
-361.76000000000187
 21
-348.61366351331378
 31
0.0
  0
LINE
  8
0
  6
DASHED2
 62
               4
  5
23B
 10
-355.87102725426752
 20
-348.61366351331378
 30
0.0
 11
-355.87102725426752
 21
-340.08753501400656
 31
0.0
  0
LINE
  8
0
  6
DASHED2
 62
               4
  5
23C
 10
-358.81551362713452
 20
-349.68753501400636
 30
0.0
 11
-341.18448637286889
 21
-349.68753501400636
 31
0.0
  0
LINE
  8
0
  6
DASHED2
 62
               4
  5
23D
 10
-338.24000000000154
 20
-340.08753501400656
 30
0.0
 11
-338.24000000000154
 21
-348.61366351331378
 31
0.0
  0
LINE
  8
0
  6
DASHED2
 62
               4
  5
23E
 10
-344.12897274573601
 20
-340.08753501400656
 30
0.0
 11
-344.12897274573601
 21
-348.61366351331378
 31
0.0
  0
ARC
  8
0
  6
DASHED2
 62
               4
  5
23F
 10
-358.81551362713452
 20
-345.11380342989094
 30
0.0
 40
4.5737315841157447
 50
229.92557966157796
 51
310.07442033831961
  0
ARC
  8
0
  6
DASHED2
 62
               4
  5
240
 10
-341.18448637286889
 20
-345.11380342989094
 30
0.0
 40
4.5737315841157686
 50
229.92557966157852
 51
310.07442033831961
  0
ARC
  8
0
  6
DASHED2
 62
               4
  5
241
 10
-350.00000000000176
 20
-333.10167674448644
 30
0.0
 40
16.58585826952007
 50
249.26918485851303
 51
290.73081514138352
  0
LINE
  8
0
  6
DASHED2
 62
               4
  5
242
 10
-356.00000000000028
 20
-349.68753501400636
 30
0.0
 11
-356.00000000000028
 21
-360.20690125633098
 31
0.0
  0
LINE
  8
0
  6
DASHED2
 62
               4
  5
243
 10
-344.0000000000004
 20
-349.68753501400636
 30
0.0
 11
-344.0000000000004
 21
-360.20690125633098
 31
0.0
  0
LINE
  8
0
  6
DASHED2
 62
               4
  5
244
 10
-354.80000000000047
 20
-361.40690125633137
 30
0.0
 11
-345.20000000000044
 21
-361.40690125633137
 31
0.0
  0
LINE
  8
0
  6
DASHED2
 62
               4
  5
245
 10
-356.00000000000028
 20
-360.20690125633098
 30
0.0
 11
-354.80000000000047
 21
-361.40690125633137
 31
0.0
  0
LINE
  8
0
  6
DASHED2
 62
               4
  5
246
 10
-344.0000000000004
 20
-360.20690125633098
 30
0.0
 11
-345.20000000000044
 21
-361.40690125633137
 31
0.0
  0
LINE
  8
0
  6
DASHED2
 62
               4
  5
247
 10
-361.7600000000005
 20
-338.08753501400622
 30
0.0
 11
-338.24000000000018
 21
-338.08753501400622
 31
0.0
  0
LINE
  8
0
  6
DASHED2
 62
               4
  5
248
 10
-338.24000000000154
 20
-340.08753501400656
 30
0.0
 11
-361.76000000000187
 21
-340.08753501400656
 31
0.0
  0
LINE
  8
0
  6
DASHED2
 62
               4
  5
249
 10
-356.00000000000028
 20
-223.02395553807742
 30
0.0
 11
-356.00000000000028
 21
-328.48753501400608
 31
0.0
  0
LINE
  8
0
  6
DASHED2
 62
               4
  5
24A
 10
-344.0000000000004
 20
-223.02395553807742
 30
0.0
 11
-344.0000000000004
 21
-328.48753501400608
 31
0.0
  0
LINE
  8
0
  6
DASHED2
 62
               4
  5
24B
 10
-344.0000000000004
 20
-223.02395553807742
 30
0.0
 11
-356.00000000000028
 21
-223.02395553807742
 31
0.0
  0
LINE
  8
0
  6
DASHED2
 62
               4
  5
24C
 10
293.00000000000057
 20
-273.08753501400577
 30
0.0
 11
293.00000000000057
 21
-338.08753501400622
 31
0.0
  0
LINE
  8
0
  6
DASHED2
 62
               4
  5
24D
 10
292.49999999999721
 20
-353.08753501400736
 30
0.0
 11
292.49999999999721
 21
-418.08753501400508
 31
0.0
  0
LINE
  8
0
  6
DASHED2
 62
               4
  5
24E
 10
350.00000000000017
 20
-338.08753501400622
 30
0.0
 11
293.0
 21
-338.08753501400622
 31
0.0
  0
LINE
  8
0
  6
DASHED2
 62
               4
  5
24F
 10
292.49999999999721
 20
-353.08753501400736
 30
0.0
 11
349.99999999999903
 21
-353.08753501400622
 31
0.0
  0
LINE
  8
0
  6
DASHED2
 62
               4
  5
250
 10
406.99999999999977
 20
-273.08753501400679
 30
0.0
 11
406.99999999999977
 21
-338.08753501400622
 31
0.0
  0
LINE
  8
0
  6
DASHED2
 62
               4
  5
251
 10
350.00000000000017
 20
-338.08753501400622
 30
0.0
 11
407.00000000000006
 21
-338.08753501400622
 31
0.0
  0
LINE
  8
0
  6
DASHED2
 62
               4
  5
252
 10
407.50000000000188
 20
-353.08753501400736
 30
0.0
 11
350.00000000000017
 21
-353.08753501400622
 31
0.0
  0
LINE
  8
0
  6
DASHED2
 62
               4
  5
253
 10
407.50000000000188
 20
-353.08753501400736
 30
0.0
 11
407.50000000000188
 21
-418.08753501400508
 31
0.0
  0
LINE
  8
0
  6
DASHED2
 62
               4
  5
254
 10
338.23999999999938
 20
-338.08753501400622
 30
0.0
 11
338.23999999999938
 21
-329.561406514699
 31
0.0
  0
LINE
  8
0
  6
DASHED2
 62
               4
  5
255
 10
344.12897274573385
 20
-329.561406514699
 30
0.0
 11
344.12897274573385
 21
-338.08753501400622
 31
0.0
  0
LINE
  8
0
  6
DASHED2
 62
               4
  5
256
 10
341.18448637286673
 20
-328.48753501400608
 30
0.0
 11
358.8155136271327
 21
-328.48753501400608
 31
0.0
  0
LINE
  8
0
  6
DASHED2
 62
               4
  5
257
 10
361.75999999999971
 20
-338.08753501400622
 30
0.0
 11
361.75999999999971
 21
-329.561406514699
 31
0.0
  0
LINE
  8
0
  6
DASHED2
 62
               4
  5
258
 10
355.87102725426502
 20
-338.08753501400622
 30
0.0
 11
355.87102725426502
 21
-329.561406514699
 31
0.0
  0
ARC
  8
0
  6
DASHED2
 62
               4
  5
259
 10
341.18448637286673
 20
-333.06126659812207
 30
0.0
 40
4.5737315841157447
 50
49.925579661612304
 51
130.07442033835341
  0
ARC
  8
0
  6
DASHED2
 62
               4
  5
25A
 10
358.8155136271327
 20
-333.06126659812207
 30
0.0
 40
4.5737315841157686
 50
49.925579661612304
 51
130.07442033835341
  0
ARC
  8
0
  6
DASHED2
 62
               4
  5
25B
 10
349.9999999999996
 20
-345.07339328352657
 30
0.0
 40
16.58585826952007
 50
69.269184858547646
 51
110.73081514141818
  0
LINE
  8
0
  6
DASHED2
 62
               4
  5
25C
 10
338.23999999999802
 20
-340.08753501400656
 30
0.0
 11
338.23999999999802
 21
-348.61366351331378
 31
0.0
  0
LINE
  8
0
  6
DASHED2
 62
               4
  5
25D
 10
344.12897274573237
 20
-348.61366351331378
 30
0.0
 11
344.12897274573237
 21
-340.08753501400656
 31
0.0
  0
LINE
  8
0
  6
DASHED2
 62
               4
  5
25E
 10
341.18448637286536
 20
-349.68753501400636
 30
0.0
 11
358.815513627131
 21
-349.68753501400636
 31
0.0
  0
LINE
  8
0
  6
DASHED2
 62
               4
  5
25F
 10
361.75999999999834
 20
-340.08753501400656
 30
0.0
 11
361.75999999999834
 21
-348.61366351331378
 31
0.0
  0
LINE
  8
0
  6
DASHED2
 62
               4
  5
260
 10
355.87102725426388
 20
-340.08753501400656
 30
0.0
 11
355.87102725426388
 21
-348.61366351331378
 31
0.0
  0
ARC
  8
0
  6
DASHED2
 62
               4
  5
261
 10
341.18448637286536
 20
-345.11380342989094
 30
0.0
 40
4.5737315841157447
 50
229.92557966157796
 51
310.07442033831961
  0
ARC
  8
0
  6
DASHED2
 62
               4
  5
262
 10
358.815513627131
 20
-345.11380342989094
 30
0.0
 40
4.5737315841157686
 50
229.92557966157852
 51
310.07442033831961
  0
ARC
  8
0
  6
DASHED2
 62
               4
  5
263
 10
349.99999999999812
 20
-333.10167674448644
 30
0.0
 40
16.58585826952007
 50
249.26918485851303
 51
290.73081514138352
  0
LINE
  8
0
  6
DASHED2
 62
               4
  5
264
 10
343.9999999999996
 20
-349.68753501400636
 30
0.0
 11
343.9999999999996
 21
-360.20690125633098
 31
0.0
  0
LINE
  8
0
  6
DASHED2
 62
               4
  5
265
 10
355.99999999999949
 20
-349.68753501400636
 30
0.0
 11
355.99999999999949
 21
-360.20690125633098
 31
0.0
  0
LINE
  8
0
  6
DASHED2
 62
               4
  5
266
 10
345.19999999999942
 20
-361.40690125633137
 30
0.0
 11
354.79999999999944
 21
-361.40690125633137
 31
0.0
  0
LINE
  8
0
  6
DASHED2
 62
               4
  5
267
 10
343.9999999999996
 20
-360.20690125633098
 30
0.0
 11
345.19999999999942
 21
-361.40690125633137
 31
0.0
  0
LINE
  8
0
  6
DASHED2
 62
               4
  5
268
 10
355.99999999999949
 20
-360.20690125633098
 30
0.0
 11
354.79999999999944
 21
-361.40690125633137
 31
0.0
  0
LINE
  8
0
  6
DASHED2
 62
               4
  5
269
 10
338.23999999999938
 20
-338.08753501400622
 30
0.0
 11
361.75999999999971
 21
-338.08753501400622
 31
0.0
  0
LINE
  8
0
  6
DASHED2
 62
               4
  5
26A
 10
361.75999999999834
 20
-340.08753501400656
 30
0.0
 11
338.23999999999802
 21
-340.08753501400656
 31
0.0
  0
LINE
  8
0
  6
DASHED2
 62
               4
  5
26B
 10
343.9999999999996
 20
-223.02395553807742
 30
0.0
 11
343.9999999999996
 21
-328.48753501400608
 31
0.0
  0
LINE
  8
0
  6
DASHED2
 62
               4
  5
26C
 10
355.99999999999949
 20
-223.02395553807742
 30
0.0
 11
355.99999999999949
 21
-328.48753501400608
 31
0.0
  0
LINE
  8
0
  6
DASHED2
 62
               4
  5
26D
 10
355.99999999999949
 20
-223.02395553807742
 30
0.0
 11
343.9999999999996
 21
-223.02395553807742
 31
0.0
  0
LINE
  8
0
  6
DASHED2
 62
               4
  5
26E
 10
-56.999999999999403
 20
-273.08753501400577
 30
0.0
 11
-56.999999999999403
 21
-338.08753501400622
 31
0.0
  0
LINE
  8
0
  6
DASHED2
 62
               4
  5
26F
 10
-57.500000000002785
 20
-353.08753501400736
 30
0.0
 11
-57.500000000002785
 21
-418.08753501400508
 31
0.0
  0
LINE
  8
0
  6
DASHED2
 62
               4
  5
270
 10
0.000000000000199
 20
-338.08753501400622
 30
0.0
 11
-56.999999999999972
 21
-338.08753501400622
 31
0.0
  0
LINE
  8
0
  6
DASHED2
 62
               4
  5
271
 10
-57.500000000002785
 20
-353.08753501400736
 30
0.0
 11
-0.0000000000009379
 21
-353.08753501400622
 31
0.0
  0
LINE
  8
0
  6
DASHED2
 62
               4
  5
272
 10
56.999999999999801
 20
-273.08753501400679
 30
0.0
 11
56.999999999999801
 21
-338.08753501400622
 31
0.0
  0
LINE
  8
0
  6
DASHED2
 62
               4
  5
273
 10
0.000000000000199
 20
-338.08753501400622
 30
0.0
 11
57.000000000000085
 21
-338.08753501400622
 31
0.0
  0
LINE
  8
0
  6
DASHED2
 62
               4
  5
274
 10
57.500000000001904
 20
-353.08753501400736
 30
0.0
 11
0.000000000000199
 21
-353.08753501400622
 31
0.0
  0
LINE
  8
0
  6
DASHED2
 62
               4
  5
275
 10
57.500000000001904
 20
-353.08753501400736
 30
0.0
 11
57.500000000001904
 21
-418.08753501400508
 31
0.0
  0
LINE
  8
0
  6
DASHED2
 62
               4
  5
276
 10
-136.76000000000053
 20
-338.08753501400577
 30
0.0
 11
-136.76000000000053
 21
-329.56140651469855
 31
0.0
  0
LINE
  8
0
  6
DASHED2
 62
               4
  5
277
 10
-130.87102725426612
 20
-329.56140651469855
 30
0.0
 11
-130.87102725426612
 21
-338.08753501400577
 31
0.0
  0
LINE
  8
0
  6
DASHED2
 62
               4
  5
278
 10
-133.81551362713319
 20
-328.48753501400563
 30
0.0
 11
-116.18448637286727
 21
-328.48753501400563
 31
0.0
  0
LINE
  8
0
  6
DASHED2
 62
               4
  5
279
 10
-113.24000000000021
 20
-338.08753501400577
 30
0.0
 11
-113.24000000000021
 21
-329.56140651469855
 31
0.0
  0
LINE
  8
0
  6
DASHED2
 62
               4
  5
27A
 10
-119.1289727457349
 20
-338.08753501400577
 30
0.0
 11
-119.1289727457349
 21
-329.56140651469855
 31
0.0
  0
ARC
  8
0
  6
DASHED2
 62
               4
  5
27B
 10
-133.81551362713319
 20
-333.06126659812162
 30
0.0
 40
4.5737315841157447
 50
49.925579661612304
 51
130.07442033835341
  0
ARC
  8
0
  6
DASHED2
 62
               4
  5
27C
 10
-116.18448637286727
 20
-333.06126659812162
 30
0.0
 40
4.5737315841157686
 50
49.925579661612304
 51
130.07442033835341
  0
ARC
  8
0
  6
DASHED2
 62
               4
  5
27D
 10
-125.00000000000037
 20
-345.07339328352612
 30
0.0
 40
16.58585826952007
 50
69.269184858547646
 51
110.73081514141818
  0
LINE
  8
0
  6
DASHED2
 62
               4
  5
27E
 10
-136.76000000000195
 20
-340.08753501400611
 30
0.0
 11
-136.76000000000195
 21
-348.61366351331333
 31
0.0
  0
LINE
  8
0
  6
DASHED2
 62
               4
  5
27F
 10
-130.87102725426755
 20
-348.61366351331333
 30
0.0
 11
-130.87102725426755
 21
-340.08753501400611
 31
0.0
  0
LINE
  8
0
  6
DASHED2
 62
               4
  5
280
 10
-133.81551362713461
 20
-349.6875350140059
 30
0.0
 11
-116.18448637286897
 21
-349.6875350140059
 31
0.0
  0
LINE
  8
0
  6
DASHED2
 62
               4
  5
281
 10
-113.24000000000163
 20
-340.08753501400611
 30
0.0
 11
-113.24000000000163
 21
-348.61366351331333
 31
0.0
  0
LINE
  8
0
  6
DASHED2
 62
               4
  5
282
 10
-119.12897274573604
 20
-340.08753501400611
 30
0.0
 11
-119.12897274573604
 21
-348.61366351331333
 31
0.0
  0
ARC
  8
0
  6
DASHED2
 62
               4
  5
283
 10
-133.81551362713461
 20
-345.11380342989048
 30
0.0
 40
4.5737315841157447
 50
229.92557966157796
 51
310.07442033831961
  0
ARC
  8
0
  6
DASHED2
 62
               4
  5
284
 10
-116.18448637286897
 20
-345.11380342989048
 30
0.0
 40
4.5737315841157686
 50
229.92557966157852
 51
310.07442033831961
  0
ARC
  8
0
  6
DASHED2
 62
               4
  5
285
 10
-125.00000000000179
 20
-333.10167674448599
 30
0.0
 40
16.58585826952007
 50
249.26918485851303
 51
290.73081514138352
  0
LINE
  8
0
  6
DASHED2
 62
               4
  5
286
 10
-131.00000000000031
 20
-349.6875350140059
 30
0.0
 11
-131.00000000000031
 21
-360.20690125633053
 31
0.0
  0
LINE
  8
0
  6
DASHED2
 62
               4
  5
287
 10
-119.00000000000043
 20
-349.6875350140059
 30
0.0
 11
-119.00000000000043
 21
-360.20690125633053
 31
0.0
  0
LINE
  8
0
  6
DASHED2
 62
               4
  5
288
 10
-129.80000000000055
 20
-361.40690125633091
 30
0.0
 11
-120.20000000000047
 21
-361.40690125633091
 31
0.0
  0
LINE
  8
0
  6
DASHED2
 62
               4
  5
289
 10
-131.00000000000031
 20
-360.20690125633053
 30
0.0
 11
-129.80000000000055
 21
-361.40690125633091
 31
0.0
  0
LINE
  8
0
  6
DASHED2
 62
               4
  5
28A
 10
-119.00000000000043
 20
-360.20690125633053
 30
0.0
 11
-120.20000000000047
 21
-361.40690125633091
 31
0.0
  0
LINE
  8
0
  6
DASHED2
 62
               4
  5
28B
 10
-136.76000000000053
 20
-338.08753501400577
 30
0.0
 11
-113.24000000000021
 21
-338.08753501400577
 31
0.0
  0
LINE
  8
0
  6
DASHED2
 62
               4
  5
28C
 10
-113.24000000000163
 20
-340.08753501400611
 30
0.0
 11
-136.76000000000195
 21
-340.08753501400611
 31
0.0
  0
LINE
  8
0
  6
DASHED2
 62
               4
  5
28D
 10
-131.00000000000031
 20
-223.02395553807696
 30
0.0
 11
-131.00000000000031
 21
-328.48753501400563
 31
0.0
  0
LINE
  8
0
  6
DASHED2
 62
               4
  5
28E
 10
-119.00000000000043
 20
-223.02395553807696
 30
0.0
 11
-119.00000000000043
 21
-328.48753501400563
 31
0.0
  0
LINE
  8
0
  6
DASHED2
 62
               4
  5
28F
 10
-119.00000000000043
 20
-223.02395553807696
 30
0.0
 11
-131.00000000000031
 21
-223.02395553807696
 31
0.0
  0
LINE
  8
0
  6
DASHED2
 62
               4
  5
290
 10
136.75999999999976
 20
-338.08753501400577
 30
0.0
 11
136.75999999999976
 21
-329.56140651469855
 31
0.0
  0
LINE
  8
0
  6
DASHED2
 62
               4
  5
291
 10
130.87102725426536
 20
-329.56140651469855
 30
0.0
 11
130.87102725426536
 21
-338.08753501400577
 31
0.0
  0
LINE
  8
0
  6
DASHED2
 62
               4
  5
292
 10
133.81551362713242
 20
-328.48753501400563
 30
0.0
 11
116.18448637286652
 21
-328.48753501400563
 31
0.0
  0
LINE
  8
0
  6
DASHED2
 62
               4
  5
293
 10
113.23999999999945
 20
-338.08753501400577
 30
0.0
 11
113.23999999999945
 21
-329.56140651469855
 31
0.0
  0
LINE
  8
0
  6
DASHED2
 62
               4
  5
294
 10
119.12897274573415
 20
-338.08753501400577
 30
0.0
 11
119.12897274573415
 21
-329.56140651469855
 31
0.0
  0
ARC
  8
0
  6
DASHED2
 62
               4
  5
295
 10
133.81551362713242
 20
-333.06126659812162
 30
0.0
 40
4.5737315841157447
 50
49.925579661646204
 51
130.07442033838728
  0
ARC
  8
0
  6
DASHED2
 62
               4
  5
296
 10
116.18448637286652
 20
-333.06126659812162
 30
0.0
 40
4.5737315841157686
 50
49.925579661646204
 51
130.07442033838728
  0
ARC
  8
0
  6
DASHED2
 62
               4
  5
297
 10
124.99999999999962
 20
-345.07339328352612
 30
0.0
 40
16.58585826952007
 50
69.269184858581426
 51
110.73081514145197
  0
LINE
  8
0
  6
DASHED2
 62
               4
  5
298
 10
136.76000000000118
 20
-340.08753501400611
 30
0.0
 11
136.76000000000118
 21
-348.61366351331333
 31
0.0
  0
LINE
  8
0
  6
DASHED2
 62
               4
  5
299
 10
130.87102725426678
 20
-348.61366351331333
 30
0.0
 11
130.87102725426678
 21
-340.08753501400611
 31
0.0
  0
LINE
  8
0
  6
DASHED2
 62
               4
  5
29A
 10
133.81551362713384
 20
-349.6875350140059
 30
0.0
 11
116.18448637286822
 21
-349.6875350140059
 31
0.0
  0
LINE
  8
0
  6
DASHED2
 62
               4
  5
29B
 10
113.24000000000088
 20
-340.08753501400611
 30
0.0
 11
113.24000000000088
 21
-348.61366351331333
 31
0.0
  0
LINE
  8
0
  6
DASHED2
 62
               4
  5
29C
 10
119.12897274573528
 20
-340.08753501400611
 30
0.0
 11
119.12897274573528
 21
-348.61366351331333
 31
0.0
  0
ARC
  8
0
  6
DASHED2
 62
               4
  5
29D
 10
133.81551362713384
 20
-345.11380342989048
 30
0.0
 40
4.5737315841157447
 50
229.92557966167917
 51
310.07442033842085
  0
ARC
  8
0
  6
DASHED2
 62
               4
  5
29E
 10
116.18448637286822
 20
-345.11380342989048
 30
0.0
 40
4.5737315841157686
 50
229.92557966167917
 51
310.07442033842028
  0
ARC
  8
0
  6
DASHED2
 62
               4
  5
29F
 10
125.00000000000104
 20
-333.10167674448599
 30
0.0
 40
16.58585826952007
 50
249.26918485861526
 51
290.73081514148578
  0
LINE
  8
0
  6
DASHED2
 62
               4
  5
2A0
 10
130.99999999999955
 20
-349.6875350140059
 30
0.0
 11
130.99999999999955
 21
-360.20690125633053
 31
0.0
  0
LINE
  8
0
  6
DASHED2
 62
               4
  5
2A1
 10
118.99999999999967
 20
-349.6875350140059
 30
0.0
 11
118.99999999999967
 21
-360.20690125633053
 31
0.0
  0
LINE
  8
0
  6
DASHED2
 62
               4
  5
2A2
 10
129.79999999999978
 20
-361.40690125633091
 30
0.0
 11
120.19999999999972
 21
-361.40690125633091
 31
0.0
  0
LINE
  8
0
  6
DASHED2
 62
               4
  5
2A3
 10
130.99999999999955
 20
-360.20690125633053
 30
0.0
 11
129.79999999999978
 21
-361.40690125633091
 31
0.0
  0
LINE
  8
0
  6
DASHED2
 62
               4
  5
2A4
 10
118.99999999999967
 20
-360.20690125633053
 30
0.0
 11
120.19999999999972
 21
-361.40690125633091
 31
0.0
  0
LINE
  8
0
  6
DASHED2
 62
               4
  5
2A5
 10
136.75999999999976
 20
-338.08753501400577
 30
0.0
 11
113.23999999999945
 21
-338.08753501400577
 31
0.0
  0
LINE
  8
0
  6
DASHED2
 62
               4
  5
2A6
 10
113.24000000000088
 20
-340.08753501400611
 30
0.0
 11
136.76000000000118
 21
-340.08753501400611
 31
0.0
  0
LINE
  8
0
  6
DASHED2
 62
               4
  5
2A7
 10
130.99999999999955
 20
-223.02395553807696
 30
0.0
 11
130.99999999999955
 21
-328.48753501400563
 31
0.0
  0
LINE
  8
0
  6
DASHED2
 62
               4
  5
2A8
 10
118.99999999999967
 20
-223.02395553807696
 30
0.0
 11
118.99999999999967
 21
-328.48753501400563
 31
0.0
  0
LINE
  8
0
  6
DASHED2
 62
               4
  5
2A9
 10
118.99999999999967
 20
-223.02395553807696
 30
0.0
 11
130.99999999999955
 21
-223.02395553807696
 31
0.0
  0
ARC
  8
0
  6
DIVIDE
 62
               4
  5
2AA
 10
-378.50000000000023
 20
-585.02051631817471
 30
0.0
 40
55.0
 50
58.789629707489617
 51
121.21037029250985
  0
ARC
  8
0
  6
DIVIDE
 62
               4
  5
2AB
 10
-378.50000000000023
 20
-490.94076291713725
 30
0.0
 40
55.0
 50
238.78962970748935
 51
301.21037029250937
  0
ARC
  8
0
  6
DIVIDE
 62
               4
  5
2AC
 10
-382.50000000000028
 20
-560.48313705345254
 30
0.0
 40
65.0
 50
59.999999999999723
 51
119.99999999999987
  0
ARC
  8
0
  6
DIVIDE
 62
               4
  5
2AD
 10
-321.50000000000017
 20
-490.94076291713736
 30
0.0
 40
55.0
 50
238.78962970748941
 51
301.21037029250959
  0
ARC
  8
0
  6
DIVIDE
 62
               4
  5
2AE
 10
-317.50000000000028
 20
-447.89983456147559
 30
0.0
 40
65.0
 50
239.99999999999966
 51
299.99999999999932
  0
LINE
  8
0
  6
DIVIDE
 62
               4
  5
2AF
 10
-407.00000000000017
 20
-500.27724033228401
 30
0.0
 11
-407.00000000000017
 21
-537.98063961765604
 31
0.0
  0
LINE
  8
0
  6
DIVIDE
 62
               4
  5
2B0
 10
-293.00000000000011
 20
-508.105731282644
 30
0.0
 11
-293.00000000000011
 21
-537.98063961765604
 31
0.0
  0
ARC
  8
0
  6
DIVIDE
 62
               4
  5
2B1
 10
-382.50000000000028
 20
-447.8998345614757
 30
0.0
 40
65.0
 50
239.99999999999929
 51
247.85677929855132
  0
LINE
  8
0
  6
DIVIDE
 62
               4
  5
2B2
 10
-285.00000000000028
 20
-418.08753501400508
 30
0.0
 11
-285.00000000000028
 21
-504.19148580746412
 31
0.0
  0
LINE
  8
0
  6
DIVIDE
 62
               4
  5
2B3
 10
-415.00000000000028
 20
-418.08753501400508
 30
0.0
 11
-415.00000000000028
 21
-504.19148580746412
 31
0.0
  0
ARC
  8
0
  6
DIVIDE
 62
               4
  5
2B4
 10
321.49999999999966
 20
-585.02051631817471
 30
0.0
 40
55.0
 50
58.789629707489617
 51
121.21037029250985
  0
ARC
  8
0
  6
DIVIDE
 62
               4
  5
2B5
 10
321.49999999999966
 20
-490.94076291713725
 30
0.0
 40
55.0
 50
238.78962970748935
 51
301.21037029250937
  0
ARC
  8
0
  6
DIVIDE
 62
               4
  5
2B6
 10
317.4999999999996
 20
-560.48313705345254
 30
0.0
 40
65.0
 50
59.999999999999723
 51
119.99999999999987
  0
ARC
  8
0
  6
DIVIDE
 62
               4
  5
2B7
 10
378.49999999999972
 20
-490.94076291713736
 30
0.0
 40
55.0
 50
238.78962970748941
 51
301.21037029250959
  0
ARC
  8
0
  6
DIVIDE
 62
               4
  5
2B8
 10
382.4999999999996
 20
-447.89983456147559
 30
0.0
 40
65.0
 50
239.99999999999966
 51
299.99999999999932
  0
LINE
  8
0
  6
DIVIDE
 62
               4
  5
2B9
 10
292.99999999999972
 20
-500.27724033228401
 30
0.0
 11
292.99999999999972
 21
-537.98063961765604
 31
0.0
  0
LINE
  8
0
  6
DIVIDE
 62
               4
  5
2BA
 10
406.99999999999977
 20
-508.105731282644
 30
0.0
 11
406.99999999999977
 21
-537.98063961765604
 31
0.0
  0
ARC
  8
0
  6
DIVIDE
 62
               4
  5
2BB
 10
317.4999999999996
 20
-447.8998345614757
 30
0.0
 40
65.0
 50
239.99999999999929
 51
247.85677929855132
  0
LINE
  8
0
  6
DIVIDE
 62
               4
  5
2BC
 10
414.9999999999996
 20
-418.08753501400508
 30
0.0
 11
414.9999999999996
 21
-504.19148580746412
 31
0.0
  0
LINE
  8
0
  6
DIVIDE
 62
               4
  5
2BD
 10
284.9999999999996
 20
-418.08753501400508
 30
0.0
 11
284.9999999999996
 21
-504.19148580746412
 31
0.0
  0
ARC
  8
0
  6
DIVIDE
 62
               4
  5
2BE
 10
-28.500000000000313
 20
-585.02051631817471
 30
0.0
 40
55.0
 50
58.789629707489617
 51
121.21037029250985
  0
ARC
  8
0
  6
DIVIDE
 62
               4
  5
2BF
 10
-28.500000000000313
 20
-490.94076291713725
 30
0.0
 40
55.0
 50
238.78962970748935
 51
301.21037029250937
  0
ARC
  8
0
  6
DIVIDE
 62
               4
  5
2C0
 10
-32.500000000000369
 20
-560.48313705345254
 30
0.0
 40
65.0
 50
59.999999999999723
 51
119.99999999999987
  0
ARC
  8
0
  6
DIVIDE
 62
               4
  5
2C1
 10
28.499999999999716
 20
-490.94076291713736
 30
0.0
 40
55.0
 50
238.78962970748941
 51
301.21037029250959
  0
ARC
  8
0
  6
DIVIDE
 62
               4
  5
2C2
 10
32.499999999999631
 20
-447.89983456147559
 30
0.0
 40
65.0
 50
239.99999999999966
 51
299.99999999999932
  0
LINE
  8
0
  6
DIVIDE
 62
               4
  5
2C3
 10
-57.000000000000256
 20
-500.27724033228401
 30
0.0
 11
-57.000000000000256
 21
-537.98063961765604
 31
0.0
  0
LINE
  8
0
  6
DIVIDE
 62
               4
  5
2C4
 10
56.999999999999801
 20
-508.105731282644
 30
0.0
 11
56.999999999999801
 21
-537.98063961765604
 31
0.0
  0
ARC
  8
0
  6
DIVIDE
 62
               4
  5
2C5
 10
-32.500000000000369
 20
-447.8998345614757
 30
0.0
 40
65.0
 50
239.99999999999929
 51
247.85677929855132
  0
LINE
  8
0
  6
DIVIDE
 62
               4
  5
2C6
 10
64.999999999999616
 20
-418.08753501400508
 30
0.0
 11
64.999999999999616
 21
-504.19148580746412
 31
0.0
  0
LINE
  8
0
  6
DIVIDE
 62
               4
  5
2C7
 10
-65.000000000000369
 20
-418.08753501400508
 30
0.0
 11
-65.000000000000369
 21
-504.19148580746412
 31
0.0
  0
ENDSEC
  0
EOF
