  0
SECTION
  2
HEADER
  9
$ACADVER
  1
AC1009
  9
$INSBASE
 10
0.0
 20
0.0
 30
0.0
  9
$EXTMIN
 10
-727.09601832512442
 20
-1162.2920699701235
 30
0.0
  9
$EXTMAX
 10
658.62524563232353
 20
1162.2920699701235
 30
0.0
  9
$LIMMIN
 10
-770.39980782379462
 20
-1234.9353243432563
  9
$LIMMAX
 10
701.92903513099373
 20
1234.9353243432563
  9
$ORTHOMODE
 70
               0
  9
$REGENMODE
 70
               1
  9
$FILLMODE
 70
               1
  9
$QTEXTMODE
 70
               0
  9
$MIRRTEXT
 70
               1
  9
$DRAGMODE
 70
               2
  9
$LTSCALE
 40
1.0
  9
$OSMODE
 70
               0
  9
$ATTMODE
 70
               1
  9
$TEXTSIZE
 40
0.2
  9
$TRACEWID
 40
0.05
  9
$TEXTSTYLE
  7
STANDARD
  9
$CLAYER
  8
0
  9
$CELTYPE
  6
CONTINUOUS
  9
$CECOLOR
 62
             256
  9
$DIMSCALE
 40
1.0
  9
$DIMASZ
 40
0.18
  9
$DIMEXO
 40
0.0625
  9
$DIMDLI
 40
0.38
  9
$DIMRND
 40
0.0
  9
$DIMDLE
 40
0.0
  9
$DIMEXE
 40
0.18
  9
$DIMTP
 40
0.0
  9
$DIMTM
 40
0.0
  9
$DIMTXT
 40
0.18
  9
$DIMCEN
 40
0.09
  9
$DIMTSZ
 40
0.0
  9
$DIMTOL
 70
               0
  9
$DIMLIM
 70
               0
  9
$DIMTIH
 70
               1
  9
$DIMTOH
 70
               1
  9
$DIMSE1
 70
               0
  9
$DIMSE2
 70
               0
  9
$DIMTAD
 70
               0
  9
$DIMZIN
 70
               0
  9
$DIMBLK
  1

  9
$DIMASO
 70
               1
  9
$DIMSHO
 70
               1
  9
$DIMPOST
  1

  9
$DIMAPOST
  1

  9
$DIMALT
 70
               0
  9
$DIMALTD
 70
               2
  9
$DIMALTF
 40
25.399999999999999
  9
$DIMLFAC
 40
1.0
  9
$DIMTOFL
 70
               0
  9
$DIMTVP
 40
0.0
  9
$DIMTIX
 70
               0
  9
$DIMSOXD
 70
               0
  9
$DIMSAH
 70
               0
  9
$DIMBLK1
  1

  9
$DIMBLK2
  1

  9
$DIMSTYLE
  2
STANDARD
  9
$DIMCLRD
 70
               0
  9
$DIMCLRE
 70
               0
  9
$DIMCLRT
 70
               0
  9
$DIMTFAC
 40
1.0
  9
$DIMGAP
 40
0.09
  9
$LUNITS
 70
               2
  9
$LUPREC
 70
               4
  9
$AXISMODE
 70
               0
  9
$AXISUNIT
 10
0.0
 20
0.0
  9
$SKETCHINC
 40
0.1
  9
$FILLETRAD
 40
0.0
  9
$AUNITS
 70
               0
  9
$AUPREC
 70
               0
  9
$MENU
  1
acad
  9
$ELEVATION
 40
0.0
  9
$PELEVATION
 40
0.0
  9
$THICKNESS
 40
0.0
  9
$LIMCHECK
 70
               0
  9
$BLIPMODE
 70
               1
  9
$CHAMFERA
 40
0.0
  9
$CHAMFERB
 40
0.0
  9
$SKPOLY
 70
               0
  9
$TDCREATE
 40
0.000000000
  9
$TDUPDATE
 40
0.000000000
  9
$TDINDWG
 40
0.0000000000
  9
$TDUSRTIMER
 40
0.0000000000
  9
$USRTIMER
 70
               1
  9
$ANGBASE
 50
0.0
  9
$ANGDIR
 70
               0
  9
$PDMODE
 70
               0
  9
$PDSIZE
 40
1.0
  9
$PLINEWID
 40
0.0
  9
$COORDS
 70
               1
  9
$SPLFRAME
 70
               0
  9
$SPLINETYPE
 70
               6
  9
$SPLINESEGS
 70
               8
  9
$ATTDIA
 70
               0
  9
$ATTREQ
 70
               1
  9
$HANDLING
 70
               1
  9
$HANDSEED
  5
484
  9
$SURFTAB1
 70
               6
  9
$SURFTAB2
 70
               6
  9
$SURFTYPE
 70
               6
  9
$SURFU
 70
               6
  9
$SURFV
 70
               6
  9
$UCSNAME
  2

  9
$UCSORG
 10
0.0
 20
0.0
 30
0.0
  9
$UCSXDIR
 10
1.0
 20
0.0
 30
0.0
  9
$UCSYDIR
 10
0.0
 20
1.0
 30
0.0
  9
$PUCSNAME
  2

  9
$PUCSORG
 10
0.0
 20
0.0
 30
0.0
  9
$PUCSXDIR
 10
1.0
 20
0.0
 30
0.0
  9
$PUCSYDIR
 10
0.0
 20
1.0
 30
0.0
  9
$USERI1
 70
               0
  9
$USERI2
 70
               0
  9
$USERI3
 70
               0
  9
$USERI4
 70
               0
  9
$USERI5
 70
               0
  9
$USERR1
 40
0.0
  9
$USERR2
 40
0.0
  9
$USERR3
 40
0.0
  9
$USERR4
 40
0.0
  9
$USERR5
 40
0.0
  9
$WORLDVIEW
 70
               1
  9
$SHADEDGE
 70
               3
  9
$SHADEDIF
 70
              70
  9
$TILEMODE
 70
               1
  9
$MAXACTVP
 70
              16
  9
$PINSBASE
 10
0.0
 20
0.0
 30
0.0
  9
$PLIMCHECK
 70
               0
  9
$PEXTMIN
 10
1.0000000000000000E+20
 20
1.0000000000000000E+20
 30
1.0000000000000000E+20
  9
$PEXTMAX
 10
-1.0000000000000000E+20
 20
-1.0000000000000000E+20
 30
-1.0000000000000000E+20
  9
$PLIMMIN
 10
0.0
 20
0.0
  9
$PLIMMAX
 10
12.0
 20
9.0
  9
$UNITMODE
 70
               0
  9
$VISRETAIN
 70
               0
  9
$PLINEGEN
 70
               1
  9
$PSLTSCALE
 70
               0
  9
$TREEDEPTH
 70
            3020
  9
$DWGCODEPAGE
  3
dos932
  0
ENDSEC
  0
SECTION
  2
TABLES
  0
TABLE
  2
VPORT
 70
               1
  0
VPORT
  2
*ACTIVE
 70
               0
 10
0.0
 20
0.0
 11
1.0
 21
1.0
 12
-34.235386346400446
 22
0.0
 13
0.0
 23
0.0
 14
1.0
 24
1.0
 15
0.0
 25
0.0
 16
0.0
 26
0.0
 36
1.0
 17
0.0
 27
0.0
 37
0.0
 40
2469.8706486865126
 41
0.5961157697621853
 42
50.0
 43
0.0
 44
0.0
 50
0.0
 51
0.0
 71
               0
 72
             100
 73
               1
 74
               1
 75
               0
 76
               0
 77
               0
 78
               0
  0
ENDTAB
  0
TABLE
  2
LTYPE
 70
              26
  0
LTYPE
  2
CONTINUOUS
 70
               0
  3
Solid line
 72
              65
 73
               0
 40
0.0
  0
LTYPE
  2
HIDDENX2
 70
               0
  3
CADPAC FUSION LINETYPE
 72
              65
 73
               2
 40
47.560000000000002
 49
35.670000000000002
 49
-11.890000000000001
  0
LTYPE
  2
HIDDEN
 70
               0
  3
CADPAC FUSION LINETYPE
 72
              65
 73
               2
 40
35.670000000000002
 49
23.780000000000001
 49
-11.890000000000001
  0
LTYPE
  2
HIDDEN2
 70
               0
  3
CADPAC FUSION LINETYPE
 72
              65
 73
               2
 40
29.725000000000001
 49
17.835000000000001
 49
-11.890000000000001
  0
LTYPE
  2
DASHED
 70
               0
  3
CADPAC FUSION LINETYPE
 72
              65
 73
               2
 40
35.670000000000002
 49
23.780000000000001
 49
-11.890000000000001
  0
LTYPE
  2
DASHED2
 70
               0
  3
CADPAC FUSION LINETYPE
 72
              65
 73
               2
 40
26.752500000000001
 49
17.835000000000001
 49
-8.9175000000000004
  0
LTYPE
  2
DASHEDX2
 70
               0
  3
CADPAC FUSION LINETYPE
 72
              65
 73
               2
 40
53.505000000000003
 49
35.670000000000002
 49
-17.835000000000001
  0
LTYPE
  2
DOTX2
 70
               0
  3
CADPAC FUSION LINETYPE
 72
              65
 73
               2
 40
14.862500000000001
 49
0.0
 49
-14.862500000000001
  0
LTYPE
  2
DOT
 70
               0
  3
CADPAC FUSION LINETYPE
 72
              65
 73
               2
 40
11.890000000000001
 49
0.0
 49
-11.890000000000001
  0
LTYPE
  2
DOTS
 70
               0
  3
CADPAC FUSION LINETYPE
 72
              65
 73
               2
 40
11.890000000000001
 49
0.0
 49
-11.890000000000001
  0
LTYPE
  2
DOT2
 70
               0
  3
CADPAC FUSION LINETYPE
 72
              65
 73
               2
 40
8.9175000000000004
 49
0.0
 49
-8.9175000000000004
  0
LTYPE
  2
CENTERX2
 70
               0
  3
CADPAC FUSION LINETYPE
 72
              65
 73
               4
 40
71.340000000000003
 49
29.725000000000001
 49
-14.862500000000001
 49
11.890000000000001
 49
-14.862500000000001
  0
LTYPE
  2
CENTER
 70
               0
  3
CADPAC FUSION LINETYPE
 72
              65
 73
               4
 40
54.694000000000003
 49
23.780000000000001
 49
-11.890000000000001
 49
7.1340000000000003
 49
-11.890000000000001
  0
LTYPE
  2
CENTER2
 70
               0
  3
CADPAC FUSION LINETYPE
 72
              65
 73
               4
 40
38.048000000000002
 49
17.835000000000001
 49
-8.9175000000000004
 49
2.3780000000000001
 49
-8.9175000000000004
  0
LTYPE
  2
DASHDOTX2
 70
               0
  3
CADPAC FUSION LINETYPE
 72
              65
 73
               4
 40
59.450000000000003
 49
29.725000000000001
 49
-14.862500000000001
 49
0.0
 49
-14.862500000000001
  0
LTYPE
  2
DASHDOT
 70
               0
  3
CADPAC FUSION LINETYPE
 72
              65
 73
               4
 40
47.560000000000002
 49
23.780000000000001
 49
-11.890000000000001
 49
0.0
 49
-11.890000000000001
  0
LTYPE
  2
DASHDOT2
 70
               0
  3
CADPAC FUSION LINETYPE
 72
              65
 73
               4
 40
35.670000000000002
 49
17.835000000000001
 49
-8.9175000000000004
 49
0.0
 49
-8.9175000000000004
  0
LTYPE
  2
DIVIDEX2
 70
               0
  3
CADPAC FUSION LINETYPE
 72
              65
 73
               6
 40
74.3125
 49
29.725000000000001
 49
-14.862500000000001
 49
0.0
 49
-14.862500000000001
 49
0.0
 49
-14.862500000000001
  0
LTYPE
  2
DIVIDE
 70
               0
  3
CADPAC FUSION LINETYPE
 72
              65
 73
               6
 40
59.450000000000003
 49
23.780000000000001
 49
-11.890000000000001
 49
0.0
 49
-11.890000000000001
 49
0.0
 49
-11.890000000000001
  0
LTYPE
  2
DIVIDE2
 70
               0
  3
CADPAC FUSION LINETYPE
 72
              65
 73
               6
 40
44.587500000000006
 49
17.835000000000001
 49
-8.9175000000000004
 49
0.0
 49
-8.9175000000000004
 49
0.0
 49
-8.9175000000000004
  0
LTYPE
  2
BORDERX2
 70
               0
  3
CADPAC FUSION LINETYPE
 72
              65
 73
               6
 40
104.03750000000001
 49
29.725000000000001
 49
-14.862500000000001
 49
29.725000000000001
 49
-14.862500000000001
 49
0.0
 49
-14.862500000000001
  0
LTYPE
  2
BORDER
 70
               0
  3
CADPAC FUSION LINETYPE
 72
              65
 73
               6
 40
83.230000000000004
 49
23.780000000000001
 49
-11.890000000000001
 49
23.780000000000001
 49
-11.890000000000001
 49
0.0
 49
-11.890000000000001
  0
LTYPE
  2
BORDER2
 70
               0
  3
CADPAC FUSION LINETYPE
 72
              65
 73
               6
 40
62.422499999999999
 49
17.835000000000001
 49
-8.9175000000000004
 49
17.835000000000001
 49
-8.9175000000000004
 49
0.0
 49
-8.9175000000000004
  0
LTYPE
  2
PHANTOMX2
 70
               0
  3
CADPAC FUSION LINETYPE
 72
              65
 73
               6
 40
89.175000000000011
 49
29.725000000000001
 49
-11.890000000000001
 49
11.890000000000001
 49
-11.890000000000001
 49
11.890000000000001
 49
-11.890000000000001
  0
LTYPE
  2
PHANTOM
 70
               0
  3
CADPAC FUSION LINETYPE
 72
              65
 73
               6
 40
73.718000000000004
 49
23.780000000000001
 49
-11.890000000000001
 49
7.1340000000000003
 49
-11.890000000000001
 49
7.1340000000000003
 49
-11.890000000000001
  0
LTYPE
  2
PHANTOM2
 70
               0
  3
CADPAC FUSION LINETYPE
 72
              65
 73
               6
 40
63.017000000000003
 49
17.835000000000001
 49
-11.890000000000001
 49
4.7560000000000002
 49
-11.890000000000001
 49
4.7560000000000002
 49
-11.890000000000001
  0
ENDTAB
  0
TABLE
  2
LAYER
 70
             256
  0
LAYER
  2
0
 70
               0
 62
               7
  6
CONTINUOUS
  0
LAYER
  2
LAYER001
 70
               0
 62
               7
  6
CONTINUOUS
  0
LAYER
  2
LAYER002
 70
               0
 62
               7
  6
CONTINUOUS
  0
LAYER
  2
LAYER003
 70
               0
 62
               7
  6
CONTINUOUS
  0
LAYER
  2
LAYER004
 70
               0
 62
               7
  6
CONTINUOUS
  0
LAYER
  2
LAYER005
 70
               0
 62
               7
  6
CONTINUOUS
  0
LAYER
  2
LAYER006
 70
               0
 62
               7
  6
CONTINUOUS
  0
LAYER
  2
LAYER007
 70
               0
 62
               7
  6
CONTINUOUS
  0
LAYER
  2
LAYER008
 70
               0
 62
               7
  6
CONTINUOUS
  0
LAYER
  2
LAYER009
 70
               0
 62
               7
  6
CONTINUOUS
  0
LAYER
  2
LAYER010
 70
               0
 62
               7
  6
CONTINUOUS
  0
LAYER
  2
LAYER011
 70
               0
 62
               7
  6
CONTINUOUS
  0
LAYER
  2
LAYER012
 70
               0
 62
               7
  6
CONTINUOUS
  0
LAYER
  2
LAYER013
 70
               0
 62
               7
  6
CONTINUOUS
  0
LAYER
  2
LAYER014
 70
               0
 62
               7
  6
CONTINUOUS
  0
LAYER
  2
LAYER015
 70
               0
 62
               7
  6
CONTINUOUS
  0
LAYER
  2
LAYER016
 70
               0
 62
               7
  6
CONTINUOUS
  0
LAYER
  2
LAYER017
 70
               0
 62
               7
  6
CONTINUOUS
  0
LAYER
  2
LAYER018
 70
               0
 62
               7
  6
CONTINUOUS
  0
LAYER
  2
LAYER019
 70
               0
 62
               7
  6
CONTINUOUS
  0
LAYER
  2
LAYER020
 70
               0
 62
               7
  6
CONTINUOUS
  0
LAYER
  2
LAYER021
 70
               0
 62
               7
  6
CONTINUOUS
  0
LAYER
  2
LAYER022
 70
               0
 62
               7
  6
CONTINUOUS
  0
LAYER
  2
LAYER023
 70
               0
 62
               7
  6
CONTINUOUS
  0
LAYER
  2
LAYER024
 70
               0
 62
               7
  6
CONTINUOUS
  0
LAYER
  2
LAYER025
 70
               0
 62
               7
  6
CONTINUOUS
  0
LAYER
  2
LAYER026
 70
               0
 62
               7
  6
CONTINUOUS
  0
LAYER
  2
LAYER027
 70
               0
 62
               7
  6
CONTINUOUS
  0
LAYER
  2
LAYER028
 70
               0
 62
               7
  6
CONTINUOUS
  0
LAYER
  2
LAYER029
 70
               0
 62
               7
  6
CONTINUOUS
  0
LAYER
  2
LAYER030
 70
               0
 62
               7
  6
CONTINUOUS
  0
LAYER
  2
LAYER031
 70
               0
 62
               7
  6
CONTINUOUS
  0
LAYER
  2
LAYER032
 70
               0
 62
               7
  6
CONTINUOUS
  0
LAYER
  2
LAYER033
 70
               0
 62
               7
  6
CONTINUOUS
  0
LAYER
  2
LAYER034
 70
               0
 62
               7
  6
CONTINUOUS
  0
LAYER
  2
LAYER035
 70
               0
 62
               7
  6
CONTINUOUS
  0
LAYER
  2
LAYER036
 70
               0
 62
               7
  6
CONTINUOUS
  0
LAYER
  2
LAYER037
 70
               0
 62
               7
  6
CONTINUOUS
  0
LAYER
  2
LAYER038
 70
               0
 62
               7
  6
CONTINUOUS
  0
LAYER
  2
LAYER039
 70
               0
 62
               7
  6
CONTINUOUS
  0
LAYER
  2
LAYER040
 70
               0
 62
               7
  6
CONTINUOUS
  0
LAYER
  2
LAYER041
 70
               0
 62
               7
  6
CONTINUOUS
  0
LAYER
  2
LAYER042
 70
               0
 62
               7
  6
CONTINUOUS
  0
LAYER
  2
LAYER043
 70
               0
 62
               7
  6
CONTINUOUS
  0
LAYER
  2
LAYER044
 70
               0
 62
               7
  6
CONTINUOUS
  0
LAYER
  2
LAYER045
 70
               0
 62
               7
  6
CONTINUOUS
  0
LAYER
  2
LAYER046
 70
               0
 62
               7
  6
CONTINUOUS
  0
LAYER
  2
LAYER047
 70
               0
 62
               7
  6
CONTINUOUS
  0
LAYER
  2
LAYER048
 70
               0
 62
               7
  6
CONTINUOUS
  0
LAYER
  2
LAYER049
 70
               0
 62
               7
  6
CONTINUOUS
  0
LAYER
  2
LAYER050
 70
               0
 62
               7
  6
CONTINUOUS
  0
LAYER
  2
LAYER051
 70
               0
 62
               7
  6
CONTINUOUS
  0
LAYER
  2
LAYER052
 70
               0
 62
               7
  6
CONTINUOUS
  0
LAYER
  2
LAYER053
 70
               0
 62
               7
  6
CONTINUOUS
  0
LAYER
  2
LAYER054
 70
               0
 62
               7
  6
CONTINUOUS
  0
LAYER
  2
LAYER055
 70
               0
 62
               7
  6
CONTINUOUS
  0
LAYER
  2
LAYER056
 70
               0
 62
               7
  6
CONTINUOUS
  0
LAYER
  2
LAYER057
 70
               0
 62
               7
  6
CONTINUOUS
  0
LAYER
  2
LAYER058
 70
               0
 62
               7
  6
CONTINUOUS
  0
LAYER
  2
LAYER059
 70
               0
 62
               7
  6
CONTINUOUS
  0
LAYER
  2
LAYER060
 70
               0
 62
               7
  6
CONTINUOUS
  0
LAYER
  2
LAYER061
 70
               0
 62
               7
  6
CONTINUOUS
  0
LAYER
  2
LAYER062
 70
               0
 62
               7
  6
CONTINUOUS
  0
LAYER
  2
LAYER063
 70
               0
 62
               7
  6
CONTINUOUS
  0
LAYER
  2
LAYER064
 70
               0
 62
               7
  6
CONTINUOUS
  0
LAYER
  2
LAYER065
 70
               0
 62
               7
  6
CONTINUOUS
  0
LAYER
  2
LAYER066
 70
               0
 62
               7
  6
CONTINUOUS
  0
LAYER
  2
LAYER067
 70
               0
 62
               7
  6
CONTINUOUS
  0
LAYER
  2
LAYER068
 70
               0
 62
               7
  6
CONTINUOUS
  0
LAYER
  2
LAYER069
 70
               0
 62
               7
  6
CONTINUOUS
  0
LAYER
  2
LAYER070
 70
               0
 62
               7
  6
CONTINUOUS
  0
LAYER
  2
LAYER071
 70
               0
 62
               7
  6
CONTINUOUS
  0
LAYER
  2
LAYER072
 70
               0
 62
               7
  6
CONTINUOUS
  0
LAYER
  2
LAYER073
 70
               0
 62
               7
  6
CONTINUOUS
  0
LAYER
  2
LAYER074
 70
               0
 62
               7
  6
CONTINUOUS
  0
LAYER
  2
LAYER075
 70
               0
 62
               7
  6
CONTINUOUS
  0
LAYER
  2
LAYER076
 70
               0
 62
               7
  6
CONTINUOUS
  0
LAYER
  2
LAYER077
 70
               0
 62
               7
  6
CONTINUOUS
  0
LAYER
  2
LAYER078
 70
               0
 62
               7
  6
CONTINUOUS
  0
LAYER
  2
LAYER079
 70
               0
 62
               7
  6
CONTINUOUS
  0
LAYER
  2
LAYER080
 70
               0
 62
               7
  6
CONTINUOUS
  0
LAYER
  2
LAYER081
 70
               0
 62
               7
  6
CONTINUOUS
  0
LAYER
  2
LAYER082
 70
               0
 62
               7
  6
CONTINUOUS
  0
LAYER
  2
LAYER083
 70
               0
 62
               7
  6
CONTINUOUS
  0
LAYER
  2
LAYER084
 70
               0
 62
               7
  6
CONTINUOUS
  0
LAYER
  2
LAYER085
 70
               0
 62
               7
  6
CONTINUOUS
  0
LAYER
  2
LAYER086
 70
               0
 62
               7
  6
CONTINUOUS
  0
LAYER
  2
LAYER087
 70
               0
 62
               7
  6
CONTINUOUS
  0
LAYER
  2
LAYER088
 70
               0
 62
               7
  6
CONTINUOUS
  0
LAYER
  2
LAYER089
 70
               0
 62
               7
  6
CONTINUOUS
  0
LAYER
  2
LAYER090
 70
               0
 62
               7
  6
CONTINUOUS
  0
LAYER
  2
LAYER091
 70
               0
 62
               7
  6
CONTINUOUS
  0
LAYER
  2
LAYER092
 70
               0
 62
               7
  6
CONTINUOUS
  0
LAYER
  2
LAYER093
 70
               0
 62
               7
  6
CONTINUOUS
  0
LAYER
  2
LAYER094
 70
               0
 62
               7
  6
CONTINUOUS
  0
LAYER
  2
LAYER095
 70
               0
 62
               7
  6
CONTINUOUS
  0
LAYER
  2
LAYER096
 70
               0
 62
               7
  6
CONTINUOUS
  0
LAYER
  2
LAYER097
 70
               0
 62
               7
  6
CONTINUOUS
  0
LAYER
  2
LAYER098
 70
               0
 62
               7
  6
CONTINUOUS
  0
LAYER
  2
LAYER099
 70
               0
 62
               7
  6
CONTINUOUS
  0
LAYER
  2
LAYER100
 70
               0
 62
               7
  6
CONTINUOUS
  0
LAYER
  2
LAYER101
 70
               0
 62
               7
  6
CONTINUOUS
  0
LAYER
  2
LAYER102
 70
               0
 62
               7
  6
CONTINUOUS
  0
LAYER
  2
LAYER103
 70
               0
 62
               7
  6
CONTINUOUS
  0
LAYER
  2
LAYER104
 70
               0
 62
               7
  6
CONTINUOUS
  0
LAYER
  2
LAYER105
 70
               0
 62
               7
  6
CONTINUOUS
  0
LAYER
  2
LAYER106
 70
               0
 62
               7
  6
CONTINUOUS
  0
LAYER
  2
LAYER107
 70
               0
 62
               7
  6
CONTINUOUS
  0
LAYER
  2
LAYER108
 70
               0
 62
               7
  6
CONTINUOUS
  0
LAYER
  2
LAYER109
 70
               0
 62
               7
  6
CONTINUOUS
  0
LAYER
  2
LAYER110
 70
               0
 62
               7
  6
CONTINUOUS
  0
LAYER
  2
LAYER111
 70
               0
 62
               7
  6
CONTINUOUS
  0
LAYER
  2
LAYER112
 70
               0
 62
               7
  6
CONTINUOUS
  0
LAYER
  2
LAYER113
 70
               0
 62
               7
  6
CONTINUOUS
  0
LAYER
  2
LAYER114
 70
               0
 62
               7
  6
CONTINUOUS
  0
LAYER
  2
LAYER115
 70
               0
 62
               7
  6
CONTINUOUS
  0
LAYER
  2
LAYER116
 70
               0
 62
               7
  6
CONTINUOUS
  0
LAYER
  2
LAYER117
 70
               0
 62
               7
  6
CONTINUOUS
  0
LAYER
  2
LAYER118
 70
               0
 62
               7
  6
CONTINUOUS
  0
LAYER
  2
LAYER119
 70
               0
 62
               7
  6
CONTINUOUS
  0
LAYER
  2
LAYER120
 70
               0
 62
               7
  6
CONTINUOUS
  0
LAYER
  2
LAYER121
 70
               0
 62
               7
  6
CONTINUOUS
  0
LAYER
  2
LAYER122
 70
               0
 62
               7
  6
CONTINUOUS
  0
LAYER
  2
LAYER123
 70
               0
 62
               7
  6
CONTINUOUS
  0
LAYER
  2
LAYER124
 70
               0
 62
               7
  6
CONTINUOUS
  0
LAYER
  2
LAYER125
 70
               0
 62
               7
  6
CONTINUOUS
  0
LAYER
  2
LAYER126
 70
               0
 62
               7
  6
CONTINUOUS
  0
LAYER
  2
LAYER127
 70
               0
 62
               7
  6
CONTINUOUS
  0
LAYER
  2
LAYER128
 70
               0
 62
               7
  6
CONTINUOUS
  0
LAYER
  2
LAYER129
 70
               0
 62
               7
  6
CONTINUOUS
  0
LAYER
  2
LAYER130
 70
               0
 62
               7
  6
CONTINUOUS
  0
LAYER
  2
LAYER131
 70
               0
 62
               7
  6
CONTINUOUS
  0
LAYER
  2
LAYER132
 70
               0
 62
               7
  6
CONTINUOUS
  0
LAYER
  2
LAYER133
 70
               0
 62
               7
  6
CONTINUOUS
  0
LAYER
  2
LAYER134
 70
               0
 62
               7
  6
CONTINUOUS
  0
LAYER
  2
LAYER135
 70
               0
 62
               7
  6
CONTINUOUS
  0
LAYER
  2
LAYER136
 70
               0
 62
               7
  6
CONTINUOUS
  0
LAYER
  2
LAYER137
 70
               0
 62
               7
  6
CONTINUOUS
  0
LAYER
  2
LAYER138
 70
               0
 62
               7
  6
CONTINUOUS
  0
LAYER
  2
LAYER139
 70
               0
 62
               7
  6
CONTINUOUS
  0
LAYER
  2
LAYER140
 70
               0
 62
               7
  6
CONTINUOUS
  0
LAYER
  2
LAYER141
 70
               0
 62
               7
  6
CONTINUOUS
  0
LAYER
  2
LAYER142
 70
               0
 62
               7
  6
CONTINUOUS
  0
LAYER
  2
LAYER143
 70
               0
 62
               7
  6
CONTINUOUS
  0
LAYER
  2
LAYER144
 70
               0
 62
               7
  6
CONTINUOUS
  0
LAYER
  2
LAYER145
 70
               0
 62
               7
  6
CONTINUOUS
  0
LAYER
  2
LAYER146
 70
               0
 62
               7
  6
CONTINUOUS
  0
LAYER
  2
LAYER147
 70
               0
 62
               7
  6
CONTINUOUS
  0
LAYER
  2
LAYER148
 70
               0
 62
               7
  6
CONTINUOUS
  0
LAYER
  2
LAYER149
 70
               0
 62
               7
  6
CONTINUOUS
  0
LAYER
  2
LAYER150
 70
               0
 62
               7
  6
CONTINUOUS
  0
LAYER
  2
LAYER151
 70
               0
 62
               7
  6
CONTINUOUS
  0
LAYER
  2
LAYER152
 70
               0
 62
               7
  6
CONTINUOUS
  0
LAYER
  2
LAYER153
 70
               0
 62
               7
  6
CONTINUOUS
  0
LAYER
  2
LAYER154
 70
               0
 62
               7
  6
CONTINUOUS
  0
LAYER
  2
LAYER155
 70
               0
 62
               7
  6
CONTINUOUS
  0
LAYER
  2
LAYER156
 70
               0
 62
               7
  6
CONTINUOUS
  0
LAYER
  2
LAYER157
 70
               0
 62
               7
  6
CONTINUOUS
  0
LAYER
  2
LAYER158
 70
               0
 62
               7
  6
CONTINUOUS
  0
LAYER
  2
LAYER159
 70
               0
 62
               7
  6
CONTINUOUS
  0
LAYER
  2
LAYER160
 70
               0
 62
               7
  6
CONTINUOUS
  0
LAYER
  2
LAYER161
 70
               0
 62
               7
  6
CONTINUOUS
  0
LAYER
  2
LAYER162
 70
               0
 62
               7
  6
CONTINUOUS
  0
LAYER
  2
LAYER163
 70
               0
 62
               7
  6
CONTINUOUS
  0
LAYER
  2
LAYER164
 70
               0
 62
               7
  6
CONTINUOUS
  0
LAYER
  2
LAYER165
 70
               0
 62
               7
  6
CONTINUOUS
  0
LAYER
  2
LAYER166
 70
               0
 62
               7
  6
CONTINUOUS
  0
LAYER
  2
LAYER167
 70
               0
 62
               7
  6
CONTINUOUS
  0
LAYER
  2
LAYER168
 70
               0
 62
               7
  6
CONTINUOUS
  0
LAYER
  2
LAYER169
 70
               0
 62
               7
  6
CONTINUOUS
  0
LAYER
  2
LAYER170
 70
               0
 62
               7
  6
CONTINUOUS
  0
LAYER
  2
LAYER171
 70
               0
 62
               7
  6
CONTINUOUS
  0
LAYER
  2
LAYER172
 70
               0
 62
               7
  6
CONTINUOUS
  0
LAYER
  2
LAYER173
 70
               0
 62
               7
  6
CONTINUOUS
  0
LAYER
  2
LAYER174
 70
               0
 62
               7
  6
CONTINUOUS
  0
LAYER
  2
LAYER175
 70
               0
 62
               7
  6
CONTINUOUS
  0
LAYER
  2
LAYER176
 70
               0
 62
               7
  6
CONTINUOUS
  0
LAYER
  2
LAYER177
 70
               0
 62
               7
  6
CONTINUOUS
  0
LAYER
  2
LAYER178
 70
               0
 62
               7
  6
CONTINUOUS
  0
LAYER
  2
LAYER179
 70
               0
 62
               7
  6
CONTINUOUS
  0
LAYER
  2
LAYER180
 70
               0
 62
               7
  6
CONTINUOUS
  0
LAYER
  2
LAYER181
 70
               0
 62
               7
  6
CONTINUOUS
  0
LAYER
  2
LAYER182
 70
               0
 62
               7
  6
CONTINUOUS
  0
LAYER
  2
LAYER183
 70
               0
 62
               7
  6
CONTINUOUS
  0
LAYER
  2
LAYER184
 70
               0
 62
               7
  6
CONTINUOUS
  0
LAYER
  2
LAYER185
 70
               0
 62
               7
  6
CONTINUOUS
  0
LAYER
  2
LAYER186
 70
               0
 62
               7
  6
CONTINUOUS
  0
LAYER
  2
LAYER187
 70
               0
 62
               7
  6
CONTINUOUS
  0
LAYER
  2
LAYER188
 70
               0
 62
               7
  6
CONTINUOUS
  0
LAYER
  2
LAYER189
 70
               0
 62
               7
  6
CONTINUOUS
  0
LAYER
  2
LAYER190
 70
               0
 62
               7
  6
CONTINUOUS
  0
LAYER
  2
LAYER191
 70
               0
 62
               7
  6
CONTINUOUS
  0
LAYER
  2
LAYER192
 70
               0
 62
               7
  6
CONTINUOUS
  0
LAYER
  2
LAYER193
 70
               0
 62
               7
  6
CONTINUOUS
  0
LAYER
  2
LAYER194
 70
               0
 62
               7
  6
CONTINUOUS
  0
LAYER
  2
LAYER195
 70
               0
 62
               7
  6
CONTINUOUS
  0
LAYER
  2
LAYER196
 70
               0
 62
               7
  6
CONTINUOUS
  0
LAYER
  2
LAYER197
 70
               0
 62
               7
  6
CONTINUOUS
  0
LAYER
  2
LAYER198
 70
               0
 62
               7
  6
CONTINUOUS
  0
LAYER
  2
LAYER199
 70
               0
 62
               7
  6
CONTINUOUS
  0
LAYER
  2
LAYER200
 70
               0
 62
               7
  6
CONTINUOUS
  0
LAYER
  2
LAYER201
 70
               0
 62
               7
  6
CONTINUOUS
  0
LAYER
  2
LAYER202
 70
               0
 62
               7
  6
CONTINUOUS
  0
LAYER
  2
LAYER203
 70
               0
 62
               7
  6
CONTINUOUS
  0
LAYER
  2
LAYER204
 70
               0
 62
               7
  6
CONTINUOUS
  0
LAYER
  2
LAYER205
 70
               0
 62
               7
  6
CONTINUOUS
  0
LAYER
  2
LAYER206
 70
               0
 62
               7
  6
CONTINUOUS
  0
LAYER
  2
LAYER207
 70
               0
 62
               7
  6
CONTINUOUS
  0
LAYER
  2
LAYER208
 70
               0
 62
               7
  6
CONTINUOUS
  0
LAYER
  2
LAYER209
 70
               0
 62
               7
  6
CONTINUOUS
  0
LAYER
  2
LAYER210
 70
               0
 62
               7
  6
CONTINUOUS
  0
LAYER
  2
LAYER211
 70
               0
 62
               7
  6
CONTINUOUS
  0
LAYER
  2
LAYER212
 70
               0
 62
               7
  6
CONTINUOUS
  0
LAYER
  2
LAYER213
 70
               0
 62
               7
  6
CONTINUOUS
  0
LAYER
  2
LAYER214
 70
               0
 62
               7
  6
CONTINUOUS
  0
LAYER
  2
LAYER215
 70
               0
 62
               7
  6
CONTINUOUS
  0
LAYER
  2
LAYER216
 70
               0
 62
               7
  6
CONTINUOUS
  0
LAYER
  2
LAYER217
 70
               0
 62
               7
  6
CONTINUOUS
  0
LAYER
  2
LAYER218
 70
               0
 62
               7
  6
CONTINUOUS
  0
LAYER
  2
LAYER219
 70
               0
 62
               7
  6
CONTINUOUS
  0
LAYER
  2
LAYER220
 70
               0
 62
               7
  6
CONTINUOUS
  0
LAYER
  2
LAYER221
 70
               0
 62
               7
  6
CONTINUOUS
  0
LAYER
  2
LAYER222
 70
               0
 62
               7
  6
CONTINUOUS
  0
LAYER
  2
LAYER223
 70
               0
 62
               7
  6
CONTINUOUS
  0
LAYER
  2
LAYER224
 70
               0
 62
               7
  6
CONTINUOUS
  0
LAYER
  2
LAYER225
 70
               0
 62
               7
  6
CONTINUOUS
  0
LAYER
  2
LAYER226
 70
               0
 62
               7
  6
CONTINUOUS
  0
LAYER
  2
LAYER227
 70
               0
 62
               7
  6
CONTINUOUS
  0
LAYER
  2
LAYER228
 70
               0
 62
               7
  6
CONTINUOUS
  0
LAYER
  2
LAYER229
 70
               0
 62
               7
  6
CONTINUOUS
  0
LAYER
  2
LAYER230
 70
               0
 62
               7
  6
CONTINUOUS
  0
LAYER
  2
LAYER231
 70
               0
 62
               7
  6
CONTINUOUS
  0
LAYER
  2
LAYER232
 70
               0
 62
               7
  6
CONTINUOUS
  0
LAYER
  2
LAYER233
 70
               0
 62
               7
  6
CONTINUOUS
  0
LAYER
  2
LAYER234
 70
               0
 62
               7
  6
CONTINUOUS
  0
LAYER
  2
LAYER235
 70
               0
 62
               7
  6
CONTINUOUS
  0
LAYER
  2
LAYER236
 70
               0
 62
               7
  6
CONTINUOUS
  0
LAYER
  2
LAYER237
 70
               0
 62
               7
  6
CONTINUOUS
  0
LAYER
  2
LAYER238
 70
               0
 62
               7
  6
CONTINUOUS
  0
LAYER
  2
LAYER239
 70
               0
 62
               7
  6
CONTINUOUS
  0
LAYER
  2
LAYER240
 70
               0
 62
               7
  6
CONTINUOUS
  0
LAYER
  2
LAYER241
 70
               0
 62
               7
  6
CONTINUOUS
  0
LAYER
  2
LAYER242
 70
               0
 62
               7
  6
CONTINUOUS
  0
LAYER
  2
LAYER243
 70
               0
 62
               7
  6
CONTINUOUS
  0
LAYER
  2
LAYER244
 70
               0
 62
               7
  6
CONTINUOUS
  0
LAYER
  2
LAYER245
 70
               0
 62
               7
  6
CONTINUOUS
  0
LAYER
  2
LAYER246
 70
               0
 62
               7
  6
CONTINUOUS
  0
LAYER
  2
LAYER247
 70
               0
 62
               7
  6
CONTINUOUS
  0
LAYER
  2
LAYER248
 70
               0
 62
               7
  6
CONTINUOUS
  0
LAYER
  2
LAYER249
 70
               0
 62
               7
  6
CONTINUOUS
  0
LAYER
  2
LAYER250
 70
               0
 62
               7
  6
CONTINUOUS
  0
LAYER
  2
LAYER251
 70
               0
 62
               7
  6
CONTINUOUS
  0
LAYER
  2
LAYER252
 70
               0
 62
               7
  6
CONTINUOUS
  0
LAYER
  2
LAYER253
 70
               0
 62
               7
  6
CONTINUOUS
  0
LAYER
  2
LAYER254
 70
               0
 62
               7
  6
CONTINUOUS
  0
LAYER
  2
LAYER255
 70
               0
 62
               7
  6
CONTINUOUS
  0
ENDTAB
  0
TABLE
  2
STYLE
 70
               1
  0
STYLE
  2
STANDARD
 70
               0
 40
0.0
 41
0.8
 50
0.0
 71
               0
 42
40.0
  3
MS PGothic.ttf
  4

  0
ENDTAB
  0
TABLE
  2
VIEW
 70
               0
  0
VIEW
  2
QQQQ
 70
               0
 40
2469.8706486865126
 10
-34.235386346400446
 20
0.0
 41
1472.3288429547883
 11
0.0
 21
0.0
 31
1.0
 12
100.0
 22
100.0
 32
0.0
 42
50.0
 43
0.0
 44
0.0
 50
0.0
 71
               0
  0
ENDTAB
  0
TABLE
  2
UCS
 70
               0
  0
ENDTAB
  0
TABLE
  2
APPID
 70
               1
  0
APPID
  2
ACAD
 70
               0
  0
ENDTAB
  0
TABLE
  2
DIMSTYLE
 70
               1
  0
DIMSTYLE
  2
STANDARD
 70
               0
  3

  4

  5

  6

  7

 40
1.0
 41
0.18
 42
0.0625
 43
0.38
 44
0.18
 45
0.0
 46
0.0
 47
0.0
 48
0.0
140
0.18
141
0.09
142
0.0
143
25.399999999999999
144
1.0
145
0.0
146
1.0
147
0.09
 71
               0
 72
               0
 73
               1
 74
               1
 75
               0
 76
               0
 77
               0
 78
               0
170
               0
171
               2
172
               0
173
               0
174
               0
175
               0
176
               0
177
               0
178
               0
  0
ENDTAB
  0
ENDSEC
  0
SECTION
  2
BLOCKS
  0
ENDSEC
  0
SECTION
  2
ENTITIES
  0
LINE
  8
0
  6
CONTINUOUS
 62
               3
  5
136
 10
-160.80976342932041
 20
684.57499277642592
 30
0.0
 11
-10.809763429320412
 21
684.57499277642592
 31
0.0
  0
LINE
  8
0
  6
CONTINUOUS
 62
               3
  5
137
 10
-174.30976342932064
 20
674.57499277642592
 30
0.0
 11
-174.30976342932064
 21
667.57499277642614
 31
0.0
  0
LINE
  8
0
  6
CONTINUOUS
 62
               3
  5
138
 10
-174.30976342932064
 20
674.57499277642592
 30
0.0
 11
-160.80976342932041
 21
684.57499277642592
 31
0.0
  0
ARC
  8
0
  6
CONTINUOUS
 62
               3
  5
139
 10
-162.8097634293203
 20
662.99241708147042
 30
0.0
 40
4.9999999999999991
 50
0.0
 51
66.4218215217725
  0
LINE
  8
0
  6
CONTINUOUS
 62
               3
  5
13A
 10
-174.30976342932064
 20
667.57499277642614
 30
0.0
 11
2.6902365706792466
 21
667.57499277642614
 31
0.0
  0
ARC
  8
0
  6
CONTINUOUS
 62
               3
  5
13B
 10
-140.80976342932041
 20
577.57499277642592
 30
0.0
 40
19.999999999999996
 50
148.21166938289122
 51
167.2698198616232
  0
LINE
  8
0
  6
CONTINUOUS
 62
               3
  5
13C
 10
-157.8097634293203
 20
662.99241708147042
 30
0.0
 11
-157.8097634293203
 21
588.11064652927871
 31
0.0
  0
LINE
  8
0
  6
CONTINUOUS
 62
               3
  5
13D
 10
-13.809763429320526
 20
593.11064652927917
 30
0.0
 11
-13.809763429320526
 21
662.99241708147042
 31
0.0
  0
LINE
  8
0
  6
CONTINUOUS
 62
               3
  5
13E
 10
-143.80976342932053
 20
111.57499277642552
 30
0.0
 11
-160.80976342932041
 21
260.57499277642597
 31
0.0
  0
LINE
  8
0
  6
CONTINUOUS
 62
               3
  5
13F
 10
-157.8097634293203
 20
588.11064652927871
 30
0.0
 11
-14.309763429320071
 21
588.11064652927871
 31
0.0
  0
LINE
  8
0
  6
CONTINUOUS
 62
               3
  5
140
 10
-105.80976342932041
 20
667.57499277642614
 30
0.0
 11
-105.80976342932041
 21
684.57499277642592
 31
0.0
  0
LINE
  8
0
  6
CONTINUOUS
 62
               3
  5
141
 10
-65.809763429320412
 20
684.57499277642592
 30
0.0
 11
-65.809763429320412
 21
667.57499277642614
 31
0.0
  0
LINE
  8
0
  6
CONTINUOUS
 62
               3
  5
142
 10
-105.80976342932041
 20
674.57499277642592
 30
0.0
 11
-65.809763429320412
 21
674.57499277642592
 31
0.0
  0
LINE
  8
0
  6
CONTINUOUS
 62
               3
  5
143
 10
-158.09392490332579
 20
684.57499277642592
 30
0.0
 11
-158.09392490332579
 21
667.57499277642614
 31
0.0
  0
LINE
  8
0
  6
CONTINUOUS
 62
               3
  5
144
 10
-172.02026162994565
 20
674.57499277642592
 30
0.0
 11
-172.02026162994565
 21
667.57499277642614
 31
0.0
  0
LINE
  8
0
  6
CONTINUOUS
 62
               3
  5
145
 10
-174.30976342932064
 20
674.57499277642592
 30
0.0
 11
-172.02026162994565
 21
674.57499277642592
 31
0.0
  0
LINE
  8
0
  6
CONTINUOUS
 62
               3
  5
146
 10
-172.02026162994565
 20
674.57499277642592
 30
0.0
 11
-158.09392490332579
 21
684.57499277642592
 31
0.0
  0
LINE
  8
0
  6
CONTINUOUS
 62
               3
  5
147
 10
2.6902365706792466
 20
674.57499277642592
 30
0.0
 11
2.6902365706792466
 21
667.57499277642614
 31
0.0
  0
LINE
  8
0
  6
CONTINUOUS
 62
               3
  5
148
 10
2.6902365706792466
 20
674.57499277642592
 30
0.0
 11
-10.809763429320412
 21
684.57499277642592
 31
0.0
  0
ARC
  8
0
  6
CONTINUOUS
 62
               3
  5
149
 10
-8.809763429320526
 20
662.99241708147042
 30
0.0
 40
4.9999999999999991
 50
113.57817847815815
 51
179.99999999993057
  0
LINE
  8
0
  6
CONTINUOUS
 62
               3
  5
14A
 10
-13.525601955316176
 20
684.57499277642592
 30
0.0
 11
-13.525601955316176
 21
667.57499277642614
 31
0.0
  0
LINE
  8
0
  6
CONTINUOUS
 62
               3
  5
14B
 10
0.4007347713048262
 20
674.57499277642592
 30
0.0
 11
0.4007347713048262
 21
667.57499277642614
 31
0.0
  0
LINE
  8
0
  6
CONTINUOUS
 62
               3
  5
14C
 10
2.6902365706792466
 20
674.57499277642592
 30
0.0
 11
0.4007347713048262
 21
674.57499277642592
 31
0.0
  0
LINE
  8
0
  6
CONTINUOUS
 62
               3
  5
14D
 10
0.4007347713048262
 20
674.57499277642592
 30
0.0
 11
-13.525601955316176
 21
684.57499277642592
 31
0.0
  0
LINE
  8
0
  6
CONTINUOUS
 62
               3
  5
14E
 10
-143.80976342932053
 20
111.57499277642609
 30
0.0
 11
-27.809763429320306
 21
111.57499277642552
 31
0.0
  0
ARC
  8
0
  6
CONTINUOUS
 62
               3
  5
14F
 10
-10.809763429320412
 20
456.07499277642586
 30
0.0
 40
2.4999999999999996
 50
269.99999999989649
 51
449.99999999982703
  0
LINE
  8
0
  6
CONTINUOUS
 62
               3
  5
150
 10
-160.80976342932041
 20
260.57499277642597
 30
0.0
 11
-132.1778712213773
 21
260.57499277642597
 31
0.0
  0
LINE
  8
0
  6
CONTINUOUS
 62
               3
  5
151
 10
-87.782596709471306
 20
260.57499277642597
 30
0.0
 11
-11.312998295670639
 21
260.57499277642597
 31
0.0
  0
LINE
  8
0
  6
CONTINUOUS
 62
               3
  5
152
 10
-225.80976342932041
 20
463.57499277642586
 30
0.0
 11
-225.13820730335601
 21
463.57499277642586
 31
0.0
  0
LINE
  8
0
  6
CONTINUOUS
 62
               3
  5
153
 10
-222.63820730335595
 20
461.0749927764266
 30
0.0
 11
-225.13820730335601
 21
463.57499277642586
 31
0.0
  0
LINE
  8
0
  6
CONTINUOUS
 62
               3
  5
154
 10
-222.63820730335522
 20
461.07499277642586
 30
0.0
 11
-180.4730970470778
 21
459.60255468057181
 31
0.0
  0
LINE
  8
0
  6
CONTINUOUS
 62
               3
  5
155
 10
-162.27422952338793
 20
443.30330335013986
 30
0.0
 11
-177.11206062465766
 21
458.14113445140913
 31
0.0
  0
ARC
  8
0
  6
CONTINUOUS
 62
               3
  5
156
 10
-165.80976342932041
 20
439.76776944420675
 30
0.0
 40
4.9999999999999991
 50
0.0
 51
44.999999999981704
  0
LINE
  8
0
  6
CONTINUOUS
 62
               3
  5
157
 10
-225.80976342932041
 20
573.57499277642569
 30
0.0
 11
-225.13820730335601
 21
573.57499277642569
 31
0.0
  0
LINE
  8
0
  6
CONTINUOUS
 62
               3
  5
158
 10
-222.63820730335595
 20
576.07499277642592
 30
0.0
 11
-225.13820730335601
 21
573.57499277642569
 31
0.0
  0
LINE
  8
0
  6
CONTINUOUS
 62
               3
  5
159
 10
-222.63820730335601
 20
576.07499277642592
 30
0.0
 11
-165.02073110118172
 21
578.08703938157817
 31
0.0
  0
LINE
  8
0
  6
CONTINUOUS
 62
               3
  5
15A
 10
-225.13820730335601
 20
573.57499277642569
 30
0.0
 11
-225.13820730335601
 21
463.57499277642586
 31
0.0
  0
LINE
  8
0
  6
CONTINUOUS
 62
               3
  5
15B
 10
-225.80976342932041
 20
460.97499277642589
 30
0.0
 11
-225.80976342932041
 21
576.17499277642582
 31
0.0
  0
LINE
  8
0
  6
CONTINUOUS
 62
               3
  5
15C
 10
-225.80976342932041
 20
576.17499277642582
 30
0.0
 11
-228.30976342932041
 21
576.17499277642582
 31
0.0
  0
ARC
  8
0
  6
CONTINUOUS
 62
               3
  5
15D
 10
-228.30976342932041
 20
573.67499277642582
 30
0.0
 40
2.5
 50
89.999999999965937
 51
179.99999999993119
  0
LINE
  8
0
  6
CONTINUOUS
 62
               3
  5
15E
 10
-230.80976342932041
 20
573.67499277642582
 30
0.0
 11
-230.80976342932041
 21
463.47499277642589
 31
0.0
  0
LINE
  8
0
  6
CONTINUOUS
 62
               3
  5
15F
 10
-225.80976342932041
 20
460.97499277642589
 30
0.0
 11
-228.30976342932041
 21
460.97499277642589
 31
0.0
  0
ARC
  8
0
  6
CONTINUOUS
 62
               3
  5
160
 10
-228.30976342932041
 20
463.47499277642589
 30
0.0
 40
2.5
 50
179.99999999993071
 51
269.99999999989649
  0
LINE
  8
0
  6
CONTINUOUS
 62
               3
  5
161
 10
-222.63820730335595
 20
576.07499277642592
 30
0.0
 11
-222.63820730335522
 21
461.07499277642586
 31
0.0
  0
ARC
  8
0
  6
CONTINUOUS
 62
               3
  5
162
 10
-180.64759453059034
 20
454.60560054547636
 30
0.0
 40
5.0
 50
44.999999999983494
 51
87.999999999965851
  0
ARC
  8
0
  6
CONTINUOUS
 62
               3
  5
163
 10
-165.19522858469423
 20
583.08399351667367
 30
0.0
 40
5.0
 50
271.99999999989535
 51
347.26981986155278
  0
LINE
  8
0
  6
CONTINUOUS
 62
               3
  5
164
 10
-150.80976342932266
 20
458.57499277642586
 30
0.0
 11
-85.809763429320412
 21
458.57499277642586
 31
0.0
  0
LINE
  8
0
  6
CONTINUOUS
 62
               3
  5
165
 10
-85.809763429320412
 20
458.57499277642586
 30
0.0
 11
-10.809763429320412
 21
458.57499277642586
 31
0.0
  0
LINE
  8
0
  6
CONTINUOUS
 62
               3
  5
166
 10
-150.80976342932266
 20
453.57499277642432
 30
0.0
 11
-85.809763429320412
 21
453.57499277642586
 31
0.0
  0
LINE
  8
0
  6
CONTINUOUS
 62
               3
  5
167
 10
-85.809763429320412
 20
453.57499277642586
 30
0.0
 11
-10.809763429320412
 21
453.57499277642586
 31
0.0
  0
LINE
  8
0
  6
CONTINUOUS
 62
               3
  5
168
 10
-160.80976342932041
 20
439.76776944420675
 30
0.0
 11
-160.80976342932041
 21
260.57499277642597
 31
0.0
  0
LINE
  8
0
  6
CONTINUOUS
 62
               3
  5
169
 10
-27.809763429319737
 20
100.57499277642586
 30
0.0
 11
-27.809763429319737
 21
111.57499277642552
 31
0.0
  0
LINE
  8
0
  6
CONTINUOUS
 62
               3
  5
16A
 10
-143.80976342931996
 20
111.57499277642552
 30
0.0
 11
-143.80976342931996
 21
100.5749927764254
 31
0.0
  0
LINE
  8
0
  6
CONTINUOUS
 62
               3
  5
16B
 10
-142.80976342932041
 20
64.574992776425347
 30
0.0
 11
-142.80976342932041
 21
99.574992776425859
 31
0.0
  0
LINE
  8
0
  6
CONTINUOUS
 62
               3
  5
16C
 10
-28.809763429320405
 20
64.574992776425347
 30
0.0
 11
-28.809763429320412
 21
99.574992776425859
 31
0.0
  0
LINE
  8
0
  6
CONTINUOUS
 62
               3
  5
16D
 10
-142.80976342932044
 20
99.574992776425859
 30
0.0
 11
-143.80976342931996
 21
100.5749927764254
 31
0.0
  0
LINE
  8
0
  6
CONTINUOUS
 62
               3
  5
16E
 10
-28.809763429320412
 20
99.574992776425859
 30
0.0
 11
-27.809763429320412
 21
100.57499277642586
 31
0.0
  0
ARC
  8
0
  6
CONTINUOUS
 62
               3
  5
16F
 10
-150.80976342932041
 20
456.07499277642432
 30
0.0
 40
2.4999999999999996
 50
89.999999999965283
 51
269.99999999989649
  0
LINE
  8
0
  6
CONTINUOUS
 62
               3
  5
170
 10
489.1902365706797
 20
684.57499277642592
 30
0.0
 11
339.19023657067959
 21
684.57499277642592
 31
0.0
  0
LINE
  8
0
  6
CONTINUOUS
 62
               3
  5
171
 10
502.69023657067993
 20
674.57499277642592
 30
0.0
 11
502.69023657067993
 21
667.57499277642614
 31
0.0
  0
LINE
  8
0
  6
CONTINUOUS
 62
               3
  5
172
 10
502.69023657067993
 20
674.57499277642592
 30
0.0
 11
489.1902365706797
 21
684.57499277642592
 31
0.0
  0
ARC
  8
0
  6
CONTINUOUS
 62
               3
  5
173
 10
491.19023657067947
 20
662.99241708147042
 30
0.0
 40
4.9999999999999991
 50
113.57817847815875
 51
179.99999999993057
  0
LINE
  8
0
  6
CONTINUOUS
 62
               3
  5
174
 10
502.69023657067993
 20
667.57499277642614
 30
0.0
 11
325.69023657067936
 21
667.57499277642614
 31
0.0
  0
ARC
  8
0
  6
CONTINUOUS
 62
               3
  5
175
 10
469.1902365706797
 20
577.57499277642592
 30
0.0
 40
19.999999999999996
 50
0.0
 51
31.788330617039637
  0
LINE
  8
0
  6
CONTINUOUS
 62
               3
  5
176
 10
486.19023657067947
 20
662.99241708147042
 30
0.0
 11
486.19023657067947
 21
588.11064652927871
 31
0.0
  0
ARC
  8
0
  6
CONTINUOUS
 62
               3
  5
177
 10
359.19023657067959
 20
577.57499277642592
 30
0.0
 40
19.999999999999996
 50
148.21166938289122
 51
179.99999999993088
  0
LINE
  8
0
  6
CONTINUOUS
 62
               3
  5
178
 10
342.1902365706797
 20
588.11064652927871
 30
0.0
 11
342.1902365706797
 21
662.99241708147042
 31
0.0
  0
LINE
  8
0
  6
CONTINUOUS
 62
               3
  5
179
 10
472.1902365706797
 20
111.57499277642563
 30
0.0
 11
489.1902365706797
 21
260.57499277642597
 31
0.0
  0
LINE
  8
0
  6
CONTINUOUS
 62
               3
  5
17A
 10
356.19023657067947
 20
111.57499277642563
 30
0.0
 11
339.19023657067959
 21
260.57499277642597
 31
0.0
  0
LINE
  8
0
  6
CONTINUOUS
 62
               3
  5
17B
 10
489.19023657067913
 20
453.57499277642592
 30
0.0
 11
489.1902365706797
 21
260.57499277642597
 31
0.0
  0
LINE
  8
0
  6
CONTINUOUS
 62
               3
  5
17C
 10
434.19023657067959
 20
667.57499277642614
 30
0.0
 11
434.19023657067959
 21
684.57499277642592
 31
0.0
  0
LINE
  8
0
  6
CONTINUOUS
 62
               3
  5
17D
 10
394.19023657067959
 20
684.57499277642592
 30
0.0
 11
394.19023657067959
 21
667.57499277642614
 31
0.0
  0
LINE
  8
0
  6
CONTINUOUS
 62
               3
  5
17E
 10
434.19023657067959
 20
674.57499277642592
 30
0.0
 11
394.19023657067959
 21
674.57499277642592
 31
0.0
  0
LINE
  8
0
  6
CONTINUOUS
 62
               3
  5
17F
 10
486.47439804468451
 20
684.57499277642592
 30
0.0
 11
486.47439804468451
 21
667.57499277642614
 31
0.0
  0
LINE
  8
0
  6
CONTINUOUS
 62
               3
  5
180
 10
500.40073477130483
 20
674.57499277642592
 30
0.0
 11
500.40073477130483
 21
667.57499277642614
 31
0.0
  0
LINE
  8
0
  6
CONTINUOUS
 62
               3
  5
181
 10
502.69023657067993
 20
674.57499277642592
 30
0.0
 11
500.40073477130483
 21
674.57499277642592
 31
0.0
  0
LINE
  8
0
  6
CONTINUOUS
 62
               3
  5
182
 10
500.40073477130483
 20
674.57499277642592
 30
0.0
 11
486.47439804468451
 21
684.57499277642592
 31
0.0
  0
LINE
  8
0
  6
CONTINUOUS
 62
               3
  5
183
 10
325.69023657067936
 20
674.57499277642592
 30
0.0
 11
325.69023657067936
 21
667.57499277642614
 31
0.0
  0
LINE
  8
0
  6
CONTINUOUS
 62
               3
  5
184
 10
325.69023657067936
 20
674.57499277642592
 30
0.0
 11
339.19023657067959
 21
684.57499277642592
 31
0.0
  0
ARC
  8
0
  6
CONTINUOUS
 62
               3
  5
185
 10
337.1902365706797
 20
662.99241708147042
 30
0.0
 40
4.9999999999999991
 50
0.0
 51
66.421821521772344
  0
LINE
  8
0
  6
CONTINUOUS
 62
               3
  5
186
 10
341.90607509667478
 20
684.57499277642592
 30
0.0
 11
341.90607509667478
 21
667.57499277642614
 31
0.0
  0
LINE
  8
0
  6
CONTINUOUS
 62
               3
  5
187
 10
327.97973837005435
 20
674.57499277642592
 30
0.0
 11
327.97973837005435
 21
667.57499277642614
 31
0.0
  0
LINE
  8
0
  6
CONTINUOUS
 62
               3
  5
188
 10
325.69023657067936
 20
674.57499277642592
 30
0.0
 11
327.97973837005435
 21
674.57499277642592
 31
0.0
  0
LINE
  8
0
  6
CONTINUOUS
 62
               3
  5
189
 10
327.97973837005435
 20
674.57499277642592
 30
0.0
 11
341.90607509667478
 21
684.57499277642592
 31
0.0
  0
LINE
  8
0
  6
CONTINUOUS
 62
               3
  5
18A
 10
472.1902365706797
 20
111.5749927764262
 30
0.0
 11
356.19023657067947
 21
111.57499277642563
 31
0.0
  0
LINE
  8
0
  6
CONTINUOUS
 62
               3
  5
18B
 10
486.19023657067947
 20
588.11064652927871
 30
0.0
 11
425.91723657067979
 21
588.11064652927871
 31
0.0
  0
LINE
  8
0
  6
CONTINUOUS
 62
               3
  5
18C
 10
402.46323657067938
 20
588.11064652927871
 30
0.0
 11
342.1902365706797
 21
588.11064652927871
 31
0.0
  0
ARC
  8
0
  6
CONTINUOUS
 62
               3
  5
18D
 10
489.19023657067913
 20
456.07499277642592
 30
0.0
 40
2.4999999999999996
 50
269.99999999989518
 51
449.99999999982703
  0
LINE
  8
0
  6
CONTINUOUS
 62
               3
  5
18E
 10
339.19023657067902
 20
458.57499277642592
 30
0.0
 11
405.97323657067881
 21
458.57499277642592
 31
0.0
  0
LINE
  8
0
  6
CONTINUOUS
 62
               3
  5
18F
 10
422.40723657067866
 20
458.57499277642592
 30
0.0
 11
489.19023657067913
 21
458.57499277642592
 31
0.0
  0
LINE
  8
0
  6
CONTINUOUS
 62
               3
  5
190
 10
339.19023657067902
 20
453.57499277642592
 30
0.0
 11
406.12859203726379
 21
453.57499277642592
 31
0.0
  0
LINE
  8
0
  6
CONTINUOUS
 62
               3
  5
191
 10
422.40723657067866
 20
453.57499277642592
 30
0.0
 11
489.19023657067913
 21
453.57499277642592
 31
0.0
  0
LINE
  8
0
  6
CONTINUOUS
 62
               3
  5
192
 10
489.1902365706797
 20
260.57499277642597
 30
0.0
 11
422.40723657067923
 21
260.57499277642597
 31
0.0
  0
LINE
  8
0
  6
CONTINUOUS
 62
               3
  5
193
 10
405.97323657067938
 20
260.57499277642597
 30
0.0
 11
339.19023657067959
 21
260.57499277642597
 31
0.0
  0
LINE
  8
0
  6
CONTINUOUS
 62
               3
  5
194
 10
489.1902365706797
 20
577.57499277642592
 30
0.0
 11
489.19023657067913
 21
458.57499277642592
 31
0.0
  0
LINE
  8
0
  6
CONTINUOUS
 62
               3
  5
195
 10
-660.80976342932036
 20
684.57499277642592
 30
0.0
 11
-510.80976342932092
 21
684.57499277642592
 31
0.0
  0
LINE
  8
0
  6
CONTINUOUS
 62
               3
  5
196
 10
-674.30976342932058
 20
674.57499277642592
 30
0.0
 11
-674.30976342932058
 21
667.57499277642614
 31
0.0
  0
LINE
  8
0
  6
CONTINUOUS
 62
               3
  5
197
 10
-674.30976342932058
 20
674.57499277642592
 30
0.0
 11
-660.80976342932036
 21
684.57499277642592
 31
0.0
  0
ARC
  8
0
  6
CONTINUOUS
 62
               3
  5
198
 10
-662.80976342932036
 20
662.99241708147042
 30
0.0
 40
4.9999999999999991
 50
0.0
 51
66.421821521772344
  0
LINE
  8
0
  6
CONTINUOUS
 62
               3
  5
199
 10
-674.30976342932058
 20
667.57499277642614
 30
0.0
 11
-497.3097634293207
 21
667.57499277642614
 31
0.0
  0
ARC
  8
0
  6
CONTINUOUS
 62
               3
  5
19A
 10
-640.80976342932036
 20
577.57499277642592
 30
0.0
 40
19.999999999999996
 50
148.21166938289122
 51
179.99999999993088
  0
LINE
  8
0
  6
CONTINUOUS
 62
               3
  5
19B
 10
-657.80976342932036
 20
662.99241708147042
 30
0.0
 11
-657.80976342932036
 21
588.11064652927871
 31
0.0
  0
ARC
  8
0
  6
CONTINUOUS
 62
               3
  5
19C
 10
-530.80976342932092
 20
577.57499277642592
 30
0.0
 40
19.999999999999996
 50
0.0
 51
31.788330617039556
  0
LINE
  8
0
  6
CONTINUOUS
 62
               3
  5
19D
 10
-513.80976342932047
 20
588.11064652927871
 30
0.0
 11
-513.80976342932047
 21
662.99241708147042
 31
0.0
  0
LINE
  8
0
  6
CONTINUOUS
 62
               3
  5
19E
 10
-643.80976342932058
 20
111.57499277642563
 30
0.0
 11
-660.80976342932036
 21
260.57499277642609
 31
0.0
  0
LINE
  8
0
  6
CONTINUOUS
 62
               3
  5
19F
 10
-660.80976342932081
 20
453.57499277642592
 30
0.0
 11
-660.80976342932036
 21
260.57499277642609
 31
0.0
  0
LINE
  8
0
  6
CONTINUOUS
 62
               3
  5
1A0
 10
-657.80976342932036
 20
588.11064652927871
 30
0.0
 11
-513.80976342932047
 21
588.11064652927871
 31
0.0
  0
LINE
  8
0
  6
CONTINUOUS
 62
               3
  5
1A1
 10
-605.80976342932036
 20
667.57499277642614
 30
0.0
 11
-605.80976342932036
 21
684.57499277642592
 31
0.0
  0
LINE
  8
0
  6
CONTINUOUS
 62
               3
  5
1A2
 10
-565.80976342932081
 20
684.57499277642592
 30
0.0
 11
-565.80976342932081
 21
667.57499277642614
 31
0.0
  0
LINE
  8
0
  6
CONTINUOUS
 62
               3
  5
1A3
 10
-605.80976342932036
 20
674.57499277642592
 30
0.0
 11
-565.80976342932081
 21
674.57499277642592
 31
0.0
  0
LINE
  8
0
  6
CONTINUOUS
 62
               3
  5
1A4
 10
-658.09392490332471
 20
684.57499277642592
 30
0.0
 11
-658.09392490332471
 21
667.57499277642614
 31
0.0
  0
LINE
  8
0
  6
CONTINUOUS
 62
               3
  5
1A5
 10
-672.02026162994571
 20
674.57499277642592
 30
0.0
 11
-672.02026162994571
 21
667.57499277642614
 31
0.0
  0
LINE
  8
0
  6
CONTINUOUS
 62
               3
  5
1A6
 10
-674.30976342932058
 20
674.57499277642592
 30
0.0
 11
-672.02026162994571
 21
674.57499277642592
 31
0.0
  0
LINE
  8
0
  6
CONTINUOUS
 62
               3
  5
1A7
 10
-672.02026162994571
 20
674.57499277642592
 30
0.0
 11
-658.09392490332471
 21
684.57499277642592
 31
0.0
  0
LINE
  8
0
  6
CONTINUOUS
 62
               3
  5
1A8
 10
-497.3097634293207
 20
674.57499277642592
 30
0.0
 11
-497.3097634293207
 21
667.57499277642614
 31
0.0
  0
LINE
  8
0
  6
CONTINUOUS
 62
               3
  5
1A9
 10
-497.3097634293207
 20
674.57499277642592
 30
0.0
 11
-510.80976342932092
 21
684.57499277642592
 31
0.0
  0
ARC
  8
0
  6
CONTINUOUS
 62
               3
  5
1AA
 10
-508.80976342932047
 20
662.99241708147042
 30
0.0
 40
4.9999999999999991
 50
113.57817847815815
 51
179.99999999993057
  0
LINE
  8
0
  6
CONTINUOUS
 62
               3
  5
1AB
 10
-513.52560195531555
 20
684.57499277642592
 30
0.0
 11
-513.52560195531555
 21
667.57499277642614
 31
0.0
  0
LINE
  8
0
  6
CONTINUOUS
 62
               3
  5
1AC
 10
-499.59926522869512
 20
674.57499277642592
 30
0.0
 11
-499.59926522869512
 21
667.57499277642614
 31
0.0
  0
LINE
  8
0
  6
CONTINUOUS
 62
               3
  5
1AD
 10
-497.3097634293207
 20
674.57499277642592
 30
0.0
 11
-499.59926522869512
 21
674.57499277642592
 31
0.0
  0
LINE
  8
0
  6
CONTINUOUS
 62
               3
  5
1AE
 10
-499.59926522869512
 20
674.57499277642592
 30
0.0
 11
-513.52560195531555
 21
684.57499277642592
 31
0.0
  0
LINE
  8
0
  6
CONTINUOUS
 62
               3
  5
1AF
 10
-643.80976342932058
 20
111.5749927764262
 30
0.0
 11
-527.80976342932024
 21
111.57499277642563
 31
0.0
  0
ARC
  8
0
  6
CONTINUOUS
 62
               3
  5
1B0
 10
-660.80976342932081
 20
456.07499277642592
 30
0.0
 40
2.4999999999999996
 50
89.999999999965937
 51
269.99999999989518
  0
LINE
  8
0
  6
CONTINUOUS
 62
               3
  5
1B1
 10
-660.80976342932036
 20
577.57499277642592
 30
0.0
 11
-660.80976342932081
 21
458.57499277642592
 31
0.0
  0
LINE
  8
0
  6
CONTINUOUS
 62
               3
  5
1B2
 10
-660.80976342932036
 20
260.57499277642609
 30
0.0
 11
-526.86076342932029
 21
260.57499277642631
 31
0.0
  0
LINE
  8
0
  6
CONTINUOUS
 62
               3
  5
1B3
 10
-514.05339688578113
 20
260.57499277642631
 30
0.0
 11
-510.80976342932092
 21
260.57499277642631
 31
0.0
  0
LINE
  8
0
  6
CONTINUOUS
 62
               3
  5
1B4
 10
-559.02240633684141
 20
546.5749927764258
 30
0.0
 11
-612.59712052180043
 21
546.5749927764258
 31
0.0
  0
CIRCLE
  8
0
  6
CONTINUOUS
 62
               3
  5
1B5
 10
-585.80976342932081
 20
518.57499277642592
 30
0.0
 40
48.5
  0
CIRCLE
  8
0
  6
CONTINUOUS
 62
               3
  5
1B6
 10
-585.80976342932081
 20
518.57499277642592
 30
0.0
 40
38.75
  0
CIRCLE
  8
0
  6
CONTINUOUS
 62
               3
  5
1B7
 10
-585.80976342932081
 20
518.57499277642592
 30
0.0
 40
47.299999999999997
  0
LINE
  8
0
  6
CONTINUOUS
 62
               3
  5
1B8
 10
-617.62956858271559
 20
486.75518762303136
 30
0.0
 11
-619.25591417944474
 21
485.12884202630221
 31
0.0
  0
LINE
  8
0
  6
CONTINUOUS
 62
               3
  5
1B9
 10
-553.98995827592626
 20
486.75518762303136
 30
0.0
 11
-552.3636126791971
 21
485.12884202630232
 31
0.0
  0
ARC
  8
0
  6
CONTINUOUS
 62
               3
  5
1BA
 10
-585.80976342932081
 20
518.57499277642592
 30
0.0
 40
45.0
 50
224.99999999991346
 51
314.99999999987898
  0
CIRCLE
  8
0
  6
CONTINUOUS
 62
               3
  5
1BB
 10
-585.80976342932081
 20
518.57499277642592
 30
0.0
 40
43.0
  0
CIRCLE
  8
0
  6
CONTINUOUS
 62
               3
  5
1BC
 10
-585.80976342932081
 20
518.57499277642592
 30
0.0
 40
57.600000000000001
  0
LINE
  8
0
  6
CONTINUOUS
 62
               3
  5
1BD
 10
-527.80976342932024
 20
111.57499277642563
 30
0.0
 11
-515.26167244861972
 21
221.55531960727564
 31
0.0
  0
LINE
  8
0
  6
CONTINUOUS
 62
               3
  5
1BE
 10
-513.2096204755594
 20
239.5409516064534
 30
0.0
 11
-510.80976342932092
 21
260.57499277642631
 31
0.0
  0
CIRCLE
  8
0
  6
CONTINUOUS
 62
               3
  5
1BF
 10
-85.809763429320412
 20
1009.0885288174265
 30
0.0
 40
75.0
  0
CIRCLE
  8
0
  6
CONTINUOUS
 62
               3
  5
1C0
 10
-85.809763429320412
 20
1009.0885288174265
 30
0.0
 40
52.5
  0
LINE
  8
0
  6
CONTINUOUS
 62
               3
  5
1C1
 10
-172.02026162994565
 20
1029.0885288174265
 30
0.0
 11
-158.09392490332579
 21
1029.0885288174265
 31
0.0
  0
LINE
  8
0
  6
CONTINUOUS
 62
               3
  5
1C2
 10
-158.09392490332579
 20
989.08852881742655
 30
0.0
 11
-172.02026162994565
 21
989.08852881742655
 31
0.0
  0
ARC
  8
0
  6
CONTINUOUS
 62
               3
  5
1C3
 10
-85.809763429320412
 20
1009.0885288174265
 30
0.0
 40
88.5
 50
166.93897588513531
 51
193.06102411472631
  0
LINE
  8
0
  6
CONTINUOUS
 62
               3
  5
1C4
 10
-105.80976342932041
 20
922.87803061680165
 30
0.0
 11
-105.80976342932041
 21
936.80436734342152
 31
0.0
  0
LINE
  8
0
  6
CONTINUOUS
 62
               3
  5
1C5
 10
-65.809763429320412
 20
936.80436734342152
 30
0.0
 11
-65.809763429320412
 21
922.87803061680165
 31
0.0
  0
ARC
  8
0
  6
CONTINUOUS
 62
               3
  5
1C6
 10
-85.809763429320412
 20
1009.0885288174265
 30
0.0
 40
88.5
 50
256.93897588510072
 51
283.06102411469175
  0
LINE
  8
0
  6
CONTINUOUS
 62
               3
  5
1C7
 10
0.4007347713042577
 20
989.08852881742655
 30
0.0
 11
-13.525601955316176
 21
989.08852881742655
 31
0.0
  0
LINE
  8
0
  6
CONTINUOUS
 62
               3
  5
1C8
 10
-13.525601955316176
 20
1029.0885288174265
 30
0.0
 11
0.4007347713042577
 21
1029.0885288174265
 31
0.0
  0
ARC
  8
0
  6
CONTINUOUS
 62
               3
  5
1C9
 10
-85.809763429320412
 20
1009.0885288174265
 30
0.0
 40
88.5
 50
346.93897588506604
 51
373.06102411465707
  0
LINE
  8
0
  6
CONTINUOUS
 62
               3
  5
1CA
 10
-65.809763429320412
 20
1095.2990270180521
 30
0.0
 11
-65.809763429320412
 21
1081.3726902914316
 31
0.0
  0
LINE
  8
0
  6
CONTINUOUS
 62
               3
  5
1CB
 10
-105.80976342932041
 20
1081.3726902914316
 30
0.0
 11
-105.80976342932041
 21
1095.2990270180521
 31
0.0
  0
ARC
  8
0
  6
CONTINUOUS
 62
               3
  5
1CC
 10
-85.809763429320412
 20
1009.0885288174265
 30
0.0
 40
88.5
 50
76.938975885169882
 51
103.06102411476093
  0
LINE
  8
0
  6
CONTINUOUS
 62
               3
  5
1CD
 10
-133.47788695018147
 20
987.08852881742609
 30
0.0
 11
-38.141639908460498
 21
987.08852881742609
 31
0.0
  0
ARC
  8
0
  6
CONTINUOUS
 62
               3
  5
1CE
 10
-73.306151779939285
 20
1017.7949264450456
 30
0.0
 40
54.763804151667173
 50
141.3859176367836
 51
145.15009542089805
  0
ARC
  8
0
  6
CONTINUOUS
 62
               3
  5
1CF
 10
-85.809763429320412
 20
1009.0885288174265
 30
0.0
 40
51.5
 50
334.710988473329
 51
410.9593273634826
  0
ARC
  8
0
  6
CONTINUOUS
 62
               3
  5
1D0
 10
-85.809763429320412
 20
1009.0885288174265
 30
0.0
 40
51.5
 50
129.04067263631035
 51
205.28901152646333
  0
ARC
  8
0
  6
CONTINUOUS
 62
               3
  5
1D1
 10
-85.809763429320412
 20
1009.0885288174265
 30
0.0
 40
77.5
 50
104.955248316603
 51
128.57288309098391
  0
ARC
  8
0
  6
CONTINUOUS
 62
               3
  5
1D2
 10
-85.809763429320412
 20
1009.0885288174265
 30
0.0
 40
77.5
 50
14.955248316637562
 51
75.044751683327831
  0
LINE
  8
0
  6
CONTINUOUS
 62
               3
  5
1D3
 10
-225.80976342932038
 20
954.08852881742655
 30
0.0
 11
-225.13820730335615
 21
954.08852881742655
 31
0.0
  0
LINE
  8
0
  6
CONTINUOUS
 62
               3
  5
1D4
 10
-222.6382073033557
 20
951.58852881742655
 30
0.0
 11
-225.13820730335615
 21
954.08852881742655
 31
0.0
  0
LINE
  8
0
  6
CONTINUOUS
 62
               3
  5
1D5
 10
-225.80976342932038
 20
1064.0885288174265
 30
0.0
 11
-225.13820730335615
 21
1064.0885288174265
 31
0.0
  0
LINE
  8
0
  6
CONTINUOUS
 62
               3
  5
1D6
 10
-222.63820730335615
 20
1066.5885288174265
 30
0.0
 11
-225.13820730335615
 21
1064.0885288174265
 31
0.0
  0
LINE
  8
0
  6
CONTINUOUS
 62
               3
  5
1D7
 10
-225.13820730335615
 20
1064.0885288174265
 30
0.0
 11
-225.13820730335615
 21
954.08852881742655
 31
0.0
  0
LINE
  8
0
  6
CONTINUOUS
 62
               3
  5
1D8
 10
-131.30009921569831
 20
1069.7781258357682
 30
0.0
 11
-222.63820730335615
 21
1066.5885288174265
 31
0.0
  0
LINE
  8
0
  6
CONTINUOUS
 62
               3
  5
1D9
 10
-131.30009921569899
 20
948.3989317990854
 30
0.0
 11
-222.63820730335567
 21
951.58852881742655
 31
0.0
  0
LINE
  8
0
  6
CONTINUOUS
 62
               3
  5
1DA
 10
-230.80976342932038
 20
1063.9169726914624
 30
0.0
 11
-230.80976342932038
 21
953.98852881742641
 31
0.0
  0
LINE
  8
0
  6
CONTINUOUS
 62
               3
  5
1DB
 10
-225.80976342932038
 20
951.48852881742641
 30
0.0
 11
-225.80976342932038
 21
1066.6885288174265
 31
0.0
  0
LINE
  8
0
  6
CONTINUOUS
 62
               3
  5
1DC
 10
-225.80976342932038
 20
1066.6885288174265
 30
0.0
 11
-228.30976342932038
 21
1066.6885288174265
 31
0.0
  0
LINE
  8
0
  6
CONTINUOUS
 62
               3
  5
1DD
 10
-225.80976342932038
 20
951.48852881742641
 30
0.0
 11
-228.30976342932038
 21
951.48852881742641
 31
0.0
  0
ARC
  8
0
  6
CONTINUOUS
 62
               3
  5
1DE
 10
-228.30976342932038
 20
953.98852881742641
 30
0.0
 40
2.5
 50
179.99999999993187
 51
269.99999999989649
  0
ARC
  8
0
  6
CONTINUOUS
 62
               3
  5
1DF
 10
-228.30976342932038
 20
1064.1885288174265
 30
0.0
 40
2.5
 50
89.999999999965937
 51
179.99999999993187
  0
LINE
  8
0
  6
CONTINUOUS
 62
               3
  5
1E0
 10
-118.24816659593802
 20
1049.0885288174263
 30
0.0
 11
-85.809763429320412
 21
1049.0885288174263
 31
0.0
  0
LINE
  8
0
  6
CONTINUOUS
 62
               3
  5
1E1
 10
-85.809763429320412
 20
1049.0885288174263
 30
0.0
 11
-51.806087157481734
 21
1049.0885288174263
 31
0.0
  0
LINE
  8
0
  6
CONTINUOUS
 62
               3
  5
1E2
 10
-222.6382073033557
 20
951.58852881742655
 30
0.0
 11
-222.63820730335615
 21
1066.5885288174265
 31
0.0
  0
ARC
  8
0
  6
CONTINUOUS
 62
               3
  5
1E3
 10
-131.47459669921085
 20
1074.7750799708635
 30
0.0
 40
5.0
 50
271.99999999989558
 51
304.80675787031021
  0
ARC
  8
0
  6
CONTINUOUS
 62
               3
  5
1E4
 10
-131.47459669921147
 20
943.40197766398978
 30
0.0
 40
5.0
 50
55.193242129550548
 51
87.999999999966434
  0
ARC
  8
0
  6
CONTINUOUS
 62
               3
  5
1E5
 10
339.19023657067891
 20
456.07499277642592
 30
0.0
 40
2.4999999999999996
 50
90.000000000068837
 51
269.99999999999937
  0
LINE
  8
0
  6
CONTINUOUS
 62
               3
  5
1E6
 10
339.19023657067959
 20
260.57499277642597
 30
0.0
 11
339.19023657067891
 21
453.57499277642592
 31
0.0
  0
LINE
  8
0
  6
CONTINUOUS
 62
               3
  5
1E7
 10
339.19023657067891
 20
458.57499277642592
 30
0.0
 11
339.19023657067959
 21
577.57499277643785
 31
0.0
  0
ARC
  8
0
  6
CONTINUOUS
 62
               3
  5
1E8
 10
-510.80976342932087
 20
456.07499277642592
 30
0.0
 40
2.4999999999999996
 50
269.99999999999937
 51
449.99999999992991
  0
LINE
  8
0
  6
CONTINUOUS
 62
               3
  5
1E9
 10
-510.80976342932092
 20
260.57499277642609
 30
0.0
 11
-510.80976342932087
 21
453.57499277642592
 31
0.0
  0
LINE
  8
0
  6
CONTINUOUS
 62
               3
  5
1EA
 10
-510.80976342932087
 20
458.57499277642592
 30
0.0
 11
-510.80976342932092
 21
577.57499277642592
 31
0.0
  0
ARC
  8
0
  6
CONTINUOUS
 62
               3
  5
1EB
 10
-608.30976342932013
 20
456.07499277642592
 30
0.0
 40
2.4999999999999996
 50
269.99999999994731
 51
449.99999999991297
  0
ARC
  8
0
  6
CONTINUOUS
 62
               3
  5
1EC
 10
-563.30976342932013
 20
456.07499277642592
 30
0.0
 40
2.4999999999999996
 50
89.999999999982862
 51
269.99999999994731
  0
LINE
  8
0
  6
CONTINUOUS
 62
               3
  5
1ED
 10
-660.80976342932081
 20
458.57499277642592
 30
0.0
 11
-608.30976342932013
 21
458.57499277642592
 31
0.0
  0
LINE
  8
0
  6
CONTINUOUS
 62
               3
  5
1EE
 10
-563.30976342932013
 20
458.57499277642592
 30
0.0
 11
-510.80976342932149
 21
458.57499277642592
 31
0.0
  0
LINE
  8
0
  6
CONTINUOUS
 62
               3
  5
1EF
 10
-660.80976342932081
 20
453.57499277642592
 30
0.0
 11
-608.30976342932013
 21
453.57499277642592
 31
0.0
  0
LINE
  8
0
  6
CONTINUOUS
 62
               3
  5
1F0
 10
-563.30976342932013
 20
453.57499277642592
 30
0.0
 11
-510.80976342932149
 21
453.57499277642592
 31
0.0
  0
ARC
  8
0
  6
CONTINUOUS
 62
               3
  5
1F1
 10
-85.809763429320412
 20
1009.0885288174265
 30
0.0
 40
77.5
 50
231.42711690892145
 51
255.04475168330734
  0
ARC
  8
0
  6
CONTINUOUS
 62
               3
  5
1F2
 10
-85.809763429320412
 20
1009.0885288174265
 30
0.0
 40
77.5
 50
284.95524831658821
 51
345.04475168322398
  0
LINE
  8
0
  6
CONTINUOUS
 62
               3
  5
1F3
 10
-642.80976342932036
 20
64.574992776425347
 30
0.0
 11
-642.80976342932036
 21
99.574992776425859
 31
0.0
  0
LINE
  8
0
  6
CONTINUOUS
 62
               3
  5
1F4
 10
-528.80976342932036
 20
64.574992776425347
 30
0.0
 11
-528.80976342932036
 21
99.574992776425859
 31
0.0
  0
LINE
  8
0
  6
CONTINUOUS
 62
               3
  5
1F5
 10
-642.80976342932036
 20
99.574992776425859
 30
0.0
 11
-643.8097634293199
 21
100.5749927764254
 31
0.0
  0
LINE
  8
0
  6
CONTINUOUS
 62
               3
  5
1F6
 10
-528.80976342932036
 20
99.574992776425859
 30
0.0
 11
-527.80976342932036
 21
100.57499277642586
 31
0.0
  0
LINE
  8
0
  6
CONTINUOUS
 62
               3
  5
1F7
 10
-527.80976342931967
 20
100.57499277642586
 30
0.0
 11
-527.80976342931967
 21
111.57499277642552
 31
0.0
  0
LINE
  8
0
  6
CONTINUOUS
 62
               3
  5
1F8
 10
-643.8097634293199
 20
111.57499277642552
 30
0.0
 11
-643.8097634293199
 21
100.5749927764254
 31
0.0
  0
LINE
  8
0
  6
CONTINUOUS
 62
               3
  5
1F9
 10
357.19023657067959
 20
64.574992776425347
 30
0.0
 11
357.19023657067959
 21
99.574992776425859
 31
0.0
  0
LINE
  8
0
  6
CONTINUOUS
 62
               3
  5
1FA
 10
471.19023657067959
 20
64.574992776425404
 30
0.0
 11
471.19023657067959
 21
99.574992776425859
 31
0.0
  0
LINE
  8
0
  6
CONTINUOUS
 62
               3
  5
1FB
 10
357.19023657067959
 20
99.574992776425859
 30
0.0
 11
356.19023657068004
 21
100.5749927764254
 31
0.0
  0
LINE
  8
0
  6
CONTINUOUS
 62
               3
  5
1FC
 10
471.19023657067959
 20
99.574992776425859
 30
0.0
 11
472.19023657067959
 21
100.57499277642586
 31
0.0
  0
LINE
  8
0
  6
CONTINUOUS
 62
               3
  5
1FD
 10
472.19023657068027
 20
100.57499277642586
 30
0.0
 11
472.19023657068027
 21
111.57499277642552
 31
0.0
  0
LINE
  8
0
  6
CONTINUOUS
 62
               3
  5
1FE
 10
356.19023657068004
 20
111.57499277642552
 30
0.0
 11
356.19023657068004
 21
100.5749927764254
 31
0.0
  0
CIRCLE
  8
0
  6
CONTINUOUS
 62
               3
  5
1FF
 10
-85.809763429320412
 20
1009.0885288174265
 30
0.0
 40
59.0
  0
LINE
  8
0
  6
CONTINUOUS
 62
               3
  5
200
 10
-647.80976342932036
 20
-80.425007223573004
 30
0.0
 11
-647.80976342932036
 21
-65.425007223573914
 31
0.0
  0
LINE
  8
0
  6
CONTINUOUS
 62
               3
  5
201
 10
-650.80976342932036
 20
-80.425007223573004
 30
0.0
 11
-520.80976342932036
 21
-80.425007223573004
 31
0.0
  0
ARC
  8
0
  6
CONTINUOUS
 62
               3
  5
202
 10
-661.80976342931967
 20
60.574992776425177
 30
0.0
 40
4.0
 50
89.999999999965596
 51
179.9999999999304
  0
LINE
  8
0
  6
CONTINUOUS
 62
               3
  5
203
 10
-665.80976342931967
 20
60.574992776427564
 30
0.0
 11
-665.8097634293199
 21
41.574992776425177
 31
0.0
  0
LINE
  8
0
  6
CONTINUOUS
 62
               3
  5
204
 10
-601.80976342931967
 20
64.574992776425745
 30
0.0
 11
-661.80976342931967
 21
64.574992776425177
 31
0.0
  0
LINE
  8
0
  6
CONTINUOUS
 62
               3
  5
205
 10
-601.80976342931967
 20
-66.425007223572891
 30
0.0
 11
-569.80976342931922
 21
-66.425007223572436
 31
0.0
  0
ARC
  8
0
  6
CONTINUOUS
 62
               3
  5
206
 10
-661.80976342931945
 20
-61.425007223573914
 30
0.0
 40
4.0
 50
179.99999999993119
 51
269.99999999989683
  0
LINE
  8
0
  6
CONTINUOUS
 62
               3
  5
207
 10
-665.80976342931945
 20
-61.425007223573914
 30
0.0
 11
-665.80976342931922
 21
-42.925007223573687
 31
0.0
  0
LINE
  8
0
  6
CONTINUOUS
 62
               3
  5
208
 10
-601.80976342931967
 20
-65.425007223573232
 30
0.0
 11
-661.80976342932286
 21
-65.425007223573914
 31
0.0
  0
LINE
  8
0
  6
CONTINUOUS
 62
               3
  5
209
 10
-601.80976342931967
 20
-42.925007223573118
 30
0.0
 11
-665.80976342931945
 21
-42.925007223573687
 31
0.0
  0
LINE
  8
0
  6
CONTINUOUS
 62
               3
  5
20A
 10
-665.8097634293199
 20
41.574992776425177
 30
0.0
 11
-601.80976342931967
 21
41.574992776425177
 31
0.0
  0
LINE
  8
0
  6
CONTINUOUS
 62
               3
  5
20B
 10
-662.8097634293199
 20
41.574992776425177
 30
0.0
 11
-662.80976342932036
 21
-42.925007223573687
 31
0.0
  0
LINE
  8
0
  6
CONTINUOUS
 62
               3
  5
20C
 10
-569.80976342931967
 20
64.574992776425745
 30
0.0
 11
-506.80976342931996
 21
64.574992776425177
 31
0.0
  0
LINE
  8
0
  6
CONTINUOUS
 62
               3
  5
20D
 10
-569.80976342931922
 20
-65.425007223573232
 30
0.0
 11
-509.80976342932126
 21
-65.425007223573914
 31
0.0
  0
LINE
  8
0
  6
CONTINUOUS
 62
               3
  5
20E
 10
-569.80976342931922
 20
-42.925007223573232
 30
0.0
 11
-505.80976342932115
 21
-42.925007223573687
 31
0.0
  0
LINE
  8
0
  6
CONTINUOUS
 62
               3
  5
20F
 10
-505.80976342931973
 20
41.574992776425177
 30
0.0
 11
-569.80976342931967
 21
41.574992776425177
 31
0.0
  0
LINE
  8
0
  6
CONTINUOUS
 62
               3
  5
210
 10
-523.80976342932036
 20
-80.425007223573004
 30
0.0
 11
-523.80976342932036
 21
-65.425007223573914
 31
0.0
  0
LINE
  8
0
  6
CONTINUOUS
 62
               3
  5
211
 10
-601.80976342931967
 20
65.574992776425177
 30
0.0
 11
-601.80976342931967
 21
-66.425007223572891
 31
0.0
  0
LINE
  8
0
  6
CONTINUOUS
 62
               3
  5
212
 10
-569.80976342931922
 20
-66.425007223572436
 30
0.0
 11
-569.80976342931967
 21
65.574992776425177
 31
0.0
  0
LINE
  8
0
  6
CONTINUOUS
 62
               3
  5
213
 10
-601.80976342932036
 20
65.574992776425177
 30
0.0
 11
-569.80976342932036
 21
65.574992776425177
 31
0.0
  0
LINE
  8
0
  6
CONTINUOUS
 62
               3
  5
214
 10
-601.80976342931967
 20
-1.4250072235736866
 30
0.0
 11
-569.80976342931922
 21
-1.4250072235736866
 31
0.0
  0
LINE
  8
0
  6
CONTINUOUS
 62
               3
  5
215
 10
-601.80976342931967
 20
-0.425007223573914
 30
0.0
 11
-569.80976342931922
 21
-0.425007223573914
 31
0.0
  0
LINE
  8
0
  6
CONTINUOUS
 62
               3
  5
216
 10
-601.80976342931967
 20
-2.425007223573914
 30
0.0
 11
-569.80976342931922
 21
-2.425007223573914
 31
0.0
  0
ARC
  8
0
  6
CONTINUOUS
 62
               3
  5
217
 10
-509.80976342932092
 20
60.574992776425177
 30
0.0
 40
4.0
 50
0.0000000000341973
 51
89.999999999999801
  0
LINE
  8
0
  6
CONTINUOUS
 62
               3
  5
218
 10
-505.80976342932092
 20
60.574992776427564
 30
0.0
 11
-505.8097634293207
 21
41.574992776425177
 31
0.0
  0
ARC
  8
0
  6
CONTINUOUS
 62
               3
  5
219
 10
-509.80976342932121
 20
-61.425007223573914
 30
0.0
 40
4.0
 50
269.99999999999858
 51
359.99999999996419
  0
LINE
  8
0
  6
CONTINUOUS
 62
               3
  5
21A
 10
-505.80976342932115
 20
-61.425007223573914
 30
0.0
 11
-505.80976342932126
 21
-42.925007223573687
 31
0.0
  0
LINE
  8
0
  6
CONTINUOUS
 62
               3
  5
21B
 10
-508.8097634293207
 20
41.574992776425177
 30
0.0
 11
-508.80976342932013
 21
-42.925007223573687
 31
0.0
  0
LINE
  8
0
  6
CONTINUOUS
 62
               3
  5
21C
 10
-147.80976342932058
 20
-80.425007223573004
 30
0.0
 11
-147.80976342932058
 21
-65.425007223573914
 31
0.0
  0
LINE
  8
0
  6
CONTINUOUS
 62
               3
  5
21D
 10
-150.80976342932041
 20
-80.425007223573004
 30
0.0
 11
-20.809763429320427
 21
-80.425007223573004
 31
0.0
  0
ARC
  8
0
  6
CONTINUOUS
 62
               3
  5
21E
 10
-161.80976342931979
 20
60.574992776425177
 30
0.0
 40
4.0
 50
89.999999999964984
 51
179.9999999999304
  0
ARC
  8
0
  6
CONTINUOUS
 62
               3
  5
21F
 10
-164.80976342931976
 20
63.574992776425177
 30
0.0
 40
1.0000000000000004
 50
89.999999999963975
 51
179.99999999993119
  0
ARC
  8
0
  6
CONTINUOUS
 62
               3
  5
220
 10
-164.80976342931976
 20
63.574992776425177
 30
0.0
 40
1.9999999999999996
 50
89.999999999965596
 51
179.99999999993119
  0
LINE
  8
0
  6
CONTINUOUS
 62
               3
  5
221
 10
-166.80976342931979
 20
63.574992776425177
 30
0.0
 11
-166.80976342932036
 21
0.5749927764263134
 31
0.0
  0
LINE
  8
0
  6
CONTINUOUS
 62
               3
  5
222
 10
-165.80976342931999
 20
63.574992776425177
 30
0.0
 11
-165.80976342932055
 21
0.5749927764263134
 31
0.0
  0
ARC
  8
0
  6
CONTINUOUS
 62
               3
  5
223
 10
-167.8097634293203
 20
0.5749927764263134
 30
0.0
 40
1.9999999999999996
 50
269.99999999989598
 51
359.99999999986238
  0
ARC
  8
0
  6
CONTINUOUS
 62
               3
  5
224
 10
-167.8097634293203
 20
0.5749927764263134
 30
0.0
 40
1.0000000000000004
 50
269.99999999989598
 51
359.99999999986238
  0
LINE
  8
0
  6
CONTINUOUS
 62
               3
  5
225
 10
-167.8097634293203
 20
-1.4250072235736866
 30
0.0
 11
-230.80976342932041
 21
-1.4250072235741413
 31
0.0
  0
LINE
  8
0
  6
CONTINUOUS
 62
               3
  5
226
 10
-167.8097634293203
 20
-0.4250072235736866
 30
0.0
 11
-230.80976342932041
 21
-0.4250072235741413
 31
0.0
  0
LINE
  8
0
  6
CONTINUOUS
 62
               3
  5
227
 10
-150.80976342931999
 20
65.574992776425177
 30
0.0
 11
-164.80976342931976
 21
65.574992776425177
 31
0.0
  0
LINE
  8
0
  6
CONTINUOUS
 62
               3
  5
228
 10
-85.809763429319844
 20
64.574992776425859
 30
0.0
 11
-164.80976342931976
 21
64.574992776425177
 31
0.0
  0
LINE
  8
0
  6
CONTINUOUS
 62
               3
  5
229
 10
-150.80976342931999
 20
65.574992776425177
 30
0.0
 11
-150.80976342931999
 21
64.57499277642529
 31
0.0
  0
LINE
  8
0
  6
CONTINUOUS
 62
               3
  5
22A
 10
-150.80976342931942
 20
-66.425007223573687
 30
0.0
 11
-164.80976342931933
 21
-66.425007223573914
 31
0.0
  0
ARC
  8
0
  6
CONTINUOUS
 62
               3
  5
22B
 10
-164.80976342931933
 20
-64.425007223573914
 30
0.0
 40
1.0000000000000004
 50
179.99999999993119
 51
269.99999999989598
  0
ARC
  8
0
  6
CONTINUOUS
 62
               3
  5
22C
 10
-164.80976342931933
 20
-64.425007223573914
 30
0.0
 40
1.9999999999999996
 50
179.99999999993119
 51
269.99999999989723
  0
ARC
  8
0
  6
CONTINUOUS
 62
               3
  5
22D
 10
-161.8097634293195
 20
-61.425007223573914
 30
0.0
 40
4.0
 50
179.99999999993119
 51
269.9999999998974
  0
LINE
  8
0
  6
CONTINUOUS
 62
               3
  5
22E
 10
-150.80976342931942
 20
-66.425007223573687
 30
0.0
 11
-150.80976342931942
 21
-65.425007223573914
 31
0.0
  0
LINE
  8
0
  6
CONTINUOUS
 62
               3
  5
22F
 10
-166.8097634293195
 20
-64.425007223573914
 30
0.0
 11
-166.80976342932036
 21
-3.4250072235736866
 31
0.0
  0
LINE
  8
0
  6
CONTINUOUS
 62
               3
  5
230
 10
-165.80976342931942
 20
-64.425007223573914
 30
0.0
 11
-165.80976342932041
 21
-3.4250072235736866
 31
0.0
  0
LINE
  8
0
  6
CONTINUOUS
 62
               3
  5
231
 10
-85.809763429320412
 20
-65.425007223573004
 30
0.0
 11
-164.80976342931933
 21
-65.425007223573914
 31
0.0
  0
LINE
  8
0
  6
CONTINUOUS
 62
               3
  5
232
 10
-85.809763429320412
 20
-42.925007223573004
 30
0.0
 11
-165.80976342931956
 21
-42.925007223573687
 31
0.0
  0
ARC
  8
0
  6
CONTINUOUS
 62
               3
  5
233
 10
-167.8097634293203
 20
-3.4250072235736866
 30
0.0
 40
1.9999999999999996
 50
0.0000000000016284
 51
89.999999999965596
  0
ARC
  8
0
  6
CONTINUOUS
 62
               3
  5
234
 10
-167.8097634293203
 20
-3.4250072235736866
 30
0.0
 40
1.0000000000000004
 50
0.0
 51
89.99999999996723
  0
LINE
  8
0
  6
CONTINUOUS
 62
               3
  5
235
 10
-167.8097634293203
 20
-2.4250072235736866
 30
0.0
 11
-230.80976342932041
 21
-2.4250072235741413
 31
0.0
  0
LINE
  8
0
  6
CONTINUOUS
 62
               3
  5
236
 10
-165.80976342931999
 20
41.574992776425177
 30
0.0
 11
-85.809763429319844
 21
41.574992776425177
 31
0.0
  0
LINE
  8
0
  6
CONTINUOUS
 62
               3
  5
237
 10
-162.80976342932001
 20
41.574992776425177
 30
0.0
 11
-162.80976342932058
 21
-42.925007223573687
 31
0.0
  0
LINE
  8
0
  6
CONTINUOUS
 62
               3
  5
238
 10
-230.80976342932041
 20
-0.4250072235741413
 30
0.0
 11
-230.80976342932041
 21
-1.4250072235741413
 31
0.0
  0
LINE
  8
0
  6
CONTINUOUS
 62
               3
  5
239
 10
-230.80976342932041
 20
-2.4250072235741413
 30
0.0
 11
-230.80976342932041
 21
-1.4250072235741413
 31
0.0
  0
LINE
  8
0
  6
CONTINUOUS
 62
               3
  5
23A
 10
-173.05976342932036
 20
1.0749927764263134
 30
0.0
 11
-180.55976342932036
 21
1.0749927764263134
 31
0.0
  0
LINE
  8
0
  6
CONTINUOUS
 62
               3
  5
23B
 10
-173.05976342932036
 20
-3.9250072235736866
 30
0.0
 11
-180.55976342932036
 21
-3.925007223573914
 31
0.0
  0
LINE
  8
0
  6
CONTINUOUS
 62
               3
  5
23C
 10
-173.05976342932036
 20
1.0749927764263134
 30
0.0
 11
-173.05976342932036
 21
-0.4250072235736866
 31
0.0
  0
LINE
  8
0
  6
CONTINUOUS
 62
               3
  5
23D
 10
-173.05976342932036
 20
-2.4250072235736866
 30
0.0
 11
-173.05976342932036
 21
-3.9250072235736866
 31
0.0
  0
LINE
  8
0
  6
CONTINUOUS
 62
               3
  5
23E
 10
-180.55976342932036
 20
1.0749927764263134
 30
0.0
 11
-180.55976342932036
 21
-0.4250072235736866
 31
0.0
  0
LINE
  8
0
  6
CONTINUOUS
 62
               3
  5
23F
 10
-180.55976342932036
 20
-2.425007223573914
 30
0.0
 11
-180.55976342932036
 21
-3.925007223573914
 31
0.0
  0
ARC
  8
0
  6
CONTINUOUS
 62
               3
  5
240
 10
-9.8097634293200286
 20
60.574992776425177
 30
0.0
 40
4.0
 50
0.0000000000341973
 51
90.000000000000199
  0
ARC
  8
0
  6
CONTINUOUS
 62
               3
  5
241
 10
-6.8097634293200855
 20
63.574992776425177
 30
0.0
 40
1.0000000000000004
 50
0.0000000000358258
 51
90.000000000000611
  0
ARC
  8
0
  6
CONTINUOUS
 62
               3
  5
242
 10
-6.8097634293200855
 20
63.574992776425177
 30
0.0
 40
1.9999999999999996
 50
0.0000000000341973
 51
89.999999999999389
  0
LINE
  8
0
  6
CONTINUOUS
 62
               3
  5
243
 10
-4.8097634293200286
 20
63.574992776425177
 30
0.0
 11
-4.8097634293205971
 21
0.5749927764263134
 31
0.0
  0
LINE
  8
0
  6
CONTINUOUS
 62
               3
  5
244
 10
-5.8097634293198581
 20
63.574992776425177
 30
0.0
 11
-5.8097634293204266
 21
0.5749927764263134
 31
0.0
  0
ARC
  8
0
  6
CONTINUOUS
 62
               3
  5
245
 10
-3.8097634293205402
 20
0.5749927764263134
 30
0.0
 40
1.9999999999999996
 50
180.00000000003379
 51
269.99999999999983
  0
ARC
  8
0
  6
CONTINUOUS
 62
               3
  5
246
 10
-3.8097634293205402
 20
0.5749927764263134
 30
0.0
 40
1.0000000000000004
 50
180.00000000003541
 51
269.99999999999937
  0
LINE
  8
0
  6
CONTINUOUS
 62
               3
  5
247
 10
-3.8097634293205402
 20
-1.4250072235736866
 30
0.0
 11
59.190236570679588
 21
-1.4250072235741413
 31
0.0
  0
LINE
  8
0
  6
CONTINUOUS
 62
               3
  5
248
 10
-3.8097634293205402
 20
-0.4250072235736866
 30
0.0
 11
59.190236570679588
 21
-0.4250072235741413
 31
0.0
  0
LINE
  8
0
  6
CONTINUOUS
 62
               3
  5
249
 10
-20.809763429319858
 20
65.574992776425177
 30
0.0
 11
-6.8097634293200855
 21
65.574992776425177
 31
0.0
  0
LINE
  8
0
  6
CONTINUOUS
 62
               3
  5
24A
 10
-85.809763429319844
 20
64.574992776425859
 30
0.0
 11
-6.8097634293200855
 21
64.574992776425177
 31
0.0
  0
LINE
  8
0
  6
CONTINUOUS
 62
               3
  5
24B
 10
-20.809763429319858
 20
65.574992776425177
 30
0.0
 11
-20.809763429319858
 21
64.57499277642529
 31
0.0
  0
LINE
  8
0
  6
CONTINUOUS
 62
               3
  5
24C
 10
-20.809763429321563
 20
-66.425007223573687
 30
0.0
 11
-6.8097634293215066
 21
-66.425007223573914
 31
0.0
  0
ARC
  8
0
  6
CONTINUOUS
 62
               3
  5
24D
 10
-6.8097634293215066
 20
-64.425007223573914
 30
0.0
 40
1.0000000000000004
 50
269.99999999999937
 51
359.99999999996339
  0
ARC
  8
0
  6
CONTINUOUS
 62
               3
  5
24E
 10
-6.8097634293215066
 20
-64.425007223573914
 30
0.0
 40
1.9999999999999996
 50
269.99999999999818
 51
359.99999999996339
  0
ARC
  8
0
  6
CONTINUOUS
 62
               3
  5
24F
 10
-9.8097634293214497
 20
-61.425007223573914
 30
0.0
 40
4.0
 50
269.99999999999818
 51
359.99999999996419
  0
LINE
  8
0
  6
CONTINUOUS
 62
               3
  5
250
 10
-20.809763429321563
 20
-66.425007223573687
 30
0.0
 11
-20.809763429321563
 21
-65.425007223573914
 31
0.0
  0
LINE
  8
0
  6
CONTINUOUS
 62
               3
  5
251
 10
-4.8097634293216203
 20
-64.425007223573914
 30
0.0
 11
-4.8097634293205971
 21
-3.4250072235736866
 31
0.0
  0
LINE
  8
0
  6
CONTINUOUS
 62
               3
  5
252
 10
-5.8097634293215634
 20
-64.425007223573914
 30
0.0
 11
-5.8097634293205402
 21
-3.4250072235736866
 31
0.0
  0
LINE
  8
0
  6
CONTINUOUS
 62
               3
  5
253
 10
-85.809763429320412
 20
-65.425007223573004
 30
0.0
 11
-6.8097634293215066
 21
-65.425007223573914
 31
0.0
  0
LINE
  8
0
  6
CONTINUOUS
 62
               3
  5
254
 10
-85.809763429320412
 20
-42.925007223573004
 30
0.0
 11
-5.8097634293212792
 21
-42.925007223573687
 31
0.0
  0
ARC
  8
0
  6
CONTINUOUS
 62
               3
  5
255
 10
-3.8097634293205402
 20
-3.4250072235736866
 30
0.0
 40
1.9999999999999996
 50
89.999999999999389
 51
179.99999999996376
  0
ARC
  8
0
  6
CONTINUOUS
 62
               3
  5
256
 10
-3.8097634293205402
 20
-3.4250072235736866
 30
0.0
 40
1.0000000000000004
 50
89.999999999998167
 51
179.99999999996376
  0
LINE
  8
0
  6
CONTINUOUS
 62
               3
  5
257
 10
-3.8097634293205402
 20
-2.4250072235736866
 30
0.0
 11
59.190236570679588
 21
-2.4250072235741413
 31
0.0
  0
LINE
  8
0
  6
CONTINUOUS
 62
               3
  5
258
 10
-5.8097634293198581
 20
41.574992776425177
 30
0.0
 11
-85.809763429319844
 21
41.574992776425177
 31
0.0
  0
LINE
  8
0
  6
CONTINUOUS
 62
               3
  5
259
 10
-8.8097634293199718
 20
41.574992776425177
 30
0.0
 11
-8.8097634293205402
 21
-42.925007223573687
 31
0.0
  0
LINE
  8
0
  6
CONTINUOUS
 62
               3
  5
25A
 10
59.190236570679588
 20
-0.4250072235741413
 30
0.0
 11
59.190236570679588
 21
-1.4250072235741413
 31
0.0
  0
LINE
  8
0
  6
CONTINUOUS
 62
               3
  5
25B
 10
59.190236570679588
 20
-2.4250072235741413
 30
0.0
 11
59.190236570679588
 21
-1.4250072235741413
 31
0.0
  0
LINE
  8
0
  6
CONTINUOUS
 62
               3
  5
25C
 10
1.4402365706794029
 20
1.0749927764263134
 30
0.0
 11
8.9402365706794029
 21
1.0749927764263134
 31
0.0
  0
LINE
  8
0
  6
CONTINUOUS
 62
               3
  5
25D
 10
1.4402365706794029
 20
-3.9250072235736866
 30
0.0
 11
8.9402365706794029
 21
-3.925007223573914
 31
0.0
  0
LINE
  8
0
  6
CONTINUOUS
 62
               3
  5
25E
 10
1.4402365706794029
 20
1.0749927764263134
 30
0.0
 11
1.4402365706794029
 21
-0.4250072235736866
 31
0.0
  0
LINE
  8
0
  6
CONTINUOUS
 62
               3
  5
25F
 10
1.4402365706794029
 20
-2.4250072235736866
 30
0.0
 11
1.4402365706794029
 21
-3.9250072235736866
 31
0.0
  0
LINE
  8
0
  6
CONTINUOUS
 62
               3
  5
260
 10
8.9402365706794029
 20
1.0749927764263134
 30
0.0
 11
8.9402365706794029
 21
-0.4250072235736866
 31
0.0
  0
LINE
  8
0
  6
CONTINUOUS
 62
               3
  5
261
 10
8.9402365706794029
 20
-2.425007223573914
 30
0.0
 11
8.9402365706794029
 21
-3.925007223573914
 31
0.0
  0
LINE
  8
0
  6
CONTINUOUS
 62
               3
  5
262
 10
-23.809763429320526
 20
-80.425007223573004
 30
0.0
 11
-23.809763429320526
 21
-65.425007223573914
 31
0.0
  0
LINE
  8
0
  6
CONTINUOUS
 62
               3
  5
263
 10
352.19023657067936
 20
-80.425007223573004
 30
0.0
 11
352.19023657067936
 21
-65.425007223573914
 31
0.0
  0
LINE
  8
0
  6
CONTINUOUS
 62
               3
  5
264
 10
349.19023657067953
 20
-80.425007223573004
 30
0.0
 11
479.19023657067947
 21
-80.425007223573004
 31
0.0
  0
ARC
  8
0
  6
CONTINUOUS
 62
               3
  5
265
 10
338.19023657068016
 20
60.574992776425177
 30
0.0
 40
4.0
 50
89.999999999964786
 51
179.9999999999304
  0
LINE
  8
0
  6
CONTINUOUS
 62
               3
  5
266
 10
334.19023657068016
 20
60.574992776427564
 30
0.0
 11
334.19023657067993
 21
41.574992776425177
 31
0.0
  0
LINE
  8
0
  6
CONTINUOUS
 62
               3
  5
267
 10
398.19023657068016
 20
64.574992776425745
 30
0.0
 11
338.1902365706801
 21
64.574992776425177
 31
0.0
  0
LINE
  8
0
  6
CONTINUOUS
 62
               3
  5
268
 10
398.19023657068016
 20
-66.425007223572891
 30
0.0
 11
430.19023657068061
 21
-66.425007223572436
 31
0.0
  0
ARC
  8
0
  6
CONTINUOUS
 62
               3
  5
269
 10
338.19023657068044
 20
-61.425007223573914
 30
0.0
 40
4.0
 50
179.99999999993119
 51
269.99999999989763
  0
LINE
  8
0
  6
CONTINUOUS
 62
               3
  5
26A
 10
334.19023657068038
 20
-61.425007223573914
 30
0.0
 11
334.1902365706805
 21
-42.925007223573687
 31
0.0
  0
LINE
  8
0
  6
CONTINUOUS
 62
               3
  5
26B
 10
398.19023657068016
 20
-65.425007223573232
 30
0.0
 11
338.19023657067692
 21
-65.425007223573914
 31
0.0
  0
LINE
  8
0
  6
CONTINUOUS
 62
               3
  5
26C
 10
398.19023657068016
 20
-42.925007223573118
 30
0.0
 11
334.19023657068038
 21
-42.925007223573687
 31
0.0
  0
LINE
  8
0
  6
CONTINUOUS
 62
               3
  5
26D
 10
334.19023657067993
 20
41.574992776425177
 30
0.0
 11
398.19023657068016
 21
41.574992776425177
 31
0.0
  0
LINE
  8
0
  6
CONTINUOUS
 62
               3
  5
26E
 10
337.19023657067993
 20
41.574992776425177
 30
0.0
 11
337.19023657067936
 21
-42.925007223573687
 31
0.0
  0
LINE
  8
0
  6
CONTINUOUS
 62
               3
  5
26F
 10
430.19023657068016
 20
64.574992776425745
 30
0.0
 11
493.19023657067993
 21
64.574992776425177
 31
0.0
  0
LINE
  8
0
  6
CONTINUOUS
 62
               3
  5
270
 10
430.19023657068061
 20
-65.425007223573232
 30
0.0
 11
490.19023657067856
 21
-65.425007223573914
 31
0.0
  0
LINE
  8
0
  6
CONTINUOUS
 62
               3
  5
271
 10
430.19023657068061
 20
-42.925007223573232
 30
0.0
 11
494.19023657067868
 21
-42.925007223573687
 31
0.0
  0
LINE
  8
0
  6
CONTINUOUS
 62
               3
  5
272
 10
494.19023657068016
 20
41.574992776425177
 30
0.0
 11
430.19023657068016
 21
41.574992776425177
 31
0.0
  0
LINE
  8
0
  6
CONTINUOUS
 62
               3
  5
273
 10
476.19023657067947
 20
-80.425007223573004
 30
0.0
 11
476.19023657067947
 21
-65.425007223573914
 31
0.0
  0
LINE
  8
0
  6
CONTINUOUS
 62
               3
  5
274
 10
398.19023657068016
 20
65.574992776425177
 30
0.0
 11
398.19023657068016
 21
-66.425007223572891
 31
0.0
  0
LINE
  8
0
  6
CONTINUOUS
 62
               3
  5
275
 10
430.19023657068061
 20
-66.425007223572436
 30
0.0
 11
430.19023657068016
 21
65.574992776425177
 31
0.0
  0
LINE
  8
0
  6
CONTINUOUS
 62
               3
  5
276
 10
398.19023657067947
 20
65.574992776425177
 30
0.0
 11
430.19023657067947
 21
65.574992776425177
 31
0.0
  0
LINE
  8
0
  6
CONTINUOUS
 62
               3
  5
277
 10
398.19023657068016
 20
-1.4250072235736866
 30
0.0
 11
430.19023657068061
 21
-1.4250072235736866
 31
0.0
  0
LINE
  8
0
  6
CONTINUOUS
 62
               3
  5
278
 10
398.19023657068016
 20
-0.425007223573914
 30
0.0
 11
430.19023657068061
 21
-0.425007223573914
 31
0.0
  0
LINE
  8
0
  6
CONTINUOUS
 62
               3
  5
279
 10
398.19023657068016
 20
-2.425007223573914
 30
0.0
 11
430.19023657068061
 21
-2.425007223573914
 31
0.0
  0
ARC
  8
0
  6
CONTINUOUS
 62
               3
  5
27A
 10
490.19023657067891
 20
60.574992776425177
 30
0.0
 40
4.0
 50
0.0000000000341973
 51
89.999999999999801
  0
LINE
  8
0
  6
CONTINUOUS
 62
               3
  5
27B
 10
494.19023657067891
 20
60.574992776427564
 30
0.0
 11
494.19023657067913
 21
41.574992776425177
 31
0.0
  0
ARC
  8
0
  6
CONTINUOUS
 62
               3
  5
27C
 10
490.19023657067856
 20
-61.425007223573914
 30
0.0
 40
4.0
 50
269.99999999999778
 51
359.99999999996419
  0
LINE
  8
0
  6
CONTINUOUS
 62
               3
  5
27D
 10
494.19023657067868
 20
-61.425007223573914
 30
0.0
 11
494.19023657067856
 21
-42.925007223573687
 31
0.0
  0
LINE
  8
0
  6
CONTINUOUS
 62
               3
  5
27E
 10
491.19023657067913
 20
41.574992776425177
 30
0.0
 11
491.1902365706797
 21
-42.925007223573687
 31
0.0
  0
CIRCLE
  8
0
  6
CONTINUOUS
 62
               3
  5
27F
 10
523.47675978698771
 20
-564.28187173662354
 30
0.0
 40
75.0
  0
CIRCLE
  8
0
  6
CONTINUOUS
 62
               3
  5
280
 10
523.47675978698771
 20
-564.28187173662354
 30
0.0
 40
52.5
  0
LINE
  8
0
  6
CONTINUOUS
 62
               3
  5
281
 10
437.26626158636242
 20
-544.28187173662354
 30
0.0
 11
451.19259831298228
 21
-544.28187173662354
 31
0.0
  0
LINE
  8
0
  6
CONTINUOUS
 62
               3
  5
282
 10
451.19259831298228
 20
-584.28187173662354
 30
0.0
 11
437.26626158636242
 21
-584.28187173662354
 31
0.0
  0
ARC
  8
0
  6
CONTINUOUS
 62
               3
  5
283
 10
523.47675978698771
 20
-564.28187173662354
 30
0.0
 40
88.5
 50
166.93897588507147
 51
193.06102411465253
  0
LINE
  8
0
  6
CONTINUOUS
 62
               3
  5
284
 10
503.47675978698766
 20
-650.49236993724821
 30
0.0
 11
503.47675978698766
 21
-636.56603321062835
 31
0.0
  0
LINE
  8
0
  6
CONTINUOUS
 62
               3
  5
285
 10
543.47675978698771
 20
-636.56603321062835
 30
0.0
 11
543.47675978698771
 21
-650.49236993724821
 31
0.0
  0
ARC
  8
0
  6
CONTINUOUS
 62
               3
  5
286
 10
523.47675978698771
 20
-564.28187173662354
 30
0.0
 40
88.5
 50
256.93897588500255
 51
283.06102411458357
  0
LINE
  8
0
  6
CONTINUOUS
 62
               3
  5
287
 10
609.68725798761238
 20
-584.28187173662354
 30
0.0
 11
595.76092126099184
 21
-584.28187173662354
 31
0.0
  0
LINE
  8
0
  6
CONTINUOUS
 62
               3
  5
288
 10
595.76092126099184
 20
-544.28187173662354
 30
0.0
 11
609.68725798761238
 21
-544.28187173662354
 31
0.0
  0
ARC
  8
0
  6
CONTINUOUS
 62
               3
  5
289
 10
523.47675978698771
 20
-564.28187173662354
 30
0.0
 40
88.5
 50
346.93897588493354
 51
373.06102411451457
  0
LINE
  8
0
  6
CONTINUOUS
 62
               3
  5
28A
 10
543.47675978698771
 20
-478.07137353599791
 30
0.0
 11
543.47675978698771
 21
-491.99771026261845
 31
0.0
  0
LINE
  8
0
  6
CONTINUOUS
 62
               3
  5
28B
 10
503.47675978698766
 20
-491.99771026261845
 30
0.0
 11
503.47675978698766
 21
-478.07137353599791
 31
0.0
  0
ARC
  8
0
  6
CONTINUOUS
 62
               3
  5
28C
 10
523.47675978698771
 20
-564.28187173662354
 30
0.0
 40
88.5
 50
76.938975885140493
 51
103.06102411472152
  0
LINE
  8
0
  6
CONTINUOUS
 62
               3
  5
28D
 10
475.8086362661266
 20
-586.281871736624
 30
0.0
 11
571.14488330784752
 21
-586.281871736624
 31
0.0
  0
ARC
  8
0
  6
CONTINUOUS
 62
               3
  5
28E
 10
535.98037143636884
 20
-555.57547410900452
 30
0.0
 40
54.763804151667173
 50
141.3859176367296
 51
145.15009542084252
  0
ARC
  8
0
  6
CONTINUOUS
 62
               3
  5
28F
 10
523.47675978698771
 20
-564.28187173662354
 30
0.0
 40
51.5
 50
334.7109884732011
 51
410.95932736332554
  0
ARC
  8
0
  6
CONTINUOUS
 62
               3
  5
290
 10
523.47675978698771
 20
-564.28187173662354
 30
0.0
 40
51.5
 50
129.04067263626098
 51
205.289011526385
  0
ARC
  8
0
  6
CONTINUOUS
 62
               3
  5
291
 10
523.47675978698771
 20
-564.28187173662354
 30
0.0
 40
77.5
 50
104.95524831656299
 51
128.57288309093474
  0
ARC
  8
0
  6
CONTINUOUS
 62
               3
  5
292
 10
523.47675978698771
 20
-564.28187173662354
 30
0.0
 40
77.5
 50
14.95524831663182
 51
75.044751683299182
  0
ARC
  8
0
  6
CONTINUOUS
 62
               3
  5
293
 10
523.47675978698771
 20
-564.28187173662354
 30
0.0
 40
77.5
 50
321.42711690871977
 51
345.04475168309216
  0
LINE
  8
0
  6
CONTINUOUS
 62
               3
  5
294
 10
383.4767597869876
 20
-619.28187173662332
 30
0.0
 11
384.14831591295183
 21
-619.28187173662332
 31
0.0
  0
LINE
  8
0
  6
CONTINUOUS
 62
               3
  5
295
 10
386.64831591295228
 20
-621.78187173662332
 30
0.0
 11
384.14831591295183
 21
-619.28187173662332
 31
0.0
  0
LINE
  8
0
  6
CONTINUOUS
 62
               3
  5
296
 10
383.4767597869876
 20
-509.28187173662349
 30
0.0
 11
384.14831591295183
 21
-509.28187173662349
 31
0.0
  0
LINE
  8
0
  6
CONTINUOUS
 62
               3
  5
297
 10
386.64831591295183
 20
-506.78187173662349
 30
0.0
 11
384.14831591295183
 21
-509.28187173662349
 31
0.0
  0
LINE
  8
0
  6
CONTINUOUS
 62
               3
  5
298
 10
384.14831591295183
 20
-509.28187173662349
 30
0.0
 11
384.14831591295183
 21
-619.28187173662332
 31
0.0
  0
LINE
  8
0
  6
CONTINUOUS
 62
               3
  5
299
 10
477.9864240006097
 20
-503.59227471828189
 30
0.0
 11
386.64831591295183
 21
-506.78187173662349
 31
0.0
  0
LINE
  8
0
  6
CONTINUOUS
 62
               3
  5
29A
 10
458.64028807043661
 20
-624.295886801591
 30
0.0
 11
386.6483159129524
 21
-621.78187173662332
 31
0.0
  0
LINE
  8
0
  6
CONTINUOUS
 62
               3
  5
29B
 10
378.4767597869876
 20
-509.4534278625876
 30
0.0
 11
378.4767597869876
 21
-619.38187173662322
 31
0.0
  0
LINE
  8
0
  6
CONTINUOUS
 62
               3
  5
29C
 10
383.4767597869876
 20
-621.88187173662322
 30
0.0
 11
383.4767597869876
 21
-506.68187173662335
 31
0.0
  0
LINE
  8
0
  6
CONTINUOUS
 62
               3
  5
29D
 10
383.4767597869876
 20
-506.68187173662335
 30
0.0
 11
380.9767597869876
 21
-506.68187173662335
 31
0.0
  0
LINE
  8
0
  6
CONTINUOUS
 62
               3
  5
29E
 10
383.4767597869876
 20
-621.88187173662322
 30
0.0
 11
380.9767597869876
 21
-621.88187173662322
 31
0.0
  0
ARC
  8
0
  6
CONTINUOUS
 62
               3
  5
29F
 10
380.9767597869876
 20
-619.38187173662322
 30
0.0
 40
2.5
 50
179.99999999985891
 51
269.99999999979229
  0
ARC
  8
0
  6
CONTINUOUS
 62
               3
  5
2A0
 10
380.9767597869876
 20
-509.18187173662335
 30
0.0
 40
2.5
 50
89.999999999932058
 51
179.9999999998615
  0
LINE
  8
0
  6
CONTINUOUS
 62
               3
  5
2A1
 10
491.03835662037005
 20
-524.28187173662377
 30
0.0
 11
523.47675978698771
 21
-524.28187173662377
 31
0.0
  0
LINE
  8
0
  6
CONTINUOUS
 62
               3
  5
2A2
 10
523.47675978698771
 20
-524.28187173662377
 30
0.0
 11
557.4804360588264
 21
-524.28187173662377
 31
0.0
  0
LINE
  8
0
  6
CONTINUOUS
 62
               3
  5
2A3
 10
386.64831591295228
 20
-621.78187173662332
 30
0.0
 11
386.64831591295183
 21
-506.78187173662349
 31
0.0
  0
ARC
  8
0
  6
CONTINUOUS
 62
               3
  5
2A4
 10
477.81192651709722
 20
-498.59532058318626
 30
0.0
 40
5.0
 50
271.9999999997919
 51
304.80675787019305
  0
LINE
  8
0
  6
CONTINUOUS
 62
               3
  5
2A5
 10
578.47675978698749
 20
-704.28187173662332
 30
0.0
 11
578.47675978698749
 21
-703.61031561065897
 31
0.0
  0
LINE
  8
0
  6
CONTINUOUS
 62
               3
  5
2A6
 10
580.97675978698749
 20
-701.11031561065852
 30
0.0
 11
578.47675978698749
 21
-703.61031561065897
 31
0.0
  0
LINE
  8
0
  6
CONTINUOUS
 62
               3
  5
2A7
 10
468.47675978698754
 20
-704.28187173662332
 30
0.0
 11
468.47675978698754
 21
-703.61031561065897
 31
0.0
  0
LINE
  8
0
  6
CONTINUOUS
 62
               3
  5
2A8
 10
465.97675978698754
 20
-701.11031561065897
 30
0.0
 11
468.47675978698754
 21
-703.61031561065897
 31
0.0
  0
LINE
  8
0
  6
CONTINUOUS
 62
               3
  5
2A9
 10
468.47675978698754
 20
-703.61031561065897
 30
0.0
 11
578.47675978698749
 21
-703.61031561065897
 31
0.0
  0
LINE
  8
0
  6
CONTINUOUS
 62
               3
  5
2AA
 10
468.64831591295166
 20
-709.28187173662332
 30
0.0
 11
578.57675978698762
 21
-709.28187173662332
 31
0.0
  0
LINE
  8
0
  6
CONTINUOUS
 62
               3
  5
2AB
 10
581.07675978698762
 20
-704.28187173662332
 30
0.0
 11
465.87675978698752
 21
-704.28187173662332
 31
0.0
  0
LINE
  8
0
  6
CONTINUOUS
 62
               3
  5
2AC
 10
465.87675978698752
 20
-704.28187173662332
 30
0.0
 11
465.87675978698752
 21
-706.78187173662332
 31
0.0
  0
LINE
  8
0
  6
CONTINUOUS
 62
               3
  5
2AD
 10
581.07675978698762
 20
-704.28187173662332
 30
0.0
 11
581.07675978698762
 21
-706.78187173662332
 31
0.0
  0
ARC
  8
0
  6
CONTINUOUS
 62
               3
  5
2AE
 10
578.57675978698762
 20
-706.78187173662332
 30
0.0
 40
2.5
 50
269.99999999979354
 51
359.999999999723
  0
ARC
  8
0
  6
CONTINUOUS
 62
               3
  5
2AF
 10
468.37675978698752
 20
-706.78187173662332
 30
0.0
 40
2.5
 50
179.99999999985891
 51
269.99999999979354
  0
LINE
  8
0
  6
CONTINUOUS
 62
               3
  5
2B0
 10
580.97675978698749
 20
-701.11031561065852
 30
0.0
 11
465.97675978698754
 21
-701.11031561065897
 31
0.0
  0
LINE
  8
0
  6
CONTINUOUS
 62
               3
  5
2B1
 10
584.16635680532863
 20
-609.77220752300173
 30
0.0
 11
580.97675978698749
 21
-701.11031561065852
 31
0.0
  0
ARC
  8
0
  6
CONTINUOUS
 62
               3
  5
2B2
 10
589.16331094042425
 20
-609.94670500651455
 30
0.0
 40
5.0
 50
145.19324212946151
 51
177.99999999986429
  0
LINE
  8
0
  6
CONTINUOUS
 62
               3
  5
2B3
 10
463.46274472201952
 20
-629.11834345317425
 30
0.0
 11
465.97675978698754
 21
-701.11031561065897
 31
0.0
  0
ARC
  8
0
  6
CONTINUOUS
 62
               3
  5
2B4
 10
458.46579058692413
 20
-629.29284093668616
 30
0.0
 40
5.0
 50
1.9999999999958187
 51
87.999999999932243
  0
LINE
  8
0
  6
CONTINUOUS
 62
               3
  5
2B5
 10
448.47675978698766
 20
-872.78130548520744
 30
0.0
 11
598.47675978698771
 21
-872.78130548520744
 31
0.0
  0
LINE
  8
0
  6
CONTINUOUS
 62
               3
  5
2B6
 10
434.97675978698743
 20
-882.78130548520744
 30
0.0
 11
434.97675978698743
 21
-889.78130548520699
 31
0.0
  0
LINE
  8
0
  6
CONTINUOUS
 62
               3
  5
2B7
 10
434.97675978698743
 20
-882.78130548520744
 30
0.0
 11
448.47675978698766
 21
-872.78130548520744
 31
0.0
  0
ARC
  8
0
  6
CONTINUOUS
 62
               3
  5
2B8
 10
446.47675978698777
 20
-894.36388118016271
 30
0.0
 40
4.9999999999999991
 50
0.0
 51
66.421821521747205
  0
LINE
  8
0
  6
CONTINUOUS
 62
               3
  5
2B9
 10
434.97675978698743
 20
-889.78130548520699
 30
0.0
 11
611.97675978698726
 21
-889.78130548520699
 31
0.0
  0
ARC
  8
0
  6
CONTINUOUS
 62
               3
  5
2BA
 10
468.47675978698766
 20
-979.78130548520744
 30
0.0
 40
19.999999999999996
 50
148.2116693828344
 51
167.26981986155914
  0
LINE
  8
0
  6
CONTINUOUS
 62
               3
  5
2BB
 10
451.47675978698777
 20
-894.36388118016271
 30
0.0
 11
451.47675978698777
 21
-969.24565173235464
 31
0.0
  0
LINE
  8
0
  6
CONTINUOUS
 62
               3
  5
2BC
 10
595.47675978698749
 20
-964.24565173235419
 30
0.0
 11
595.47675978698749
 21
-894.36388118016271
 31
0.0
  0
LINE
  8
0
  6
CONTINUOUS
 62
               3
  5
2BD
 10
451.47675978698777
 20
-969.24565173235464
 30
0.0
 11
594.97675978698794
 21
-969.24565173235464
 31
0.0
  0
LINE
  8
0
  6
CONTINUOUS
 62
               3
  5
2BE
 10
503.47675978698766
 20
-889.78130548520699
 30
0.0
 11
503.47675978698766
 21
-872.78130548520744
 31
0.0
  0
LINE
  8
0
  6
CONTINUOUS
 62
               3
  5
2BF
 10
543.47675978698771
 20
-872.78130548520744
 30
0.0
 11
543.47675978698771
 21
-889.78130548520699
 31
0.0
  0
LINE
  8
0
  6
CONTINUOUS
 62
               3
  5
2C0
 10
503.47675978698766
 20
-882.78130548520744
 30
0.0
 11
543.47675978698771
 21
-882.78130548520744
 31
0.0
  0
LINE
  8
0
  6
CONTINUOUS
 62
               3
  5
2C1
 10
451.19259831298228
 20
-872.78130548520744
 30
0.0
 11
451.19259831298228
 21
-889.78130548520699
 31
0.0
  0
LINE
  8
0
  6
CONTINUOUS
 62
               3
  5
2C2
 10
437.26626158636242
 20
-882.78130548520744
 30
0.0
 11
437.26626158636242
 21
-889.78130548520699
 31
0.0
  0
LINE
  8
0
  6
CONTINUOUS
 62
               3
  5
2C3
 10
434.97675978698743
 20
-882.78130548520744
 30
0.0
 11
437.26626158636242
 21
-882.78130548520744
 31
0.0
  0
LINE
  8
0
  6
CONTINUOUS
 62
               3
  5
2C4
 10
437.26626158636242
 20
-882.78130548520744
 30
0.0
 11
451.19259831298228
 21
-872.78130548520744
 31
0.0
  0
LINE
  8
0
  6
CONTINUOUS
 62
               3
  5
2C5
 10
611.97675978698726
 20
-882.78130548520744
 30
0.0
 11
611.97675978698726
 21
-889.78130548520699
 31
0.0
  0
LINE
  8
0
  6
CONTINUOUS
 62
               3
  5
2C6
 10
611.97675978698726
 20
-882.78130548520744
 30
0.0
 11
598.47675978698771
 21
-872.78130548520744
 31
0.0
  0
ARC
  8
0
  6
CONTINUOUS
 62
               3
  5
2C7
 10
600.47675978698749
 20
-894.36388118016271
 30
0.0
 40
4.9999999999999991
 50
113.5781784781135
 51
179.9999999998615
  0
LINE
  8
0
  6
CONTINUOUS
 62
               3
  5
2C8
 10
595.76092126099184
 20
-872.78130548520744
 30
0.0
 11
595.76092126099184
 21
-889.78130548520699
 31
0.0
  0
LINE
  8
0
  6
CONTINUOUS
 62
               3
  5
2C9
 10
609.68725798761284
 20
-882.78130548520744
 30
0.0
 11
609.68725798761284
 21
-889.78130548520699
 31
0.0
  0
LINE
  8
0
  6
CONTINUOUS
 62
               3
  5
2CA
 10
611.97675978698726
 20
-882.78130548520744
 30
0.0
 11
609.68725798761284
 21
-882.78130548520744
 31
0.0
  0
LINE
  8
0
  6
CONTINUOUS
 62
               3
  5
2CB
 10
609.68725798761284
 20
-882.78130548520744
 30
0.0
 11
595.76092126099184
 21
-872.78130548520744
 31
0.0
  0
ARC
  8
0
  6
CONTINUOUS
 62
               3
  5
2CC
 10
458.47675978698766
 20
-1101.2813054852074
 30
0.0
 40
2.4999999999999996
 50
89.999999999929457
 51
269.99999999979354
  0
ARC
  8
0
  6
CONTINUOUS
 62
               3
  5
2CD
 10
598.47675978698771
 20
-1101.2813054852074
 30
0.0
 40
2.4999999999999996
 50
269.99999999979354
 51
449.99999999965507
  0
LINE
  8
0
  6
CONTINUOUS
 62
               3
  5
2CE
 10
383.4767597869876
 20
-1093.7813054852074
 30
0.0
 11
384.14831591295194
 21
-1093.7813054852074
 31
0.0
  0
LINE
  8
0
  6
CONTINUOUS
 62
               3
  5
2CF
 10
386.64831591295206
 20
-1096.281305485207
 30
0.0
 11
384.14831591295194
 21
-1093.7813054852074
 31
0.0
  0
LINE
  8
0
  6
CONTINUOUS
 62
               3
  5
2D0
 10
386.64831591295285
 20
-1096.2813054852074
 30
0.0
 11
428.81342616923024
 21
-1097.7537435810616
 31
0.0
  0
LINE
  8
0
  6
CONTINUOUS
 62
               3
  5
2D1
 10
447.0122936929202
 20
-1114.0529949114937
 30
0.0
 11
432.17446259165041
 21
-1099.2151638102243
 31
0.0
  0
ARC
  8
0
  6
CONTINUOUS
 62
               3
  5
2D2
 10
443.47675978698766
 20
-1117.5885288174265
 30
0.0
 40
4.9999999999999991
 50
0.0
 51
44.999999999964892
  0
LINE
  8
0
  6
CONTINUOUS
 62
               3
  5
2D3
 10
383.4767597869876
 20
-983.78130548520744
 30
0.0
 11
384.14831591295194
 21
-983.78130548520744
 31
0.0
  0
LINE
  8
0
  6
CONTINUOUS
 62
               3
  5
2D4
 10
386.64831591295206
 20
-981.28130548520744
 30
0.0
 11
384.14831591295194
 21
-983.78130548520744
 31
0.0
  0
LINE
  8
0
  6
CONTINUOUS
 62
               3
  5
2D5
 10
386.64831591295194
 20
-981.28130548520744
 30
0.0
 11
444.26579211512632
 21
-979.2692588800553
 31
0.0
  0
LINE
  8
0
  6
CONTINUOUS
 62
               3
  5
2D6
 10
384.14831591295194
 20
-983.78130548520744
 30
0.0
 11
384.14831591295194
 21
-1093.7813054852074
 31
0.0
  0
LINE
  8
0
  6
CONTINUOUS
 62
               3
  5
2D7
 10
383.4767597869876
 20
-1096.3813054852073
 30
0.0
 11
383.4767597869876
 21
-981.18130548520753
 31
0.0
  0
LINE
  8
0
  6
CONTINUOUS
 62
               3
  5
2D8
 10
383.4767597869876
 20
-981.18130548520753
 30
0.0
 11
380.9767597869876
 21
-981.18130548520753
 31
0.0
  0
ARC
  8
0
  6
CONTINUOUS
 62
               3
  5
2D9
 10
380.9767597869876
 20
-983.68130548520753
 30
0.0
 40
2.5
 50
89.999999999932058
 51
179.99999999985891
  0
LINE
  8
0
  6
CONTINUOUS
 62
               3
  5
2DA
 10
378.4767597869876
 20
-983.68130548520753
 30
0.0
 11
378.4767597869876
 21
-1093.8813054852073
 31
0.0
  0
LINE
  8
0
  6
CONTINUOUS
 62
               3
  5
2DB
 10
383.4767597869876
 20
-1096.3813054852073
 30
0.0
 11
380.9767597869876
 21
-1096.3813054852073
 31
0.0
  0
ARC
  8
0
  6
CONTINUOUS
 62
               3
  5
2DC
 10
380.9767597869876
 20
-1093.8813054852073
 30
0.0
 40
2.5
 50
179.99999999985891
 51
269.99999999979229
  0
LINE
  8
0
  6
CONTINUOUS
 62
               3
  5
2DD
 10
386.64831591295206
 20
-981.28130548520744
 30
0.0
 11
386.64831591295285
 21
-1096.2813054852074
 31
0.0
  0
ARC
  8
0
  6
CONTINUOUS
 62
               3
  5
2DE
 10
428.63892868571776
 20
-1102.7506977161572
 30
0.0
 40
5.0
 50
44.999999999968587
 51
87.999999999932243
  0
ARC
  8
0
  6
CONTINUOUS
 62
               3
  5
2DF
 10
444.09129463161383
 20
-974.27230474495968
 30
0.0
 40
5.0
 50
271.9999999997919
 51
347.26981986141988
  0
CIRCLE
  8
0
  6
CONTINUOUS
 62
               3
  5
2E0
 10
523.47675978698771
 20
-1038.7813054852074
 30
0.0
 40
48.5
  0
CIRCLE
  8
0
  6
CONTINUOUS
 62
               3
  5
2E1
 10
523.47675978698771
 20
-1038.7813054852074
 30
0.0
 40
47.299999999999997
  0
LINE
  8
0
  6
CONTINUOUS
 62
               3
  5
2E2
 10
491.6569546335931
 20
-1070.601110638602
 30
0.0
 11
490.03060903686395
 21
-1072.2274562353311
 31
0.0
  0
LINE
  8
0
  6
CONTINUOUS
 62
               3
  5
2E3
 10
555.29656494038227
 20
-1070.601110638602
 30
0.0
 11
556.92291053711142
 21
-1072.2274562353311
 31
0.0
  0
ARC
  8
0
  6
CONTINUOUS
 62
               3
  5
2E4
 10
523.47675978698771
 20
-1038.7813054852074
 30
0.0
 40
45.0
 50
224.99999999982745
 51
314.99999999975864
  0
CIRCLE
  8
0
  6
CONTINUOUS
 62
               3
  5
2E5
 10
523.47675978698771
 20
-1038.7813054852074
 30
0.0
 40
57.600000000000001
  0
ARC
  8
0
  6
CONTINUOUS
 62
               3
  5
2E6
 10
500.97675978698823
 20
-1101.2813054852074
 30
0.0
 40
2.4999999999999996
 50
269.99999999979354
 51
449.99999999965507
  0
ARC
  8
0
  6
CONTINUOUS
 62
               3
  5
2E7
 10
545.97675978698817
 20
-1101.2813054852074
 30
0.0
 40
2.4999999999999996
 50
89.999999999929457
 51
269.99999999979354
  0
LINE
  8
0
  6
CONTINUOUS
 62
               3
  5
2E8
 10
458.47675978698766
 20
-1103.7813054852074
 30
0.0
 11
500.97675978698823
 21
-1103.7813054852074
 31
0.0
  0
LINE
  8
0
  6
CONTINUOUS
 62
               3
  5
2E9
 10
458.47675978698766
 20
-1098.7813054852074
 30
0.0
 11
500.97675978698823
 21
-1098.7813054852074
 31
0.0
  0
LINE
  8
0
  6
CONTINUOUS
 62
               3
  5
2EA
 10
545.97675978698817
 20
-1098.7813054852074
 30
0.0
 11
598.47675978698771
 21
-1098.7813054852074
 31
0.0
  0
LINE
  8
0
  6
CONTINUOUS
 62
               3
  5
2EB
 10
545.97675978698817
 20
-1103.7813054852074
 30
0.0
 11
598.47675978698771
 21
-1103.7813054852074
 31
0.0
  0
CIRCLE
  8
0
  6
CONTINUOUS
 62
               3
  5
2EC
 10
523.47675978698771
 20
-564.28187173662354
 30
0.0
 40
59.0
  0
LINE
  8
0
  6
CONTINUOUS
 62
               4
  5
2ED
 10
-8.809763429320526
 20
588.11064652927871
 30
0.0
 11
-13.809763429320526
 21
593.11064652927871
 31
0.0
  0
LINE
  8
0
  6
CONTINUOUS
 62
               4
  5
2EE
 10
-8.809763429320526
 20
454.42196917930897
 30
0.0
 11
-8.809763429320526
 21
260.4614245461708
 31
0.0
  0
LINE
  8
0
  6
CONTINUOUS
 62
               4
  5
2EF
 10
-8.809763429320526
 20
260.4614245461708
 30
0.0
 11
-25.537987828971559
 21
113.84676837677461
 31
0.0
  0
LINE
  8
0
  6
CONTINUOUS
 62
               4
  5
2F0
 10
-27.809763429320306
 20
111.57499277642609
 30
0.0
 11
-25.537987828971559
 21
113.84676837677461
 31
0.0
  0
ARC
  8
0
  6
CONTINUOUS
 62
               4
  5
2F1
 10
-31.309763429320533
 20
577.57499277642592
 30
0.0
 40
19.999999999999996
 50
0.0
 51
31.788330617039584
  0
LINE
  8
0
  6
CONTINUOUS
 62
               4
  5
2F2
 10
-14.309763429320071
 20
588.11064652927871
 30
0.0
 11
-14.309763429320071
 21
593.11064652927917
 31
0.0
  0
LINE
  8
0
  6
CONTINUOUS
 62
               4
  5
2F3
 10
-13.809763429320526
 20
593.11064652927871
 30
0.0
 11
-14.309763429320071
 21
593.11064652927871
 31
0.0
  0
LINE
  8
0
  6
CONTINUOUS
 62
               4
  5
2F4
 10
-9.0597634293202987
 20
587.86064652927871
 30
0.0
 11
-14.309763429320071
 21
593.11064652927871
 31
0.0
  0
LINE
  8
0
  6
CONTINUOUS
 62
               4
  5
2F5
 10
-9.0597634293202987
 20
587.86064652927871
 30
0.0
 11
-8.809763429320526
 21
588.11064652927871
 31
0.0
  0
LINE
  8
0
  6
CONTINUOUS
 62
               4
  5
2F6
 10
-11.309763429320526
 20
453.42196917930875
 30
0.0
 11
-11.309763429320526
 21
260.60338483399033
 31
0.0
  0
LINE
  8
0
  6
CONTINUOUS
 62
               4
  5
2F7
 10
-9.0597634293202987
 20
454.13661207217291
 30
0.0
 11
-9.0597634293202987
 21
260.47562057495276
 31
0.0
  0
LINE
  8
0
  6
CONTINUOUS
 62
               4
  5
2F8
 10
-11.309763429320526
 20
260.60338483399033
 30
0.0
 11
-28.312998295669964
 21
111.57499277642552
 31
0.0
  0
LINE
  8
0
  6
CONTINUOUS
 62
               4
  5
2F9
 10
-11.312998295670639
 20
260.57499277642597
 30
0.0
 11
-8.809763429320526
 21
260.4614245461708
 31
0.0
  0
LINE
  8
0
  6
CONTINUOUS
 62
               4
  5
2FA
 10
-9.0597634293202987
 20
260.47562057495276
 30
0.0
 11
-25.815488875641627
 21
113.61959081673973
 31
0.0
  0
LINE
  8
0
  6
CONTINUOUS
 62
               4
  5
2FB
 10
-28.312998295669964
 20
111.57499277642552
 30
0.0
 11
-25.537987828971559
 21
113.84676837677461
 31
0.0
  0
LINE
  8
0
  6
CONTINUOUS
 62
               4
  5
2FC
 10
-8.809763429320526
 20
588.11064652927871
 30
0.0
 11
-8.809763429320526
 21
457.42196917930886
 31
0.0
  0
LINE
  8
0
  6
CONTINUOUS
 62
               4
  5
2FD
 10
-9.0597634293202987
 20
587.86064652927871
 30
0.0
 11
-9.0597634293202987
 21
457.70732628644436
 31
0.0
  0
LINE
  8
0
  6
CONTINUOUS
 62
               4
  5
2FE
 10
-11.309763429320526
 20
577.57499277642592
 30
0.0
 11
-11.309763429320526
 21
458.57499277642586
 31
0.0
  0
LINE
  8
0
  6
CONTINUOUS
 62
               4
  5
2FF
 10
-27.668630842814487
 20
206.79048372022618
 30
0.0
 11
-151.32176342932092
 21
310.547781667479
 31
0.0
  0
ARC
  8
0
  6
CONTINUOUS
 62
               4
  5
300
 10
-1000.08208352986
 20
-834.01063545946954
 30
0.0
 40
1424.9238755783815
 50
50.189956146247241
 51
53.440796050711342
  0
ARC
  8
0
  6
CONTINUOUS
 62
               4
  5
301
 10
-22.23037459228744
 20
331.34765169127212
 30
0.0
 40
130.75634311527989
 50
189.15312334023136
 51
212.76918311267124
  0
ARC
  8
0
  6
CONTINUOUS
 62
               4
  5
302
 10
-24.445737929769344
 20
341.48167244251243
 30
0.0
 40
134.72974192119386
 50
216.90649751125426
 51
268.62928723400398
  0
ARC
  8
0
  6
CONTINUOUS
 62
               4
  5
303
 10
-819.44011152782878
 20
-617.67167813458286
 30
0.0
 40
1143.0835201141012
 50
46.15873265340776
 51
50.202696616637041
  0
LINE
  8
0
  6
CONTINUOUS
 62
               4
  5
304
 10
-142.80976342932041
 20
99.574992776425859
 30
0.0
 11
-28.809763429320412
 21
99.574992776425859
 31
0.0
  0
LINE
  8
0
  6
CONTINUOUS
 62
               4
  5
305
 10
-143.80976342931996
 20
100.5749927764254
 30
0.0
 11
-27.809763429320022
 21
100.57499277642586
 31
0.0
  0
ARC
  8
0
  6
CONTINUOUS
 62
               4
  5
306
 10
388.40627075871345
 20
577.57499277642592
 30
0.0
 40
17.566965811965957
 50
0.0
 51
36.851448659216814
  0
LINE
  8
0
  6
CONTINUOUS
 62
               4
  5
307
 10
425.91723657067979
 20
593.11064652927871
 30
0.0
 11
402.46323657067938
 21
593.11064652927871
 31
0.0
  0
ARC
  8
0
  6
CONTINUOUS
 62
               4
  5
308
 10
439.97420238264516
 20
577.57499277642592
 30
0.0
 40
17.566965811965957
 50
143.14855134071399
 51
179.99999999993094
  0
LINE
  8
0
  6
CONTINUOUS
 62
               4
  5
309
 10
402.46323657067938
 20
588.11064652927871
 30
0.0
 11
402.46323657067938
 21
593.11064652927871
 31
0.0
  0
LINE
  8
0
  6
CONTINUOUS
 62
               4
  5
30A
 10
425.91723657067979
 20
588.11064652927871
 30
0.0
 11
425.91723657067979
 21
593.11064652927871
 31
0.0
  0
LINE
  8
0
  6
CONTINUOUS
 62
               4
  5
30B
 10
402.46323657067938
 20
593.11064652927871
 30
0.0
 11
408.19023657067936
 21
588.11064652927871
 31
0.0
  0
LINE
  8
0
  6
CONTINUOUS
 62
               4
  5
30C
 10
420.19023657067925
 20
588.11064652927871
 30
0.0
 11
425.91723657067979
 21
593.11064652927871
 31
0.0
  0
LINE
  8
0
  6
CONTINUOUS
 62
               4
  5
30D
 10
408.19023657067936
 20
588.11064652927871
 30
0.0
 11
420.19023657067925
 21
588.11064652927871
 31
0.0
  0
LINE
  8
0
  6
CONTINUOUS
 62
               4
  5
30E
 10
420.19023657067868
 20
457.57499277642603
 30
0.0
 11
408.19023657067879
 21
457.57499277642603
 31
0.0
  0
ARC
  8
0
  6
CONTINUOUS
 62
               4
  5
30F
 10
406.12859203726379
 20
456.16091292795932
 30
0.0
 40
2.4999999999999996
 50
34.446185822130857
 51
93.562780573759241
  0
ARC
  8
0
  6
CONTINUOUS
 62
               4
  5
310
 10
422.25188110409425
 20
456.16091292795932
 30
0.0
 40
2.4999999999999996
 50
86.437219426171183
 51
145.55381417779964
  0
LINE
  8
0
  6
CONTINUOUS
 62
               4
  5
311
 10
420.19023657067868
 20
454.57499277642614
 30
0.0
 11
408.19023657067879
 21
454.57499277642614
 31
0.0
  0
ARC
  8
0
  6
CONTINUOUS
 62
               4
  5
312
 10
406.12859203726379
 20
455.98907262489251
 30
0.0
 40
2.4999999999999996
 50
266.43721942610159
 51
325.55381417773037
  0
ARC
  8
0
  6
CONTINUOUS
 62
               4
  5
313
 10
422.25188110409425
 20
455.98907262489251
 30
0.0
 40
2.4999999999999996
 50
214.44618582206235
 51
273.56278057368968
  0
LINE
  8
0
  6
CONTINUOUS
 62
               4
  5
314
 10
405.97323657067881
 20
453.57499277642592
 30
0.0
 11
405.97323657067938
 21
111.57499277642563
 31
0.0
  0
LINE
  8
0
  6
CONTINUOUS
 62
               4
  5
315
 10
422.40723657067866
 20
453.48907262489251
 30
0.0
 11
422.40723657067923
 21
111.57499277642563
 31
0.0
  0
LINE
  8
0
  6
CONTINUOUS
 62
               4
  5
316
 10
408.19023657067879
 20
454.57499277642614
 30
0.0
 11
408.19023657067936
 21
113.84676837677461
 31
0.0
  0
LINE
  8
0
  6
CONTINUOUS
 62
               4
  5
317
 10
420.19023657067925
 20
113.84676837677461
 30
0.0
 11
420.19023657067868
 21
454.57499277642614
 31
0.0
  0
LINE
  8
0
  6
CONTINUOUS
 62
               4
  5
318
 10
422.40723657067923
 20
260.57499277642597
 30
0.0
 11
405.97323657067938
 21
260.57499277642597
 31
0.0
  0
LINE
  8
0
  6
CONTINUOUS
 62
               4
  5
319
 10
408.19023657067936
 20
113.84676837677461
 30
0.0
 11
420.19023657067925
 21
113.84676837677461
 31
0.0
  0
LINE
  8
0
  6
CONTINUOUS
 62
               4
  5
31A
 10
405.97323657067938
 20
111.57499277642563
 30
0.0
 11
408.19023657067936
 21
113.84676837677461
 31
0.0
  0
LINE
  8
0
  6
CONTINUOUS
 62
               4
  5
31B
 10
420.19023657067925
 20
113.84676837677461
 30
0.0
 11
422.40723657067923
 21
111.57499277642563
 31
0.0
  0
LINE
  8
0
  6
CONTINUOUS
 62
               4
  5
31C
 10
405.97323657067938
 20
577.57499277642592
 30
0.0
 11
405.97323657067881
 21
458.57499277642592
 31
0.0
  0
LINE
  8
0
  6
CONTINUOUS
 62
               4
  5
31D
 10
422.40723657067923
 20
577.57499277642592
 30
0.0
 11
422.40723657067866
 21
458.57499277642592
 31
0.0
  0
LINE
  8
0
  6
CONTINUOUS
 62
               4
  5
31E
 10
420.19023657067868
 20
457.57499277642603
 30
0.0
 11
420.19023657067925
 21
588.11064652927871
 31
0.0
  0
LINE
  8
0
  6
CONTINUOUS
 62
               4
  5
31F
 10
408.19023657067936
 20
588.11064652927871
 30
0.0
 11
408.19023657067879
 21
457.57499277642603
 31
0.0
  0
ARC
  8
0
  6
CONTINUOUS
 62
               4
  5
320
 10
399.21216362415186
 20
256.27774312284436
 30
0.0
 40
59.149634972654262
 50
186.49999999992821
 51
236.78754046659694
  0
ARC
  8
0
  6
CONTINUOUS
 62
               4
  5
321
 10
420.1171561013735
 20
268.12676022159604
 30
0.0
 40
81.261593956721953
 50
186.49999999992824
 51
229.00792456445407
  0
ARC
  8
0
  6
CONTINUOUS
 62
               4
  5
322
 10
274.87152774718436
 20
183.78924139690133
 30
0.0
 40
204.24864340422488
 50
353.49999999986409
 51
373.43680216733406
  0
ARC
  8
0
  6
CONTINUOUS
 62
               4
  5
323
 10
312.56253751524542
 20
186.07365846630904
 30
0.0
 40
167.18634723772169
 50
351.25933879879983
 51
375.67746336839878
  0
ARC
  8
0
  6
CONTINUOUS
 62
               4
  5
324
 10
-864.73899227844527
 20
138.90259436496348
 30
0.0
 40
359.11818398045398
 50
13.30617767572512
 51
28.552443501607524
  0
ARC
  8
0
  6
CONTINUOUS
 62
               4
  5
325
 10
-586.14094989931436
 20
247.1492702675327
 30
0.0
 40
73.327111796148202
 50
342.6294564211762
 51
419.83689160545839
  0
LINE
  8
0
  6
CONTINUOUS
 62
               4
  5
326
 10
-642.80976342932036
 20
99.574992776425859
 30
0.0
 11
-528.80976342932036
 21
99.574992776425859
 31
0.0
  0
LINE
  8
0
  6
CONTINUOUS
 62
               4
  5
327
 10
-643.8097634293199
 20
100.5749927764254
 30
0.0
 11
-527.8097634293199
 21
100.57499277642586
 31
0.0
  0
LINE
  8
0
  6
CONTINUOUS
 62
               4
  5
328
 10
357.19023657067959
 20
99.574992776425859
 30
0.0
 11
471.19023657067959
 21
99.574992776425859
 31
0.0
  0
LINE
  8
0
  6
CONTINUOUS
 62
               4
  5
329
 10
356.19023657068004
 20
100.5749927764254
 30
0.0
 11
472.19023657068004
 21
100.57499277642586
 31
0.0
  0
LINE
  8
0
  6
CONTINUOUS
 62
               4
  5
32A
 10
-651.30976342932126
 20
-105.425007223573
 30
0.0
 11
-520.30976342931933
 21
-105.425007223573
 31
0.0
  0
LINE
  8
0
  6
CONTINUOUS
 62
               4
  5
32B
 10
-176.80976342932036
 20
-6.1702290108965485
 30
0.0
 11
-176.80976342932036
 21
3.7040571961592264
 31
0.0
  0
LINE
  8
0
  6
CONTINUOUS
 62
               4
  5
32C
 10
5.1902365706794029
 20
-6.1702290108965485
 30
0.0
 11
5.1902365706794029
 21
3.7040571961592264
 31
0.0
  0
LINE
  8
0
  6
CONTINUOUS
 62
               4
  5
32D
 10
-151.30976342932138
 20
-105.425007223573
 30
0.0
 11
-20.30976342931946
 21
-105.425007223573
 31
0.0
  0
LINE
  8
0
  6
CONTINUOUS
 62
               4
  5
32E
 10
348.69023657067856
 20
-105.425007223573
 30
0.0
 11
479.6902365706805
 21
-105.425007223573
 31
0.0
  0
POINT
  8
0
  6
CONTINUOUS
 62
               4
  5
32F
 10
-332.84753247978892
 20
-577.46630730841434
 30
0.0
  0
POINT
  8
0
  6
CONTINUOUS
 62
               4
  5
330
 10
-623.04753247978874
 20
-577.46630730841434
 30
0.0
  0
POINT
  8
0
  6
CONTINUOUS
 62
               4
  5
331
 10
-435.39348987555547
 20
-469.3984232393795
 30
0.0
  0
POINT
  8
0
  6
CONTINUOUS
 62
               4
  5
332
 10
157.02416025656075
 20
-577.46630730841434
 30
0.0
  0
POINT
  8
0
  6
CONTINUOUS
 62
               4
  5
333
 10
-86.887872193925105
 20
-577.46630730841434
 30
0.0
  0
POINT
  8
0
  6
CONTINUOUS
 62
               4
  5
334
 10
79.568144031317928
 20
-489.51029108317169
 30
0.0
  0
LINE
  8
0
  6
CONTINUOUS
 62
               4
  5
335
 10
600.47675978698749
 20
-969.24565173235464
 30
0.0
 11
595.47675978698749
 21
-964.24565173235464
 31
0.0
  0
ARC
  8
0
  6
CONTINUOUS
 62
               4
  5
336
 10
577.97675978698749
 20
-979.78130548520744
 30
0.0
 40
19.999999999999996
 50
0.0
 51
31.788330617027277
  0
LINE
  8
0
  6
CONTINUOUS
 62
               4
  5
337
 10
594.97675978698794
 20
-969.24565173235464
 30
0.0
 11
594.97675978698794
 21
-964.24565173235419
 31
0.0
  0
LINE
  8
0
  6
CONTINUOUS
 62
               4
  5
338
 10
595.47675978698749
 20
-964.24565173235464
 30
0.0
 11
594.97675978698794
 21
-964.24565173235464
 31
0.0
  0
LINE
  8
0
  6
CONTINUOUS
 62
               4
  5
339
 10
600.22675978698771
 20
-969.49565173235464
 30
0.0
 11
594.97675978698794
 21
-964.24565173235464
 31
0.0
  0
LINE
  8
0
  6
CONTINUOUS
 62
               4
  5
33A
 10
600.22675978698771
 20
-969.49565173235464
 30
0.0
 11
600.47675978698749
 21
-969.24565173235464
 31
0.0
  0
LINE
  8
0
  6
CONTINUOUS
 62
               4
  5
33B
 10
600.47675978698749
 20
-969.24565173235464
 30
0.0
 11
600.47675978698749
 21
-1099.9343290823247
 31
0.0
  0
LINE
  8
0
  6
CONTINUOUS
 62
               4
  5
33C
 10
600.22675978698771
 20
-969.49565173235464
 30
0.0
 11
600.22675978698771
 21
-1099.6489719751892
 31
0.0
  0
LINE
  8
0
  6
CONTINUOUS
 62
               4
  5
33D
 10
597.97675978698749
 20
-979.62828188809021
 30
0.0
 11
597.97675978698749
 21
-1098.7813054852074
 31
0.0
  0
POINT
  8
0
  6
CONTINUOUS
 62
               4
  5
33E
 10
567.97675978698771
 20
-708.68187173662341
 30
0.0
  0
POINT
  8
0
  6
CONTINUOUS
 62
               4
  5
33F
 10
379.07675978698762
 20
-994.28130548520744
 30
0.0
  0
POINT
  8
0
  6
CONTINUOUS
 62
               4
  5
340
 10
379.07675978698774
 20
-608.78187173662309
 30
0.0
  0
LINE
  8
0
  6
DASHED2
 62
               4
  5
341
 10
-142.8097634293203
 20
619.57499277642592
 30
0.0
 11
-28.809763429320533
 21
619.57499277642592
 31
0.0
  0
LINE
  8
0
  6
DASHED2
 62
               4
  5
342
 10
357.1902365706797
 20
619.57499277642592
 30
0.0
 11
471.19023657067947
 21
619.57499277642592
 31
0.0
  0
LINE
  8
0
  6
DASHED2
 62
               4
  5
343
 10
-642.80976342932081
 20
619.57499277642592
 30
0.0
 11
-528.80976342932104
 21
619.57499277642592
 31
0.0
  0
LINE
  8
0
  6
DASHED2
 62
               4
  5
344
 10
-642.80976342931922
 20
64.574992776426313
 30
0.0
 11
-642.80976342931922
 21
-0.4250072235741413
 31
0.0
  0
LINE
  8
0
  6
DASHED2
 62
               4
  5
345
 10
-643.30976342932263
 20
-15.425007223575278
 30
0.0
 11
-643.30976342932263
 21
-80.425007223573004
 31
0.0
  0
LINE
  8
0
  6
DASHED2
 62
               4
  5
346
 10
-585.80976342931967
 20
-0.4250072235741413
 30
0.0
 11
-642.8097634293199
 21
-0.4250072235741413
 31
0.0
  0
LINE
  8
0
  6
DASHED2
 62
               4
  5
347
 10
-643.30976342932263
 20
-15.425007223575278
 30
0.0
 11
-585.80976342932081
 21
-15.425007223574141
 31
0.0
  0
LINE
  8
0
  6
DASHED2
 62
               4
  5
348
 10
-528.80976342932013
 20
64.57499277642529
 30
0.0
 11
-528.80976342932013
 21
-0.4250072235741413
 31
0.0
  0
LINE
  8
0
  6
DASHED2
 62
               4
  5
349
 10
-585.80976342931967
 20
-0.4250072235741413
 30
0.0
 11
-528.8097634293199
 21
-0.4250072235741413
 31
0.0
  0
LINE
  8
0
  6
DASHED2
 62
               4
  5
34A
 10
-528.30976342931808
 20
-15.425007223575278
 30
0.0
 11
-585.80976342931967
 21
-15.425007223574141
 31
0.0
  0
LINE
  8
0
  6
DASHED2
 62
               4
  5
34B
 10
-528.30976342931808
 20
-15.425007223575278
 30
0.0
 11
-528.30976342931808
 21
-80.425007223573004
 31
0.0
  0
LINE
  8
0
  6
DASHED2
 62
               4
  5
34C
 10
-597.56976342932057
 20
-0.4250072235741413
 30
0.0
 11
-597.56976342932057
 21
8.1011212757330782
 31
0.0
  0
LINE
  8
0
  6
DASHED2
 62
               4
  5
34D
 10
-591.68079068358611
 20
8.1011212757330782
 30
0.0
 11
-591.68079068358611
 21
-0.4250072235741413
 31
0.0
  0
LINE
  8
0
  6
DASHED2
 62
               4
  5
34E
 10
-594.62527705645311
 20
9.1749927764259951
 30
0.0
 11
-576.99424980218714
 21
9.1749927764259951
 31
0.0
  0
LINE
  8
0
  6
DASHED2
 62
               4
  5
34F
 10
-574.04976342932014
 20
-0.4250072235741413
 30
0.0
 11
-574.04976342932014
 21
8.1011212757330782
 31
0.0
  0
LINE
  8
0
  6
DASHED2
 62
               4
  5
350
 10
-579.93873617505483
 20
-0.4250072235741413
 30
0.0
 11
-579.93873617505483
 21
8.1011212757330782
 31
0.0
  0
ARC
  8
0
  6
DASHED2
 62
               4
  5
351
 10
-594.62527705645311
 20
4.6012611923100053
 30
0.0
 40
4.5737315841157447
 50
49.925579661602832
 51
130.07442033832857
  0
ARC
  8
0
  6
DASHED2
 62
               4
  5
352
 10
-576.99424980218714
 20
4.6012611923100053
 30
0.0
 40
4.5737315841157686
 50
49.925579661602747
 51
130.07442033832857
  0
ARC
  8
0
  6
DASHED2
 62
               4
  5
353
 10
-585.80976342932036
 20
-7.4108654930944908
 30
0.0
 40
16.58585826952007
 50
69.269184858534501
 51
110.73081514139706
  0
LINE
  8
0
  6
DASHED2
 62
               4
  5
354
 10
-597.56976342932194
 20
-2.4250072235744824
 30
0.0
 11
-597.56976342932194
 21
-10.951135722881702
 31
0.0
  0
LINE
  8
0
  6
DASHED2
 62
               4
  5
355
 10
-591.68079068358747
 20
-10.951135722881702
 30
0.0
 11
-591.68079068358747
 21
-2.4250072235744824
 31
0.0
  0
LINE
  8
0
  6
DASHED2
 62
               4
  5
356
 10
-594.62527705645448
 20
-12.025007223574278
 30
0.0
 11
-576.99424980218896
 21
-12.025007223574278
 31
0.0
  0
LINE
  8
0
  6
DASHED2
 62
               4
  5
357
 10
-574.0497634293215
 20
-2.4250072235744824
 30
0.0
 11
-574.0497634293215
 21
-10.951135722881702
 31
0.0
  0
LINE
  8
0
  6
DASHED2
 62
               4
  5
358
 10
-579.93873617505596
 20
-2.4250072235744824
 30
0.0
 11
-579.93873617505596
 21
-10.951135722881702
 31
0.0
  0
ARC
  8
0
  6
DASHED2
 62
               4
  5
359
 10
-594.62527705645448
 20
-7.4512756394588564
 30
0.0
 40
4.5737315841157447
 50
229.92557966153416
 51
310.07442033826044
  0
ARC
  8
0
  6
DASHED2
 62
               4
  5
35A
 10
-576.99424980218896
 20
-7.4512756394588564
 30
0.0
 40
4.5737315841157686
 50
229.92557966153416
 51
310.07442033825998
  0
ARC
  8
0
  6
DASHED2
 62
               4
  5
35B
 10
-585.80976342932172
 20
4.5608510459456397
 30
0.0
 40
16.58585826952007
 50
249.26918485846539
 51
290.73081514132798
  0
LINE
  8
0
  6
DASHED2
 62
               4
  5
35C
 10
-591.80976342932036
 20
-12.025007223574278
 30
0.0
 11
-591.80976342932036
 21
-22.5443734658989
 31
0.0
  0
LINE
  8
0
  6
DASHED2
 62
               4
  5
35D
 10
-579.80976342932036
 20
-12.025007223574278
 30
0.0
 11
-579.80976342932036
 21
-22.5443734658989
 31
0.0
  0
LINE
  8
0
  6
DASHED2
 62
               4
  5
35E
 10
-590.60976342932054
 20
-23.744373465899287
 30
0.0
 11
-581.0097634293204
 21
-23.744373465899287
 31
0.0
  0
LINE
  8
0
  6
DASHED2
 62
               4
  5
35F
 10
-591.80976342932036
 20
-22.5443734658989
 30
0.0
 11
-590.60976342932054
 21
-23.744373465899287
 31
0.0
  0
LINE
  8
0
  6
DASHED2
 62
               4
  5
360
 10
-579.80976342932036
 20
-22.5443734658989
 30
0.0
 11
-581.0097634293204
 21
-23.744373465899287
 31
0.0
  0
LINE
  8
0
  6
DASHED2
 62
               4
  5
361
 10
-597.56976342932057
 20
-0.4250072235741413
 30
0.0
 11
-574.04976342932014
 21
-0.4250072235741413
 31
0.0
  0
LINE
  8
0
  6
DASHED2
 62
               4
  5
362
 10
-574.0497634293215
 20
-2.4250072235744824
 30
0.0
 11
-597.56976342932194
 21
-2.4250072235744824
 31
0.0
  0
LINE
  8
0
  6
DASHED2
 62
               4
  5
363
 10
-591.80976342932036
 20
114.63857225235466
 30
0.0
 11
-591.80976342932036
 21
9.1749927764259951
 31
0.0
  0
LINE
  8
0
  6
DASHED2
 62
               4
  5
364
 10
-579.80976342932036
 20
114.63857225235466
 30
0.0
 11
-579.80976342932036
 21
9.1749927764259951
 31
0.0
  0
LINE
  8
0
  6
DASHED2
 62
               4
  5
365
 10
-579.80976342932036
 20
114.63857225235466
 30
0.0
 11
-591.80976342932036
 21
114.63857225235466
 31
0.0
  0
LINE
  8
0
  6
DASHED2
 62
               4
  5
366
 10
-142.80976342931945
 20
64.574992776426313
 30
0.0
 11
-142.80976342931945
 21
-0.4250072235741413
 31
0.0
  0
LINE
  8
0
  6
DASHED2
 62
               4
  5
367
 10
-143.30976342932283
 20
-15.425007223575278
 30
0.0
 11
-143.30976342932283
 21
-80.425007223573004
 31
0.0
  0
LINE
  8
0
  6
DASHED2
 62
               4
  5
368
 10
-85.809763429319844
 20
-0.4250072235741413
 30
0.0
 11
-142.80976342932001
 21
-0.4250072235741413
 31
0.0
  0
LINE
  8
0
  6
DASHED2
 62
               4
  5
369
 10
-143.30976342932283
 20
-15.425007223575278
 30
0.0
 11
-85.809763429320981
 21
-15.425007223574141
 31
0.0
  0
LINE
  8
0
  6
DASHED2
 62
               4
  5
36A
 10
-28.809763429320242
 20
64.57499277642529
 30
0.0
 11
-28.809763429320242
 21
-0.4250072235741413
 31
0.0
  0
LINE
  8
0
  6
DASHED2
 62
               4
  5
36B
 10
-85.809763429319844
 20
-0.4250072235741413
 30
0.0
 11
-28.809763429319958
 21
-0.4250072235741413
 31
0.0
  0
LINE
  8
0
  6
DASHED2
 62
               4
  5
36C
 10
-28.309763429318139
 20
-15.425007223575278
 30
0.0
 11
-85.809763429319844
 21
-15.425007223574141
 31
0.0
  0
LINE
  8
0
  6
DASHED2
 62
               4
  5
36D
 10
-28.309763429318139
 20
-15.425007223575278
 30
0.0
 11
-28.309763429318139
 21
-80.425007223573004
 31
0.0
  0
LINE
  8
0
  6
DASHED2
 62
               4
  5
36E
 10
-222.56976342932057
 20
-0.4250072235736866
 30
0.0
 11
-222.56976342932057
 21
8.1011212757335329
 31
0.0
  0
LINE
  8
0
  6
DASHED2
 62
               4
  5
36F
 10
-216.68079068358617
 20
8.1011212757335329
 30
0.0
 11
-216.68079068358617
 21
-0.4250072235736866
 31
0.0
  0
LINE
  8
0
  6
DASHED2
 62
               4
  5
370
 10
-219.62527705645323
 20
9.1749927764264498
 30
0.0
 11
-201.99424980218731
 21
9.1749927764264498
 31
0.0
  0
LINE
  8
0
  6
DASHED2
 62
               4
  5
371
 10
-199.04976342932025
 20
-0.4250072235736866
 30
0.0
 11
-199.04976342932025
 21
8.1011212757335329
 31
0.0
  0
LINE
  8
0
  6
DASHED2
 62
               4
  5
372
 10
-204.93873617505494
 20
-0.4250072235736866
 30
0.0
 11
-204.93873617505494
 21
8.1011212757335329
 31
0.0
  0
ARC
  8
0
  6
DASHED2
 62
               4
  5
373
 10
-219.62527705645323
 20
4.60126119231046
 30
0.0
 40
4.5737315841157447
 50
49.925579661602562
 51
130.07442033832857
  0
ARC
  8
0
  6
DASHED2
 62
               4
  5
374
 10
-201.99424980218731
 20
4.60126119231046
 30
0.0
 40
4.5737315841157686
 50
49.925579661602882
 51
130.07442033832871
  0
ARC
  8
0
  6
DASHED2
 62
               4
  5
375
 10
-210.80976342932041
 20
-7.4108654930940361
 30
0.0
 40
16.58585826952007
 50
69.269184858534402
 51
110.73081514139706
  0
LINE
  8
0
  6
DASHED2
 62
               4
  5
376
 10
-222.56976342932199
 20
-2.4250072235740276
 30
0.0
 11
-222.56976342932199
 21
-10.951135722881247
 31
0.0
  0
LINE
  8
0
  6
DASHED2
 62
               4
  5
377
 10
-216.68079068358759
 20
-10.951135722881247
 30
0.0
 11
-216.68079068358759
 21
-2.4250072235740276
 31
0.0
  0
LINE
  8
0
  6
DASHED2
 62
               4
  5
378
 10
-219.62527705645465
 20
-12.025007223573823
 30
0.0
 11
-201.99424980218902
 21
-12.025007223573823
 31
0.0
  0
LINE
  8
0
  6
DASHED2
 62
               4
  5
379
 10
-199.04976342932167
 20
-2.4250072235740276
 30
0.0
 11
-199.04976342932167
 21
-10.951135722881247
 31
0.0
  0
LINE
  8
0
  6
DASHED2
 62
               4
  5
37A
 10
-204.93873617505608
 20
-2.4250072235740276
 30
0.0
 11
-204.93873617505608
 21
-10.951135722881247
 31
0.0
  0
ARC
  8
0
  6
DASHED2
 62
               4
  5
37B
 10
-219.62527705645465
 20
-7.4512756394584017
 30
0.0
 40
4.5737315841157447
 50
229.92557966153416
 51
310.07442033826044
  0
ARC
  8
0
  6
DASHED2
 62
               4
  5
37C
 10
-201.99424980218902
 20
-7.4512756394584017
 30
0.0
 40
4.5737315841157686
 50
229.92557966153441
 51
310.07442033826021
  0
ARC
  8
0
  6
DASHED2
 62
               4
  5
37D
 10
-210.80976342932183
 20
4.5608510459460945
 30
0.0
 40
16.58585826952007
 50
249.26918485846528
 51
290.73081514132792
  0
LINE
  8
0
  6
DASHED2
 62
               4
  5
37E
 10
-216.80976342932036
 20
-12.025007223573823
 30
0.0
 11
-216.80976342932036
 21
-22.544373465898445
 31
0.0
  0
LINE
  8
0
  6
DASHED2
 62
               4
  5
37F
 10
-204.80976342932047
 20
-12.025007223573823
 30
0.0
 11
-204.80976342932047
 21
-22.544373465898445
 31
0.0
  0
LINE
  8
0
  6
DASHED2
 62
               4
  5
380
 10
-215.60976342932059
 20
-23.744373465898832
 30
0.0
 11
-206.00976342932051
 21
-23.744373465898832
 31
0.0
  0
LINE
  8
0
  6
DASHED2
 62
               4
  5
381
 10
-216.80976342932036
 20
-22.544373465898445
 30
0.0
 11
-215.60976342932059
 21
-23.744373465898832
 31
0.0
  0
LINE
  8
0
  6
DASHED2
 62
               4
  5
382
 10
-204.80976342932047
 20
-22.544373465898445
 30
0.0
 11
-206.00976342932051
 21
-23.744373465898832
 31
0.0
  0
LINE
  8
0
  6
DASHED2
 62
               4
  5
383
 10
-222.56976342932057
 20
-0.4250072235736866
 30
0.0
 11
-199.04976342932025
 21
-0.4250072235736866
 31
0.0
  0
LINE
  8
0
  6
DASHED2
 62
               4
  5
384
 10
-199.04976342932167
 20
-2.4250072235740276
 30
0.0
 11
-222.56976342932199
 21
-2.4250072235740276
 31
0.0
  0
LINE
  8
0
  6
DASHED2
 62
               4
  5
385
 10
-216.80976342932036
 20
114.63857225235512
 30
0.0
 11
-216.80976342932036
 21
9.1749927764264498
 31
0.0
  0
LINE
  8
0
  6
DASHED2
 62
               4
  5
386
 10
-204.80976342932047
 20
114.63857225235512
 30
0.0
 11
-204.80976342932047
 21
9.1749927764264498
 31
0.0
  0
LINE
  8
0
  6
DASHED2
 62
               4
  5
387
 10
-204.80976342932047
 20
114.63857225235512
 30
0.0
 11
-216.80976342932036
 21
114.63857225235512
 31
0.0
  0
LINE
  8
0
  6
DASHED2
 62
               4
  5
388
 10
50.950236570679749
 20
-0.4250072235736866
 30
0.0
 11
50.950236570679749
 21
8.1011212757335329
 31
0.0
  0
LINE
  8
0
  6
DASHED2
 62
               4
  5
389
 10
45.061263824945343
 20
8.1011212757335329
 30
0.0
 11
45.061263824945343
 21
-0.4250072235736866
 31
0.0
  0
LINE
  8
0
  6
DASHED2
 62
               4
  5
38A
 10
48.005750197812404
 20
9.1749927764264498
 30
0.0
 11
30.374722943546473
 21
9.1749927764264498
 31
0.0
  0
LINE
  8
0
  6
DASHED2
 62
               4
  5
38B
 10
27.430236570679412
 20
-0.4250072235736866
 30
0.0
 11
27.430236570679412
 21
8.1011212757335329
 31
0.0
  0
LINE
  8
0
  6
DASHED2
 62
               4
  5
38C
 10
33.319209316414103
 20
-0.4250072235736866
 30
0.0
 11
33.319209316414103
 21
8.1011212757335329
 31
0.0
  0
ARC
  8
0
  6
DASHED2
 62
               4
  5
38D
 10
48.005750197812404
 20
4.60126119231046
 30
0.0
 40
4.5737315841157447
 50
49.925579661636654
 51
130.0744203383627
  0
ARC
  8
0
  6
DASHED2
 62
               4
  5
38E
 10
30.374722943546473
 20
4.60126119231046
 30
0.0
 40
4.5737315841157686
 50
49.925579661636526
 51
130.07442033836236
  0
ARC
  8
0
  6
DASHED2
 62
               4
  5
38F
 10
39.190236570679573
 20
-7.4108654930940361
 30
0.0
 40
16.58585826952007
 50
69.269184858568167
 51
110.73081514143082
  0
LINE
  8
0
  6
DASHED2
 62
               4
  5
390
 10
50.95023657068117
 20
-2.4250072235740276
 30
0.0
 11
50.95023657068117
 21
-10.951135722881247
 31
0.0
  0
LINE
  8
0
  6
DASHED2
 62
               4
  5
391
 10
45.061263824946764
 20
-10.951135722881247
 30
0.0
 11
45.061263824946764
 21
-2.4250072235740276
 31
0.0
  0
LINE
  8
0
  6
DASHED2
 62
               4
  5
392
 10
48.005750197813825
 20
-12.025007223573823
 30
0.0
 11
30.374722943548178
 21
-12.025007223573823
 31
0.0
  0
LINE
  8
0
  6
DASHED2
 62
               4
  5
393
 10
27.430236570680833
 20
-2.4250072235740276
 30
0.0
 11
27.430236570680833
 21
-10.951135722881247
 31
0.0
  0
LINE
  8
0
  6
DASHED2
 62
               4
  5
394
 10
33.31920931641524
 20
-2.4250072235740276
 30
0.0
 11
33.31920931641524
 21
-10.951135722881247
 31
0.0
  0
ARC
  8
0
  6
DASHED2
 62
               4
  5
395
 10
48.005750197813825
 20
-7.4512756394584017
 30
0.0
 40
4.5737315841157447
 50
229.9255796616352
 51
310.07442033836156
  0
ARC
  8
0
  6
DASHED2
 62
               4
  5
396
 10
30.374722943548178
 20
-7.4512756394584017
 30
0.0
 40
4.5737315841157686
 50
229.925579661635
 51
310.07442033836094
  0
ARC
  8
0
  6
DASHED2
 62
               4
  5
397
 10
39.190236570680995
 20
4.5608510459460945
 30
0.0
 40
16.58585826952007
 50
249.26918485856768
 51
290.73081514143024
  0
LINE
  8
0
  6
DASHED2
 62
               4
  5
398
 10
45.190236570679531
 20
-12.025007223573823
 30
0.0
 11
45.190236570679531
 21
-22.544373465898445
 31
0.0
  0
LINE
  8
0
  6
DASHED2
 62
               4
  5
399
 10
33.19023657067963
 20
-12.025007223573823
 30
0.0
 11
33.19023657067963
 21
-22.544373465898445
 31
0.0
  0
LINE
  8
0
  6
DASHED2
 62
               4
  5
39A
 10
43.99023657067977
 20
-23.744373465898832
 30
0.0
 11
34.390236570679676
 21
-23.744373465898832
 31
0.0
  0
LINE
  8
0
  6
DASHED2
 62
               4
  5
39B
 10
45.190236570679531
 20
-22.544373465898445
 30
0.0
 11
43.99023657067977
 21
-23.744373465898832
 31
0.0
  0
LINE
  8
0
  6
DASHED2
 62
               4
  5
39C
 10
33.19023657067963
 20
-22.544373465898445
 30
0.0
 11
34.390236570679676
 21
-23.744373465898832
 31
0.0
  0
LINE
  8
0
  6
DASHED2
 62
               4
  5
39D
 10
50.950236570679749
 20
-0.4250072235736866
 30
0.0
 11
27.430236570679412
 21
-0.4250072235736866
 31
0.0
  0
LINE
  8
0
  6
DASHED2
 62
               4
  5
39E
 10
27.430236570680833
 20
-2.4250072235740276
 30
0.0
 11
50.95023657068117
 21
-2.4250072235740276
 31
0.0
  0
LINE
  8
0
  6
DASHED2
 62
               4
  5
39F
 10
45.190236570679531
 20
114.63857225235512
 30
0.0
 11
45.190236570679531
 21
9.1749927764264498
 31
0.0
  0
LINE
  8
0
  6
DASHED2
 62
               4
  5
3A0
 10
33.19023657067963
 20
114.63857225235512
 30
0.0
 11
33.19023657067963
 21
9.1749927764264498
 31
0.0
  0
LINE
  8
0
  6
DASHED2
 62
               4
  5
3A1
 10
33.19023657067963
 20
114.63857225235512
 30
0.0
 11
45.190236570679531
 21
114.63857225235512
 31
0.0
  0
LINE
  8
0
  6
DASHED2
 62
               4
  5
3A2
 10
357.1902365706805
 20
64.574992776426313
 30
0.0
 11
357.1902365706805
 21
-0.4250072235741413
 31
0.0
  0
LINE
  8
0
  6
DASHED2
 62
               4
  5
3A3
 10
356.69023657067714
 20
-15.425007223575278
 30
0.0
 11
356.69023657067714
 21
-80.425007223573004
 31
0.0
  0
LINE
  8
0
  6
DASHED2
 62
               4
  5
3A4
 10
414.19023657068016
 20
-0.4250072235741413
 30
0.0
 11
357.19023657067993
 21
-0.4250072235741413
 31
0.0
  0
LINE
  8
0
  6
DASHED2
 62
               4
  5
3A5
 10
356.69023657067714
 20
-15.425007223575278
 30
0.0
 11
414.19023657067902
 21
-15.425007223574141
 31
0.0
  0
LINE
  8
0
  6
DASHED2
 62
               4
  5
3A6
 10
471.1902365706797
 20
64.57499277642529
 30
0.0
 11
471.1902365706797
 21
-0.4250072235741413
 31
0.0
  0
LINE
  8
0
  6
DASHED2
 62
               4
  5
3A7
 10
414.19023657068016
 20
-0.4250072235741413
 30
0.0
 11
471.19023657067993
 21
-0.4250072235741413
 31
0.0
  0
LINE
  8
0
  6
DASHED2
 62
               4
  5
3A8
 10
471.69023657068175
 20
-15.425007223575278
 30
0.0
 11
414.19023657068016
 21
-15.425007223574141
 31
0.0
  0
LINE
  8
0
  6
DASHED2
 62
               4
  5
3A9
 10
471.69023657068175
 20
-15.425007223575278
 30
0.0
 11
471.69023657068175
 21
-80.425007223573004
 31
0.0
  0
LINE
  8
0
  6
DASHED2
 62
               4
  5
3AA
 10
402.43023657067926
 20
-0.4250072235741413
 30
0.0
 11
402.43023657067926
 21
8.1011212757330782
 31
0.0
  0
LINE
  8
0
  6
DASHED2
 62
               4
  5
3AB
 10
408.31920931641372
 20
8.1011212757330782
 30
0.0
 11
408.31920931641372
 21
-0.4250072235741413
 31
0.0
  0
LINE
  8
0
  6
DASHED2
 62
               4
  5
3AC
 10
405.37472294354671
 20
9.1749927764259951
 30
0.0
 11
423.00575019781269
 21
9.1749927764259951
 31
0.0
  0
LINE
  8
0
  6
DASHED2
 62
               4
  5
3AD
 10
425.95023657067969
 20
-0.4250072235741413
 30
0.0
 11
425.95023657067969
 21
8.1011212757330782
 31
0.0
  0
LINE
  8
0
  6
DASHED2
 62
               4
  5
3AE
 10
420.061263824945
 20
-0.4250072235741413
 30
0.0
 11
420.061263824945
 21
8.1011212757330782
 31
0.0
  0
ARC
  8
0
  6
DASHED2
 62
               4
  5
3AF
 10
405.37472294354671
 20
4.6012611923100053
 30
0.0
 40
4.5737315841157447
 50
49.925579661602832
 51
130.07442033832857
  0
ARC
  8
0
  6
DASHED2
 62
               4
  5
3B0
 10
423.00575019781269
 20
4.6012611923100053
 30
0.0
 40
4.5737315841157686
 50
49.925579661602747
 51
130.07442033832857
  0
ARC
  8
0
  6
DASHED2
 62
               4
  5
3B1
 10
414.19023657067947
 20
-7.4108654930944908
 30
0.0
 40
16.58585826952007
 50
69.269184858534501
 51
110.73081514139706
  0
LINE
  8
0
  6
DASHED2
 62
               4
  5
3B2
 10
402.43023657067789
 20
-2.4250072235744824
 30
0.0
 11
402.43023657067789
 21
-10.951135722881702
 31
0.0
  0
LINE
  8
0
  6
DASHED2
 62
               4
  5
3B3
 10
408.31920931641235
 20
-10.951135722881702
 30
0.0
 11
408.31920931641235
 21
-2.4250072235744824
 31
0.0
  0
LINE
  8
0
  6
DASHED2
 62
               4
  5
3B4
 10
405.37472294354535
 20
-12.025007223574278
 30
0.0
 11
423.00575019781087
 21
-12.025007223574278
 31
0.0
  0
LINE
  8
0
  6
DASHED2
 62
               4
  5
3B5
 10
425.95023657067833
 20
-2.4250072235744824
 30
0.0
 11
425.95023657067833
 21
-10.951135722881702
 31
0.0
  0
LINE
  8
0
  6
DASHED2
 62
               4
  5
3B6
 10
420.06126382494386
 20
-2.4250072235744824
 30
0.0
 11
420.06126382494386
 21
-10.951135722881702
 31
0.0
  0
ARC
  8
0
  6
DASHED2
 62
               4
  5
3B7
 10
405.37472294354535
 20
-7.4512756394588564
 30
0.0
 40
4.5737315841157447
 50
229.92557966153416
 51
310.07442033826044
  0
ARC
  8
0
  6
DASHED2
 62
               4
  5
3B8
 10
423.00575019781087
 20
-7.4512756394588564
 30
0.0
 40
4.5737315841157686
 50
229.92557966153416
 51
310.07442033825998
  0
ARC
  8
0
  6
DASHED2
 62
               4
  5
3B9
 10
414.19023657067811
 20
4.5608510459456397
 30
0.0
 40
16.58585826952007
 50
249.26918485846539
 51
290.73081514132798
  0
LINE
  8
0
  6
DASHED2
 62
               4
  5
3BA
 10
408.19023657067947
 20
-12.025007223574278
 30
0.0
 11
408.19023657067947
 21
-22.5443734658989
 31
0.0
  0
LINE
  8
0
  6
DASHED2
 62
               4
  5
3BB
 10
420.19023657067947
 20
-12.025007223574278
 30
0.0
 11
420.19023657067947
 21
-22.5443734658989
 31
0.0
  0
LINE
  8
0
  6
DASHED2
 62
               4
  5
3BC
 10
409.39023657067929
 20
-23.744373465899287
 30
0.0
 11
418.99023657067943
 21
-23.744373465899287
 31
0.0
  0
LINE
  8
0
  6
DASHED2
 62
               4
  5
3BD
 10
408.19023657067947
 20
-22.5443734658989
 30
0.0
 11
409.39023657067929
 21
-23.744373465899287
 31
0.0
  0
LINE
  8
0
  6
DASHED2
 62
               4
  5
3BE
 10
420.19023657067947
 20
-22.5443734658989
 30
0.0
 11
418.99023657067943
 21
-23.744373465899287
 31
0.0
  0
LINE
  8
0
  6
DASHED2
 62
               4
  5
3BF
 10
402.43023657067926
 20
-0.4250072235741413
 30
0.0
 11
425.95023657067969
 21
-0.4250072235741413
 31
0.0
  0
LINE
  8
0
  6
DASHED2
 62
               4
  5
3C0
 10
425.95023657067833
 20
-2.4250072235744824
 30
0.0
 11
402.43023657067789
 21
-2.4250072235744824
 31
0.0
  0
LINE
  8
0
  6
DASHED2
 62
               4
  5
3C1
 10
408.19023657067947
 20
114.63857225235466
 30
0.0
 11
408.19023657067947
 21
9.1749927764259951
 31
0.0
  0
LINE
  8
0
  6
DASHED2
 62
               4
  5
3C2
 10
420.19023657067947
 20
114.63857225235466
 30
0.0
 11
420.19023657067947
 21
9.1749927764259951
 31
0.0
  0
LINE
  8
0
  6
DASHED2
 62
               4
  5
3C3
 10
420.19023657067947
 20
114.63857225235466
 30
0.0
 11
408.19023657067947
 21
114.63857225235466
 31
0.0
  0
LINE
  8
0
  6
DASHED2
 62
               4
  5
3C4
 10
466.47675978698777
 20
-937.78130548520744
 30
0.0
 11
580.47675978698749
 21
-937.78130548520744
 31
0.0
  0
LINE
  8
0
  6
DASHDOT
 62
               4
  5
3C5
 10
-247.8097634293203
 20
518.57499277642592
 30
0.0
 11
-147.8097634293203
 21
518.57499277642592
 31
0.0
  0
LINE
  8
0
  6
DASHDOT
 62
               4
  5
3C6
 10
-85.809763429320412
 20
714.08852881742655
 30
0.0
 11
-85.809763429320242
 21
-220.31811182722396
 31
0.0
  0
LINE
  8
0
  6
DASHDOT
 62
               4
  5
3C7
 10
414.19023657067959
 20
704.57499277642592
 30
0.0
 11
414.1902365706797
 21
-220.31811182722396
 31
0.0
  0
LINE
  8
0
  6
DASHDOT
 62
               4
  5
3C8
 10
-517.2845386540962
 20
518.57499277642592
 30
0.0
 11
-653.98533785489553
 21
518.57499277642592
 31
0.0
  0
LINE
  8
0
  6
DASHDOT
 62
               4
  5
3C9
 10
-585.80976342932036
 20
708.4698387479898
 30
0.0
 11
-585.80976342932013
 21
-220.31811182722396
 31
0.0
  0
LINE
  8
0
  6
DASHDOT
 62
               4
  5
3CA
 10
-85.809763429320412
 20
1117.5885288174265
 30
0.0
 11
-85.809763429320498
 21
910.96974028771683
 31
0.0
  0
LINE
  8
0
  6
DASHDOT
 62
               4
  5
3CB
 10
-247.8097634293203
 20
1009.0885288174265
 30
0.0
 11
22.690236570679815
 21
1009.0885288174265
 31
0.0
  0
LINE
  8
0
  6
DASHDOT
 62
               4
  5
3CC
 10
-210.80976342932041
 20
120.5650947744312
 30
0.0
 11
-210.80976342932041
 21
-43.813266845059218
 31
0.0
  0
LINE
  8
0
  6
DASHDOT
 62
               4
  5
3CD
 10
39.190236570679573
 20
120.5650947744312
 30
0.0
 11
39.190236570679573
 21
-43.813266845059218
 31
0.0
  0
LINE
  8
0
  6
DASHDOT
 62
               4
  5
3CE
 10
-477.94753247978895
 20
-686.46630730841412
 30
0.0
 11
-477.94753247978883
 21
-557.46630730841457
 31
0.0
  0
LINE
  8
0
  6
DASHDOT
 62
               4
  5
3CF
 10
-535.94753247978883
 20
-628.46630730841412
 30
0.0
 11
-419.94753247978895
 21
-628.46630730841412
 31
0.0
  0
LINE
  8
0
  6
DASHDOT
 62
               4
  5
3D0
 10
-547.75071096389638
 20
-621.96630730841412
 30
0.0
 11
-413.44753247978895
 21
-621.96630730841412
 31
0.0
  0
LINE
  8
0
  6
DASHDOT
 62
               4
  5
3D1
 10
-354.04753247978886
 20
-621.96630730841412
 30
0.0
 11
-255.44753247978898
 21
-621.96630730841412
 31
0.0
  0
LINE
  8
0
  6
DASHDOT
 62
               4
  5
3D2
 10
-388.44753247978895
 20
-628.46630730841412
 30
0.0
 11
-314.04753247978897
 21
-628.46630730841412
 31
0.0
  0
LINE
  8
0
  6
DASHDOT
 62
               4
  5
3D3
 10
-601.8475324797887
 20
-621.96630730841412
 30
0.0
 11
-700.44753247978883
 21
-621.96630730841366
 31
0.0
  0
LINE
  8
0
  6
DASHDOT
 62
               4
  5
3D4
 10
-567.44753247978883
 20
-628.46630730841412
 30
0.0
 11
-641.8475324797887
 21
-628.46630730841412
 31
0.0
  0
LINE
  8
0
  6
DASHDOT
 62
               4
  5
3D5
 10
-479.89348987555547
 20
-524.99842323937946
 30
0.0
 11
-479.89348987555547
 21
-391.99842323937941
 31
0.0
  0
LINE
  8
0
  6
DASHDOT
 62
               4
  5
3D6
 10
135.8241602565607
 20
-621.96630730841412
 30
0.0
 11
234.42416025656087
 21
-621.96630730841412
 31
0.0
  0
LINE
  8
0
  6
DASHDOT
 62
               4
  5
3D7
 10
110.8241602565607
 20
-636.46630730841412
 30
0.0
 11
175.82416025656073
 21
-636.46630730841412
 31
0.0
  0
LINE
  8
0
  6
DASHDOT
 62
               4
  5
3D8
 10
-14.931855968682285
 20
-636.46630730841412
 30
0.0
 11
85.068144031317928
 21
-636.46630730841412
 31
0.0
  0
LINE
  8
0
  6
DASHDOT
 62
               4
  5
3D9
 10
35.068144031317715
 20
-686.46630730841412
 30
0.0
 11
35.068144031317942
 21
-557.46630730841457
 31
0.0
  0
LINE
  8
0
  6
DASHDOT
 62
               4
  5
3DA
 10
-29.431855968682285
 20
-621.96630730841412
 30
0.0
 11
105.11215381126894
 21
-621.96630730841412
 31
0.0
  0
LINE
  8
0
  6
DASHDOT
 62
               4
  5
3DB
 10
-65.68787219392506
 20
-621.96630730841412
 30
0.0
 11
-164.28787219392507
 21
-621.96630730841412
 31
0.0
  0
LINE
  8
0
  6
DASHDOT
 62
               4
  5
3DC
 10
-40.68787219392506
 20
-636.46630730841412
 30
0.0
 11
-105.68787219392506
 21
-636.46630730841412
 31
0.0
  0
LINE
  8
0
  6
DASHDOT
 62
               4
  5
3DD
 10
35.068144031317942
 20
-535.7102910831718
 30
0.0
 11
35.068144031317942
 21
-412.1102910831716
 31
0.0
  0
LINE
  8
0
  6
DASHDOT
 62
               4
  5
3DE
 10
523.47675978698771
 20
-455.78187173662349
 30
0.0
 11
523.47675978698771
 21
-726.32865853644967
 31
0.0
  0
LINE
  8
0
  6
DASHDOT
 62
               4
  5
3DF
 10
361.47675978698771
 20
-564.28187173662354
 30
0.0
 11
631.97675978698794
 21
-564.28187173662354
 31
0.0
  0
LINE
  8
0
  6
DASHDOT
 62
               4
  5
3E0
 10
592.00198456221233
 20
-1038.7813054852074
 30
0.0
 11
361.74814649355937
 21
-1038.7813054852074
 31
0.0
  0
LINE
  8
0
  6
DASHDOT
 62
               4
  5
3E1
 10
523.47675978698771
 20
-852.78130548520744
 30
0.0
 11
523.47675978698771
 21
-1103.7813054852074
 31
0.0
  0
LINE
  8
0
  6
DASHDOT
 62
               4
  5
3E2
 10
473.47675978698766
 20
-1053.2813054852074
 30
0.0
 11
573.47675978698794
 21
-1053.2813054852074
 31
0.0
  0
LINE
  8
0
  6
DASHDOT
 62
               4
  5
3E3
 10
523.47675978698771
 20
-754.88187173662322
 30
0.0
 11
523.47675978698771
 21
-631.28187173662286
 31
0.0
  0
LINE
  8
0
  6
DASHDOT
 62
               4
  5
3E4
 10
323.4767597869876
 20
-1045.2813054852074
 30
0.0
 11
397.87675978698758
 21
-1045.2813054852074
 31
0.0
  0
LINE
  8
0
  6
DASHDOT
 62
               4
  5
3E5
 10
323.47675978698783
 20
-564.28187173662332
 30
0.0
 11
456.47675978698788
 21
-564.28187173662332
 31
0.0
  0
ARC
  8
0
  6
DIVIDE
 62
               4
  5
3E6
 10
-614.30976342932013
 20
-247.35798852774263
 30
0.0
 40
55.0
 50
58.789629707478369
 51
121.21037029248674
  0
ARC
  8
0
  6
DIVIDE
 62
               4
  5
3E7
 10
-614.30976342932013
 20
-153.27823512670517
 30
0.0
 40
55.0
 50
238.78962970744368
 51
301.21037029245184
  0
ARC
  8
0
  6
DIVIDE
 62
               4
  5
3E8
 10
-618.30976342932036
 20
-222.82060926302046
 30
0.0
 40
65.0
 50
59.999999999988248
 51
119.99999999997698
  0
ARC
  8
0
  6
DIVIDE
 62
               4
  5
3E9
 10
-557.30976342932013
 20
-153.27823512670528
 30
0.0
 40
55.0
 50
238.78962970744377
 51
301.21037029245201
  0
ARC
  8
0
  6
DIVIDE
 62
               4
  5
3EA
 10
-553.30976342932036
 20
-110.23730677104351
 30
0.0
 40
65.0
 50
239.99999999995379
 51
299.99999999994202
  0
LINE
  8
0
  6
DIVIDE
 62
               4
  5
3EB
 10
-642.80976342932013
 20
-162.61471254185193
 30
0.0
 11
-642.80976342932013
 21
-200.31811182722396
 31
0.0
  0
LINE
  8
0
  6
DIVIDE
 62
               4
  5
3EC
 10
-528.80976342932013
 20
-170.44320349221192
 30
0.0
 11
-528.80976342932013
 21
-200.31811182722396
 31
0.0
  0
ARC
  8
0
  6
DIVIDE
 62
               4
  5
3ED
 10
-618.30976342932036
 20
-110.23730677104362
 30
0.0
 40
65.0
 50
239.99999999995339
 51
247.85677929850399
  0
LINE
  8
0
  6
DIVIDE
 62
               4
  5
3EE
 10
-520.80976342932036
 20
-80.425007223573004
 30
0.0
 11
-520.80976342932036
 21
-166.52895801703204
 31
0.0
  0
LINE
  8
0
  6
DIVIDE
 62
               4
  5
3EF
 10
-650.80976342932036
 20
-80.425007223573004
 30
0.0
 11
-650.80976342932036
 21
-166.52895801703204
 31
0.0
  0
ARC
  8
0
  6
DIVIDE
 62
               4
  5
3F0
 10
-114.30976342932036
 20
-247.35798852774263
 30
0.0
 40
55.0
 50
58.789629707478362
 51
121.21037029248673
  0
ARC
  8
0
  6
DIVIDE
 62
               4
  5
3F1
 10
-114.30976342932036
 20
-153.27823512670517
 30
0.0
 40
55.0
 50
238.78962970744368
 51
301.21037029245184
  0
ARC
  8
0
  6
DIVIDE
 62
               4
  5
3F2
 10
-118.30976342932041
 20
-222.82060926302046
 30
0.0
 40
65.0
 50
59.999999999988269
 51
119.99999999997698
  0
ARC
  8
0
  6
DIVIDE
 62
               4
  5
3F3
 10
-57.309763429320327
 20
-153.27823512670528
 30
0.0
 40
55.0
 50
238.78962970744377
 51
301.21037029245201
  0
ARC
  8
0
  6
DIVIDE
 62
               4
  5
3F4
 10
-53.309763429320412
 20
-110.23730677104351
 30
0.0
 40
65.0
 50
239.99999999995379
 51
299.99999999994202
  0
LINE
  8
0
  6
DIVIDE
 62
               4
  5
3F5
 10
-142.8097634293203
 20
-162.61471254185193
 30
0.0
 11
-142.8097634293203
 21
-200.31811182722396
 31
0.0
  0
LINE
  8
0
  6
DIVIDE
 62
               4
  5
3F6
 10
-28.809763429320242
 20
-170.44320349221192
 30
0.0
 11
-28.809763429320242
 21
-200.31811182722396
 31
0.0
  0
ARC
  8
0
  6
DIVIDE
 62
               4
  5
3F7
 10
-118.30976342932041
 20
-110.23730677104362
 30
0.0
 40
65.0
 50
239.99999999995339
 51
247.85677929850399
  0
LINE
  8
0
  6
DIVIDE
 62
               4
  5
3F8
 10
-20.809763429320427
 20
-80.425007223573004
 30
0.0
 11
-20.809763429320427
 21
-166.52895801703204
 31
0.0
  0
LINE
  8
0
  6
DIVIDE
 62
               4
  5
3F9
 10
-150.80976342932041
 20
-80.425007223573004
 30
0.0
 11
-150.80976342932041
 21
-166.52895801703204
 31
0.0
  0
ARC
  8
0
  6
DIVIDE
 62
               4
  5
3FA
 10
385.69023657067959
 20
-247.35798852774263
 30
0.0
 40
55.0
 50
58.789629707478369
 51
121.21037029248674
  0
ARC
  8
0
  6
DIVIDE
 62
               4
  5
3FB
 10
385.69023657067959
 20
-153.27823512670517
 30
0.0
 40
55.0
 50
238.78962970744368
 51
301.21037029245184
  0
ARC
  8
0
  6
DIVIDE
 62
               4
  5
3FC
 10
381.69023657067947
 20
-222.82060926302046
 30
0.0
 40
65.0
 50
59.999999999988248
 51
119.99999999997698
  0
ARC
  8
0
  6
DIVIDE
 62
               4
  5
3FD
 10
442.6902365706797
 20
-153.27823512670528
 30
0.0
 40
55.0
 50
238.78962970744377
 51
301.21037029245201
  0
ARC
  8
0
  6
DIVIDE
 62
               4
  5
3FE
 10
446.69023657067947
 20
-110.23730677104351
 30
0.0
 40
65.0
 50
239.99999999995379
 51
299.99999999994196
  0
LINE
  8
0
  6
DIVIDE
 62
               4
  5
3FF
 10
357.19023657067964
 20
-162.61471254185193
 30
0.0
 11
357.19023657067964
 21
-200.31811182722396
 31
0.0
  0
LINE
  8
0
  6
DIVIDE
 62
               4
  5
400
 10
471.1902365706797
 20
-170.44320349221192
 30
0.0
 11
471.1902365706797
 21
-200.31811182722396
 31
0.0
  0
ARC
  8
0
  6
DIVIDE
 62
               4
  5
401
 10
381.69023657067947
 20
-110.23730677104362
 30
0.0
 40
65.0
 50
239.99999999995339
 51
247.85677929850399
  0
LINE
  8
0
  6
DIVIDE
 62
               4
  5
402
 10
479.19023657067947
 20
-80.425007223573004
 30
0.0
 11
479.19023657067947
 21
-166.52895801703204
 31
0.0
  0
LINE
  8
0
  6
DIVIDE
 62
               4
  5
403
 10
349.19023657067953
 20
-80.425007223573004
 30
0.0
 11
349.19023657067953
 21
-166.52895801703204
 31
0.0
  0
POINT
  8
0
  6
DASHDOT
 62
               5
  5
404
 10
-85.809763429320412
 20
299.57499277642586
 30
0.0
  0
POINT
  8
0
  6
CONTINUOUS
 62
               5
  5
405
 10
-477.94753247978895
 20
-621.96630730841412
 30
0.0
  0
POINT
  8
0
  6
CONTINUOUS
 62
               5
  5
406
 10
-304.71746096982861
 20
-623.25710138330328
 30
0.0
  0
POINT
  8
0
  6
CONTINUOUS
 62
               5
  5
407
 10
-651.17760398974906
 20
-623.25710138330282
 30
0.0
  0
POINT
  8
0
  6
CONTINUOUS
 62
               5
  5
408
 10
-481.18428395044452
 20
-441.26835172941918
 30
0.0
  0
POINT
  8
0
  6
CONTINUOUS
 62
               5
  5
409
 10
407.20683129694794
 20
-1040.0720995600966
 30
0.0
  0
POINT
  8
0
  6
CONTINUOUS
 62
               5
  5
40A
 10
407.20683129694805
 20
-562.99107766173438
 30
0.0
  0
CIRCLE
  8
0
  6
CONTINUOUS
 62
               7
  5
40B
 10
-477.94753247978895
 20
-628.46630730841412
 30
0.0
 40
38.0
  0
CIRCLE
  8
0
  6
CONTINUOUS
 62
               7
  5
40C
 10
-477.94753247978895
 20
-628.46630730841412
 30
0.0
 40
33.5
  0
LINE
  8
0
  6
CONTINUOUS
 62
               7
  5
40D
 10
-333.44753247978895
 20
-577.46630730841434
 30
0.0
 11
-333.44753247978895
 21
-666.46107118773966
 31
0.0
  0
LINE
  8
0
  6
CONTINUOUS
 62
               7
  5
40E
 10
-332.84753247978892
 20
-577.46630730841434
 30
0.0
 11
-333.44753247978895
 21
-577.46630730841434
 31
0.0
  0
LINE
  8
0
  6
CONTINUOUS
 62
               7
  5
40F
 10
-368.44753247978895
 20
-665.46630730841412
 30
0.0
 11
-368.44753247978895
 21
-591.46630730841434
 31
0.0
  0
LINE
  8
0
  6
CONTINUOUS
 62
               7
  5
410
 10
-275.44753247978895
 20
-665.46630730841412
 30
0.0
 11
-275.44753247978895
 21
-578.46630730841434
 31
0.0
  0
LINE
  8
0
  6
CONTINUOUS
 62
               7
  5
411
 10
-333.44753247978895
 20
-577.46630730841434
 30
0.0
 11
-276.44753247978895
 21
-577.46630730841434
 31
0.0
  0
LINE
  8
0
  6
CONTINUOUS
 62
               7
  5
412
 10
-367.44753247978895
 20
-666.46630730841412
 30
0.0
 11
-276.44753247978895
 21
-666.46630730841412
 31
0.0
  0
LINE
  8
0
  6
CONTINUOUS
 62
               7
  5
413
 10
-276.44753247978895
 20
-577.46630730841434
 30
0.0
 11
-275.44753247978895
 21
-578.46630730841434
 31
0.0
  0
LINE
  8
0
  6
CONTINUOUS
 62
               7
  5
414
 10
-275.44753247978895
 20
-665.46630730841412
 30
0.0
 11
-276.44753247978895
 21
-666.46630730841412
 31
0.0
  0
LINE
  8
0
  6
CONTINUOUS
 62
               7
  5
415
 10
-367.44753247978895
 20
-590.46630730841434
 30
0.0
 11
-333.44753247978895
 21
-590.46630730841434
 31
0.0
  0
CIRCLE
  8
0
  6
CONTINUOUS
 62
               7
  5
416
 10
-477.94753247978895
 20
-621.96630730841412
 30
0.0
 40
44.5
  0
LINE
  8
0
  6
CONTINUOUS
 62
               7
  5
417
 10
-367.44753247978895
 20
-590.46630730841434
 30
0.0
 11
-368.44753247978895
 21
-591.46630730841434
 31
0.0
  0
LINE
  8
0
  6
CONTINUOUS
 62
               7
  5
418
 10
-368.44753247978895
 20
-665.46630730841412
 30
0.0
 11
-367.44753247978895
 21
-666.46630730841412
 31
0.0
  0
LINE
  8
0
  6
CONTINUOUS
 62
               7
  5
419
 10
-622.44753247978883
 20
-577.46630730841434
 30
0.0
 11
-622.44753247978883
 21
-666.46107118773966
 31
0.0
  0
LINE
  8
0
  6
CONTINUOUS
 62
               7
  5
41A
 10
-623.04753247978874
 20
-577.46630730841434
 30
0.0
 11
-622.44753247978883
 21
-577.46630730841434
 31
0.0
  0
LINE
  8
0
  6
CONTINUOUS
 62
               7
  5
41B
 10
-587.44753247978883
 20
-665.46630730841412
 30
0.0
 11
-587.44753247978883
 21
-591.46630730841434
 31
0.0
  0
LINE
  8
0
  6
CONTINUOUS
 62
               7
  5
41C
 10
-680.44753247978883
 20
-665.46630730841412
 30
0.0
 11
-680.44753247978883
 21
-578.46630730841434
 31
0.0
  0
LINE
  8
0
  6
CONTINUOUS
 62
               7
  5
41D
 10
-622.44753247978883
 20
-577.46630730841434
 30
0.0
 11
-679.44753247978883
 21
-577.46630730841434
 31
0.0
  0
LINE
  8
0
  6
CONTINUOUS
 62
               7
  5
41E
 10
-588.44753247978883
 20
-666.46630730841412
 30
0.0
 11
-679.44753247978883
 21
-666.46630730841412
 31
0.0
  0
LINE
  8
0
  6
CONTINUOUS
 62
               7
  5
41F
 10
-679.44753247978883
 20
-577.46630730841434
 30
0.0
 11
-680.44753247978883
 21
-578.46630730841434
 31
0.0
  0
LINE
  8
0
  6
CONTINUOUS
 62
               7
  5
420
 10
-680.44753247978883
 20
-665.46630730841412
 30
0.0
 11
-679.44753247978883
 21
-666.46630730841412
 31
0.0
  0
LINE
  8
0
  6
CONTINUOUS
 62
               7
  5
421
 10
-588.44753247978883
 20
-590.46630730841434
 30
0.0
 11
-622.44753247978883
 21
-590.46630730841434
 31
0.0
  0
LINE
  8
0
  6
CONTINUOUS
 62
               7
  5
422
 10
-588.44753247978883
 20
-590.46630730841434
 30
0.0
 11
-587.44753247978883
 21
-591.46630730841434
 31
0.0
  0
LINE
  8
0
  6
CONTINUOUS
 62
               7
  5
423
 10
-587.44753247978883
 20
-665.46630730841412
 30
0.0
 11
-588.44753247978883
 21
-666.46630730841412
 31
0.0
  0
LINE
  8
0
  6
CONTINUOUS
 62
               7
  5
424
 10
-435.39348987555547
 20
-469.99842323937963
 30
0.0
 11
-524.38825375488091
 21
-469.99842323937941
 31
0.0
  0
LINE
  8
0
  6
CONTINUOUS
 62
               7
  5
425
 10
-435.39348987555547
 20
-469.3984232393795
 30
0.0
 11
-435.39348987555547
 21
-469.99842323937963
 31
0.0
  0
LINE
  8
0
  6
CONTINUOUS
 62
               7
  5
426
 10
-516.89348987555536
 20
-504.99842323937941
 30
0.0
 11
-442.89348987555547
 21
-504.99842323937963
 31
0.0
  0
LINE
  8
0
  6
CONTINUOUS
 62
               7
  5
427
 10
-523.39348987555536
 20
-411.99842323937941
 30
0.0
 11
-436.39348987555547
 21
-411.99842323937963
 31
0.0
  0
LINE
  8
0
  6
CONTINUOUS
 62
               7
  5
428
 10
-435.39348987555547
 20
-469.99842323937963
 30
0.0
 11
-435.39348987555547
 21
-412.99842323937963
 31
0.0
  0
LINE
  8
0
  6
CONTINUOUS
 62
               7
  5
429
 10
-517.89348987555536
 20
-503.99842323937941
 30
0.0
 11
-517.89348987555536
 21
-469.99842323937941
 31
0.0
  0
LINE
  8
0
  6
CONTINUOUS
 62
               7
  5
42A
 10
-435.39348987555547
 20
-412.99842323937963
 30
0.0
 11
-436.39348987555547
 21
-411.99842323937963
 31
0.0
  0
LINE
  8
0
  6
CONTINUOUS
 62
               7
  5
42B
 10
-523.39348987555536
 20
-411.99842323937941
 30
0.0
 11
-524.39348987555536
 21
-412.99842323937941
 31
0.0
  0
LINE
  8
0
  6
CONTINUOUS
 62
               7
  5
42C
 10
-441.89348987555547
 20
-503.99842323937963
 30
0.0
 11
-441.89348987555547
 21
-469.99842323937941
 31
0.0
  0
LINE
  8
0
  6
CONTINUOUS
 62
               7
  5
42D
 10
-441.89348987555547
 20
-503.99842323937963
 30
0.0
 11
-442.89348987555547
 21
-504.99842323937963
 31
0.0
  0
LINE
  8
0
  6
CONTINUOUS
 62
               7
  5
42E
 10
-516.89348987555536
 20
-504.99842323937941
 30
0.0
 11
-517.89348987555536
 21
-503.99842323937941
 31
0.0
  0
LINE
  8
0
  6
CONTINUOUS
 62
               7
  5
42F
 10
-524.39348987555536
 20
-469.99842323937941
 30
0.0
 11
-524.39348987555536
 21
-412.99842323937941
 31
0.0
  0
LINE
  8
0
  6
CONTINUOUS
 62
               7
  5
430
 10
130.8241602565607
 20
-665.46630730841412
 30
0.0
 11
130.8241602565607
 21
-607.46630730841434
 31
0.0
  0
LINE
  8
0
  6
CONTINUOUS
 62
               7
  5
431
 10
156.42416025656061
 20
-577.46630730841434
 30
0.0
 11
156.42416025656061
 21
-666.46630730841412
 31
0.0
  0
LINE
  8
0
  6
CONTINUOUS
 62
               7
  5
432
 10
157.02416025656075
 20
-577.46630730841434
 30
0.0
 11
156.42416025656061
 21
-577.46630730841434
 31
0.0
  0
LINE
  8
0
  6
CONTINUOUS
 62
               7
  5
433
 10
214.42416025656087
 20
-665.46630730841412
 30
0.0
 11
214.42416025656087
 21
-578.46630730841434
 31
0.0
  0
CIRCLE
  8
0
  6
CONTINUOUS
 62
               7
  5
434
 10
35.068144031317715
 20
-636.46630730841412
 30
0.0
 40
30.0
  0
CIRCLE
  8
0
  6
CONTINUOUS
 62
               7
  5
435
 10
35.068144031317715
 20
-636.46630730841412
 30
0.0
 40
25.5
  0
CIRCLE
  8
0
  6
CONTINUOUS
 62
               7
  5
436
 10
35.068144031317715
 20
-621.96630730841412
 30
0.0
 40
44.5
  0
LINE
  8
0
  6
CONTINUOUS
 62
               7
  5
437
 10
156.55861200204103
 20
-577.46630730841434
 30
0.0
 11
213.42416025656087
 21
-577.46630730841434
 31
0.0
  0
LINE
  8
0
  6
CONTINUOUS
 62
               7
  5
438
 10
131.8241602565607
 20
-666.46630730841412
 30
0.0
 11
213.42416025656087
 21
-666.46630730841412
 31
0.0
  0
LINE
  8
0
  6
CONTINUOUS
 62
               7
  5
439
 10
131.8241602565607
 20
-606.46630730841434
 30
0.0
 11
156.42416025656061
 21
-606.46630730841434
 31
0.0
  0
LINE
  8
0
  6
CONTINUOUS
 62
               7
  5
43A
 10
131.8241602565607
 20
-606.46630730841434
 30
0.0
 11
130.8241602565607
 21
-607.46630730841434
 31
0.0
  0
LINE
  8
0
  6
CONTINUOUS
 62
               7
  5
43B
 10
213.42416025656087
 20
-577.46630730841434
 30
0.0
 11
214.42416025656087
 21
-578.46630730841434
 31
0.0
  0
LINE
  8
0
  6
CONTINUOUS
 62
               7
  5
43C
 10
130.8241602565607
 20
-665.46630730841412
 30
0.0
 11
131.8241602565607
 21
-666.46630730841412
 31
0.0
  0
LINE
  8
0
  6
CONTINUOUS
 62
               7
  5
43D
 10
214.42416025656087
 20
-665.46630730841412
 30
0.0
 11
213.42416025656087
 21
-666.46630730841412
 31
0.0
  0
LINE
  8
0
  6
CONTINUOUS
 62
               7
  5
43E
 10
-60.68787219392506
 20
-665.46630730841412
 30
0.0
 11
-60.68787219392506
 21
-607.46630730841434
 31
0.0
  0
LINE
  8
0
  6
CONTINUOUS
 62
               7
  5
43F
 10
-86.287872193925082
 20
-577.46630730841434
 30
0.0
 11
-86.287872193925082
 21
-666.46630730841412
 31
0.0
  0
LINE
  8
0
  6
CONTINUOUS
 62
               7
  5
440
 10
-86.887872193925105
 20
-577.46630730841434
 30
0.0
 11
-86.287872193925082
 21
-577.46630730841434
 31
0.0
  0
LINE
  8
0
  6
CONTINUOUS
 62
               7
  5
441
 10
-144.28787219392507
 20
-665.46630730841412
 30
0.0
 11
-144.28787219392507
 21
-578.46630730841434
 31
0.0
  0
LINE
  8
0
  6
CONTINUOUS
 62
               7
  5
442
 10
-86.422323939405388
 20
-577.46630730841434
 30
0.0
 11
-143.28787219392507
 21
-577.46630730841434
 31
0.0
  0
LINE
  8
0
  6
CONTINUOUS
 62
               7
  5
443
 10
-61.68787219392506
 20
-666.46630730841412
 30
0.0
 11
-143.28787219392507
 21
-666.46630730841412
 31
0.0
  0
LINE
  8
0
  6
CONTINUOUS
 62
               7
  5
444
 10
-61.68787219392506
 20
-606.46630730841434
 30
0.0
 11
-86.287872193925082
 21
-606.46630730841434
 31
0.0
  0
LINE
  8
0
  6
CONTINUOUS
 62
               7
  5
445
 10
-61.68787219392506
 20
-606.46630730841434
 30
0.0
 11
-60.68787219392506
 21
-607.46630730841434
 31
0.0
  0
LINE
  8
0
  6
CONTINUOUS
 62
               7
  5
446
 10
-143.28787219392507
 20
-577.46630730841434
 30
0.0
 11
-144.28787219392507
 21
-578.46630730841434
 31
0.0
  0
LINE
  8
0
  6
CONTINUOUS
 62
               7
  5
447
 10
-60.68787219392506
 20
-665.46630730841412
 30
0.0
 11
-61.68787219392506
 21
-666.46630730841412
 31
0.0
  0
LINE
  8
0
  6
CONTINUOUS
 62
               7
  5
448
 10
-144.28787219392507
 20
-665.46630730841412
 30
0.0
 11
-143.28787219392507
 21
-666.46630730841412
 31
0.0
  0
LINE
  8
0
  6
CONTINUOUS
 62
               7
  5
449
 10
6.0681440313179422
 20
-515.7102910831718
 30
0.0
 11
64.068144031317928
 21
-515.7102910831718
 31
0.0
  0
LINE
  8
0
  6
CONTINUOUS
 62
               7
  5
44A
 10
79.568144031317928
 20
-490.1102910831716
 30
0.0
 11
-9.4318559686820578
 21
-490.1102910831716
 31
0.0
  0
LINE
  8
0
  6
CONTINUOUS
 62
               7
  5
44B
 10
79.568144031317928
 20
-489.51029108317169
 30
0.0
 11
79.568144031317928
 21
-490.1102910831716
 31
0.0
  0
LINE
  8
0
  6
CONTINUOUS
 62
               7
  5
44C
 10
-8.4318559686820578
 20
-432.1102910831716
 30
0.0
 11
78.568144031317928
 21
-432.1102910831716
 31
0.0
  0
LINE
  8
0
  6
CONTINUOUS
 62
               7
  5
44D
 10
79.568144031317928
 20
-489.97583933769141
 30
0.0
 11
79.568144031317928
 21
-433.1102910831716
 31
0.0
  0
LINE
  8
0
  6
CONTINUOUS
 62
               7
  5
44E
 10
5.0681440313179422
 20
-514.7102910831718
 30
0.0
 11
5.0681440313179422
 21
-490.1102910831716
 31
0.0
  0
LINE
  8
0
  6
CONTINUOUS
 62
               7
  5
44F
 10
65.068144031317928
 20
-514.7102910831718
 30
0.0
 11
65.068144031317928
 21
-490.1102910831716
 31
0.0
  0
LINE
  8
0
  6
CONTINUOUS
 62
               7
  5
450
 10
65.068144031317928
 20
-514.7102910831718
 30
0.0
 11
64.068144031317928
 21
-515.7102910831718
 31
0.0
  0
LINE
  8
0
  6
CONTINUOUS
 62
               7
  5
451
 10
79.568144031317928
 20
-433.1102910831716
 30
0.0
 11
78.568144031317928
 21
-432.1102910831716
 31
0.0
  0
LINE
  8
0
  6
CONTINUOUS
 62
               7
  5
452
 10
6.0681440313179422
 20
-515.7102910831718
 30
0.0
 11
5.0681440313179422
 21
-514.7102910831718
 31
0.0
  0
LINE
  8
0
  6
CONTINUOUS
 62
               7
  5
453
 10
-8.4318559686820578
 20
-432.1102910831716
 30
0.0
 11
-9.4318559686820578
 21
-433.1102910831716
 31
0.0
  0
LINE
  8
0
  6
CONTINUOUS
 62
               7
  5
454
 10
-9.4318559686820578
 20
-489.97583933769118
 30
0.0
 11
-9.4318559686820578
 21
-433.1102910831716
 31
0.0
  0
CIRCLE
  8
0
  6
CONTINUOUS
 62
               7
  5
455
 10
523.47675978698771
 20
-1053.2813054852074
 30
0.0
 40
25.5
  0
CIRCLE
  8
0
  6
CONTINUOUS
 62
               7
  5
456
 10
523.47675978698771
 20
-1038.7813054852074
 30
0.0
 40
44.5
  0
CIRCLE
  8
0
  6
CONTINUOUS
 62
               7
  5
457
 10
523.47675978698771
 20
-1053.2813054852074
 30
0.0
 40
30.0
  0
LINE
  8
0
  6
CONTINUOUS
 62
               7
  5
458
 10
494.47675978698766
 20
-734.88187173662322
 30
0.0
 11
552.47675978698771
 21
-734.88187173662322
 31
0.0
  0
LINE
  8
0
  6
CONTINUOUS
 62
               7
  5
459
 10
567.97675978698771
 20
-709.28187173662332
 30
0.0
 11
478.97675978698766
 21
-709.28187173662332
 31
0.0
  0
LINE
  8
0
  6
CONTINUOUS
 62
               7
  5
45A
 10
567.97675978698771
 20
-708.68187173662341
 30
0.0
 11
567.97675978698771
 21
-709.28187173662332
 31
0.0
  0
LINE
  8
0
  6
CONTINUOUS
 62
               7
  5
45B
 10
479.97675978698766
 20
-651.28187173662286
 30
0.0
 11
566.97675978698771
 21
-651.28187173662286
 31
0.0
  0
LINE
  8
0
  6
CONTINUOUS
 62
               7
  5
45C
 10
567.97675978698771
 20
-709.1474199911429
 30
0.0
 11
567.97675978698771
 21
-652.28187173662286
 31
0.0
  0
LINE
  8
0
  6
CONTINUOUS
 62
               7
  5
45D
 10
493.47675978698766
 20
-733.88187173662322
 30
0.0
 11
493.47675978698766
 21
-709.28187173662332
 31
0.0
  0
LINE
  8
0
  6
CONTINUOUS
 62
               7
  5
45E
 10
553.47675978698771
 20
-733.88187173662322
 30
0.0
 11
553.47675978698771
 21
-709.28187173662332
 31
0.0
  0
LINE
  8
0
  6
CONTINUOUS
 62
               7
  5
45F
 10
553.47675978698771
 20
-733.88187173662322
 30
0.0
 11
552.47675978698771
 21
-734.88187173662322
 31
0.0
  0
LINE
  8
0
  6
CONTINUOUS
 62
               7
  5
460
 10
567.97675978698771
 20
-652.28187173662286
 30
0.0
 11
566.97675978698771
 21
-651.28187173662286
 31
0.0
  0
LINE
  8
0
  6
CONTINUOUS
 62
               7
  5
461
 10
494.47675978698766
 20
-734.88187173662322
 30
0.0
 11
493.47675978698766
 21
-733.88187173662322
 31
0.0
  0
LINE
  8
0
  6
CONTINUOUS
 62
               7
  5
462
 10
479.97675978698766
 20
-651.28187173662286
 30
0.0
 11
478.97675978698766
 21
-652.28187173662286
 31
0.0
  0
LINE
  8
0
  6
CONTINUOUS
 62
               7
  5
463
 10
478.97675978698766
 20
-709.1474199911429
 30
0.0
 11
478.97675978698766
 21
-652.28187173662286
 31
0.0
  0
LINE
  8
0
  6
CONTINUOUS
 62
               7
  5
464
 10
378.4767597869876
 20
-994.28130548520744
 30
0.0
 11
378.4767597869876
 21
-1083.276069364533
 31
0.0
  0
LINE
  8
0
  6
CONTINUOUS
 62
               7
  5
465
 10
379.07675978698762
 20
-994.28130548520744
 30
0.0
 11
378.4767597869876
 21
-994.28130548520744
 31
0.0
  0
LINE
  8
0
  6
CONTINUOUS
 62
               7
  5
466
 10
343.4767597869876
 20
-1082.2813054852074
 30
0.0
 11
343.4767597869876
 21
-1008.2813054852074
 31
0.0
  0
LINE
  8
0
  6
CONTINUOUS
 62
               7
  5
467
 10
436.47675978698766
 20
-1082.2813054852074
 30
0.0
 11
436.47675978698766
 21
-995.28130548520744
 31
0.0
  0
LINE
  8
0
  6
CONTINUOUS
 62
               7
  5
468
 10
378.4767597869876
 20
-994.28130548520744
 30
0.0
 11
435.47675978698766
 21
-994.28130548520744
 31
0.0
  0
LINE
  8
0
  6
CONTINUOUS
 62
               7
  5
469
 10
344.4767597869876
 20
-1083.2813054852074
 30
0.0
 11
435.47675978698766
 21
-1083.2813054852074
 31
0.0
  0
LINE
  8
0
  6
CONTINUOUS
 62
               7
  5
46A
 10
435.47675978698766
 20
-994.28130548520744
 30
0.0
 11
436.47675978698766
 21
-995.28130548520744
 31
0.0
  0
LINE
  8
0
  6
CONTINUOUS
 62
               7
  5
46B
 10
436.47675978698766
 20
-1082.2813054852074
 30
0.0
 11
435.47675978698766
 21
-1083.2813054852074
 31
0.0
  0
LINE
  8
0
  6
CONTINUOUS
 62
               7
  5
46C
 10
344.4767597869876
 20
-1007.2813054852074
 30
0.0
 11
378.4767597869876
 21
-1007.2813054852074
 31
0.0
  0
LINE
  8
0
  6
CONTINUOUS
 62
               7
  5
46D
 10
344.4767597869876
 20
-1007.2813054852074
 30
0.0
 11
343.4767597869876
 21
-1008.2813054852074
 31
0.0
  0
LINE
  8
0
  6
CONTINUOUS
 62
               7
  5
46E
 10
343.4767597869876
 20
-1082.2813054852074
 30
0.0
 11
344.4767597869876
 21
-1083.2813054852074
 31
0.0
  0
LINE
  8
0
  6
CONTINUOUS
 62
               7
  5
46F
 10
378.4767597869876
 20
-608.78187173662309
 30
0.0
 11
378.47675978698783
 21
-519.78710785729777
 31
0.0
  0
LINE
  8
0
  6
CONTINUOUS
 62
               7
  5
470
 10
379.07675978698774
 20
-608.78187173662309
 30
0.0
 11
378.4767597869876
 21
-608.78187173662309
 31
0.0
  0
LINE
  8
0
  6
CONTINUOUS
 62
               7
  5
471
 10
343.47675978698783
 20
-527.28187173662332
 30
0.0
 11
343.4767597869876
 21
-601.28187173662309
 31
0.0
  0
LINE
  8
0
  6
CONTINUOUS
 62
               7
  5
472
 10
436.47675978698788
 20
-520.78187173662354
 30
0.0
 11
436.47675978698766
 21
-607.78187173662309
 31
0.0
  0
LINE
  8
0
  6
CONTINUOUS
 62
               7
  5
473
 10
378.4767597869876
 20
-608.78187173662309
 30
0.0
 11
435.47675978698766
 21
-608.78187173662309
 31
0.0
  0
LINE
  8
0
  6
CONTINUOUS
 62
               7
  5
474
 10
344.47675978698783
 20
-526.28187173662332
 30
0.0
 11
378.47675978698783
 21
-526.28187173662332
 31
0.0
  0
LINE
  8
0
  6
CONTINUOUS
 62
               7
  5
475
 10
435.47675978698766
 20
-608.78187173662309
 30
0.0
 11
436.47675978698766
 21
-607.78187173662309
 31
0.0
  0
LINE
  8
0
  6
CONTINUOUS
 62
               7
  5
476
 10
436.47675978698788
 20
-520.78187173662354
 30
0.0
 11
435.47675978698788
 21
-519.78187173662354
 31
0.0
  0
LINE
  8
0
  6
CONTINUOUS
 62
               7
  5
477
 10
344.4767597869876
 20
-602.28187173662309
 30
0.0
 11
378.47675978698783
 21
-602.28187173662309
 31
0.0
  0
LINE
  8
0
  6
CONTINUOUS
 62
               7
  5
478
 10
344.4767597869876
 20
-602.28187173662309
 30
0.0
 11
343.4767597869876
 21
-601.28187173662309
 31
0.0
  0
LINE
  8
0
  6
CONTINUOUS
 62
               7
  5
479
 10
343.47675978698783
 20
-527.28187173662332
 30
0.0
 11
344.47675978698783
 21
-526.28187173662332
 31
0.0
  0
LINE
  8
0
  6
CONTINUOUS
 62
               7
  5
47A
 10
378.47675978698783
 20
-519.78187173662332
 30
0.0
 11
435.47675978698788
 21
-519.78187173662332
 31
0.0
  0
CIRCLE
  8
0
  6
DASHED
 62
               7
  5
47B
 10
-477.94753247978895
 20
-621.96630730841412
 30
0.0
 40
40.0
  0
CIRCLE
  8
0
  6
DASHED
 62
               7
  5
47C
 10
35.068144031317715
 20
-621.96630730841412
 30
0.0
 40
40.0
  0
CIRCLE
  8
0
  6
DASHED
 62
               7
  5
47D
 10
523.47675978698771
 20
-1038.7813054852074
 30
0.0
 40
40.0
  0
TEXT
  8
0
 62
               3
  5
47E
 10
-477.94753247978895
 20
-706.46630730841412
 30
0.0
 40
40.0
  1
EMB_80×65
 41
0.8
 72
               1
 11
-477.94753247978895
 21
-706.46630730841412
 31
0.0
 73
               3
  0
TEXT
  8
0
 62
               3
  5
47F
 10
35.068144031317715
 20
-706.46630730841412
 30
0.0
 40
40.0
  1
EMB_80×50
 41
0.8
 72
               1
 11
35.068144031317715
 21
-706.46630730841412
 31
0.0
 73
               3
  0
TEXT
  8
0
 62
               3
  5
480
 10
519.77935580934741
 20
-384.83550323140406
 30
0.0
 40
40.0
  1
EMB使用例
 41
0.8
 72
               1
 11
519.77935580934741
 21
-384.83550323140406
 31
0.0
 73
               3
  0
TEXT
  8
0
 62
               3
  5
481
 10
-209.55246752021117
 20
-330.47536733106466
 30
0.0
 40
35.0
  1
横枝管に呼び６５、５０の管を接続するときは、EMBをご使用ください。
 41
0.8
 72
               1
 11
-209.55246752021117
 21
-330.47536733106466
 31
0.0
 73
               3
  0
ENDSEC
  0
EOF
