  0
SECTION
  2
HEADER
  9
$ACADVER
  1
AC1009
  9
$INSBASE
 10
0.0
 20
0.0
 30
0.0
  9
$EXTMIN
 10
-612.04000000000019
 20
-677.93501642372712
 30
0.0
  9
$EXTMAX
 10
612.04000000000019
 20
677.93501642372712
 30
0.0
  9
$LIMMIN
 10
-650.29250000000025
 20
-720.30595495021009
  9
$LIMMAX
 10
650.29250000000025
 20
720.30595495021009
  9
$ORTHOMODE
 70
               0
  9
$REGENMODE
 70
               1
  9
$FILLMODE
 70
               1
  9
$QTEXTMODE
 70
               0
  9
$MIRRTEXT
 70
               1
  9
$DRAGMODE
 70
               2
  9
$LTSCALE
 40
1.0
  9
$OSMODE
 70
               0
  9
$ATTMODE
 70
               1
  9
$TEXTSIZE
 40
0.2
  9
$TRACEWID
 40
0.05
  9
$TEXTSTYLE
  7
STANDARD
  9
$CLAYER
  8
0
  9
$CELTYPE
  6
CONTINUOUS
  9
$CECOLOR
 62
             256
  9
$DIMSCALE
 40
1.0
  9
$DIMASZ
 40
0.18
  9
$DIMEXO
 40
0.0625
  9
$DIMDLI
 40
0.38
  9
$DIMRND
 40
0.0
  9
$DIMDLE
 40
0.0
  9
$DIMEXE
 40
0.18
  9
$DIMTP
 40
0.0
  9
$DIMTM
 40
0.0
  9
$DIMTXT
 40
0.18
  9
$DIMCEN
 40
0.09
  9
$DIMTSZ
 40
0.0
  9
$DIMTOL
 70
               0
  9
$DIMLIM
 70
               0
  9
$DIMTIH
 70
               1
  9
$DIMTOH
 70
               1
  9
$DIMSE1
 70
               0
  9
$DIMSE2
 70
               0
  9
$DIMTAD
 70
               0
  9
$DIMZIN
 70
               0
  9
$DIMBLK
  1

  9
$DIMASO
 70
               1
  9
$DIMSHO
 70
               1
  9
$DIMPOST
  1

  9
$DIMAPOST
  1

  9
$DIMALT
 70
               0
  9
$DIMALTD
 70
               2
  9
$DIMALTF
 40
25.399999999999999
  9
$DIMLFAC
 40
1.0
  9
$DIMTOFL
 70
               0
  9
$DIMTVP
 40
0.0
  9
$DIMTIX
 70
               0
  9
$DIMSOXD
 70
               0
  9
$DIMSAH
 70
               0
  9
$DIMBLK1
  1

  9
$DIMBLK2
  1

  9
$DIMSTYLE
  2
STANDARD
  9
$DIMCLRD
 70
               0
  9
$DIMCLRE
 70
               0
  9
$DIMCLRT
 70
               0
  9
$DIMTFAC
 40
1.0
  9
$DIMGAP
 40
0.09
  9
$LUNITS
 70
               2
  9
$LUPREC
 70
               4
  9
$AXISMODE
 70
               0
  9
$AXISUNIT
 10
0.0
 20
0.0
  9
$SKETCHINC
 40
0.1
  9
$FILLETRAD
 40
0.0
  9
$AUNITS
 70
               0
  9
$AUPREC
 70
               0
  9
$MENU
  1
acad
  9
$ELEVATION
 40
0.0
  9
$PELEVATION
 40
0.0
  9
$THICKNESS
 40
0.0
  9
$LIMCHECK
 70
               0
  9
$BLIPMODE
 70
               1
  9
$CHAMFERA
 40
0.0
  9
$CHAMFERB
 40
0.0
  9
$SKPOLY
 70
               0
  9
$TDCREATE
 40
0.000000000
  9
$TDUPDATE
 40
0.000000000
  9
$TDINDWG
 40
0.0000000000
  9
$TDUSRTIMER
 40
0.0000000000
  9
$USRTIMER
 70
               1
  9
$ANGBASE
 50
0.0
  9
$ANGDIR
 70
               0
  9
$PDMODE
 70
               0
  9
$PDSIZE
 40
1.0
  9
$PLINEWID
 40
0.0
  9
$COORDS
 70
               1
  9
$SPLFRAME
 70
               0
  9
$SPLINETYPE
 70
               6
  9
$SPLINESEGS
 70
               8
  9
$ATTDIA
 70
               0
  9
$ATTREQ
 70
               1
  9
$HANDLING
 70
               1
  9
$HANDSEED
  5
366
  9
$SURFTAB1
 70
               6
  9
$SURFTAB2
 70
               6
  9
$SURFTYPE
 70
               6
  9
$SURFU
 70
               6
  9
$SURFV
 70
               6
  9
$UCSNAME
  2

  9
$UCSORG
 10
0.0
 20
0.0
 30
0.0
  9
$UCSXDIR
 10
1.0
 20
0.0
 30
0.0
  9
$UCSYDIR
 10
0.0
 20
1.0
 30
0.0
  9
$PUCSNAME
  2

  9
$PUCSORG
 10
0.0
 20
0.0
 30
0.0
  9
$PUCSXDIR
 10
1.0
 20
0.0
 30
0.0
  9
$PUCSYDIR
 10
0.0
 20
1.0
 30
0.0
  9
$USERI1
 70
               0
  9
$USERI2
 70
               0
  9
$USERI3
 70
               0
  9
$USERI4
 70
               0
  9
$USERI5
 70
               0
  9
$USERR1
 40
0.0
  9
$USERR2
 40
0.0
  9
$USERR3
 40
0.0
  9
$USERR4
 40
0.0
  9
$USERR5
 40
0.0
  9
$WORLDVIEW
 70
               1
  9
$SHADEDGE
 70
               3
  9
$SHADEDIF
 70
              70
  9
$TILEMODE
 70
               1
  9
$MAXACTVP
 70
              16
  9
$PINSBASE
 10
0.0
 20
0.0
 30
0.0
  9
$PLIMCHECK
 70
               0
  9
$PEXTMIN
 10
1.0000000000000000E+20
 20
1.0000000000000000E+20
 30
1.0000000000000000E+20
  9
$PEXTMAX
 10
-1.0000000000000000E+20
 20
-1.0000000000000000E+20
 30
-1.0000000000000000E+20
  9
$PLIMMIN
 10
0.0
 20
0.0
  9
$PLIMMAX
 10
12.0
 20
9.0
  9
$UNITMODE
 70
               0
  9
$VISRETAIN
 70
               0
  9
$PLINEGEN
 70
               1
  9
$PSLTSCALE
 70
               0
  9
$TREEDEPTH
 70
            3020
  9
$DWGCODEPAGE
  3
dos932
  0
ENDSEC
  0
SECTION
  2
TABLES
  0
TABLE
  2
VPORT
 70
               1
  0
VPORT
  2
*ACTIVE
 70
               0
 10
0.0
 20
0.0
 11
1.0
 21
1.0
 12
0.0
 22
0.0
 13
0.0
 23
0.0
 14
1.0
 24
1.0
 15
0.0
 25
0.0
 16
0.0
 26
0.0
 36
1.0
 17
0.0
 27
0.0
 37
0.0
 40
1440.6119099004202
 41
0.9028003940977423
 42
50.0
 43
0.0
 44
0.0
 50
0.0
 51
0.0
 71
               0
 72
             100
 73
               1
 74
               1
 75
               0
 76
               0
 77
               0
 78
               0
  0
ENDTAB
  0
TABLE
  2
LTYPE
 70
              26
  0
LTYPE
  2
CONTINUOUS
 70
               0
  3
Solid line
 72
              65
 73
               0
 40
0.0
  0
LTYPE
  2
HIDDENX2
 70
               0
  3
CADPAC FUSION LINETYPE
 72
              65
 73
               2
 40
47.560000000000002
 49
35.670000000000002
 49
-11.890000000000001
  0
LTYPE
  2
HIDDEN
 70
               0
  3
CADPAC FUSION LINETYPE
 72
              65
 73
               2
 40
35.670000000000002
 49
23.780000000000001
 49
-11.890000000000001
  0
LTYPE
  2
HIDDEN2
 70
               0
  3
CADPAC FUSION LINETYPE
 72
              65
 73
               2
 40
29.725000000000001
 49
17.835000000000001
 49
-11.890000000000001
  0
LTYPE
  2
DASHED
 70
               0
  3
CADPAC FUSION LINETYPE
 72
              65
 73
               2
 40
35.670000000000002
 49
23.780000000000001
 49
-11.890000000000001
  0
LTYPE
  2
DASHED2
 70
               0
  3
CADPAC FUSION LINETYPE
 72
              65
 73
               2
 40
26.752500000000001
 49
17.835000000000001
 49
-8.9175000000000004
  0
LTYPE
  2
DASHEDX2
 70
               0
  3
CADPAC FUSION LINETYPE
 72
              65
 73
               2
 40
53.505000000000003
 49
35.670000000000002
 49
-17.835000000000001
  0
LTYPE
  2
DOTX2
 70
               0
  3
CADPAC FUSION LINETYPE
 72
              65
 73
               2
 40
14.862500000000001
 49
0.0
 49
-14.862500000000001
  0
LTYPE
  2
DOT
 70
               0
  3
CADPAC FUSION LINETYPE
 72
              65
 73
               2
 40
11.890000000000001
 49
0.0
 49
-11.890000000000001
  0
LTYPE
  2
DOTS
 70
               0
  3
CADPAC FUSION LINETYPE
 72
              65
 73
               2
 40
11.890000000000001
 49
0.0
 49
-11.890000000000001
  0
LTYPE
  2
DOT2
 70
               0
  3
CADPAC FUSION LINETYPE
 72
              65
 73
               2
 40
8.9175000000000004
 49
0.0
 49
-8.9175000000000004
  0
LTYPE
  2
CENTERX2
 70
               0
  3
CADPAC FUSION LINETYPE
 72
              65
 73
               4
 40
71.340000000000003
 49
29.725000000000001
 49
-14.862500000000001
 49
11.890000000000001
 49
-14.862500000000001
  0
LTYPE
  2
CENTER
 70
               0
  3
CADPAC FUSION LINETYPE
 72
              65
 73
               4
 40
54.694000000000003
 49
23.780000000000001
 49
-11.890000000000001
 49
7.1340000000000003
 49
-11.890000000000001
  0
LTYPE
  2
CENTER2
 70
               0
  3
CADPAC FUSION LINETYPE
 72
              65
 73
               4
 40
38.048000000000002
 49
17.835000000000001
 49
-8.9175000000000004
 49
2.3780000000000001
 49
-8.9175000000000004
  0
LTYPE
  2
DASHDOTX2
 70
               0
  3
CADPAC FUSION LINETYPE
 72
              65
 73
               4
 40
59.450000000000003
 49
29.725000000000001
 49
-14.862500000000001
 49
0.0
 49
-14.862500000000001
  0
LTYPE
  2
DASHDOT
 70
               0
  3
CADPAC FUSION LINETYPE
 72
              65
 73
               4
 40
47.560000000000002
 49
23.780000000000001
 49
-11.890000000000001
 49
0.0
 49
-11.890000000000001
  0
LTYPE
  2
DASHDOT2
 70
               0
  3
CADPAC FUSION LINETYPE
 72
              65
 73
               4
 40
35.670000000000002
 49
17.835000000000001
 49
-8.9175000000000004
 49
0.0
 49
-8.9175000000000004
  0
LTYPE
  2
DIVIDEX2
 70
               0
  3
CADPAC FUSION LINETYPE
 72
              65
 73
               6
 40
74.3125
 49
29.725000000000001
 49
-14.862500000000001
 49
0.0
 49
-14.862500000000001
 49
0.0
 49
-14.862500000000001
  0
LTYPE
  2
DIVIDE
 70
               0
  3
CADPAC FUSION LINETYPE
 72
              65
 73
               6
 40
59.450000000000003
 49
23.780000000000001
 49
-11.890000000000001
 49
0.0
 49
-11.890000000000001
 49
0.0
 49
-11.890000000000001
  0
LTYPE
  2
DIVIDE2
 70
               0
  3
CADPAC FUSION LINETYPE
 72
              65
 73
               6
 40
44.587500000000006
 49
17.835000000000001
 49
-8.9175000000000004
 49
0.0
 49
-8.9175000000000004
 49
0.0
 49
-8.9175000000000004
  0
LTYPE
  2
BORDERX2
 70
               0
  3
CADPAC FUSION LINETYPE
 72
              65
 73
               6
 40
104.03750000000001
 49
29.725000000000001
 49
-14.862500000000001
 49
29.725000000000001
 49
-14.862500000000001
 49
0.0
 49
-14.862500000000001
  0
LTYPE
  2
BORDER
 70
               0
  3
CADPAC FUSION LINETYPE
 72
              65
 73
               6
 40
83.230000000000004
 49
23.780000000000001
 49
-11.890000000000001
 49
23.780000000000001
 49
-11.890000000000001
 49
0.0
 49
-11.890000000000001
  0
LTYPE
  2
BORDER2
 70
               0
  3
CADPAC FUSION LINETYPE
 72
              65
 73
               6
 40
62.422499999999999
 49
17.835000000000001
 49
-8.9175000000000004
 49
17.835000000000001
 49
-8.9175000000000004
 49
0.0
 49
-8.9175000000000004
  0
LTYPE
  2
PHANTOMX2
 70
               0
  3
CADPAC FUSION LINETYPE
 72
              65
 73
               6
 40
89.175000000000011
 49
29.725000000000001
 49
-11.890000000000001
 49
11.890000000000001
 49
-11.890000000000001
 49
11.890000000000001
 49
-11.890000000000001
  0
LTYPE
  2
PHANTOM
 70
               0
  3
CADPAC FUSION LINETYPE
 72
              65
 73
               6
 40
73.718000000000004
 49
23.780000000000001
 49
-11.890000000000001
 49
7.1340000000000003
 49
-11.890000000000001
 49
7.1340000000000003
 49
-11.890000000000001
  0
LTYPE
  2
PHANTOM2
 70
               0
  3
CADPAC FUSION LINETYPE
 72
              65
 73
               6
 40
63.017000000000003
 49
17.835000000000001
 49
-11.890000000000001
 49
4.7560000000000002
 49
-11.890000000000001
 49
4.7560000000000002
 49
-11.890000000000001
  0
ENDTAB
  0
TABLE
  2
LAYER
 70
             256
  0
LAYER
  2
0
 70
               0
 62
               7
  6
CONTINUOUS
  0
LAYER
  2
LAYER001
 70
               0
 62
               7
  6
CONTINUOUS
  0
LAYER
  2
LAYER002
 70
               0
 62
               7
  6
CONTINUOUS
  0
LAYER
  2
LAYER003
 70
               0
 62
               7
  6
CONTINUOUS
  0
LAYER
  2
LAYER004
 70
               0
 62
               7
  6
CONTINUOUS
  0
LAYER
  2
LAYER005
 70
               0
 62
               7
  6
CONTINUOUS
  0
LAYER
  2
LAYER006
 70
               0
 62
               7
  6
CONTINUOUS
  0
LAYER
  2
LAYER007
 70
               0
 62
               7
  6
CONTINUOUS
  0
LAYER
  2
LAYER008
 70
               0
 62
               7
  6
CONTINUOUS
  0
LAYER
  2
LAYER009
 70
               0
 62
               7
  6
CONTINUOUS
  0
LAYER
  2
LAYER010
 70
               0
 62
               7
  6
CONTINUOUS
  0
LAYER
  2
LAYER011
 70
               0
 62
               7
  6
CONTINUOUS
  0
LAYER
  2
LAYER012
 70
               0
 62
               7
  6
CONTINUOUS
  0
LAYER
  2
LAYER013
 70
               0
 62
               7
  6
CONTINUOUS
  0
LAYER
  2
LAYER014
 70
               0
 62
               7
  6
CONTINUOUS
  0
LAYER
  2
LAYER015
 70
               0
 62
               7
  6
CONTINUOUS
  0
LAYER
  2
LAYER016
 70
               0
 62
               7
  6
CONTINUOUS
  0
LAYER
  2
LAYER017
 70
               0
 62
               7
  6
CONTINUOUS
  0
LAYER
  2
LAYER018
 70
               0
 62
               7
  6
CONTINUOUS
  0
LAYER
  2
LAYER019
 70
               0
 62
               7
  6
CONTINUOUS
  0
LAYER
  2
LAYER020
 70
               0
 62
               7
  6
CONTINUOUS
  0
LAYER
  2
LAYER021
 70
               0
 62
               7
  6
CONTINUOUS
  0
LAYER
  2
LAYER022
 70
               0
 62
               7
  6
CONTINUOUS
  0
LAYER
  2
LAYER023
 70
               0
 62
               7
  6
CONTINUOUS
  0
LAYER
  2
LAYER024
 70
               0
 62
               7
  6
CONTINUOUS
  0
LAYER
  2
LAYER025
 70
               0
 62
               7
  6
CONTINUOUS
  0
LAYER
  2
LAYER026
 70
               0
 62
               7
  6
CONTINUOUS
  0
LAYER
  2
LAYER027
 70
               0
 62
               7
  6
CONTINUOUS
  0
LAYER
  2
LAYER028
 70
               0
 62
               7
  6
CONTINUOUS
  0
LAYER
  2
LAYER029
 70
               0
 62
               7
  6
CONTINUOUS
  0
LAYER
  2
LAYER030
 70
               0
 62
               7
  6
CONTINUOUS
  0
LAYER
  2
LAYER031
 70
               0
 62
               7
  6
CONTINUOUS
  0
LAYER
  2
LAYER032
 70
               0
 62
               7
  6
CONTINUOUS
  0
LAYER
  2
LAYER033
 70
               0
 62
               7
  6
CONTINUOUS
  0
LAYER
  2
LAYER034
 70
               0
 62
               7
  6
CONTINUOUS
  0
LAYER
  2
LAYER035
 70
               0
 62
               7
  6
CONTINUOUS
  0
LAYER
  2
LAYER036
 70
               0
 62
               7
  6
CONTINUOUS
  0
LAYER
  2
LAYER037
 70
               0
 62
               7
  6
CONTINUOUS
  0
LAYER
  2
LAYER038
 70
               0
 62
               7
  6
CONTINUOUS
  0
LAYER
  2
LAYER039
 70
               0
 62
               7
  6
CONTINUOUS
  0
LAYER
  2
LAYER040
 70
               0
 62
               7
  6
CONTINUOUS
  0
LAYER
  2
LAYER041
 70
               0
 62
               7
  6
CONTINUOUS
  0
LAYER
  2
LAYER042
 70
               0
 62
               7
  6
CONTINUOUS
  0
LAYER
  2
LAYER043
 70
               0
 62
               7
  6
CONTINUOUS
  0
LAYER
  2
LAYER044
 70
               0
 62
               7
  6
CONTINUOUS
  0
LAYER
  2
LAYER045
 70
               0
 62
               7
  6
CONTINUOUS
  0
LAYER
  2
LAYER046
 70
               0
 62
               7
  6
CONTINUOUS
  0
LAYER
  2
LAYER047
 70
               0
 62
               7
  6
CONTINUOUS
  0
LAYER
  2
LAYER048
 70
               0
 62
               7
  6
CONTINUOUS
  0
LAYER
  2
LAYER049
 70
               0
 62
               7
  6
CONTINUOUS
  0
LAYER
  2
LAYER050
 70
               0
 62
               7
  6
CONTINUOUS
  0
LAYER
  2
LAYER051
 70
               0
 62
               7
  6
CONTINUOUS
  0
LAYER
  2
LAYER052
 70
               0
 62
               7
  6
CONTINUOUS
  0
LAYER
  2
LAYER053
 70
               0
 62
               7
  6
CONTINUOUS
  0
LAYER
  2
LAYER054
 70
               0
 62
               7
  6
CONTINUOUS
  0
LAYER
  2
LAYER055
 70
               0
 62
               7
  6
CONTINUOUS
  0
LAYER
  2
LAYER056
 70
               0
 62
               7
  6
CONTINUOUS
  0
LAYER
  2
LAYER057
 70
               0
 62
               7
  6
CONTINUOUS
  0
LAYER
  2
LAYER058
 70
               0
 62
               7
  6
CONTINUOUS
  0
LAYER
  2
LAYER059
 70
               0
 62
               7
  6
CONTINUOUS
  0
LAYER
  2
LAYER060
 70
               0
 62
               7
  6
CONTINUOUS
  0
LAYER
  2
LAYER061
 70
               0
 62
               7
  6
CONTINUOUS
  0
LAYER
  2
LAYER062
 70
               0
 62
               7
  6
CONTINUOUS
  0
LAYER
  2
LAYER063
 70
               0
 62
               7
  6
CONTINUOUS
  0
LAYER
  2
LAYER064
 70
               0
 62
               7
  6
CONTINUOUS
  0
LAYER
  2
LAYER065
 70
               0
 62
               7
  6
CONTINUOUS
  0
LAYER
  2
LAYER066
 70
               0
 62
               7
  6
CONTINUOUS
  0
LAYER
  2
LAYER067
 70
               0
 62
               7
  6
CONTINUOUS
  0
LAYER
  2
LAYER068
 70
               0
 62
               7
  6
CONTINUOUS
  0
LAYER
  2
LAYER069
 70
               0
 62
               7
  6
CONTINUOUS
  0
LAYER
  2
LAYER070
 70
               0
 62
               7
  6
CONTINUOUS
  0
LAYER
  2
LAYER071
 70
               0
 62
               7
  6
CONTINUOUS
  0
LAYER
  2
LAYER072
 70
               0
 62
               7
  6
CONTINUOUS
  0
LAYER
  2
LAYER073
 70
               0
 62
               7
  6
CONTINUOUS
  0
LAYER
  2
LAYER074
 70
               0
 62
               7
  6
CONTINUOUS
  0
LAYER
  2
LAYER075
 70
               0
 62
               7
  6
CONTINUOUS
  0
LAYER
  2
LAYER076
 70
               0
 62
               7
  6
CONTINUOUS
  0
LAYER
  2
LAYER077
 70
               0
 62
               7
  6
CONTINUOUS
  0
LAYER
  2
LAYER078
 70
               0
 62
               7
  6
CONTINUOUS
  0
LAYER
  2
LAYER079
 70
               0
 62
               7
  6
CONTINUOUS
  0
LAYER
  2
LAYER080
 70
               0
 62
               7
  6
CONTINUOUS
  0
LAYER
  2
LAYER081
 70
               0
 62
               7
  6
CONTINUOUS
  0
LAYER
  2
LAYER082
 70
               0
 62
               7
  6
CONTINUOUS
  0
LAYER
  2
LAYER083
 70
               0
 62
               7
  6
CONTINUOUS
  0
LAYER
  2
LAYER084
 70
               0
 62
               7
  6
CONTINUOUS
  0
LAYER
  2
LAYER085
 70
               0
 62
               7
  6
CONTINUOUS
  0
LAYER
  2
LAYER086
 70
               0
 62
               7
  6
CONTINUOUS
  0
LAYER
  2
LAYER087
 70
               0
 62
               7
  6
CONTINUOUS
  0
LAYER
  2
LAYER088
 70
               0
 62
               7
  6
CONTINUOUS
  0
LAYER
  2
LAYER089
 70
               0
 62
               7
  6
CONTINUOUS
  0
LAYER
  2
LAYER090
 70
               0
 62
               7
  6
CONTINUOUS
  0
LAYER
  2
LAYER091
 70
               0
 62
               7
  6
CONTINUOUS
  0
LAYER
  2
LAYER092
 70
               0
 62
               7
  6
CONTINUOUS
  0
LAYER
  2
LAYER093
 70
               0
 62
               7
  6
CONTINUOUS
  0
LAYER
  2
LAYER094
 70
               0
 62
               7
  6
CONTINUOUS
  0
LAYER
  2
LAYER095
 70
               0
 62
               7
  6
CONTINUOUS
  0
LAYER
  2
LAYER096
 70
               0
 62
               7
  6
CONTINUOUS
  0
LAYER
  2
LAYER097
 70
               0
 62
               7
  6
CONTINUOUS
  0
LAYER
  2
LAYER098
 70
               0
 62
               7
  6
CONTINUOUS
  0
LAYER
  2
LAYER099
 70
               0
 62
               7
  6
CONTINUOUS
  0
LAYER
  2
LAYER100
 70
               0
 62
               7
  6
CONTINUOUS
  0
LAYER
  2
LAYER101
 70
               0
 62
               7
  6
CONTINUOUS
  0
LAYER
  2
LAYER102
 70
               0
 62
               7
  6
CONTINUOUS
  0
LAYER
  2
LAYER103
 70
               0
 62
               7
  6
CONTINUOUS
  0
LAYER
  2
LAYER104
 70
               0
 62
               7
  6
CONTINUOUS
  0
LAYER
  2
LAYER105
 70
               0
 62
               7
  6
CONTINUOUS
  0
LAYER
  2
LAYER106
 70
               0
 62
               7
  6
CONTINUOUS
  0
LAYER
  2
LAYER107
 70
               0
 62
               7
  6
CONTINUOUS
  0
LAYER
  2
LAYER108
 70
               0
 62
               7
  6
CONTINUOUS
  0
LAYER
  2
LAYER109
 70
               0
 62
               7
  6
CONTINUOUS
  0
LAYER
  2
LAYER110
 70
               0
 62
               7
  6
CONTINUOUS
  0
LAYER
  2
LAYER111
 70
               0
 62
               7
  6
CONTINUOUS
  0
LAYER
  2
LAYER112
 70
               0
 62
               7
  6
CONTINUOUS
  0
LAYER
  2
LAYER113
 70
               0
 62
               7
  6
CONTINUOUS
  0
LAYER
  2
LAYER114
 70
               0
 62
               7
  6
CONTINUOUS
  0
LAYER
  2
LAYER115
 70
               0
 62
               7
  6
CONTINUOUS
  0
LAYER
  2
LAYER116
 70
               0
 62
               7
  6
CONTINUOUS
  0
LAYER
  2
LAYER117
 70
               0
 62
               7
  6
CONTINUOUS
  0
LAYER
  2
LAYER118
 70
               0
 62
               7
  6
CONTINUOUS
  0
LAYER
  2
LAYER119
 70
               0
 62
               7
  6
CONTINUOUS
  0
LAYER
  2
LAYER120
 70
               0
 62
               7
  6
CONTINUOUS
  0
LAYER
  2
LAYER121
 70
               0
 62
               7
  6
CONTINUOUS
  0
LAYER
  2
LAYER122
 70
               0
 62
               7
  6
CONTINUOUS
  0
LAYER
  2
LAYER123
 70
               0
 62
               7
  6
CONTINUOUS
  0
LAYER
  2
LAYER124
 70
               0
 62
               7
  6
CONTINUOUS
  0
LAYER
  2
LAYER125
 70
               0
 62
               7
  6
CONTINUOUS
  0
LAYER
  2
LAYER126
 70
               0
 62
               7
  6
CONTINUOUS
  0
LAYER
  2
LAYER127
 70
               0
 62
               7
  6
CONTINUOUS
  0
LAYER
  2
LAYER128
 70
               0
 62
               7
  6
CONTINUOUS
  0
LAYER
  2
LAYER129
 70
               0
 62
               7
  6
CONTINUOUS
  0
LAYER
  2
LAYER130
 70
               0
 62
               7
  6
CONTINUOUS
  0
LAYER
  2
LAYER131
 70
               0
 62
               7
  6
CONTINUOUS
  0
LAYER
  2
LAYER132
 70
               0
 62
               7
  6
CONTINUOUS
  0
LAYER
  2
LAYER133
 70
               0
 62
               7
  6
CONTINUOUS
  0
LAYER
  2
LAYER134
 70
               0
 62
               7
  6
CONTINUOUS
  0
LAYER
  2
LAYER135
 70
               0
 62
               7
  6
CONTINUOUS
  0
LAYER
  2
LAYER136
 70
               0
 62
               7
  6
CONTINUOUS
  0
LAYER
  2
LAYER137
 70
               0
 62
               7
  6
CONTINUOUS
  0
LAYER
  2
LAYER138
 70
               0
 62
               7
  6
CONTINUOUS
  0
LAYER
  2
LAYER139
 70
               0
 62
               7
  6
CONTINUOUS
  0
LAYER
  2
LAYER140
 70
               0
 62
               7
  6
CONTINUOUS
  0
LAYER
  2
LAYER141
 70
               0
 62
               7
  6
CONTINUOUS
  0
LAYER
  2
LAYER142
 70
               0
 62
               7
  6
CONTINUOUS
  0
LAYER
  2
LAYER143
 70
               0
 62
               7
  6
CONTINUOUS
  0
LAYER
  2
LAYER144
 70
               0
 62
               7
  6
CONTINUOUS
  0
LAYER
  2
LAYER145
 70
               0
 62
               7
  6
CONTINUOUS
  0
LAYER
  2
LAYER146
 70
               0
 62
               7
  6
CONTINUOUS
  0
LAYER
  2
LAYER147
 70
               0
 62
               7
  6
CONTINUOUS
  0
LAYER
  2
LAYER148
 70
               0
 62
               7
  6
CONTINUOUS
  0
LAYER
  2
LAYER149
 70
               0
 62
               7
  6
CONTINUOUS
  0
LAYER
  2
LAYER150
 70
               0
 62
               7
  6
CONTINUOUS
  0
LAYER
  2
LAYER151
 70
               0
 62
               7
  6
CONTINUOUS
  0
LAYER
  2
LAYER152
 70
               0
 62
               7
  6
CONTINUOUS
  0
LAYER
  2
LAYER153
 70
               0
 62
               7
  6
CONTINUOUS
  0
LAYER
  2
LAYER154
 70
               0
 62
               7
  6
CONTINUOUS
  0
LAYER
  2
LAYER155
 70
               0
 62
               7
  6
CONTINUOUS
  0
LAYER
  2
LAYER156
 70
               0
 62
               7
  6
CONTINUOUS
  0
LAYER
  2
LAYER157
 70
               0
 62
               7
  6
CONTINUOUS
  0
LAYER
  2
LAYER158
 70
               0
 62
               7
  6
CONTINUOUS
  0
LAYER
  2
LAYER159
 70
               0
 62
               7
  6
CONTINUOUS
  0
LAYER
  2
LAYER160
 70
               0
 62
               7
  6
CONTINUOUS
  0
LAYER
  2
LAYER161
 70
               0
 62
               7
  6
CONTINUOUS
  0
LAYER
  2
LAYER162
 70
               0
 62
               7
  6
CONTINUOUS
  0
LAYER
  2
LAYER163
 70
               0
 62
               7
  6
CONTINUOUS
  0
LAYER
  2
LAYER164
 70
               0
 62
               7
  6
CONTINUOUS
  0
LAYER
  2
LAYER165
 70
               0
 62
               7
  6
CONTINUOUS
  0
LAYER
  2
LAYER166
 70
               0
 62
               7
  6
CONTINUOUS
  0
LAYER
  2
LAYER167
 70
               0
 62
               7
  6
CONTINUOUS
  0
LAYER
  2
LAYER168
 70
               0
 62
               7
  6
CONTINUOUS
  0
LAYER
  2
LAYER169
 70
               0
 62
               7
  6
CONTINUOUS
  0
LAYER
  2
LAYER170
 70
               0
 62
               7
  6
CONTINUOUS
  0
LAYER
  2
LAYER171
 70
               0
 62
               7
  6
CONTINUOUS
  0
LAYER
  2
LAYER172
 70
               0
 62
               7
  6
CONTINUOUS
  0
LAYER
  2
LAYER173
 70
               0
 62
               7
  6
CONTINUOUS
  0
LAYER
  2
LAYER174
 70
               0
 62
               7
  6
CONTINUOUS
  0
LAYER
  2
LAYER175
 70
               0
 62
               7
  6
CONTINUOUS
  0
LAYER
  2
LAYER176
 70
               0
 62
               7
  6
CONTINUOUS
  0
LAYER
  2
LAYER177
 70
               0
 62
               7
  6
CONTINUOUS
  0
LAYER
  2
LAYER178
 70
               0
 62
               7
  6
CONTINUOUS
  0
LAYER
  2
LAYER179
 70
               0
 62
               7
  6
CONTINUOUS
  0
LAYER
  2
LAYER180
 70
               0
 62
               7
  6
CONTINUOUS
  0
LAYER
  2
LAYER181
 70
               0
 62
               7
  6
CONTINUOUS
  0
LAYER
  2
LAYER182
 70
               0
 62
               7
  6
CONTINUOUS
  0
LAYER
  2
LAYER183
 70
               0
 62
               7
  6
CONTINUOUS
  0
LAYER
  2
LAYER184
 70
               0
 62
               7
  6
CONTINUOUS
  0
LAYER
  2
LAYER185
 70
               0
 62
               7
  6
CONTINUOUS
  0
LAYER
  2
LAYER186
 70
               0
 62
               7
  6
CONTINUOUS
  0
LAYER
  2
LAYER187
 70
               0
 62
               7
  6
CONTINUOUS
  0
LAYER
  2
LAYER188
 70
               0
 62
               7
  6
CONTINUOUS
  0
LAYER
  2
LAYER189
 70
               0
 62
               7
  6
CONTINUOUS
  0
LAYER
  2
LAYER190
 70
               0
 62
               7
  6
CONTINUOUS
  0
LAYER
  2
LAYER191
 70
               0
 62
               7
  6
CONTINUOUS
  0
LAYER
  2
LAYER192
 70
               0
 62
               7
  6
CONTINUOUS
  0
LAYER
  2
LAYER193
 70
               0
 62
               7
  6
CONTINUOUS
  0
LAYER
  2
LAYER194
 70
               0
 62
               7
  6
CONTINUOUS
  0
LAYER
  2
LAYER195
 70
               0
 62
               7
  6
CONTINUOUS
  0
LAYER
  2
LAYER196
 70
               0
 62
               7
  6
CONTINUOUS
  0
LAYER
  2
LAYER197
 70
               0
 62
               7
  6
CONTINUOUS
  0
LAYER
  2
LAYER198
 70
               0
 62
               7
  6
CONTINUOUS
  0
LAYER
  2
LAYER199
 70
               0
 62
               7
  6
CONTINUOUS
  0
LAYER
  2
LAYER200
 70
               0
 62
               7
  6
CONTINUOUS
  0
LAYER
  2
LAYER201
 70
               0
 62
               7
  6
CONTINUOUS
  0
LAYER
  2
LAYER202
 70
               0
 62
               7
  6
CONTINUOUS
  0
LAYER
  2
LAYER203
 70
               0
 62
               7
  6
CONTINUOUS
  0
LAYER
  2
LAYER204
 70
               0
 62
               7
  6
CONTINUOUS
  0
LAYER
  2
LAYER205
 70
               0
 62
               7
  6
CONTINUOUS
  0
LAYER
  2
LAYER206
 70
               0
 62
               7
  6
CONTINUOUS
  0
LAYER
  2
LAYER207
 70
               0
 62
               7
  6
CONTINUOUS
  0
LAYER
  2
LAYER208
 70
               0
 62
               7
  6
CONTINUOUS
  0
LAYER
  2
LAYER209
 70
               0
 62
               7
  6
CONTINUOUS
  0
LAYER
  2
LAYER210
 70
               0
 62
               7
  6
CONTINUOUS
  0
LAYER
  2
LAYER211
 70
               0
 62
               7
  6
CONTINUOUS
  0
LAYER
  2
LAYER212
 70
               0
 62
               7
  6
CONTINUOUS
  0
LAYER
  2
LAYER213
 70
               0
 62
               7
  6
CONTINUOUS
  0
LAYER
  2
LAYER214
 70
               0
 62
               7
  6
CONTINUOUS
  0
LAYER
  2
LAYER215
 70
               0
 62
               7
  6
CONTINUOUS
  0
LAYER
  2
LAYER216
 70
               0
 62
               7
  6
CONTINUOUS
  0
LAYER
  2
LAYER217
 70
               0
 62
               7
  6
CONTINUOUS
  0
LAYER
  2
LAYER218
 70
               0
 62
               7
  6
CONTINUOUS
  0
LAYER
  2
LAYER219
 70
               0
 62
               7
  6
CONTINUOUS
  0
LAYER
  2
LAYER220
 70
               0
 62
               7
  6
CONTINUOUS
  0
LAYER
  2
LAYER221
 70
               0
 62
               7
  6
CONTINUOUS
  0
LAYER
  2
LAYER222
 70
               0
 62
               7
  6
CONTINUOUS
  0
LAYER
  2
LAYER223
 70
               0
 62
               7
  6
CONTINUOUS
  0
LAYER
  2
LAYER224
 70
               0
 62
               7
  6
CONTINUOUS
  0
LAYER
  2
LAYER225
 70
               0
 62
               7
  6
CONTINUOUS
  0
LAYER
  2
LAYER226
 70
               0
 62
               7
  6
CONTINUOUS
  0
LAYER
  2
LAYER227
 70
               0
 62
               7
  6
CONTINUOUS
  0
LAYER
  2
LAYER228
 70
               0
 62
               7
  6
CONTINUOUS
  0
LAYER
  2
LAYER229
 70
               0
 62
               7
  6
CONTINUOUS
  0
LAYER
  2
LAYER230
 70
               0
 62
               7
  6
CONTINUOUS
  0
LAYER
  2
LAYER231
 70
               0
 62
               7
  6
CONTINUOUS
  0
LAYER
  2
LAYER232
 70
               0
 62
               7
  6
CONTINUOUS
  0
LAYER
  2
LAYER233
 70
               0
 62
               7
  6
CONTINUOUS
  0
LAYER
  2
LAYER234
 70
               0
 62
               7
  6
CONTINUOUS
  0
LAYER
  2
LAYER235
 70
               0
 62
               7
  6
CONTINUOUS
  0
LAYER
  2
LAYER236
 70
               0
 62
               7
  6
CONTINUOUS
  0
LAYER
  2
LAYER237
 70
               0
 62
               7
  6
CONTINUOUS
  0
LAYER
  2
LAYER238
 70
               0
 62
               7
  6
CONTINUOUS
  0
LAYER
  2
LAYER239
 70
               0
 62
               7
  6
CONTINUOUS
  0
LAYER
  2
LAYER240
 70
               0
 62
               7
  6
CONTINUOUS
  0
LAYER
  2
LAYER241
 70
               0
 62
               7
  6
CONTINUOUS
  0
LAYER
  2
LAYER242
 70
               0
 62
               7
  6
CONTINUOUS
  0
LAYER
  2
LAYER243
 70
               0
 62
               7
  6
CONTINUOUS
  0
LAYER
  2
LAYER244
 70
               0
 62
               7
  6
CONTINUOUS
  0
LAYER
  2
LAYER245
 70
               0
 62
               7
  6
CONTINUOUS
  0
LAYER
  2
LAYER246
 70
               0
 62
               7
  6
CONTINUOUS
  0
LAYER
  2
LAYER247
 70
               0
 62
               7
  6
CONTINUOUS
  0
LAYER
  2
LAYER248
 70
               0
 62
               7
  6
CONTINUOUS
  0
LAYER
  2
LAYER249
 70
               0
 62
               7
  6
CONTINUOUS
  0
LAYER
  2
LAYER250
 70
               0
 62
               7
  6
CONTINUOUS
  0
LAYER
  2
LAYER251
 70
               0
 62
               7
  6
CONTINUOUS
  0
LAYER
  2
LAYER252
 70
               0
 62
               7
  6
CONTINUOUS
  0
LAYER
  2
LAYER253
 70
               0
 62
               7
  6
CONTINUOUS
  0
LAYER
  2
LAYER254
 70
               0
 62
               7
  6
CONTINUOUS
  0
LAYER
  2
LAYER255
 70
               0
 62
               7
  6
CONTINUOUS
  0
ENDTAB
  0
TABLE
  2
STYLE
 70
               1
  0
STYLE
  2
STANDARD
 70
               0
 40
0.0
 41
1.0
 50
0.0
 71
               0
 42
0.0
  3
txt
  4

  0
ENDTAB
  0
TABLE
  2
VIEW
 70
               0
  0
VIEW
  2
QQQQ
 70
               0
 40
1440.6119099004202
 10
0.0
 20
0.0
 41
1300.5850000000005
 11
0.0
 21
0.0
 31
1.0
 12
100.0
 22
100.0
 32
0.0
 42
50.0
 43
0.0
 44
0.0
 50
0.0
 71
               0
  0
ENDTAB
  0
TABLE
  2
UCS
 70
               0
  0
ENDTAB
  0
TABLE
  2
APPID
 70
               1
  0
APPID
  2
ACAD
 70
               0
  0
ENDTAB
  0
TABLE
  2
DIMSTYLE
 70
               1
  0
DIMSTYLE
  2
STANDARD
 70
               0
  3

  4

  5

  6

  7

 40
1.0
 41
0.18
 42
0.0625
 43
0.38
 44
0.18
 45
0.0
 46
0.0
 47
0.0
 48
0.0
140
0.18
141
0.09
142
0.0
143
25.399999999999999
144
1.0
145
0.0
146
1.0
147
0.09
 71
               0
 72
               0
 73
               1
 74
               1
 75
               0
 76
               0
 77
               0
 78
               0
170
               0
171
               2
172
               0
173
               0
174
               0
175
               0
176
               0
177
               0
178
               0
  0
ENDTAB
  0
ENDSEC
  0
SECTION
  2
BLOCKS
  0
ENDSEC
  0
SECTION
  2
ENTITIES
  0
LINE
  8
0
  6
CONTINUOUS
 62
               3
  5
136
 10
-58.000000000000156
 20
-299.6394072848779
 30
0.0
 11
-75.000000000000043
 21
-150.63940728487745
 31
0.0
  0
LINE
  8
0
  6
CONTINUOUS
 62
               3
  5
137
 10
-75.000000000000043
 20
-150.63940728487745
 30
0.0
 11
-46.368107792056932
 21
-150.63940728487745
 31
0.0
  0
LINE
  8
0
  6
CONTINUOUS
 62
               3
  5
138
 10
-1.9728332801509367
 20
-150.63940728487745
 30
0.0
 11
74.496765133649717
 21
-150.63940728487745
 31
0.0
  0
LINE
  8
0
  6
CONTINUOUS
 62
               3
  5
139
 10
76.999999999999829
 20
-36.639407284877407
 30
0.0
 11
76.999999999999829
 21
-150.75297551513268
 31
0.0
  0
LINE
  8
0
  6
CONTINUOUS
 62
               3
  5
13A
 10
76.999999999999829
 20
-150.75297551513268
 30
0.0
 11
60.271775600348818
 21
-297.36763168452887
 31
0.0
  0
LINE
  8
0
  6
CONTINUOUS
 62
               3
  5
13B
 10
58.000000000000071
 20
-299.63940728487734
 30
0.0
 11
60.271775600348818
 21
-297.36763168452887
 31
0.0
  0
LINE
  8
0
  6
CONTINUOUS
 62
               3
  5
13C
 10
74.499999999999829
 20
-37.639407284877635
 30
0.0
 11
74.499999999999829
 21
-150.61101522731315
 31
0.0
  0
LINE
  8
0
  6
CONTINUOUS
 62
               3
  5
13D
 10
76.750000000000057
 20
-36.924764392013472
 30
0.0
 11
76.750000000000057
 21
-150.73877948635067
 31
0.0
  0
LINE
  8
0
  6
CONTINUOUS
 62
               3
  5
13E
 10
74.499999999999829
 20
-150.61101522731315
 30
0.0
 11
57.496765133650413
 21
-299.6394072848779
 31
0.0
  0
LINE
  8
0
  6
CONTINUOUS
 62
               3
  5
13F
 10
74.496765133649717
 20
-150.63940728487745
 30
0.0
 11
76.999999999999829
 21
-150.75297551513268
 31
0.0
  0
LINE
  8
0
  6
CONTINUOUS
 62
               3
  5
140
 10
76.750000000000057
 20
-150.73877948635067
 30
0.0
 11
59.99427455367875
 21
-297.59480924456375
 31
0.0
  0
LINE
  8
0
  6
CONTINUOUS
 62
               3
  5
141
 10
57.496765133650413
 20
-299.6394072848779
 30
0.0
 11
60.271775600348818
 21
-297.36763168452887
 31
0.0
  0
LINE
  8
0
  6
CONTINUOUS
 62
               3
  5
142
 10
58.14113258650589
 20
-204.27089274396025
 30
0.0
 11
-65.512000000000555
 21
-100.51359479670744
 31
0.0
  0
ARC
  8
0
  6
CONTINUOUS
 62
               3
  5
143
 10
-914.27232010053967
 20
-1245.072011923656
 30
0.0
 40
1424.9238755783815
 50
50.18995614625684
 51
53.440796050721552
  0
ARC
  8
0
  6
CONTINUOUS
 62
               3
  5
144
 10
63.579388837032923
 20
-79.713724772914318
 30
0.0
 40
130.75634311527989
 50
189.15312334026754
 51
212.76918311271189
  0
ARC
  8
0
  6
CONTINUOUS
 62
               3
  5
145
 10
61.364025499551033
 20
-69.579704021674004
 30
0.0
 40
134.72974192119386
 50
216.90649751129573
 51
268.62928723405531
  0
ARC
  8
0
  6
CONTINUOUS
 62
               3
  5
146
 10
-733.63034809850842
 20
-1028.7330545987693
 30
0.0
 40
1143.0835201141012
 50
46.158732653416578
 51
50.202696616646634
  0
LINE
  8
0
  6
CONTINUOUS
 62
               3
  5
147
 10
-558.00000000000023
 20
-299.6394072848779
 30
0.0
 11
-575.0
 21
-150.63940728487745
 31
0.0
  0
LINE
  8
0
  6
CONTINUOUS
 62
               3
  5
148
 10
-575.0
 20
-37.639407284877635
 30
0.0
 11
-575.0
 21
-150.63940728487745
 31
0.0
  0
LINE
  8
0
  6
CONTINUOUS
 62
               3
  5
149
 10
-425.00000000000063
 20
-150.63940728487745
 30
0.0
 11
-425.00000000000119
 21
-37.639407284877635
 31
0.0
  0
LINE
  8
0
  6
CONTINUOUS
 62
               3
  5
14A
 10
-441.99999999999994
 20
-299.6394072848779
 30
0.0
 11
-429.45190901929948
 21
-189.6590804540279
 31
0.0
  0
LINE
  8
0
  6
CONTINUOUS
 62
               3
  5
14B
 10
-575.0
 20
-150.50788368776062
 30
0.0
 11
-441.05099999999993
 21
-150.50788368776028
 31
0.0
  0
ARC
  8
0
  6
CONTINUOUS
 62
               3
  5
14C
 10
-778.92922884912491
 20
-272.18028209922318
 30
0.0
 40
359.11818398045398
 50
13.303286818137401
 51
28.552443501612977
  0
ARC
  8
0
  6
CONTINUOUS
 62
               3
  5
14D
 10
-500.33118646999412
 20
-163.93360619665395
 30
0.0
 40
73.327111796148202
 50
342.62945642124168
 51
419.8368916055386
  0
LINE
  8
0
  6
CONTINUOUS
 62
               3
  5
14E
 10
-428.24363345646077
 20
-150.50788368776028
 30
0.0
 11
-425.00000000000057
 21
-150.50788368776028
 31
0.0
  0
LINE
  8
0
  6
CONTINUOUS
 62
               3
  5
14F
 10
-427.47543193129047
 20
-172.23447090829632
 30
0.0
 11
-425.00000000000057
 21
-150.50788368776062
 31
0.0
  0
LINE
  8
0
  6
CONTINUOUS
 62
               3
  5
150
 10
575.0
 20
193.36059271512238
 30
0.0
 11
425.0
 21
193.36059271512238
 31
0.0
  0
LINE
  8
0
  6
CONTINUOUS
 62
               3
  5
151
 10
588.50000000000023
 20
183.36059271512238
 30
0.0
 11
588.50000000000023
 21
176.36059271512272
 31
0.0
  0
LINE
  8
0
  6
CONTINUOUS
 62
               3
  5
152
 10
588.50000000000023
 20
183.36059271512238
 30
0.0
 11
575.0
 21
193.36059271512238
 31
0.0
  0
ARC
  8
0
  6
CONTINUOUS
 62
               3
  5
153
 10
576.99999999999977
 20
171.778017020167
 30
0.0
 40
4.9999999999999991
 50
113.57817847813625
 51
179.99999999989603
  0
LINE
  8
0
  6
CONTINUOUS
 62
               3
  5
154
 10
588.50000000000023
 20
176.36059271512272
 30
0.0
 11
411.49999999999977
 21
176.36059271512272
 31
0.0
  0
ARC
  8
0
  6
CONTINUOUS
 62
               3
  5
155
 10
555.0
 20
86.360592715122365
 30
0.0
 40
19.999999999999996
 50
0.0
 51
31.78833061703353
  0
LINE
  8
0
  6
CONTINUOUS
 62
               3
  5
156
 10
571.99999999999977
 20
171.778017020167
 30
0.0
 11
571.99999999999977
 21
96.89624646797516
 31
0.0
  0
ARC
  8
0
  6
CONTINUOUS
 62
               3
  5
157
 10
445.0
 20
86.360592715122365
 30
0.0
 40
19.999999999999996
 50
148.21166938286299
 51
179.99999999989646
  0
LINE
  8
0
  6
CONTINUOUS
 62
               3
  5
158
 10
428.0
 20
96.89624646797516
 30
0.0
 11
428.0
 21
171.778017020167
 31
0.0
  0
LINE
  8
0
  6
CONTINUOUS
 62
               3
  5
159
 10
520.0
 20
176.36059271512272
 30
0.0
 11
520.0
 21
193.36059271512238
 31
0.0
  0
LINE
  8
0
  6
CONTINUOUS
 62
               3
  5
15A
 10
480.0
 20
193.36059271512238
 30
0.0
 11
480.0
 21
176.36059271512272
 31
0.0
  0
LINE
  8
0
  6
CONTINUOUS
 62
               3
  5
15B
 10
520.0
 20
183.36059271512238
 30
0.0
 11
480.0
 21
183.36059271512238
 31
0.0
  0
LINE
  8
0
  6
CONTINUOUS
 62
               3
  5
15C
 10
572.2841614740048
 20
193.36059271512238
 30
0.0
 11
572.2841614740048
 21
176.36059271512272
 31
0.0
  0
LINE
  8
0
  6
CONTINUOUS
 62
               3
  5
15D
 10
586.21049820062512
 20
183.36059271512238
 30
0.0
 11
586.21049820062512
 21
176.36059271512272
 31
0.0
  0
LINE
  8
0
  6
CONTINUOUS
 62
               3
  5
15E
 10
588.50000000000023
 20
183.36059271512238
 30
0.0
 11
586.21049820062512
 21
183.36059271512238
 31
0.0
  0
LINE
  8
0
  6
CONTINUOUS
 62
               3
  5
15F
 10
586.21049820062512
 20
183.36059271512238
 30
0.0
 11
572.2841614740048
 21
193.36059271512238
 31
0.0
  0
LINE
  8
0
  6
CONTINUOUS
 62
               3
  5
160
 10
411.49999999999977
 20
183.36059271512238
 30
0.0
 11
411.49999999999977
 21
176.36059271512272
 31
0.0
  0
LINE
  8
0
  6
CONTINUOUS
 62
               3
  5
161
 10
411.49999999999977
 20
183.36059271512238
 30
0.0
 11
425.0
 21
193.36059271512238
 31
0.0
  0
ARC
  8
0
  6
CONTINUOUS
 62
               3
  5
162
 10
423.0
 20
171.778017020167
 30
0.0
 40
4.9999999999999991
 50
0.0
 51
66.421821521759654
  0
LINE
  8
0
  6
CONTINUOUS
 62
               3
  5
163
 10
427.7158385259952
 20
193.36059271512238
 30
0.0
 11
427.7158385259952
 21
176.36059271512272
 31
0.0
  0
LINE
  8
0
  6
CONTINUOUS
 62
               3
  5
164
 10
413.78950179937465
 20
183.36059271512238
 30
0.0
 11
413.78950179937465
 21
176.36059271512272
 31
0.0
  0
LINE
  8
0
  6
CONTINUOUS
 62
               3
  5
165
 10
411.49999999999977
 20
183.36059271512238
 30
0.0
 11
413.78950179937465
 21
183.36059271512238
 31
0.0
  0
LINE
  8
0
  6
CONTINUOUS
 62
               3
  5
166
 10
413.78950179937465
 20
183.36059271512238
 30
0.0
 11
427.7158385259952
 21
193.36059271512238
 31
0.0
  0
LINE
  8
0
  6
CONTINUOUS
 62
               3
  5
167
 10
571.99999999999977
 20
96.89624646797516
 30
0.0
 11
511.72700000000009
 21
96.89624646797516
 31
0.0
  0
LINE
  8
0
  6
CONTINUOUS
 62
               3
  5
168
 10
488.27299999999968
 20
96.89624646797516
 30
0.0
 11
428.0
 21
96.89624646797516
 31
0.0
  0
ARC
  8
0
  6
CONTINUOUS
 62
               3
  5
169
 10
575.0
 20
-35.139407284877635
 30
0.0
 40
2.4999999999999996
 50
269.99999999984567
 51
449.99999999974102
  0
LINE
  8
0
  6
CONTINUOUS
 62
               3
  5
16A
 10
425.0
 20
-32.639407284877635
 30
0.0
 11
491.78299999999967
 21
-32.639407284877635
 31
0.0
  0
LINE
  8
0
  6
CONTINUOUS
 62
               3
  5
16B
 10
508.21699999999964
 20
-32.639407284877635
 30
0.0
 11
575.0
 21
-32.639407284877635
 31
0.0
  0
LINE
  8
0
  6
CONTINUOUS
 62
               3
  5
16C
 10
575.0
 20
86.360592715122365
 30
0.0
 11
575.0
 21
-32.639407284877635
 31
0.0
  0
ARC
  8
0
  6
CONTINUOUS
 62
               3
  5
16D
 10
425.0
 20
-35.139407284877635
 30
0.0
 40
2.4999999999999996
 50
89.99999999994769
 51
269.99999999984436
  0
LINE
  8
0
  6
CONTINUOUS
 62
               3
  5
16E
 10
425.0
 20
-32.639407284877635
 30
0.0
 11
425.0
 21
86.360592715122365
 31
0.0
  0
LINE
  8
0
  6
CONTINUOUS
 62
               3
  5
16F
 10
425.0
 20
-150.48638368776028
 30
0.0
 11
425.0
 21
-37.639407284877635
 31
0.0
  0
LINE
  8
0
  6
CONTINUOUS
 62
               3
  5
170
 10
491.78299999999967
 20
-37.639407284877635
 30
0.0
 11
491.78299999999967
 21
-299.69346875454954
 31
0.0
  0
LINE
  8
0
  6
CONTINUOUS
 62
               3
  5
171
 10
508.21699999999964
 20
-37.725327436411035
 30
0.0
 11
508.21699999999964
 21
-299.69346875454954
 31
0.0
  0
LINE
  8
0
  6
CONTINUOUS
 62
               3
  5
172
 10
493.99999999999977
 20
-36.639407284877407
 30
0.0
 11
493.99999999999977
 21
-297.42169315420051
 31
0.0
  0
LINE
  8
0
  6
CONTINUOUS
 62
               3
  5
173
 10
505.99999999999955
 20
-297.42169315420051
 30
0.0
 11
505.99999999999955
 21
-36.639407284877407
 31
0.0
  0
LINE
  8
0
  6
CONTINUOUS
 62
               3
  5
174
 10
493.99999999999977
 20
-297.42169315420051
 30
0.0
 11
505.99999999999955
 21
-297.42169315420051
 31
0.0
  0
LINE
  8
0
  6
CONTINUOUS
 62
               3
  5
175
 10
491.78299999999967
 20
-299.69346875454954
 30
0.0
 11
493.99999999999977
 21
-297.42169315420051
 31
0.0
  0
LINE
  8
0
  6
CONTINUOUS
 62
               3
  5
176
 10
505.99999999999955
 20
-297.42169315420051
 30
0.0
 11
508.21699999999964
 21
-299.69346875454954
 31
0.0
  0
ARC
  8
0
  6
CONTINUOUS
 62
               3
  5
177
 10
360.6812911765046
 20
-227.27213506728498
 30
0.0
 40
204.24864340422488
 50
353.49999999993162
 51
373.4368021674054
  0
ARC
  8
0
  6
CONTINUOUS
 62
               3
  5
178
 10
398.37230094456572
 20
-224.98771799787727
 30
0.0
 40
167.18634723772169
 50
351.25933879886691
 51
375.67746336847057
  0
ARC
  8
0
  6
CONTINUOUS
 62
               3
  5
179
 10
485.02192705347215
 20
-154.78363334134201
 30
0.0
 40
59.149634972654262
 50
186.49999999996388
 51
236.78754046664218
  0
ARC
  8
0
  6
CONTINUOUS
 62
               3
  5
17A
 10
505.92691953069379
 20
-142.93461624259032
 30
0.0
 40
81.261593956721953
 50
186.49999999996388
 51
229.00792456449784
  0
LINE
  8
0
  6
CONTINUOUS
 62
               3
  5
17B
 10
575.0
 20
-150.48638368776028
 30
0.0
 11
425.0
 21
-150.48638368776028
 31
0.0
  0
LINE
  8
0
  6
CONTINUOUS
 62
               3
  5
17C
 10
575.0
 20
-37.639407284877635
 30
0.0
 11
575.0
 21
-150.48638368776028
 31
0.0
  0
LINE
  8
0
  6
CONTINUOUS
 62
               3
  5
17D
 10
558.0
 20
-299.69346875454954
 30
0.0
 11
575.0
 21
-150.48638368776028
 31
0.0
  0
LINE
  8
0
  6
CONTINUOUS
 62
               3
  5
17E
 10
441.99999999999989
 20
-299.69346875454954
 30
0.0
 11
425.0
 21
-150.48638368776028
 31
0.0
  0
LINE
  8
0
  6
CONTINUOUS
 62
               3
  5
17F
 10
-57.132845554131009
 20
-311.63940728487762
 30
0.0
 11
56.999999999999844
 21
-311.63940728487762
 31
0.0
  0
LINE
  8
0
  6
CONTINUOUS
 62
               3
  5
180
 10
56.999999999999844
 20
-311.63940728487762
 30
0.0
 11
58.000000000000071
 21
-310.63940728487739
 31
0.0
  0
LINE
  8
0
  6
CONTINUOUS
 62
               3
  5
181
 10
-57.132845554131009
 20
-311.63940728487762
 30
0.0
 11
-58.000000000000156
 21
-310.77225283900844
 31
0.0
  0
LINE
  8
0
  6
CONTINUOUS
 62
               3
  5
182
 10
58.000000000000071
 20
-310.63940728487739
 30
0.0
 11
58.000000000000071
 21
-299.63940728487785
 31
0.0
  0
LINE
  8
0
  6
CONTINUOUS
 62
               3
  5
183
 10
-58.000000000000156
 20
-310.77225283900844
 30
0.0
 11
-58.000000000000156
 21
-299.6394072848779
 31
0.0
  0
LINE
  8
0
  6
CONTINUOUS
 62
               3
  5
184
 10
-557.13284555413111
 20
-311.63940728487762
 30
0.0
 11
-443.00000000000017
 21
-311.63940728487762
 31
0.0
  0
LINE
  8
0
  6
CONTINUOUS
 62
               3
  5
185
 10
-443.00000000000017
 20
-311.63940728487762
 30
0.0
 11
-441.99999999999994
 21
-310.63940728487739
 31
0.0
  0
LINE
  8
0
  6
CONTINUOUS
 62
               3
  5
186
 10
-557.13284555413111
 20
-311.63940728487762
 30
0.0
 11
-558.00000000000023
 21
-310.7722528390085
 31
0.0
  0
LINE
  8
0
  6
CONTINUOUS
 62
               3
  5
187
 10
-558.00000000000023
 20
-310.7722528390085
 30
0.0
 11
-558.00000000000023
 21
-299.63940728487785
 31
0.0
  0
LINE
  8
0
  6
CONTINUOUS
 62
               3
  5
188
 10
-441.99999999999994
 20
-310.63940728487739
 30
0.0
 11
-441.99999999999994
 21
-299.63940728487785
 31
0.0
  0
LINE
  8
0
  6
CONTINUOUS
 62
               3
  5
189
 10
442.86715444586889
 20
-311.63940728487762
 30
0.0
 11
556.99999999999977
 21
-311.63940728487762
 31
0.0
  0
LINE
  8
0
  6
CONTINUOUS
 62
               3
  5
18A
 10
556.99999999999977
 20
-311.63940728487762
 30
0.0
 11
558.0
 21
-310.63940728487739
 31
0.0
  0
LINE
  8
0
  6
CONTINUOUS
 62
               3
  5
18B
 10
442.86715444586889
 20
-311.63940728487762
 30
0.0
 11
441.99999999999977
 21
-310.7722528390085
 31
0.0
  0
LINE
  8
0
  6
CONTINUOUS
 62
               3
  5
18C
 10
441.99999999999977
 20
-310.7722528390085
 30
0.0
 11
441.99999999999977
 21
-299.63940728487785
 31
0.0
  0
LINE
  8
0
  6
CONTINUOUS
 62
               3
  5
18D
 10
558.0
 20
-310.63940728487739
 30
0.0
 11
558.0
 21
-299.63940728487785
 31
0.0
  0
LINE
  8
0
  6
CONTINUOUS
 62
               3
  5
18E
 10
-75.000000000000028
 20
-51.44663061709673
 30
0.0
 11
-75.000000000000043
 21
-150.63940728487745
 31
0.0
  0
LINE
  8
0
  6
CONTINUOUS
 62
               3
  5
18F
 10
508.21699999999998
 20
-37.720495703082086
 30
0.0
 11
575.00000000000034
 21
-37.720495703082086
 31
0.0
  0
LINE
  8
0
  6
CONTINUOUS
 62
               3
  5
190
 10
425.0
 20
-37.639407284877635
 30
0.0
 11
491.78300000000036
 21
-37.639407284877635
 31
0.0
  0
LINE
  8
0
  6
CONTINUOUS
 62
               3
  5
191
 10
56.999999999999844
 20
-311.63940728487762
 30
0.0
 11
56.999999999999844
 21
-362.63940728487762
 31
0.0
  0
LINE
  8
0
  6
CONTINUOUS
 62
               3
  5
192
 10
-57.132845554131009
 20
-311.63940728487762
 30
0.0
 11
-57.132845554131009
 21
-362.63940728487762
 31
0.0
  0
LINE
  8
0
  6
CONTINUOUS
 62
               3
  5
193
 10
-557.13284555413111
 20
-311.63940728487762
 30
0.0
 11
-557.13284555413111
 21
-362.63940728487762
 31
0.0
  0
LINE
  8
0
  6
CONTINUOUS
 62
               3
  5
194
 10
-443.00000000000017
 20
-311.63940728487762
 30
0.0
 11
-443.00000000000017
 21
-362.63940728487762
 31
0.0
  0
LINE
  8
0
  6
CONTINUOUS
 62
               3
  5
195
 10
556.99999999999977
 20
-311.63940728487762
 30
0.0
 11
556.99999999999977
 21
-362.63940728487762
 31
0.0
  0
LINE
  8
0
  6
CONTINUOUS
 62
               3
  5
196
 10
442.86715444586889
 20
-311.63940728487762
 30
0.0
 11
442.86715444586889
 21
-362.63940728487762
 31
0.0
  0
LINE
  8
0
  6
CONTINUOUS
 62
               3
  5
197
 10
491.78299999999967
 20
-299.69346875454954
 30
0.0
 11
508.21699999999964
 21
-299.69346875454954
 31
0.0
  0
LINE
  8
0
  6
CONTINUOUS
 62
               3
  5
198
 10
57.496765133650413
 20
-299.6394072848779
 30
0.0
 11
58.000000000000071
 21
-299.63940728487785
 31
0.0
  0
LINE
  8
0
  6
CONTINUOUS
 62
               3
  5
199
 10
-62.000000000000767
 20
-491.63940728487648
 30
0.0
 11
-62.000000000000767
 21
-476.63940728487739
 31
0.0
  0
LINE
  8
0
  6
CONTINUOUS
 62
               3
  5
19A
 10
-65.000000000000597
 20
-491.63940728487648
 30
0.0
 11
64.999999999999375
 21
-491.63940728487648
 31
0.0
  0
ARC
  8
0
  6
CONTINUOUS
 62
               3
  5
19B
 10
-75.999999999999972
 20
-350.6394072848783
 30
0.0
 40
4.0
 50
89.999999999965041
 51
179.9999999999304
  0
ARC
  8
0
  6
CONTINUOUS
 62
               3
  5
19C
 10
-78.999999999999943
 20
-347.6394072848783
 30
0.0
 40
1.0000000000000004
 50
89.999999999964274
 51
179.99999999993119
  0
LINE
  8
0
  6
CONTINUOUS
 62
               3
  5
19D
 10
-80.999999999999972
 20
-347.6394072848783
 30
0.0
 11
-81.00000000000054
 21
-410.63940728487717
 31
0.0
  0
LINE
  8
0
  6
CONTINUOUS
 62
               3
  5
19E
 10
-80.000000000000171
 20
-347.6394072848783
 30
0.0
 11
-80.000000000000739
 21
-410.63940728487717
 31
0.0
  0
ARC
  8
0
  6
CONTINUOUS
 62
               3
  5
19F
 10
-82.000000000000483
 20
-410.63940728487717
 30
0.0
 40
1.9999999999999996
 50
269.99999999989586
 51
359.99999999986238
  0
ARC
  8
0
  6
CONTINUOUS
 62
               3
  5
1A0
 10
-82.000000000000483
 20
-410.63940728487717
 30
0.0
 40
1.0000000000000004
 50
269.99999999989581
 51
359.99999999986238
  0
LINE
  8
0
  6
CONTINUOUS
 62
               3
  5
1A1
 10
-82.000000000000483
 20
-412.63940728487717
 30
0.0
 11
-145.0000000000006
 21
-412.63940728487762
 31
0.0
  0
LINE
  8
0
  6
CONTINUOUS
 62
               3
  5
1A2
 10
-82.000000000000483
 20
-411.63940728487717
 30
0.0
 11
-145.0000000000006
 21
-411.63940728487762
 31
0.0
  0
LINE
  8
0
  6
CONTINUOUS
 62
               3
  5
1A3
 10
-0.0000000000000284
 20
-346.63940728487762
 30
0.0
 11
-78.999999999999943
 21
-346.6394072848783
 31
0.0
  0
LINE
  8
0
  6
CONTINUOUS
 62
               3
  5
1A4
 10
-64.999999999999602
 20
-477.63940728487717
 30
0.0
 11
-78.999999999999517
 21
-477.63940728487739
 31
0.0
  0
ARC
  8
0
  6
CONTINUOUS
 62
               3
  5
1A5
 10
-78.999999999999517
 20
-475.63940728487739
 30
0.0
 40
1.0000000000000004
 50
179.99999999993119
 51
269.99999999989586
  0
ARC
  8
0
  6
CONTINUOUS
 62
               3
  5
1A6
 10
-78.999999999999517
 20
-475.63940728487739
 30
0.0
 40
1.9999999999999996
 50
179.99999999993119
 51
269.9999999998974
  0
ARC
  8
0
  6
CONTINUOUS
 62
               3
  5
1A7
 10
-75.999999999999687
 20
-472.63940728487739
 30
0.0
 40
4.0
 50
179.99999999993119
 51
269.9999999998974
  0
LINE
  8
0
  6
CONTINUOUS
 62
               3
  5
1A8
 10
-64.999999999999602
 20
-477.63940728487717
 30
0.0
 11
-64.999999999999602
 21
-476.63940728487739
 31
0.0
  0
LINE
  8
0
  6
CONTINUOUS
 62
               3
  5
1A9
 10
-80.999999999999687
 20
-475.63940728487739
 30
0.0
 11
-81.00000000000054
 21
-414.63940728487717
 31
0.0
  0
LINE
  8
0
  6
CONTINUOUS
 62
               3
  5
1AA
 10
-79.999999999999602
 20
-475.63940728487739
 30
0.0
 11
-80.000000000000597
 21
-414.63940728487717
 31
0.0
  0
LINE
  8
0
  6
CONTINUOUS
 62
               3
  5
1AB
 10
-0.0000000000005969
 20
-476.63940728487648
 30
0.0
 11
-78.999999999999517
 21
-476.63940728487739
 31
0.0
  0
LINE
  8
0
  6
CONTINUOUS
 62
               3
  5
1AC
 10
-0.0000000000005969
 20
-454.13940728487648
 30
0.0
 11
-79.999999999999744
 21
-454.13940728487717
 31
0.0
  0
ARC
  8
0
  6
CONTINUOUS
 62
               3
  5
1AD
 10
-82.000000000000483
 20
-414.63940728487717
 30
0.0
 40
1.9999999999999996
 50
0.0000000000016284
 51
89.999999999965809
  0
ARC
  8
0
  6
CONTINUOUS
 62
               3
  5
1AE
 10
-82.000000000000483
 20
-414.63940728487717
 30
0.0
 40
1.0000000000000004
 50
0.0
 51
89.999999999967429
  0
LINE
  8
0
  6
CONTINUOUS
 62
               3
  5
1AF
 10
-82.000000000000483
 20
-413.63940728487717
 30
0.0
 11
-145.0000000000006
 21
-413.63940728487762
 31
0.0
  0
LINE
  8
0
  6
CONTINUOUS
 62
               3
  5
1B0
 10
-80.000000000000171
 20
-369.6394072848783
 30
0.0
 11
-0.0000000000000284
 21
-369.6394072848783
 31
0.0
  0
LINE
  8
0
  6
CONTINUOUS
 62
               3
  5
1B1
 10
-77.000000000000199
 20
-369.6394072848783
 30
0.0
 11
-77.000000000000767
 21
-454.13940728487717
 31
0.0
  0
LINE
  8
0
  6
CONTINUOUS
 62
               3
  5
1B2
 10
-145.0000000000006
 20
-411.63940728487762
 30
0.0
 11
-145.0000000000006
 21
-412.63940728487762
 31
0.0
  0
LINE
  8
0
  6
CONTINUOUS
 62
               3
  5
1B3
 10
-145.0000000000006
 20
-413.63940728487762
 30
0.0
 11
-145.0000000000006
 21
-412.63940728487762
 31
0.0
  0
LINE
  8
0
  6
CONTINUOUS
 62
               3
  5
1B4
 10
-87.25000000000054
 20
-410.13940728487717
 30
0.0
 11
-94.75000000000054
 21
-410.13940728487717
 31
0.0
  0
LINE
  8
0
  6
CONTINUOUS
 62
               3
  5
1B5
 10
-87.25000000000054
 20
-415.13940728487717
 30
0.0
 11
-94.75000000000054
 21
-415.13940728487739
 31
0.0
  0
LINE
  8
0
  6
CONTINUOUS
 62
               3
  5
1B6
 10
-87.25000000000054
 20
-410.13940728487717
 30
0.0
 11
-87.25000000000054
 21
-411.63940728487717
 31
0.0
  0
LINE
  8
0
  6
CONTINUOUS
 62
               3
  5
1B7
 10
-87.25000000000054
 20
-413.63940728487717
 30
0.0
 11
-87.25000000000054
 21
-415.13940728487717
 31
0.0
  0
LINE
  8
0
  6
CONTINUOUS
 62
               3
  5
1B8
 10
-94.75000000000054
 20
-410.13940728487717
 30
0.0
 11
-94.75000000000054
 21
-411.63940728487717
 31
0.0
  0
LINE
  8
0
  6
CONTINUOUS
 62
               3
  5
1B9
 10
-94.75000000000054
 20
-413.63940728487739
 30
0.0
 11
-94.75000000000054
 21
-415.13940728487739
 31
0.0
  0
ARC
  8
0
  6
CONTINUOUS
 62
               3
  5
1BA
 10
75.999999999999773
 20
-350.6394072848783
 30
0.0
 40
4.0
 50
0.0000000000341973
 51
90.000000000000199
  0
ARC
  8
0
  6
CONTINUOUS
 62
               3
  5
1BB
 10
78.999999999999716
 20
-347.6394072848783
 30
0.0
 40
1.0000000000000004
 50
0.0000000000358258
 51
90.000000000001421
  0
LINE
  8
0
  6
CONTINUOUS
 62
               3
  5
1BC
 10
80.999999999999773
 20
-347.6394072848783
 30
0.0
 11
80.999999999999204
 21
-410.63940728487717
 31
0.0
  0
LINE
  8
0
  6
CONTINUOUS
 62
               3
  5
1BD
 10
79.999999999999943
 20
-347.6394072848783
 30
0.0
 11
79.999999999999375
 21
-410.63940728487717
 31
0.0
  0
ARC
  8
0
  6
CONTINUOUS
 62
               3
  5
1BE
 10
81.999999999999261
 20
-410.63940728487717
 30
0.0
 40
1.9999999999999996
 50
180.00000000003379
 51
269.99999999999937
  0
ARC
  8
0
  6
CONTINUOUS
 62
               3
  5
1BF
 10
81.999999999999261
 20
-410.63940728487717
 30
0.0
 40
1.0000000000000004
 50
180.00000000003541
 51
269.99999999999937
  0
LINE
  8
0
  6
CONTINUOUS
 62
               3
  5
1C0
 10
81.999999999999261
 20
-412.63940728487717
 30
0.0
 11
144.99999999999937
 21
-412.63940728487762
 31
0.0
  0
LINE
  8
0
  6
CONTINUOUS
 62
               3
  5
1C1
 10
81.999999999999261
 20
-411.63940728487717
 30
0.0
 11
144.99999999999937
 21
-411.63940728487762
 31
0.0
  0
LINE
  8
0
  6
CONTINUOUS
 62
               3
  5
1C2
 10
-0.0000000000000284
 20
-346.63940728487762
 30
0.0
 11
78.999999999999716
 21
-346.6394072848783
 31
0.0
  0
LINE
  8
0
  6
CONTINUOUS
 62
               3
  5
1C3
 10
64.999999999998238
 20
-477.63940728487717
 30
0.0
 11
78.999999999998295
 21
-477.63940728487739
 31
0.0
  0
ARC
  8
0
  6
CONTINUOUS
 62
               3
  5
1C4
 10
78.999999999998295
 20
-475.63940728487739
 30
0.0
 40
1.0000000000000004
 50
269.99999999999937
 51
359.99999999996339
  0
ARC
  8
0
  6
CONTINUOUS
 62
               3
  5
1C5
 10
78.999999999998295
 20
-475.63940728487739
 30
0.0
 40
1.9999999999999996
 50
269.99999999999858
 51
359.99999999996339
  0
ARC
  8
0
  6
CONTINUOUS
 62
               3
  5
1C6
 10
75.999999999998352
 20
-472.63940728487739
 30
0.0
 40
4.0
 50
269.99999999999818
 51
359.99999999996419
  0
LINE
  8
0
  6
CONTINUOUS
 62
               3
  5
1C7
 10
64.999999999998238
 20
-477.63940728487717
 30
0.0
 11
64.999999999998238
 21
-476.63940728487739
 31
0.0
  0
LINE
  8
0
  6
CONTINUOUS
 62
               3
  5
1C8
 10
80.999999999998181
 20
-475.63940728487739
 30
0.0
 11
80.999999999999204
 21
-414.63940728487717
 31
0.0
  0
LINE
  8
0
  6
CONTINUOUS
 62
               3
  5
1C9
 10
79.999999999998238
 20
-475.63940728487739
 30
0.0
 11
79.999999999999261
 21
-414.63940728487717
 31
0.0
  0
LINE
  8
0
  6
CONTINUOUS
 62
               3
  5
1CA
 10
-0.0000000000005969
 20
-476.63940728487648
 30
0.0
 11
78.999999999998295
 21
-476.63940728487739
 31
0.0
  0
LINE
  8
0
  6
CONTINUOUS
 62
               3
  5
1CB
 10
-0.0000000000005969
 20
-454.13940728487648
 30
0.0
 11
79.999999999998522
 21
-454.13940728487717
 31
0.0
  0
ARC
  8
0
  6
CONTINUOUS
 62
               3
  5
1CC
 10
81.999999999999261
 20
-414.63940728487717
 30
0.0
 40
1.9999999999999996
 50
89.999999999999801
 51
179.99999999996376
  0
ARC
  8
0
  6
CONTINUOUS
 62
               3
  5
1CD
 10
81.999999999999261
 20
-414.63940728487717
 30
0.0
 40
1.0000000000000004
 50
89.999999999998167
 51
179.99999999996376
  0
LINE
  8
0
  6
CONTINUOUS
 62
               3
  5
1CE
 10
81.999999999999261
 20
-413.63940728487717
 30
0.0
 11
144.99999999999937
 21
-413.63940728487762
 31
0.0
  0
LINE
  8
0
  6
CONTINUOUS
 62
               3
  5
1CF
 10
79.999999999999943
 20
-369.6394072848783
 30
0.0
 11
-0.0000000000000284
 21
-369.6394072848783
 31
0.0
  0
LINE
  8
0
  6
CONTINUOUS
 62
               3
  5
1D0
 10
76.999999999999829
 20
-369.6394072848783
 30
0.0
 11
76.999999999999261
 21
-454.13940728487717
 31
0.0
  0
LINE
  8
0
  6
CONTINUOUS
 62
               3
  5
1D1
 10
144.99999999999937
 20
-411.63940728487762
 30
0.0
 11
144.99999999999937
 21
-412.63940728487762
 31
0.0
  0
LINE
  8
0
  6
CONTINUOUS
 62
               3
  5
1D2
 10
144.99999999999937
 20
-413.63940728487762
 30
0.0
 11
144.99999999999937
 21
-412.63940728487762
 31
0.0
  0
LINE
  8
0
  6
CONTINUOUS
 62
               3
  5
1D3
 10
87.249999999999204
 20
-410.13940728487717
 30
0.0
 11
94.749999999999204
 21
-410.13940728487717
 31
0.0
  0
LINE
  8
0
  6
CONTINUOUS
 62
               3
  5
1D4
 10
87.249999999999204
 20
-415.13940728487717
 30
0.0
 11
94.749999999999204
 21
-415.13940728487739
 31
0.0
  0
LINE
  8
0
  6
CONTINUOUS
 62
               3
  5
1D5
 10
87.249999999999204
 20
-410.13940728487717
 30
0.0
 11
87.249999999999204
 21
-411.63940728487717
 31
0.0
  0
LINE
  8
0
  6
CONTINUOUS
 62
               3
  5
1D6
 10
87.249999999999204
 20
-413.63940728487717
 30
0.0
 11
87.249999999999204
 21
-415.13940728487717
 31
0.0
  0
LINE
  8
0
  6
CONTINUOUS
 62
               3
  5
1D7
 10
94.749999999999204
 20
-410.13940728487717
 30
0.0
 11
94.749999999999204
 21
-411.63940728487717
 31
0.0
  0
LINE
  8
0
  6
CONTINUOUS
 62
               3
  5
1D8
 10
94.749999999999204
 20
-413.63940728487739
 30
0.0
 11
94.749999999999204
 21
-415.13940728487739
 31
0.0
  0
LINE
  8
0
  6
CONTINUOUS
 62
               3
  5
1D9
 10
61.999999999999289
 20
-491.63940728487648
 30
0.0
 11
61.999999999999289
 21
-476.63940728487739
 31
0.0
  0
LINE
  8
0
  6
CONTINUOUS
 62
               3
  5
1DA
 10
-562.00000000000023
 20
-491.63940728487648
 30
0.0
 11
-562.00000000000023
 21
-476.63940728487739
 31
0.0
  0
LINE
  8
0
  6
CONTINUOUS
 62
               3
  5
1DB
 10
-565.0
 20
-491.63940728487648
 30
0.0
 11
-435.00000000000006
 21
-491.63940728487648
 31
0.0
  0
ARC
  8
0
  6
CONTINUOUS
 62
               3
  5
1DC
 10
-575.99999999999943
 20
-350.6394072848783
 30
0.0
 40
4.0
 50
89.999999999964786
 51
179.9999999999304
  0
LINE
  8
0
  6
CONTINUOUS
 62
               3
  5
1DD
 10
-579.99999999999943
 20
-350.63940728487592
 30
0.0
 11
-579.99999999999966
 21
-369.6394072848783
 31
0.0
  0
LINE
  8
0
  6
CONTINUOUS
 62
               3
  5
1DE
 10
-515.99999999999955
 20
-346.63940728487773
 30
0.0
 11
-575.99999999999955
 21
-346.6394072848783
 31
0.0
  0
LINE
  8
0
  6
CONTINUOUS
 62
               3
  5
1DF
 10
-515.99999999999955
 20
-477.63940728487637
 30
0.0
 11
-483.99999999999898
 21
-477.63940728487592
 31
0.0
  0
ARC
  8
0
  6
CONTINUOUS
 62
               3
  5
1E0
 10
-575.99999999999909
 20
-472.63940728487739
 30
0.0
 40
4.0
 50
179.99999999993119
 51
269.99999999989763
  0
LINE
  8
0
  6
CONTINUOUS
 62
               3
  5
1E1
 10
-579.9999999999992
 20
-472.63940728487739
 30
0.0
 11
-579.99999999999909
 21
-454.13940728487717
 31
0.0
  0
LINE
  8
0
  6
CONTINUOUS
 62
               3
  5
1E2
 10
-515.99999999999955
 20
-476.63940728487671
 30
0.0
 11
-576.00000000000273
 21
-476.63940728487739
 31
0.0
  0
LINE
  8
0
  6
CONTINUOUS
 62
               3
  5
1E3
 10
-515.99999999999955
 20
-454.1394072848766
 30
0.0
 11
-579.9999999999992
 21
-454.13940728487717
 31
0.0
  0
LINE
  8
0
  6
CONTINUOUS
 62
               3
  5
1E4
 10
-579.99999999999966
 20
-369.6394072848783
 30
0.0
 11
-515.99999999999955
 21
-369.6394072848783
 31
0.0
  0
LINE
  8
0
  6
CONTINUOUS
 62
               3
  5
1E5
 10
-576.99999999999966
 20
-369.6394072848783
 30
0.0
 11
-577.00000000000023
 21
-454.13940728487717
 31
0.0
  0
LINE
  8
0
  6
CONTINUOUS
 62
               3
  5
1E6
 10
-483.99999999999949
 20
-346.63940728487773
 30
0.0
 11
-420.99999999999972
 21
-346.6394072848783
 31
0.0
  0
LINE
  8
0
  6
CONTINUOUS
 62
               3
  5
1E7
 10
-483.99999999999898
 20
-476.63940728487671
 30
0.0
 11
-424.00000000000102
 21
-476.63940728487739
 31
0.0
  0
LINE
  8
0
  6
CONTINUOUS
 62
               3
  5
1E8
 10
-483.99999999999898
 20
-454.13940728487671
 30
0.0
 11
-420.00000000000091
 21
-454.13940728487717
 31
0.0
  0
LINE
  8
0
  6
CONTINUOUS
 62
               3
  5
1E9
 10
-419.99999999999949
 20
-369.6394072848783
 30
0.0
 11
-483.99999999999949
 21
-369.6394072848783
 31
0.0
  0
LINE
  8
0
  6
CONTINUOUS
 62
               3
  5
1EA
 10
-438.00000000000017
 20
-491.63940728487648
 30
0.0
 11
-438.00000000000017
 21
-476.63940728487739
 31
0.0
  0
LINE
  8
0
  6
CONTINUOUS
 62
               3
  5
1EB
 10
-515.99999999999955
 20
-412.63940728487717
 30
0.0
 11
-483.99999999999898
 21
-412.63940728487717
 31
0.0
  0
LINE
  8
0
  6
CONTINUOUS
 62
               3
  5
1EC
 10
-515.99999999999955
 20
-411.63940728487739
 30
0.0
 11
-483.99999999999898
 21
-411.63940728487739
 31
0.0
  0
LINE
  8
0
  6
CONTINUOUS
 62
               3
  5
1ED
 10
-515.99999999999955
 20
-413.63940728487739
 30
0.0
 11
-483.99999999999898
 21
-413.63940728487739
 31
0.0
  0
ARC
  8
0
  6
CONTINUOUS
 62
               3
  5
1EE
 10
-424.00000000000068
 20
-350.6394072848783
 30
0.0
 40
4.0
 50
0.0000000000341973
 51
89.999999999999801
  0
LINE
  8
0
  6
CONTINUOUS
 62
               3
  5
1EF
 10
-420.00000000000068
 20
-350.63940728487592
 30
0.0
 11
-420.00000000000045
 21
-369.6394072848783
 31
0.0
  0
ARC
  8
0
  6
CONTINUOUS
 62
               3
  5
1F0
 10
-424.00000000000097
 20
-472.63940728487739
 30
0.0
 40
4.0
 50
269.99999999999858
 51
359.99999999996419
  0
LINE
  8
0
  6
CONTINUOUS
 62
               3
  5
1F1
 10
-420.00000000000091
 20
-472.63940728487739
 30
0.0
 11
-420.00000000000102
 21
-454.13940728487717
 31
0.0
  0
LINE
  8
0
  6
CONTINUOUS
 62
               3
  5
1F2
 10
-423.00000000000045
 20
-369.6394072848783
 30
0.0
 11
-422.99999999999989
 21
-454.13940728487717
 31
0.0
  0
LINE
  8
0
  6
CONTINUOUS
 62
               3
  5
1F3
 10
437.99999999999977
 20
-491.63940728487648
 30
0.0
 11
437.99999999999977
 21
-476.63940728487739
 31
0.0
  0
LINE
  8
0
  6
CONTINUOUS
 62
               3
  5
1F4
 10
434.99999999999994
 20
-491.63940728487648
 30
0.0
 11
564.99999999999989
 21
-491.63940728487648
 31
0.0
  0
ARC
  8
0
  6
CONTINUOUS
 62
               3
  5
1F5
 10
424.00000000000057
 20
-350.6394072848783
 30
0.0
 40
4.0
 50
89.999999999964786
 51
179.9999999999304
  0
LINE
  8
0
  6
CONTINUOUS
 62
               3
  5
1F6
 10
420.00000000000057
 20
-350.63940728487592
 30
0.0
 11
420.00000000000034
 21
-369.6394072848783
 31
0.0
  0
LINE
  8
0
  6
CONTINUOUS
 62
               3
  5
1F7
 10
484.00000000000057
 20
-346.63940728487773
 30
0.0
 11
424.00000000000051
 21
-346.6394072848783
 31
0.0
  0
LINE
  8
0
  6
CONTINUOUS
 62
               3
  5
1F8
 10
484.00000000000057
 20
-477.63940728487637
 30
0.0
 11
516.00000000000102
 21
-477.63940728487592
 31
0.0
  0
ARC
  8
0
  6
CONTINUOUS
 62
               3
  5
1F9
 10
424.00000000000085
 20
-472.63940728487739
 30
0.0
 40
4.0
 50
179.99999999993119
 51
269.99999999989763
  0
LINE
  8
0
  6
CONTINUOUS
 62
               3
  5
1FA
 10
420.0000000000008
 20
-472.63940728487739
 30
0.0
 11
420.00000000000091
 21
-454.13940728487717
 31
0.0
  0
LINE
  8
0
  6
CONTINUOUS
 62
               3
  5
1FB
 10
484.00000000000057
 20
-476.63940728487671
 30
0.0
 11
423.99999999999733
 21
-476.63940728487739
 31
0.0
  0
LINE
  8
0
  6
CONTINUOUS
 62
               3
  5
1FC
 10
484.00000000000057
 20
-454.1394072848766
 30
0.0
 11
420.0000000000008
 21
-454.13940728487717
 31
0.0
  0
LINE
  8
0
  6
CONTINUOUS
 62
               3
  5
1FD
 10
420.00000000000034
 20
-369.6394072848783
 30
0.0
 11
484.00000000000057
 21
-369.6394072848783
 31
0.0
  0
LINE
  8
0
  6
CONTINUOUS
 62
               3
  5
1FE
 10
423.00000000000034
 20
-369.6394072848783
 30
0.0
 11
422.99999999999977
 21
-454.13940728487717
 31
0.0
  0
LINE
  8
0
  6
CONTINUOUS
 62
               3
  5
1FF
 10
516.00000000000057
 20
-346.63940728487773
 30
0.0
 11
579.00000000000034
 21
-346.6394072848783
 31
0.0
  0
LINE
  8
0
  6
CONTINUOUS
 62
               3
  5
200
 10
516.00000000000102
 20
-476.63940728487671
 30
0.0
 11
575.99999999999898
 21
-476.63940728487739
 31
0.0
  0
LINE
  8
0
  6
CONTINUOUS
 62
               3
  5
201
 10
516.00000000000102
 20
-454.13940728487671
 30
0.0
 11
579.99999999999909
 21
-454.13940728487717
 31
0.0
  0
LINE
  8
0
  6
CONTINUOUS
 62
               3
  5
202
 10
580.00000000000057
 20
-369.6394072848783
 30
0.0
 11
516.00000000000057
 21
-369.6394072848783
 31
0.0
  0
LINE
  8
0
  6
CONTINUOUS
 62
               3
  5
203
 10
561.99999999999989
 20
-491.63940728487648
 30
0.0
 11
561.99999999999989
 21
-476.63940728487739
 31
0.0
  0
LINE
  8
0
  6
CONTINUOUS
 62
               3
  5
204
 10
484.00000000000057
 20
-412.63940728487717
 30
0.0
 11
516.00000000000102
 21
-412.63940728487717
 31
0.0
  0
LINE
  8
0
  6
CONTINUOUS
 62
               3
  5
205
 10
484.00000000000057
 20
-411.63940728487739
 30
0.0
 11
516.00000000000102
 21
-411.63940728487739
 31
0.0
  0
LINE
  8
0
  6
CONTINUOUS
 62
               3
  5
206
 10
484.00000000000057
 20
-413.63940728487739
 30
0.0
 11
516.00000000000102
 21
-413.63940728487739
 31
0.0
  0
ARC
  8
0
  6
CONTINUOUS
 62
               3
  5
207
 10
575.99999999999932
 20
-350.6394072848783
 30
0.0
 40
4.0
 50
0.0000000000341973
 51
89.999999999999801
  0
LINE
  8
0
  6
CONTINUOUS
 62
               3
  5
208
 10
579.99999999999932
 20
-350.63940728487592
 30
0.0
 11
579.99999999999955
 21
-369.6394072848783
 31
0.0
  0
ARC
  8
0
  6
CONTINUOUS
 62
               3
  5
209
 10
575.99999999999898
 20
-472.63940728487739
 30
0.0
 40
4.0
 50
269.99999999999778
 51
359.99999999996419
  0
LINE
  8
0
  6
CONTINUOUS
 62
               3
  5
20A
 10
579.99999999999909
 20
-472.63940728487739
 30
0.0
 11
579.99999999999898
 21
-454.13940728487717
 31
0.0
  0
LINE
  8
0
  6
CONTINUOUS
 62
               3
  5
20B
 10
576.99999999999955
 20
-369.6394072848783
 30
0.0
 11
577.00000000000011
 21
-454.13940728487717
 31
0.0
  0
LINE
  8
0
  6
CONTINUOUS
 62
               3
  5
20C
 10
-515.99999999999955
 20
-345.6394072848783
 30
0.0
 11
-515.99999999999955
 21
-477.63940728487637
 31
0.0
  0
LINE
  8
0
  6
CONTINUOUS
 62
               3
  5
20D
 10
-516.0
 20
-345.6394072848783
 30
0.0
 11
-484.00000000000006
 21
-345.6394072848783
 31
0.0
  0
LINE
  8
0
  6
CONTINUOUS
 62
               3
  5
20E
 10
-483.99999999999898
 20
-477.63940728487592
 30
0.0
 11
-483.99999999999949
 21
-345.6394072848783
 31
0.0
  0
LINE
  8
0
  6
CONTINUOUS
 62
               3
  5
20F
 10
-515.99999999999955
 20
-477.63940728487637
 30
0.0
 11
-483.99999999999898
 21
-477.63940728487592
 31
0.0
  0
LINE
  8
0
  6
CONTINUOUS
 62
               3
  5
210
 10
484.00000000000057
 20
-345.6394072848783
 30
0.0
 11
484.00000000000057
 21
-477.63940728487637
 31
0.0
  0
LINE
  8
0
  6
CONTINUOUS
 62
               3
  5
211
 10
483.99999999999989
 20
-345.6394072848783
 30
0.0
 11
515.99999999999989
 21
-345.6394072848783
 31
0.0
  0
LINE
  8
0
  6
CONTINUOUS
 62
               3
  5
212
 10
516.00000000000102
 20
-477.63940728487592
 30
0.0
 11
516.00000000000057
 21
-345.6394072848783
 31
0.0
  0
LINE
  8
0
  6
CONTINUOUS
 62
               3
  5
213
 10
-75.000000000000043
 20
193.36059271512238
 30
0.0
 11
74.999999999999943
 21
193.36059271512238
 31
0.0
  0
LINE
  8
0
  6
CONTINUOUS
 62
               3
  5
214
 10
-88.50000000000027
 20
183.36059271512238
 30
0.0
 11
-88.50000000000027
 21
176.36059271512272
 31
0.0
  0
LINE
  8
0
  6
CONTINUOUS
 62
               3
  5
215
 10
-88.50000000000027
 20
183.36059271512238
 30
0.0
 11
-75.000000000000043
 21
193.36059271512238
 31
0.0
  0
ARC
  8
0
  6
CONTINUOUS
 62
               3
  5
216
 10
-76.999999999999929
 20
171.778017020167
 30
0.0
 40
4.9999999999999991
 50
0.0
 51
66.421821521759782
  0
LINE
  8
0
  6
CONTINUOUS
 62
               3
  5
217
 10
-88.50000000000027
 20
176.36059271512272
 30
0.0
 11
88.499999999999602
 21
176.36059271512272
 31
0.0
  0
LINE
  8
0
  6
CONTINUOUS
 62
               3
  5
218
 10
-71.999999999999929
 20
171.778017020167
 30
0.0
 11
-71.999999999999929
 21
96.89624646797516
 31
0.0
  0
LINE
  8
0
  6
CONTINUOUS
 62
               3
  5
219
 10
71.999999999999829
 20
101.89624646797573
 30
0.0
 11
71.999999999999829
 21
171.778017020167
 31
0.0
  0
LINE
  8
0
  6
CONTINUOUS
 62
               3
  5
21A
 10
-20.000000000000043
 20
176.36059271512272
 30
0.0
 11
-20.000000000000043
 21
193.36059271512238
 31
0.0
  0
LINE
  8
0
  6
CONTINUOUS
 62
               3
  5
21B
 10
19.999999999999957
 20
193.36059271512238
 30
0.0
 11
19.999999999999957
 21
176.36059271512272
 31
0.0
  0
LINE
  8
0
  6
CONTINUOUS
 62
               3
  5
21C
 10
-20.000000000000043
 20
183.36059271512238
 30
0.0
 11
19.999999999999957
 21
183.36059271512238
 31
0.0
  0
LINE
  8
0
  6
CONTINUOUS
 62
               3
  5
21D
 10
-72.284161474005415
 20
193.36059271512238
 30
0.0
 11
-72.284161474005415
 21
176.36059271512272
 31
0.0
  0
LINE
  8
0
  6
CONTINUOUS
 62
               3
  5
21E
 10
-86.210498200625281
 20
183.36059271512238
 30
0.0
 11
-86.210498200625281
 21
176.36059271512272
 31
0.0
  0
LINE
  8
0
  6
CONTINUOUS
 62
               3
  5
21F
 10
-88.50000000000027
 20
183.36059271512238
 30
0.0
 11
-86.210498200625281
 21
183.36059271512238
 31
0.0
  0
LINE
  8
0
  6
CONTINUOUS
 62
               3
  5
220
 10
-86.210498200625281
 20
183.36059271512238
 30
0.0
 11
-72.284161474005415
 21
193.36059271512238
 31
0.0
  0
LINE
  8
0
  6
CONTINUOUS
 62
               3
  5
221
 10
88.499999999999602
 20
183.36059271512238
 30
0.0
 11
88.499999999999602
 21
176.36059271512272
 31
0.0
  0
LINE
  8
0
  6
CONTINUOUS
 62
               3
  5
222
 10
88.499999999999602
 20
183.36059271512238
 30
0.0
 11
74.999999999999943
 21
193.36059271512238
 31
0.0
  0
ARC
  8
0
  6
CONTINUOUS
 62
               3
  5
223
 10
76.999999999999829
 20
171.778017020167
 30
0.0
 40
4.9999999999999991
 50
113.57817847813655
 51
179.99999999989603
  0
LINE
  8
0
  6
CONTINUOUS
 62
               3
  5
224
 10
72.284161474004179
 20
193.36059271512238
 30
0.0
 11
72.284161474004179
 21
176.36059271512272
 31
0.0
  0
LINE
  8
0
  6
CONTINUOUS
 62
               3
  5
225
 10
86.210498200625182
 20
183.36059271512238
 30
0.0
 11
86.210498200625182
 21
176.36059271512272
 31
0.0
  0
LINE
  8
0
  6
CONTINUOUS
 62
               3
  5
226
 10
88.499999999999602
 20
183.36059271512238
 30
0.0
 11
86.210498200625182
 21
183.36059271512238
 31
0.0
  0
LINE
  8
0
  6
CONTINUOUS
 62
               3
  5
227
 10
86.210498200625182
 20
183.36059271512238
 30
0.0
 11
72.284161474004179
 21
193.36059271512238
 31
0.0
  0
LINE
  8
0
  6
CONTINUOUS
 62
               3
  5
228
 10
-575.0
 20
193.36059271512238
 30
0.0
 11
-425.00000000000063
 21
193.36059271512238
 31
0.0
  0
LINE
  8
0
  6
CONTINUOUS
 62
               3
  5
229
 10
-588.50000000000023
 20
183.36059271512238
 30
0.0
 11
-588.50000000000023
 21
176.36059271512272
 31
0.0
  0
LINE
  8
0
  6
CONTINUOUS
 62
               3
  5
22A
 10
-588.50000000000023
 20
183.36059271512238
 30
0.0
 11
-575.0
 21
193.36059271512238
 31
0.0
  0
ARC
  8
0
  6
CONTINUOUS
 62
               3
  5
22B
 10
-577.0
 20
171.778017020167
 30
0.0
 40
4.9999999999999991
 50
0.0
 51
66.421821521759654
  0
LINE
  8
0
  6
CONTINUOUS
 62
               3
  5
22C
 10
-588.50000000000023
 20
176.36059271512272
 30
0.0
 11
-411.5000000000004
 21
176.36059271512272
 31
0.0
  0
LINE
  8
0
  6
CONTINUOUS
 62
               3
  5
22D
 10
-572.0
 20
171.778017020167
 30
0.0
 11
-572.0
 21
96.89624646797516
 31
0.0
  0
LINE
  8
0
  6
CONTINUOUS
 62
               3
  5
22E
 10
-428.00000000000017
 20
96.89624646797516
 30
0.0
 11
-428.00000000000017
 21
171.778017020167
 31
0.0
  0
LINE
  8
0
  6
CONTINUOUS
 62
               3
  5
22F
 10
-520.0
 20
176.36059271512272
 30
0.0
 11
-520.0
 21
193.36059271512238
 31
0.0
  0
LINE
  8
0
  6
CONTINUOUS
 62
               3
  5
230
 10
-480.00000000000063
 20
193.36059271512238
 30
0.0
 11
-480.00000000000063
 21
176.36059271512272
 31
0.0
  0
LINE
  8
0
  6
CONTINUOUS
 62
               3
  5
231
 10
-520.0
 20
183.36059271512238
 30
0.0
 11
-480.00000000000063
 21
183.36059271512238
 31
0.0
  0
LINE
  8
0
  6
CONTINUOUS
 62
               3
  5
232
 10
-572.28416147400435
 20
193.36059271512238
 30
0.0
 11
-572.28416147400435
 21
176.36059271512272
 31
0.0
  0
LINE
  8
0
  6
CONTINUOUS
 62
               3
  5
233
 10
-586.21049820062524
 20
183.36059271512238
 30
0.0
 11
-586.21049820062524
 21
176.36059271512272
 31
0.0
  0
LINE
  8
0
  6
CONTINUOUS
 62
               3
  5
234
 10
-588.50000000000023
 20
183.36059271512238
 30
0.0
 11
-586.21049820062524
 21
183.36059271512238
 31
0.0
  0
LINE
  8
0
  6
CONTINUOUS
 62
               3
  5
235
 10
-586.21049820062524
 20
183.36059271512238
 30
0.0
 11
-572.28416147400435
 21
193.36059271512238
 31
0.0
  0
LINE
  8
0
  6
CONTINUOUS
 62
               3
  5
236
 10
-411.5000000000004
 20
183.36059271512238
 30
0.0
 11
-411.5000000000004
 21
176.36059271512272
 31
0.0
  0
LINE
  8
0
  6
CONTINUOUS
 62
               3
  5
237
 10
-411.5000000000004
 20
183.36059271512238
 30
0.0
 11
-425.00000000000063
 21
193.36059271512238
 31
0.0
  0
ARC
  8
0
  6
CONTINUOUS
 62
               3
  5
238
 10
-423.00000000000017
 20
171.778017020167
 30
0.0
 40
4.9999999999999991
 50
113.57817847813625
 51
179.99999999989603
  0
LINE
  8
0
  6
CONTINUOUS
 62
               3
  5
239
 10
-427.71583852599525
 20
193.36059271512238
 30
0.0
 11
-427.71583852599525
 21
176.36059271512272
 31
0.0
  0
LINE
  8
0
  6
CONTINUOUS
 62
               3
  5
23A
 10
-413.78950179937482
 20
183.36059271512238
 30
0.0
 11
-413.78950179937482
 21
176.36059271512272
 31
0.0
  0
LINE
  8
0
  6
CONTINUOUS
 62
               3
  5
23B
 10
-411.5000000000004
 20
183.36059271512238
 30
0.0
 11
-413.78950179937482
 21
183.36059271512238
 31
0.0
  0
LINE
  8
0
  6
CONTINUOUS
 62
               3
  5
23C
 10
-413.78950179937482
 20
183.36059271512238
 30
0.0
 11
-427.71583852599525
 21
193.36059271512238
 31
0.0
  0
LINE
  8
0
  6
CONTINUOUS
 62
               3
  5
23D
 10
-71.999999999999929
 20
96.896246467975175
 30
0.0
 11
71.500000000000284
 21
96.896246467975175
 31
0.0
  0
ARC
  8
0
  6
CONTINUOUS
 62
               3
  5
23E
 10
-65.000000000000043
 20
-35.13940728487762
 30
0.0
 40
2.4999999999999996
 50
89.999999999948159
 51
269.99999999984476
  0
ARC
  8
0
  6
CONTINUOUS
 62
               3
  5
23F
 10
74.999999999999943
 20
-35.13940728487762
 30
0.0
 40
2.4999999999999996
 50
269.99999999984499
 51
449.99999999974102
  0
LINE
  8
0
  6
CONTINUOUS
 62
               3
  5
240
 10
-65.000000000000043
 20
-32.63940728487762
 30
0.0
 11
74.999999999999943
 21
-32.63940728487762
 31
0.0
  0
ARC
  8
0
  6
CONTINUOUS
 62
               3
  5
241
 10
-80.000000000000028
 20
-51.44663061709673
 30
0.0
 40
4.9999999999999991
 50
0.0
 51
44.999999999973191
  0
LINE
  8
0
  6
CONTINUOUS
 62
               3
  5
242
 10
-89.401352127520781
 20
-34.974210677710786
 30
0.0
 11
-86.736155520353861
 21
-37.63940728487762
 31
0.0
  0
LINE
  8
0
  6
CONTINUOUS
 62
               3
  5
243
 10
-76.464466094067546
 20
-47.911096711163623
 30
0.0
 11
-86.736155520353861
 21
-37.63940728487762
 31
0.0
  0
ARC
  8
0
  6
CONTINUOUS
 62
               3
  5
244
 10
-555.0
 20
86.36059271512238
 30
0.0
 40
19.999999999999996
 50
148.21166938286299
 51
179.99999999989646
  0
ARC
  8
0
  6
CONTINUOUS
 62
               3
  5
245
 10
-445.00000000000063
 20
86.36059271512238
 30
0.0
 40
19.999999999999996
 50
0.0
 51
31.78833061703353
  0
LINE
  8
0
  6
CONTINUOUS
 62
               3
  5
246
 10
-572.0
 20
96.896246467975175
 30
0.0
 11
-428.00000000000017
 21
96.896246467975175
 31
0.0
  0
ARC
  8
0
  6
CONTINUOUS
 62
               3
  5
247
 10
-575.0
 20
-35.13940728487762
 30
0.0
 40
2.4999999999999996
 50
89.99999999994769
 51
269.99999999984436
  0
LINE
  8
0
  6
CONTINUOUS
 62
               3
  5
248
 10
-575.0
 20
86.36059271512238
 30
0.0
 11
-575.0
 21
-32.63940728487762
 31
0.0
  0
ARC
  8
0
  6
CONTINUOUS
 62
               3
  5
249
 10
-425.00000000000119
 20
-35.13940728487762
 30
0.0
 40
2.4999999999999996
 50
269.99999999984436
 51
449.99999999974102
  0
LINE
  8
0
  6
CONTINUOUS
 62
               3
  5
24A
 10
-425.00000000000119
 20
-32.63940728487762
 30
0.0
 11
-425.00000000000063
 21
86.36059271512238
 31
0.0
  0
LINE
  8
0
  6
CONTINUOUS
 62
               3
  5
24B
 10
-477.50000000000006
 20
-32.63940728487762
 30
0.0
 11
-425.00000000000119
 21
-32.63940728487762
 31
0.0
  0
ARC
  8
0
  6
CONTINUOUS
 62
               3
  5
24C
 10
-477.50000000000006
 20
-35.13940728487762
 30
0.0
 40
2.4999999999999996
 50
89.999999999982862
 51
269.99999999984436
  0
ARC
  8
0
  6
CONTINUOUS
 62
               3
  5
24D
 10
-522.5
 20
-35.13940728487762
 30
0.0
 40
2.4999999999999996
 50
269.99999999984436
 51
444.35659599683794
  0
LINE
  8
0
  6
CONTINUOUS
 62
               3
  5
24E
 10
-575.0
 20
-32.63940728487762
 30
0.0
 11
-522.25415800249834
 21
-32.63940728487762
 31
0.0
  0
LINE
  8
0
  6
CONTINUOUS
 62
               3
  5
24F
 10
-65.000000000004547
 20
-37.63940728487762
 30
0.0
 11
74.999999999995453
 21
-37.63940728487762
 31
0.0
  0
LINE
  8
0
  6
CONTINUOUS
 62
               3
  5
250
 10
-575.24584199750166
 20
-37.627290262886113
 30
0.0
 11
-522.5
 21
-37.627290262886113
 31
0.0
  0
LINE
  8
0
  6
CONTINUOUS
 62
               3
  5
251
 10
-477.50000000000455
 20
-37.63940728487762
 30
0.0
 11
-425.00000000000568
 21
-37.63940728487762
 31
0.0
  0
LINE
  8
0
  6
CONTINUOUS
 62
               3
  5
252
 10
-92.759439155431281
 20
-33.428330840386657
 30
0.0
 11
-136.82844387403537
 21
-31.88940728487762
 31
0.0
  0
ARC
  8
0
  6
CONTINUOUS
 62
               3
  5
253
 10
-92.936886033454613
 20
-38.50974458364243
 30
0.0
 40
5.0
 50
44.999999999973532
 51
87.999999999949679
  0
LINE
  8
0
  6
CONTINUOUS
 62
               3
  5
254
 10
-140.00000000000006
 20
52.132148841087201
 30
0.0
 11
-139.32844387403563
 21
52.110592715122607
 31
0.0
  0
LINE
  8
0
  6
CONTINUOUS
 62
               3
  5
255
 10
-140.00000000000006
 20
-29.410963410842186
 30
0.0
 11
-139.32844387403563
 21
-29.38940728487762
 31
0.0
  0
LINE
  8
0
  6
CONTINUOUS
 62
               3
  5
256
 10
-136.82844387403509
 20
54.61059271512238
 30
0.0
 11
-139.32844387403563
 21
52.110592715122607
 31
0.0
  0
LINE
  8
0
  6
CONTINUOUS
 62
               3
  5
257
 10
-136.82844387403534
 20
-31.88940728487762
 30
0.0
 11
-139.32844387403563
 21
-29.38940728487762
 31
0.0
  0
LINE
  8
0
  6
CONTINUOUS
 62
               3
  5
258
 10
-139.32844387403563
 20
52.110592715122607
 30
0.0
 11
-139.32844387403563
 21
-29.38940728487762
 31
0.0
  0
LINE
  8
0
  6
CONTINUOUS
 62
               3
  5
259
 10
-145.00000000000006
 20
51.960592715122402
 30
0.0
 11
-145.00000000000006
 21
-29.239407284877615
 31
0.0
  0
LINE
  8
0
  6
CONTINUOUS
 62
               3
  5
25A
 10
-140.00000000000006
 20
-31.739407284877615
 30
0.0
 11
-140.00000000000006
 21
54.460592715122402
 31
0.0
  0
LINE
  8
0
  6
CONTINUOUS
 62
               3
  5
25B
 10
-140.00000000000006
 20
54.460592715122402
 30
0.0
 11
-142.50000000000006
 21
54.460592715122402
 31
0.0
  0
LINE
  8
0
  6
CONTINUOUS
 62
               3
  5
25C
 10
-140.00000000000006
 20
-31.739407284877615
 30
0.0
 11
-142.50000000000006
 21
-31.739407284877615
 31
0.0
  0
ARC
  8
0
  6
CONTINUOUS
 62
               3
  5
25D
 10
-142.50000000000006
 20
-29.239407284877615
 30
0.0
 40
2.5
 50
179.9999999998962
 51
269.99999999984499
  0
ARC
  8
0
  6
CONTINUOUS
 62
               3
  5
25E
 10
-142.50000000000006
 20
51.960592715122402
 30
0.0
 40
2.5
 50
89.999999999948344
 51
179.9999999998962
  0
LINE
  8
0
  6
CONTINUOUS
 62
               3
  5
25F
 10
-136.82844387403509
 20
54.61059271512238
 30
0.0
 11
-136.82844387403534
 21
-31.889407284877649
 31
0.0
  0
LINE
  8
0
  6
CONTINUOUS
 62
               3
  5
260
 10
-79.825502516487489
 20
56.601179290621531
 30
0.0
 11
-136.82844387403506
 21
54.61059271512238
 31
0.0
  0
ARC
  8
0
  6
CONTINUOUS
 62
               3
  5
261
 10
-80.000000000000043
 20
61.598133425716981
 30
0.0
 40
5.0
 50
271.99999999984396
 51
359.99999999979292
  0
LINE
  8
0
  6
CONTINUOUS
 62
               3
  5
262
 10
-75.000000000000043
 20
86.36059271512238
 30
0.0
 11
-75.000000000000043
 21
61.598133425716981
 31
0.0
  0
ARC
  8
0
  6
CONTINUOUS
 62
               3
  5
263
 10
-55.000000000000043
 20
86.36059271512238
 30
0.0
 40
19.999999999999996
 50
148.21166938286288
 51
179.99999999989646
  0
LINE
  8
0
  6
CONTINUOUS
 62
               3
  5
264
 10
-516.62077013859573
 20
29.360592715122266
 30
0.0
 11
-483.37922986140666
 21
29.360592715122266
 31
0.0
  0
CIRCLE
  8
0
  6
CONTINUOUS
 62
               3
  5
265
 10
-500.00000000000119
 20
11.360592715122152
 30
0.0
 40
28.649999999999999
  0
CIRCLE
  8
0
  6
CONTINUOUS
 62
               3
  5
266
 10
-500.00000000000119
 20
11.360592715122152
 30
0.0
 40
33.0
  0
CIRCLE
  8
0
  6
CONTINUOUS
 62
               3
  5
267
 10
-500.00000000000119
 20
11.360592715122152
 30
0.0
 40
24.5
  0
LINE
  8
0
  6
CONTINUOUS
 62
               3
  5
268
 10
-521.56675682619107
 20
-10.206164111067324
 30
0.0
 11
-523.33452377915683
 21
-11.973931064034446
 31
0.0
  0
LINE
  8
0
  6
CONTINUOUS
 62
               3
  5
269
 10
-478.4332431738116
 20
-10.206164111067324
 30
0.0
 11
-476.66547622084522
 21
-11.973931064033991
 31
0.0
  0
ARC
  8
0
  6
CONTINUOUS
 62
               3
  5
26A
 10
-500.00000000000131
 20
11.36059271512238
 30
0.0
 40
30.5
 50
224.99999999987048
 51
314.99999999981878
  0
CIRCLE
  8
0
  6
CONTINUOUS
 62
               3
  5
26B
 10
-500.00000000000119
 20
11.360592715122152
 30
0.0
 40
43.100000000000001
  0
CIRCLE
  8
0
  6
CONTINUOUS
 62
               3
  5
26C
 10
-500.00000000000119
 20
11.360592715122152
 30
0.0
 40
34.100000000000001
  0
CIRCLE
  8
0
  6
CONTINUOUS
 62
               3
  5
26D
 10
-0.0000000000002274
 20
543.36059271512227
 30
0.0
 40
75.0
  0
CIRCLE
  8
0
  6
CONTINUOUS
 62
               3
  5
26E
 10
-0.0000000000002274
 20
543.36059271512227
 30
0.0
 40
52.5
  0
LINE
  8
0
  6
CONTINUOUS
 62
               3
  5
26F
 10
-86.210498200625466
 20
563.36059271512227
 30
0.0
 11
-72.2841614740056
 21
563.36059271512227
 31
0.0
  0
LINE
  8
0
  6
CONTINUOUS
 62
               3
  5
270
 10
-72.2841614740056
 20
523.36059271512227
 30
0.0
 11
-86.210498200625466
 21
523.36059271512227
 31
0.0
  0
ARC
  8
0
  6
CONTINUOUS
 62
               3
  5
271
 10
-0.0000000000002274
 20
543.36059271512227
 30
0.0
 40
88.5
 50
166.93897588510336
 51
193.06102411468945
  0
LINE
  8
0
  6
CONTINUOUS
 62
               3
  5
272
 10
-20.000000000000227
 20
457.15009451449743
 30
0.0
 11
-20.000000000000227
 21
471.07643124111729
 31
0.0
  0
LINE
  8
0
  6
CONTINUOUS
 62
               3
  5
273
 10
19.999999999999773
 20
471.07643124111729
 30
0.0
 11
19.999999999999773
 21
457.15009451449743
 31
0.0
  0
ARC
  8
0
  6
CONTINUOUS
 62
               3
  5
274
 10
-0.0000000000002274
 20
543.36059271512227
 30
0.0
 40
88.5
 50
256.93897588505172
 51
283.06102411463763
  0
LINE
  8
0
  6
CONTINUOUS
 62
               3
  5
275
 10
86.210498200624443
 20
523.36059271512227
 30
0.0
 11
72.284161474004009
 21
523.36059271512227
 31
0.0
  0
LINE
  8
0
  6
CONTINUOUS
 62
               3
  5
276
 10
72.284161474004009
 20
563.36059271512227
 30
0.0
 11
86.210498200624443
 21
563.36059271512227
 31
0.0
  0
ARC
  8
0
  6
CONTINUOUS
 62
               3
  5
277
 10
-0.0000000000002274
 20
543.36059271512227
 30
0.0
 40
88.5
 50
346.93897588499982
 51
373.06102411458585
  0
LINE
  8
0
  6
CONTINUOUS
 62
               3
  5
278
 10
19.999999999999773
 20
629.57109091574785
 30
0.0
 11
19.999999999999773
 21
615.6447541891273
 31
0.0
  0
LINE
  8
0
  6
CONTINUOUS
 62
               3
  5
279
 10
-20.000000000000227
 20
615.6447541891273
 30
0.0
 11
-20.000000000000227
 21
629.57109091574785
 31
0.0
  0
ARC
  8
0
  6
CONTINUOUS
 62
               3
  5
27A
 10
-0.0000000000002274
 20
543.36059271512227
 30
0.0
 40
88.5
 50
76.938975885155202
 51
103.06102411474124
  0
LINE
  8
0
  6
CONTINUOUS
 62
               3
  5
27B
 10
-47.668123520861286
 20
521.36059271512181
 30
0.0
 11
47.668123520859695
 21
521.36059271512181
 31
0.0
  0
ARC
  8
0
  6
CONTINUOUS
 62
               3
  5
27C
 10
12.5036116493809
 20
552.06699034274129
 30
0.0
 40
54.763804151667173
 50
141.38591763675663
 51
145.15009542087034
  0
ARC
  8
0
  6
CONTINUOUS
 62
               3
  5
27D
 10
-0.0000000000002274
 20
543.36059271512227
 30
0.0
 40
51.5
 50
334.71098847326505
 51
410.95932736340404
  0
ARC
  8
0
  6
CONTINUOUS
 62
               3
  5
27E
 10
-0.0000000000002274
 20
543.36059271512227
 30
0.0
 40
51.5
 50
129.04067263628565
 51
205.28901152642416
  0
ARC
  8
0
  6
CONTINUOUS
 62
               3
  5
27F
 10
-0.0000000000002274
 20
543.36059271512227
 30
0.0
 40
77.5
 50
14.9552483166347
 51
75.044751683313493
  0
ARC
  8
0
  6
CONTINUOUS
 62
               3
  5
280
 10
-0.0000000000002274
 20
543.36059271512227
 30
0.0
 40
77.5
 50
284.95524831647941
 51
345.04475168315804
  0
LINE
  8
0
  6
CONTINUOUS
 62
               3
  5
281
 10
-32.438403166617832
 20
583.36059271512204
 30
0.0
 11
-0.0000000000002274
 21
583.36059271512204
 31
0.0
  0
LINE
  8
0
  6
CONTINUOUS
 62
               3
  5
282
 10
-0.0000000000002274
 20
583.36059271512204
 30
0.0
 11
34.003676271838458
 21
583.36059271512204
 31
0.0
  0
LINE
  8
0
  6
CONTINUOUS
 62
               3
  5
283
 10
-61.564560595986066
 20
497.4823199961159
 30
0.0
 11
-136.82844387403543
 21
500.11059271512232
 31
0.0
  0
LINE
  8
0
  6
CONTINUOUS
 62
               3
  5
284
 10
-140.00000000000011
 20
584.1321488410872
 30
0.0
 11
-139.32844387403566
 21
584.11059271512249
 31
0.0
  0
LINE
  8
0
  6
CONTINUOUS
 62
               3
  5
285
 10
-140.00000000000011
 20
502.58903658915773
 30
0.0
 11
-139.32844387403566
 21
502.61059271512232
 31
0.0
  0
LINE
  8
0
  6
CONTINUOUS
 62
               3
  5
286
 10
-136.82844387403514
 20
586.61059271512227
 30
0.0
 11
-139.32844387403566
 21
584.11059271512249
 31
0.0
  0
LINE
  8
0
  6
CONTINUOUS
 62
               3
  5
287
 10
-136.82844387403537
 20
500.11059271512232
 30
0.0
 11
-139.32844387403566
 21
502.61059271512232
 31
0.0
  0
LINE
  8
0
  6
CONTINUOUS
 62
               3
  5
288
 10
-139.32844387403566
 20
584.11059271512249
 30
0.0
 11
-139.32844387403566
 21
502.61059271512232
 31
0.0
  0
LINE
  8
0
  6
CONTINUOUS
 62
               3
  5
289
 10
-145.00000000000011
 20
583.9605927151224
 30
0.0
 11
-145.00000000000011
 21
502.7605927151223
 31
0.0
  0
LINE
  8
0
  6
CONTINUOUS
 62
               3
  5
28A
 10
-140.00000000000011
 20
500.2605927151223
 30
0.0
 11
-140.00000000000011
 21
586.4605927151224
 31
0.0
  0
LINE
  8
0
  6
CONTINUOUS
 62
               3
  5
28B
 10
-140.00000000000011
 20
586.4605927151224
 30
0.0
 11
-142.50000000000011
 21
586.4605927151224
 31
0.0
  0
LINE
  8
0
  6
CONTINUOUS
 62
               3
  5
28C
 10
-140.00000000000011
 20
500.2605927151223
 30
0.0
 11
-142.50000000000011
 21
500.2605927151223
 31
0.0
  0
ARC
  8
0
  6
CONTINUOUS
 62
               3
  5
28D
 10
-142.50000000000011
 20
502.7605927151223
 30
0.0
 40
2.5
 50
179.99999999989669
 51
269.99999999984499
  0
ARC
  8
0
  6
CONTINUOUS
 62
               3
  5
28E
 10
-142.50000000000011
 20
583.9605927151224
 30
0.0
 40
2.5
 50
89.999999999948344
 51
179.99999999989538
  0
LINE
  8
0
  6
CONTINUOUS
 62
               3
  5
28F
 10
-136.82844387403514
 20
586.61059271512227
 30
0.0
 11
-136.82844387403537
 21
500.11059271512232
 31
0.0
  0
LINE
  8
0
  6
CONTINUOUS
 62
               3
  5
290
 10
-61.564560595985228
 20
589.23886543412959
 30
0.0
 11
-136.82844387403509
 21
586.61059271512227
 31
0.0
  0
ARC
  8
0
  6
CONTINUOUS
 62
               3
  5
291
 10
-61.739058079497781
 20
594.23581956922521
 30
0.0
 40
5.0
 50
271.99999999984402
 51
320.5102376518509
  0
ARC
  8
0
  6
CONTINUOUS
 62
               3
  5
292
 10
-61.739058079498555
 20
492.4853658610204
 30
0.0
 40
5.0
 50
39.489762347940832
 51
87.999999999949608
  0
ARC
  8
0
  6
CONTINUOUS
 62
               3
  5
293
 10
-0.0000000000002274
 20
543.36059271512227
 30
0.0
 40
77.5
 50
216.26799812615374
 51
255.04475168320991
  0
ARC
  8
0
  6
CONTINUOUS
 62
               3
  5
294
 10
-0.0000000000002274
 20
543.36059271512227
 30
0.0
 40
77.5
 50
104.95524831658294
 51
143.73200187363824
  0
CIRCLE
  8
0
  6
CONTINUOUS
 62
               3
  5
295
 10
-0.0000000000002274
 20
543.36059271512227
 30
0.0
 40
59.0
  0
LINE
  8
0
  6
DASHDOT
 62
               4
  5
296
 10
-0.0000000000000426
 20
213.36059271512238
 30
0.0
 11
-0.0000000000000284
 21
-369.6394072848783
 31
0.0
  0
LINE
  8
0
  6
DASHDOT
 62
               4
  5
297
 10
-500.00000000000006
 20
213.36059271512238
 30
0.0
 11
-500.00000000000006
 21
-411.63940728487762
 31
0.0
  0
LINE
  8
0
  6
DASHDOT
 62
               4
  5
298
 10
500.0
 20
213.36059271512238
 30
0.0
 11
500.0
 21
-362.63940728487762
 31
0.0
  0
LINE
  8
0
  6
DASHDOT
 62
               4
  5
299
 10
-0.0000000000002274
 20
651.86059271512227
 30
0.0
 11
-0.0000000000002274
 21
434.86059271512232
 31
0.0
  0
LINE
  8
0
  6
DASHDOT
 62
               4
  5
29A
 10
500.0
 20
-651.86059271512227
 30
0.0
 11
500.0
 21
-362.63940728487762
 31
0.0
  0
LINE
  8
0
  6
DASHDOT
 62
               4
  5
29B
 10
-0.0000000000000426
 20
-651.86059271512227
 30
0.0
 11
-0.0000000000000426
 21
-362.63940728487762
 31
0.0
  0
LINE
  8
0
  6
DASHDOT
 62
               4
  5
29C
 10
-500.00000000000068
 20
-651.86059271512227
 30
0.0
 11
-500.00000000000153
 21
-406.65354901535784
 31
0.0
  0
LINE
  8
0
  6
DASHDOT
 62
               4
  5
29D
 10
124.99999999999937
 20
-290.64930528687228
 30
0.0
 11
124.99999999999937
 21
-455.0276669063627
 31
0.0
  0
LINE
  8
0
  6
DASHDOT
 62
               4
  5
29E
 10
-125.0000000000006
 20
-290.64930528687228
 30
0.0
 11
-125.0000000000006
 21
-455.0276669063627
 31
0.0
  0
LINE
  8
0
  6
DASHDOT
 62
               4
  5
29F
 10
-62.964249144725912
 20
11.36059271512238
 30
0.0
 11
-161.99999999999994
 21
11.36059271512238
 31
0.0
  0
LINE
  8
0
  6
DASHDOT
 62
               4
  5
2A0
 10
-435.28114904391919
 20
11.36059271512238
 30
0.0
 11
-566.6988800076208
 21
11.36059271512238
 31
0.0
  0
LINE
  8
0
  6
DASHDOT
 62
               4
  5
2A1
 10
-162.00000000000011
 20
543.36059271512227
 30
0.0
 11
108.5
 21
543.36059271512227
 31
0.0
  0
ARC
  8
0
  6
CONTINUOUS
 62
               4
  5
2A2
 10
474.21603418803375
 20
86.360592715122365
 30
0.0
 40
17.566965811965957
 50
0.0
 51
36.851448659209801
  0
LINE
  8
0
  6
CONTINUOUS
 62
               4
  5
2A3
 10
511.72700000000009
 20
101.89624646797516
 30
0.0
 11
488.27299999999968
 21
101.89624646797516
 31
0.0
  0
ARC
  8
0
  6
CONTINUOUS
 62
               4
  5
2A4
 10
525.78396581196557
 20
86.360592715122365
 30
0.0
 40
17.566965811965957
 50
143.14855134068659
 51
179.99999999989643
  0
LINE
  8
0
  6
CONTINUOUS
 62
               4
  5
2A5
 10
488.27299999999968
 20
96.89624646797516
 30
0.0
 11
488.27299999999968
 21
101.89624646797516
 31
0.0
  0
LINE
  8
0
  6
CONTINUOUS
 62
               4
  5
2A6
 10
511.72700000000009
 20
96.89624646797516
 30
0.0
 11
511.72700000000009
 21
101.89624646797516
 31
0.0
  0
LINE
  8
0
  6
CONTINUOUS
 62
               4
  5
2A7
 10
488.27299999999968
 20
101.89624646797516
 30
0.0
 11
493.99999999999977
 21
96.89624646797516
 31
0.0
  0
LINE
  8
0
  6
CONTINUOUS
 62
               4
  5
2A8
 10
505.99999999999955
 20
96.89624646797516
 30
0.0
 11
511.72700000000009
 21
101.89624646797516
 31
0.0
  0
LINE
  8
0
  6
CONTINUOUS
 62
               4
  5
2A9
 10
493.99999999999977
 20
96.89624646797516
 30
0.0
 11
505.99999999999955
 21
96.89624646797516
 31
0.0
  0
LINE
  8
0
  6
CONTINUOUS
 62
               4
  5
2AA
 10
505.99999999999955
 20
-33.639407284877521
 30
0.0
 11
493.99999999999977
 21
-33.639407284877521
 31
0.0
  0
ARC
  8
0
  6
CONTINUOUS
 62
               4
  5
2AB
 10
491.93835546658465
 20
-35.053487133344234
 30
0.0
 40
2.4999999999999996
 50
34.446185822124086
 51
93.562780573740966
  0
ARC
  8
0
  6
CONTINUOUS
 62
               4
  5
2AC
 10
508.06164453341512
 20
-35.053487133344234
 30
0.0
 40
2.4999999999999996
 50
86.437219426154229
 51
145.55381417777124
  0
LINE
  8
0
  6
CONTINUOUS
 62
               4
  5
2AD
 10
491.78299999999967
 20
86.360592715122365
 30
0.0
 11
491.78299999999967
 21
-32.639407284877635
 31
0.0
  0
LINE
  8
0
  6
CONTINUOUS
 62
               4
  5
2AE
 10
508.21699999999964
 20
86.360592715122365
 30
0.0
 11
508.21699999999964
 21
-32.639407284877635
 31
0.0
  0
LINE
  8
0
  6
CONTINUOUS
 62
               4
  5
2AF
 10
505.99999999999955
 20
-33.639407284877521
 30
0.0
 11
505.99999999999955
 21
96.89624646797516
 31
0.0
  0
LINE
  8
0
  6
CONTINUOUS
 62
               4
  5
2B0
 10
493.99999999999977
 20
96.89624646797516
 30
0.0
 11
493.99999999999977
 21
-33.639407284877521
 31
0.0
  0
LINE
  8
0
  6
CONTINUOUS
 62
               4
  5
2B1
 10
505.99999999999955
 20
-36.639407284877407
 30
0.0
 11
493.99999999999977
 21
-36.639407284877407
 31
0.0
  0
ARC
  8
0
  6
CONTINUOUS
 62
               4
  5
2B2
 10
491.93835546658465
 20
-35.225327436411035
 30
0.0
 40
2.4999999999999996
 50
266.43721942615383
 51
325.55381417779273
  0
ARC
  8
0
  6
CONTINUOUS
 62
               4
  5
2B3
 10
508.06164453341512
 20
-35.225327436411035
 30
0.0
 40
2.4999999999999996
 50
214.44618582210353
 51
273.56278057374317
  0
LINE
  8
0
  6
CONTINUOUS
 62
               4
  5
2B4
 10
-91.00000000000054
 20
-417.38462907220003
 30
0.0
 11
-91.00000000000054
 21
-407.51034286514425
 31
0.0
  0
LINE
  8
0
  6
CONTINUOUS
 62
               4
  5
2B5
 10
90.999999999999204
 20
-417.38462907220003
 30
0.0
 11
90.999999999999204
 21
-407.51034286514425
 31
0.0
  0
LINE
  8
0
  6
CONTINUOUS
 62
               4
  5
2B6
 10
-65.500000000001563
 20
-516.63940728487637
 30
0.0
 11
65.500000000000341
 21
-516.63940728487637
 31
0.0
  0
LINE
  8
0
  6
CONTINUOUS
 62
               4
  5
2B7
 10
-565.50000000000102
 20
-516.63940728487637
 30
0.0
 11
-434.49999999999909
 21
-516.63940728487637
 31
0.0
  0
LINE
  8
0
  6
CONTINUOUS
 62
               4
  5
2B8
 10
434.49999999999898
 20
-516.63940728487637
 30
0.0
 11
565.50000000000091
 21
-516.63940728487637
 31
0.0
  0
LINE
  8
0
  6
CONTINUOUS
 62
               4
  5
2B9
 10
76.999999999999829
 20
96.896246467975175
 30
0.0
 11
71.999999999999829
 21
101.89624646797517
 31
0.0
  0
ARC
  8
0
  6
CONTINUOUS
 62
               4
  5
2BA
 10
54.499999999999829
 20
86.36059271512238
 30
0.0
 40
19.999999999999996
 50
0.0
 51
31.788330617033484
  0
LINE
  8
0
  6
CONTINUOUS
 62
               4
  5
2BB
 10
71.500000000000284
 20
96.896246467975175
 30
0.0
 11
71.500000000000284
 21
101.89624646797574
 31
0.0
  0
LINE
  8
0
  6
CONTINUOUS
 62
               4
  5
2BC
 10
71.999999999999829
 20
101.89624646797517
 30
0.0
 11
71.500000000000284
 21
101.89624646797517
 31
0.0
  0
LINE
  8
0
  6
CONTINUOUS
 62
               4
  5
2BD
 10
76.750000000000057
 20
96.646246467975175
 30
0.0
 11
71.500000000000284
 21
101.89624646797517
 31
0.0
  0
LINE
  8
0
  6
CONTINUOUS
 62
               4
  5
2BE
 10
76.750000000000057
 20
96.646246467975175
 30
0.0
 11
76.999999999999829
 21
96.896246467975175
 31
0.0
  0
LINE
  8
0
  6
CONTINUOUS
 62
               4
  5
2BF
 10
76.999999999999829
 20
96.896246467975175
 30
0.0
 11
76.999999999999829
 21
-33.639407284877507
 31
0.0
  0
LINE
  8
0
  6
CONTINUOUS
 62
               4
  5
2C0
 10
76.750000000000057
 20
96.646246467975175
 30
0.0
 11
76.750000000000057
 21
-33.35405017774201
 31
0.0
  0
LINE
  8
0
  6
CONTINUOUS
 62
               4
  5
2C1
 10
74.499999999999829
 20
86.36059271512238
 30
0.0
 11
74.499999999999829
 21
-32.63940728487762
 31
0.0
  0
LINE
  8
0
  6
DASHED2
 62
               4
  5
2C2
 10
443.0
 20
128.36059271512238
 30
0.0
 11
556.99999999999977
 21
128.36059271512238
 31
0.0
  0
LINE
  8
0
  6
DASHED2
 62
               4
  5
2C3
 10
56.999999999999844
 20
-311.63940728487762
 30
0.0
 11
56.999999999999844
 21
-411.63940728487762
 31
0.0
  0
LINE
  8
0
  6
DASHED2
 62
               4
  5
2C4
 10
-57.132845554131009
 20
-311.63940728487762
 30
0.0
 11
-57.132845554131009
 21
-411.73783503032882
 31
0.0
  0
LINE
  8
0
  6
DASHED2
 62
               4
  5
2C5
 10
-443.00000000000017
 20
-311.63940728487762
 30
0.0
 11
-443.00000000000017
 21
-411.63940728487762
 31
0.0
  0
LINE
  8
0
  6
DASHED2
 62
               4
  5
2C6
 10
-557.13284555413111
 20
-311.63940728487762
 30
0.0
 11
-557.13284555413111
 21
-411.73783503032882
 31
0.0
  0
LINE
  8
0
  6
DASHED2
 62
               4
  5
2C7
 10
556.99999999999977
 20
-311.63940728487762
 30
0.0
 11
556.99999999999977
 21
-411.63940728487762
 31
0.0
  0
LINE
  8
0
  6
DASHED2
 62
               4
  5
2C8
 10
442.86715444586889
 20
-311.63940728487762
 30
0.0
 11
442.86715444586889
 21
-411.73783503032882
 31
0.0
  0
LINE
  8
0
  6
DASHED2
 62
               4
  5
2C9
 10
-57.500000000003013
 20
-426.63940728487876
 30
0.0
 11
-57.500000000003013
 21
-491.63940728487648
 31
0.0
  0
LINE
  8
0
  6
DASHED2
 62
               4
  5
2CA
 10
-0.0000000000000284
 20
-411.63940728487762
 30
0.0
 11
-57.000000000000199
 21
-411.63940728487762
 31
0.0
  0
LINE
  8
0
  6
DASHED2
 62
               4
  5
2CB
 10
-57.500000000003013
 20
-426.63940728487876
 30
0.0
 11
-0.0000000000011653
 21
-426.63940728487762
 31
0.0
  0
LINE
  8
0
  6
DASHED2
 62
               4
  5
2CC
 10
-0.0000000000000284
 20
-411.63940728487762
 30
0.0
 11
56.999999999999858
 21
-411.63940728487762
 31
0.0
  0
LINE
  8
0
  6
DASHED2
 62
               4
  5
2CD
 10
57.500000000001677
 20
-426.63940728487876
 30
0.0
 11
-0.0000000000000284
 21
-426.63940728487762
 31
0.0
  0
LINE
  8
0
  6
DASHED2
 62
               4
  5
2CE
 10
57.500000000001677
 20
-426.63940728487876
 30
0.0
 11
57.500000000001677
 21
-491.63940728487648
 31
0.0
  0
LINE
  8
0
  6
DASHED2
 62
               4
  5
2CF
 10
-136.76000000000076
 20
-411.63940728487717
 30
0.0
 11
-136.76000000000076
 21
-403.11327878556995
 31
0.0
  0
LINE
  8
0
  6
DASHED2
 62
               4
  5
2D0
 10
-130.87102725426635
 20
-403.11327878556995
 30
0.0
 11
-130.87102725426635
 21
-411.63940728487717
 31
0.0
  0
LINE
  8
0
  6
DASHED2
 62
               4
  5
2D1
 10
-133.81551362713341
 20
-402.03940728487703
 30
0.0
 11
-116.1844863728675
 21
-402.03940728487703
 31
0.0
  0
LINE
  8
0
  6
DASHED2
 62
               4
  5
2D2
 10
-113.24000000000044
 20
-411.63940728487717
 30
0.0
 11
-113.24000000000044
 21
-403.11327878556995
 31
0.0
  0
LINE
  8
0
  6
DASHED2
 62
               4
  5
2D3
 10
-119.12897274573513
 20
-411.63940728487717
 30
0.0
 11
-119.12897274573513
 21
-403.11327878556995
 31
0.0
  0
ARC
  8
0
  6
DASHED2
 62
               4
  5
2D4
 10
-133.81551362713341
 20
-406.61313886899302
 30
0.0
 40
4.5737315841157447
 50
49.925579661602562
 51
130.07442033832857
  0
ARC
  8
0
  6
DASHED2
 62
               4
  5
2D5
 10
-116.1844863728675
 20
-406.61313886899302
 30
0.0
 40
4.5737315841157686
 50
49.925579661602882
 51
130.07442033832876
  0
ARC
  8
0
  6
DASHED2
 62
               4
  5
2D6
 10
-125.0000000000006
 20
-418.62526555439752
 30
0.0
 40
16.58585826952007
 50
69.269184858534402
 51
110.73081514139702
  0
LINE
  8
0
  6
DASHED2
 62
               4
  5
2D7
 10
-136.76000000000218
 20
-413.63940728487751
 30
0.0
 11
-136.76000000000218
 21
-422.16553578418473
 31
0.0
  0
LINE
  8
0
  6
DASHED2
 62
               4
  5
2D8
 10
-130.87102725426777
 20
-422.16553578418473
 30
0.0
 11
-130.87102725426777
 21
-413.63940728487751
 31
0.0
  0
LINE
  8
0
  6
DASHED2
 62
               4
  5
2D9
 10
-133.81551362713483
 20
-423.2394072848773
 30
0.0
 11
-116.1844863728692
 21
-423.2394072848773
 31
0.0
  0
LINE
  8
0
  6
DASHED2
 62
               4
  5
2DA
 10
-113.24000000000186
 20
-413.63940728487751
 30
0.0
 11
-113.24000000000186
 21
-422.16553578418473
 31
0.0
  0
LINE
  8
0
  6
DASHED2
 62
               4
  5
2DB
 10
-119.12897274573626
 20
-413.63940728487751
 30
0.0
 11
-119.12897274573626
 21
-422.16553578418473
 31
0.0
  0
ARC
  8
0
  6
DASHED2
 62
               4
  5
2DC
 10
-133.81551362713483
 20
-418.66567570076188
 30
0.0
 40
4.5737315841157447
 50
229.92557966153424
 51
310.07442033826061
  0
ARC
  8
0
  6
DASHED2
 62
               4
  5
2DD
 10
-116.1844863728692
 20
-418.66567570076188
 30
0.0
 40
4.5737315841157686
 50
229.92557966153441
 51
310.07442033826021
  0
ARC
  8
0
  6
DASHED2
 62
               4
  5
2DE
 10
-125.00000000000202
 20
-406.65354901535738
 30
0.0
 40
16.58585826952007
 50
249.26918485846539
 51
290.73081514132792
  0
LINE
  8
0
  6
DASHED2
 62
               4
  5
2DF
 10
-131.00000000000054
 20
-423.2394072848773
 30
0.0
 11
-131.00000000000054
 21
-433.75877352720192
 31
0.0
  0
LINE
  8
0
  6
DASHED2
 62
               4
  5
2E0
 10
-119.00000000000065
 20
-423.2394072848773
 30
0.0
 11
-119.00000000000065
 21
-433.75877352720192
 31
0.0
  0
LINE
  8
0
  6
DASHED2
 62
               4
  5
2E1
 10
-129.80000000000078
 20
-434.95877352720231
 30
0.0
 11
-120.2000000000007
 21
-434.95877352720231
 31
0.0
  0
LINE
  8
0
  6
DASHED2
 62
               4
  5
2E2
 10
-131.00000000000054
 20
-433.75877352720192
 30
0.0
 11
-129.80000000000078
 21
-434.95877352720231
 31
0.0
  0
LINE
  8
0
  6
DASHED2
 62
               4
  5
2E3
 10
-119.00000000000065
 20
-433.75877352720192
 30
0.0
 11
-120.2000000000007
 21
-434.95877352720231
 31
0.0
  0
LINE
  8
0
  6
DASHED2
 62
               4
  5
2E4
 10
-136.76000000000076
 20
-411.63940728487717
 30
0.0
 11
-113.24000000000044
 21
-411.63940728487717
 31
0.0
  0
LINE
  8
0
  6
DASHED2
 62
               4
  5
2E5
 10
-113.24000000000186
 20
-413.63940728487751
 30
0.0
 11
-136.76000000000218
 21
-413.63940728487751
 31
0.0
  0
LINE
  8
0
  6
DASHED2
 62
               4
  5
2E6
 10
136.75999999999954
 20
-411.63940728487717
 30
0.0
 11
136.75999999999954
 21
-403.11327878556995
 31
0.0
  0
LINE
  8
0
  6
DASHED2
 62
               4
  5
2E7
 10
130.87102725426513
 20
-403.11327878556995
 30
0.0
 11
130.87102725426513
 21
-411.63940728487717
 31
0.0
  0
LINE
  8
0
  6
DASHED2
 62
               4
  5
2E8
 10
133.81551362713219
 20
-402.03940728487703
 30
0.0
 11
116.18448637286627
 21
-402.03940728487703
 31
0.0
  0
LINE
  8
0
  6
DASHED2
 62
               4
  5
2E9
 10
113.23999999999921
 20
-411.63940728487717
 30
0.0
 11
113.23999999999921
 21
-403.11327878556995
 31
0.0
  0
LINE
  8
0
  6
DASHED2
 62
               4
  5
2EA
 10
119.1289727457339
 20
-411.63940728487717
 30
0.0
 11
119.1289727457339
 21
-403.11327878556995
 31
0.0
  0
ARC
  8
0
  6
DASHED2
 62
               4
  5
2EB
 10
133.81551362713219
 20
-406.61313886899302
 30
0.0
 40
4.5737315841157447
 50
49.925579661636654
 51
130.0744203383627
  0
ARC
  8
0
  6
DASHED2
 62
               4
  5
2EC
 10
116.18448637286627
 20
-406.61313886899302
 30
0.0
 40
4.5737315841157686
 50
49.925579661636384
 51
130.07442033836222
  0
ARC
  8
0
  6
DASHED2
 62
               4
  5
2ED
 10
124.99999999999937
 20
-418.62526555439752
 30
0.0
 40
16.58585826952007
 50
69.26918485856821
 51
110.73081514143077
  0
LINE
  8
0
  6
DASHED2
 62
               4
  5
2EE
 10
136.76000000000096
 20
-413.63940728487751
 30
0.0
 11
136.76000000000096
 21
-422.16553578418473
 31
0.0
  0
LINE
  8
0
  6
DASHED2
 62
               4
  5
2EF
 10
130.87102725426655
 20
-422.16553578418473
 30
0.0
 11
130.87102725426655
 21
-413.63940728487751
 31
0.0
  0
LINE
  8
0
  6
DASHED2
 62
               4
  5
2F0
 10
133.81551362713361
 20
-423.2394072848773
 30
0.0
 11
116.18448637286798
 21
-423.2394072848773
 31
0.0
  0
LINE
  8
0
  6
DASHED2
 62
               4
  5
2F1
 10
113.24000000000063
 20
-413.63940728487751
 30
0.0
 11
113.24000000000063
 21
-422.16553578418473
 31
0.0
  0
LINE
  8
0
  6
DASHED2
 62
               4
  5
2F2
 10
119.12897274573504
 20
-413.63940728487751
 30
0.0
 11
119.12897274573504
 21
-422.16553578418473
 31
0.0
  0
ARC
  8
0
  6
DASHED2
 62
               4
  5
2F3
 10
133.81551362713361
 20
-418.66567570076188
 30
0.0
 40
4.5737315841157447
 50
229.9255796616352
 51
310.07442033836156
  0
ARC
  8
0
  6
DASHED2
 62
               4
  5
2F4
 10
116.18448637286798
 20
-418.66567570076188
 30
0.0
 40
4.5737315841157686
 50
229.925579661635
 51
310.07442033836077
  0
ARC
  8
0
  6
DASHED2
 62
               4
  5
2F5
 10
125.0000000000008
 20
-406.65354901535738
 30
0.0
 40
16.58585826952007
 50
249.26918485856763
 51
290.7308151414303
  0
LINE
  8
0
  6
DASHED2
 62
               4
  5
2F6
 10
130.99999999999932
 20
-423.2394072848773
 30
0.0
 11
130.99999999999932
 21
-433.75877352720192
 31
0.0
  0
LINE
  8
0
  6
DASHED2
 62
               4
  5
2F7
 10
118.99999999999943
 20
-423.2394072848773
 30
0.0
 11
118.99999999999943
 21
-433.75877352720192
 31
0.0
  0
LINE
  8
0
  6
DASHED2
 62
               4
  5
2F8
 10
129.79999999999956
 20
-434.95877352720231
 30
0.0
 11
120.19999999999948
 21
-434.95877352720231
 31
0.0
  0
LINE
  8
0
  6
DASHED2
 62
               4
  5
2F9
 10
130.99999999999932
 20
-433.75877352720192
 30
0.0
 11
129.79999999999956
 21
-434.95877352720231
 31
0.0
  0
LINE
  8
0
  6
DASHED2
 62
               4
  5
2FA
 10
118.99999999999943
 20
-433.75877352720192
 30
0.0
 11
120.19999999999948
 21
-434.95877352720231
 31
0.0
  0
LINE
  8
0
  6
DASHED2
 62
               4
  5
2FB
 10
136.75999999999954
 20
-411.63940728487717
 30
0.0
 11
113.23999999999921
 21
-411.63940728487717
 31
0.0
  0
LINE
  8
0
  6
DASHED2
 62
               4
  5
2FC
 10
113.24000000000063
 20
-413.63940728487751
 30
0.0
 11
136.76000000000096
 21
-413.63940728487751
 31
0.0
  0
LINE
  8
0
  6
DASHED2
 62
               4
  5
2FD
 10
-557.5000000000025
 20
-426.63940728487876
 30
0.0
 11
-557.5000000000025
 21
-491.63940728487648
 31
0.0
  0
LINE
  8
0
  6
DASHED2
 62
               4
  5
2FE
 10
-499.99999999999949
 20
-411.63940728487762
 30
0.0
 11
-556.99999999999966
 21
-411.63940728487762
 31
0.0
  0
LINE
  8
0
  6
DASHED2
 62
               4
  5
2FF
 10
-557.5000000000025
 20
-426.63940728487876
 30
0.0
 11
-500.00000000000063
 21
-426.63940728487762
 31
0.0
  0
LINE
  8
0
  6
DASHED2
 62
               4
  5
300
 10
-499.99999999999949
 20
-411.63940728487762
 30
0.0
 11
-442.9999999999996
 21
-411.63940728487762
 31
0.0
  0
LINE
  8
0
  6
DASHED2
 62
               4
  5
301
 10
-442.49999999999778
 20
-426.63940728487876
 30
0.0
 11
-499.99999999999949
 21
-426.63940728487762
 31
0.0
  0
LINE
  8
0
  6
DASHED2
 62
               4
  5
302
 10
-442.49999999999778
 20
-426.63940728487876
 30
0.0
 11
-442.49999999999778
 21
-491.63940728487648
 31
0.0
  0
LINE
  8
0
  6
DASHED2
 62
               4
  5
303
 10
-511.76000000000028
 20
-411.63940728487762
 30
0.0
 11
-511.76000000000028
 21
-403.1132787855704
 31
0.0
  0
LINE
  8
0
  6
DASHED2
 62
               4
  5
304
 10
-505.87102725426581
 20
-403.1132787855704
 30
0.0
 11
-505.87102725426581
 21
-411.63940728487762
 31
0.0
  0
LINE
  8
0
  6
DASHED2
 62
               4
  5
305
 10
-508.81551362713293
 20
-402.03940728487748
 30
0.0
 11
-491.18448637286696
 21
-402.03940728487748
 31
0.0
  0
LINE
  8
0
  6
DASHED2
 62
               4
  5
306
 10
-488.23999999999995
 20
-411.63940728487762
 30
0.0
 11
-488.23999999999995
 21
-403.1132787855704
 31
0.0
  0
LINE
  8
0
  6
DASHED2
 62
               4
  5
307
 10
-494.12897274573464
 20
-411.63940728487762
 30
0.0
 11
-494.12897274573464
 21
-403.1132787855704
 31
0.0
  0
ARC
  8
0
  6
DASHED2
 62
               4
  5
308
 10
-508.81551362713293
 20
-406.61313886899347
 30
0.0
 40
4.5737315841157447
 50
49.925579661602832
 51
130.07442033832857
  0
ARC
  8
0
  6
DASHED2
 62
               4
  5
309
 10
-491.18448637286696
 20
-406.61313886899347
 30
0.0
 40
4.5737315841157686
 50
49.925579661602747
 51
130.07442033832857
  0
ARC
  8
0
  6
DASHED2
 62
               4
  5
30A
 10
-500.00000000000006
 20
-418.62526555439797
 30
0.0
 40
16.58585826952007
 50
69.269184858534501
 51
110.73081514139706
  0
LINE
  8
0
  6
DASHED2
 62
               4
  5
30B
 10
-511.76000000000164
 20
-413.63940728487796
 30
0.0
 11
-511.76000000000164
 21
-422.16553578418518
 31
0.0
  0
LINE
  8
0
  6
DASHED2
 62
               4
  5
30C
 10
-505.87102725426729
 20
-422.16553578418518
 30
0.0
 11
-505.87102725426729
 21
-413.63940728487796
 31
0.0
  0
LINE
  8
0
  6
DASHED2
 62
               4
  5
30D
 10
-508.81551362713429
 20
-423.23940728487776
 30
0.0
 11
-491.18448637286866
 21
-423.23940728487776
 31
0.0
  0
LINE
  8
0
  6
DASHED2
 62
               4
  5
30E
 10
-488.24000000000132
 20
-413.63940728487796
 30
0.0
 11
-488.24000000000132
 21
-422.16553578418518
 31
0.0
  0
LINE
  8
0
  6
DASHED2
 62
               4
  5
30F
 10
-494.12897274573578
 20
-413.63940728487796
 30
0.0
 11
-494.12897274573578
 21
-422.16553578418518
 31
0.0
  0
ARC
  8
0
  6
DASHED2
 62
               4
  5
310
 10
-508.81551362713429
 20
-418.66567570076234
 30
0.0
 40
4.5737315841157447
 50
229.92557966153416
 51
310.07442033826044
  0
ARC
  8
0
  6
DASHED2
 62
               4
  5
311
 10
-491.18448637286866
 20
-418.66567570076234
 30
0.0
 40
4.5737315841157686
 50
229.92557966153416
 51
310.07442033825998
  0
ARC
  8
0
  6
DASHED2
 62
               4
  5
312
 10
-500.00000000000153
 20
-406.65354901535784
 30
0.0
 40
16.58585826952007
 50
249.26918485846539
 51
290.73081514132798
  0
LINE
  8
0
  6
DASHED2
 62
               4
  5
313
 10
-506.00000000000006
 20
-423.23940728487776
 30
0.0
 11
-506.00000000000006
 21
-433.75877352720238
 31
0.0
  0
LINE
  8
0
  6
DASHED2
 62
               4
  5
314
 10
-494.00000000000017
 20
-423.23940728487776
 30
0.0
 11
-494.00000000000017
 21
-433.75877352720238
 31
0.0
  0
LINE
  8
0
  6
DASHED2
 62
               4
  5
315
 10
-504.80000000000024
 20
-434.95877352720277
 30
0.0
 11
-495.20000000000022
 21
-434.95877352720277
 31
0.0
  0
LINE
  8
0
  6
DASHED2
 62
               4
  5
316
 10
-506.00000000000006
 20
-433.75877352720238
 30
0.0
 11
-504.80000000000024
 21
-434.95877352720277
 31
0.0
  0
LINE
  8
0
  6
DASHED2
 62
               4
  5
317
 10
-494.00000000000017
 20
-433.75877352720238
 30
0.0
 11
-495.20000000000022
 21
-434.95877352720277
 31
0.0
  0
LINE
  8
0
  6
DASHED2
 62
               4
  5
318
 10
-511.76000000000028
 20
-411.63940728487762
 30
0.0
 11
-488.23999999999995
 21
-411.63940728487762
 31
0.0
  0
LINE
  8
0
  6
DASHED2
 62
               4
  5
319
 10
-488.24000000000132
 20
-413.63940728487796
 30
0.0
 11
-511.76000000000164
 21
-413.63940728487796
 31
0.0
  0
LINE
  8
0
  6
DASHED2
 62
               4
  5
31A
 10
442.49999999999756
 20
-426.63940728487876
 30
0.0
 11
442.49999999999756
 21
-491.63940728487648
 31
0.0
  0
LINE
  8
0
  6
DASHED2
 62
               4
  5
31B
 10
500.00000000000057
 20
-411.63940728487762
 30
0.0
 11
443.00000000000034
 21
-411.63940728487762
 31
0.0
  0
LINE
  8
0
  6
DASHED2
 62
               4
  5
31C
 10
442.49999999999756
 20
-426.63940728487876
 30
0.0
 11
499.99999999999943
 21
-426.63940728487762
 31
0.0
  0
LINE
  8
0
  6
DASHED2
 62
               4
  5
31D
 10
500.00000000000057
 20
-411.63940728487762
 30
0.0
 11
557.00000000000034
 21
-411.63940728487762
 31
0.0
  0
LINE
  8
0
  6
DASHED2
 62
               4
  5
31E
 10
557.50000000000216
 20
-426.63940728487876
 30
0.0
 11
500.00000000000057
 21
-426.63940728487762
 31
0.0
  0
LINE
  8
0
  6
DASHED2
 62
               4
  5
31F
 10
557.50000000000216
 20
-426.63940728487876
 30
0.0
 11
557.50000000000216
 21
-491.63940728487648
 31
0.0
  0
LINE
  8
0
  6
DASHED2
 62
               4
  5
320
 10
488.23999999999967
 20
-411.63940728487762
 30
0.0
 11
488.23999999999967
 21
-403.1132787855704
 31
0.0
  0
LINE
  8
0
  6
DASHED2
 62
               4
  5
321
 10
494.12897274573413
 20
-403.1132787855704
 30
0.0
 11
494.12897274573413
 21
-411.63940728487762
 31
0.0
  0
LINE
  8
0
  6
DASHED2
 62
               4
  5
322
 10
491.18448637286713
 20
-402.03940728487748
 30
0.0
 11
508.8155136271331
 21
-402.03940728487748
 31
0.0
  0
LINE
  8
0
  6
DASHED2
 62
               4
  5
323
 10
511.7600000000001
 20
-411.63940728487762
 30
0.0
 11
511.7600000000001
 21
-403.1132787855704
 31
0.0
  0
LINE
  8
0
  6
DASHED2
 62
               4
  5
324
 10
505.87102725426541
 20
-411.63940728487762
 30
0.0
 11
505.87102725426541
 21
-403.1132787855704
 31
0.0
  0
ARC
  8
0
  6
DASHED2
 62
               4
  5
325
 10
491.18448637286713
 20
-406.61313886899347
 30
0.0
 40
4.5737315841157447
 50
49.925579661602285
 51
130.07442033832857
  0
ARC
  8
0
  6
DASHED2
 62
               4
  5
326
 10
508.8155136271331
 20
-406.61313886899347
 30
0.0
 40
4.5737315841157686
 50
49.925579661602747
 51
130.07442033832857
  0
ARC
  8
0
  6
DASHED2
 62
               4
  5
327
 10
499.99999999999989
 20
-418.62526555439797
 30
0.0
 40
16.58585826952007
 50
69.269184858534302
 51
110.73081514139687
  0
LINE
  8
0
  6
DASHED2
 62
               4
  5
328
 10
488.2399999999983
 20
-413.63940728487796
 30
0.0
 11
488.2399999999983
 21
-422.16553578418518
 31
0.0
  0
LINE
  8
0
  6
DASHED2
 62
               4
  5
329
 10
494.12897274573277
 20
-422.16553578418518
 30
0.0
 11
494.12897274573277
 21
-413.63940728487796
 31
0.0
  0
LINE
  8
0
  6
DASHED2
 62
               4
  5
32A
 10
491.18448637286576
 20
-423.23940728487776
 30
0.0
 11
508.81551362713128
 21
-423.23940728487776
 31
0.0
  0
LINE
  8
0
  6
DASHED2
 62
               4
  5
32B
 10
511.75999999999874
 20
-413.63940728487796
 30
0.0
 11
511.75999999999874
 21
-422.16553578418518
 31
0.0
  0
LINE
  8
0
  6
DASHED2
 62
               4
  5
32C
 10
505.87102725426428
 20
-413.63940728487796
 30
0.0
 11
505.87102725426428
 21
-422.16553578418518
 31
0.0
  0
ARC
  8
0
  6
DASHED2
 62
               4
  5
32D
 10
491.18448637286576
 20
-418.66567570076234
 30
0.0
 40
4.5737315841157447
 50
229.92557966153464
 51
310.07442033826101
  0
ARC
  8
0
  6
DASHED2
 62
               4
  5
32E
 10
508.81551362713128
 20
-418.66567570076234
 30
0.0
 40
4.5737315841157686
 50
229.92557966153464
 51
310.07442033826055
  0
ARC
  8
0
  6
DASHED2
 62
               4
  5
32F
 10
499.99999999999852
 20
-406.65354901535784
 30
0.0
 40
16.58585826952007
 50
249.26918485846539
 51
290.73081514132798
  0
LINE
  8
0
  6
DASHED2
 62
               4
  5
330
 10
493.99999999999989
 20
-423.23940728487776
 30
0.0
 11
493.99999999999989
 21
-433.75877352720238
 31
0.0
  0
LINE
  8
0
  6
DASHED2
 62
               4
  5
331
 10
505.99999999999989
 20
-423.23940728487776
 30
0.0
 11
505.99999999999989
 21
-433.75877352720238
 31
0.0
  0
LINE
  8
0
  6
DASHED2
 62
               4
  5
332
 10
495.1999999999997
 20
-434.95877352720277
 30
0.0
 11
504.79999999999984
 21
-434.95877352720277
 31
0.0
  0
LINE
  8
0
  6
DASHED2
 62
               4
  5
333
 10
493.99999999999989
 20
-433.75877352720238
 30
0.0
 11
495.1999999999997
 21
-434.95877352720277
 31
0.0
  0
LINE
  8
0
  6
DASHED2
 62
               4
  5
334
 10
505.99999999999989
 20
-433.75877352720238
 30
0.0
 11
504.79999999999984
 21
-434.95877352720277
 31
0.0
  0
LINE
  8
0
  6
DASHED2
 62
               4
  5
335
 10
488.23999999999967
 20
-411.63940728487762
 30
0.0
 11
511.7600000000001
 21
-411.63940728487762
 31
0.0
  0
LINE
  8
0
  6
DASHED2
 62
               4
  5
336
 10
511.75999999999874
 20
-413.63940728487796
 30
0.0
 11
488.2399999999983
 21
-413.63940728487796
 31
0.0
  0
LINE
  8
0
  6
DASHED2
 62
               4
  5
337
 10
-506.00000000000006
 20
-296.57582780894921
 30
0.0
 11
-506.00000000000006
 21
-402.03940728487788
 31
0.0
  0
LINE
  8
0
  6
DASHED2
 62
               4
  5
338
 10
-494.00000000000017
 20
-296.57582780894921
 30
0.0
 11
-494.00000000000017
 21
-402.03940728487788
 31
0.0
  0
LINE
  8
0
  6
DASHED2
 62
               4
  5
339
 10
-494.00000000000017
 20
-296.57582780894921
 30
0.0
 11
-506.00000000000006
 21
-296.57582780894921
 31
0.0
  0
LINE
  8
0
  6
DASHED2
 62
               4
  5
33A
 10
118.99999999999943
 20
-296.57582780894836
 30
0.0
 11
118.99999999999943
 21
-402.03940728487703
 31
0.0
  0
LINE
  8
0
  6
DASHED2
 62
               4
  5
33B
 10
130.99999999999932
 20
-296.57582780894836
 30
0.0
 11
130.99999999999932
 21
-402.03940728487703
 31
0.0
  0
LINE
  8
0
  6
DASHED2
 62
               4
  5
33C
 10
118.99999999999943
 20
-296.57582780894836
 30
0.0
 11
130.99999999999932
 21
-296.57582780894836
 31
0.0
  0
LINE
  8
0
  6
DASHED2
 62
               4
  5
33D
 10
-119.00000000000065
 20
-296.57582780894836
 30
0.0
 11
-131.00000000000054
 21
-296.57582780894836
 31
0.0
  0
LINE
  8
0
  6
DASHED2
 62
               4
  5
33E
 10
-119.00000000000065
 20
-296.57582780894836
 30
0.0
 11
-119.00000000000065
 21
-402.03940728487703
 31
0.0
  0
LINE
  8
0
  6
DASHED2
 62
               4
  5
33F
 10
-131.00000000000054
 20
-296.57582780894836
 30
0.0
 11
-131.00000000000054
 21
-402.03940728487703
 31
0.0
  0
LINE
  8
0
  6
DASHED2
 62
               4
  5
340
 10
505.99999999999977
 20
-296.57582780894882
 30
0.0
 11
505.99999999999977
 21
-402.03940728487748
 31
0.0
  0
LINE
  8
0
  6
DASHED2
 62
               4
  5
341
 10
493.99999999999977
 20
-296.57582780894882
 30
0.0
 11
493.99999999999977
 21
-402.03940728487748
 31
0.0
  0
LINE
  8
0
  6
DASHED2
 62
               4
  5
342
 10
505.99999999999977
 20
-296.57582780894882
 30
0.0
 11
493.99999999999977
 21
-296.57582780894882
 31
0.0
  0
LINE
  8
0
  6
DASHED2
 62
               4
  5
343
 10
-56.999999999999929
 20
128.36059271512238
 30
0.0
 11
56.999999999999844
 21
128.36059271512238
 31
0.0
  0
LINE
  8
0
  6
DASHED2
 62
               4
  5
344
 10
-557.00000000000045
 20
128.36059271512238
 30
0.0
 11
-443.00000000000074
 21
128.36059271512238
 31
0.0
  0
ARC
  8
0
  6
DIVIDE
 62
               4
  5
345
 10
-28.50000000000054
 20
-658.57238858904611
 30
0.0
 40
55.0
 50
58.789629707478369
 51
121.21037029248673
  0
ARC
  8
0
  6
DIVIDE
 62
               4
  5
346
 10
-28.50000000000054
 20
-564.49263518800853
 30
0.0
 40
55.0
 50
238.78962970744368
 51
301.21037029245184
  0
ARC
  8
0
  6
DIVIDE
 62
               4
  5
347
 10
-32.500000000000597
 20
-634.03500932432394
 30
0.0
 40
65.0
 50
59.999999999988269
 51
119.99999999997692
  0
ARC
  8
0
  6
DIVIDE
 62
               4
  5
348
 10
28.499999999999488
 20
-564.49263518800876
 30
0.0
 40
55.0
 50
238.78962970744377
 51
301.21037029245201
  0
ARC
  8
0
  6
DIVIDE
 62
               4
  5
349
 10
32.499999999999403
 20
-521.45170683234687
 30
0.0
 40
65.0
 50
239.99999999995379
 51
299.99999999994202
  0
LINE
  8
0
  6
DIVIDE
 62
               4
  5
34A
 10
-57.000000000000483
 20
-573.82911260315541
 30
0.0
 11
-57.000000000000483
 21
-611.53251188852732
 31
0.0
  0
LINE
  8
0
  6
DIVIDE
 62
               4
  5
34B
 10
56.999999999999574
 20
-581.6576035535154
 30
0.0
 11
56.999999999999574
 21
-611.53251188852732
 31
0.0
  0
ARC
  8
0
  6
DIVIDE
 62
               4
  5
34C
 10
-32.500000000000597
 20
-521.4517068323471
 30
0.0
 40
65.0
 50
239.99999999995339
 51
247.85677929850399
  0
LINE
  8
0
  6
DIVIDE
 62
               4
  5
34D
 10
64.999999999999375
 20
-491.63940728487648
 30
0.0
 11
64.999999999999375
 21
-577.7433580783354
 31
0.0
  0
LINE
  8
0
  6
DIVIDE
 62
               4
  5
34E
 10
-65.000000000000597
 20
-491.63940728487648
 30
0.0
 11
-65.000000000000597
 21
-577.7433580783354
 31
0.0
  0
ARC
  8
0
  6
DIVIDE
 62
               4
  5
34F
 10
-528.5
 20
-658.57238858904611
 30
0.0
 40
55.0
 50
58.789629707478369
 51
121.21037029248674
  0
ARC
  8
0
  6
DIVIDE
 62
               4
  5
350
 10
-528.5
 20
-564.49263518800853
 30
0.0
 40
55.0
 50
238.78962970744368
 51
301.21037029245184
  0
ARC
  8
0
  6
DIVIDE
 62
               4
  5
351
 10
-532.5
 20
-634.03500932432394
 30
0.0
 40
65.0
 50
59.999999999988248
 51
119.99999999997692
  0
ARC
  8
0
  6
DIVIDE
 62
               4
  5
352
 10
-471.49999999999994
 20
-564.49263518800876
 30
0.0
 40
55.0
 50
238.78962970744377
 51
301.21037029245201
  0
ARC
  8
0
  6
DIVIDE
 62
               4
  5
353
 10
-467.50000000000006
 20
-521.45170683234687
 30
0.0
 40
65.0
 50
239.99999999995379
 51
299.99999999994202
  0
LINE
  8
0
  6
DIVIDE
 62
               4
  5
354
 10
-557.0
 20
-573.82911260315541
 30
0.0
 11
-557.0
 21
-611.53251188852732
 31
0.0
  0
LINE
  8
0
  6
DIVIDE
 62
               4
  5
355
 10
-442.99999999999989
 20
-581.6576035535154
 30
0.0
 11
-442.99999999999989
 21
-611.53251188852732
 31
0.0
  0
ARC
  8
0
  6
DIVIDE
 62
               4
  5
356
 10
-532.5
 20
-521.4517068323471
 30
0.0
 40
65.0
 50
239.99999999995339
 51
247.85677929850399
  0
LINE
  8
0
  6
DIVIDE
 62
               4
  5
357
 10
-435.00000000000006
 20
-491.63940728487648
 30
0.0
 11
-435.00000000000006
 21
-577.7433580783354
 31
0.0
  0
LINE
  8
0
  6
DIVIDE
 62
               4
  5
358
 10
-565.0
 20
-491.63940728487648
 30
0.0
 11
-565.0
 21
-577.7433580783354
 31
0.0
  0
ARC
  8
0
  6
DIVIDE
 62
               4
  5
359
 10
471.5
 20
-658.57238858904611
 30
0.0
 40
55.0
 50
58.789629707478369
 51
121.21037029248674
  0
ARC
  8
0
  6
DIVIDE
 62
               4
  5
35A
 10
471.5
 20
-564.49263518800853
 30
0.0
 40
55.0
 50
238.78962970744368
 51
301.21037029245184
  0
ARC
  8
0
  6
DIVIDE
 62
               4
  5
35B
 10
467.49999999999989
 20
-634.03500932432394
 30
0.0
 40
65.0
 50
59.999999999988297
 51
119.99999999997692
  0
ARC
  8
0
  6
DIVIDE
 62
               4
  5
35C
 10
528.50000000000011
 20
-564.49263518800876
 30
0.0
 40
55.0
 50
238.78962970744377
 51
301.21037029245201
  0
ARC
  8
0
  6
DIVIDE
 62
               4
  5
35D
 10
532.49999999999989
 20
-521.45170683234687
 30
0.0
 40
65.0
 50
239.99999999995379
 51
299.99999999994196
  0
LINE
  8
0
  6
DIVIDE
 62
               4
  5
35E
 10
443.00000000000006
 20
-573.82911260315541
 30
0.0
 11
443.00000000000006
 21
-611.53251188852732
 31
0.0
  0
LINE
  8
0
  6
DIVIDE
 62
               4
  5
35F
 10
557.00000000000011
 20
-581.6576035535154
 30
0.0
 11
557.00000000000011
 21
-611.53251188852732
 31
0.0
  0
ARC
  8
0
  6
DIVIDE
 62
               4
  5
360
 10
467.49999999999989
 20
-521.4517068323471
 30
0.0
 40
65.0
 50
239.99999999995339
 51
247.85677929850399
  0
LINE
  8
0
  6
DIVIDE
 62
               4
  5
361
 10
564.99999999999989
 20
-491.63940728487648
 30
0.0
 11
564.99999999999989
 21
-577.7433580783354
 31
0.0
  0
LINE
  8
0
  6
DIVIDE
 62
               4
  5
362
 10
434.99999999999994
 20
-491.63940728487648
 30
0.0
 11
434.99999999999994
 21
-577.7433580783354
 31
0.0
  0
POINT
  8
0
  6
DASHDOT
 62
               5
  5
363
 10
-0.0000000000001279
 20
543.36059271512227
 30
0.0
  0
ENDSEC
  0
EOF
