  0
SECTION
  2
HEADER
  9
$ACADVER
  1
AC1009
  9
$INSBASE
 10
0.0
 20
0.0
 30
0.0
  9
$EXTMIN
 10
-647.93579083240377
 20
-1756.3067920257292
 30
0.0
  9
$EXTMAX
 10
737.78547312504418
 20
682.143270431877
 30
0.0
  9
$LIMMIN
 10
-691.23958033107397
 20
-1832.5083564775293
  9
$LIMMAX
 10
781.08926262371438
 20
758.34483488367721
  9
$ORTHOMODE
 70
               0
  9
$REGENMODE
 70
               1
  9
$FILLMODE
 70
               1
  9
$QTEXTMODE
 70
               0
  9
$MIRRTEXT
 70
               1
  9
$DRAGMODE
 70
               2
  9
$LTSCALE
 40
1.0
  9
$OSMODE
 70
               0
  9
$ATTMODE
 70
               1
  9
$TEXTSIZE
 40
0.2
  9
$TRACEWID
 40
0.05
  9
$TEXTSTYLE
  7
STANDARD
  9
$CLAYER
  8
0
  9
$CELTYPE
  6
CONTINUOUS
  9
$CECOLOR
 62
             256
  9
$DIMSCALE
 40
1.0
  9
$DIMASZ
 40
0.18
  9
$DIMEXO
 40
0.0625
  9
$DIMDLI
 40
0.38
  9
$DIMRND
 40
0.0
  9
$DIMDLE
 40
0.0
  9
$DIMEXE
 40
0.18
  9
$DIMTP
 40
0.0
  9
$DIMTM
 40
0.0
  9
$DIMTXT
 40
0.18
  9
$DIMCEN
 40
0.09
  9
$DIMTSZ
 40
0.0
  9
$DIMTOL
 70
               0
  9
$DIMLIM
 70
               0
  9
$DIMTIH
 70
               1
  9
$DIMTOH
 70
               1
  9
$DIMSE1
 70
               0
  9
$DIMSE2
 70
               0
  9
$DIMTAD
 70
               0
  9
$DIMZIN
 70
               0
  9
$DIMBLK
  1

  9
$DIMASO
 70
               1
  9
$DIMSHO
 70
               1
  9
$DIMPOST
  1

  9
$DIMAPOST
  1

  9
$DIMALT
 70
               0
  9
$DIMALTD
 70
               2
  9
$DIMALTF
 40
25.399999999999999
  9
$DIMLFAC
 40
1.0
  9
$DIMTOFL
 70
               0
  9
$DIMTVP
 40
0.0
  9
$DIMTIX
 70
               0
  9
$DIMSOXD
 70
               0
  9
$DIMSAH
 70
               0
  9
$DIMBLK1
  1

  9
$DIMBLK2
  1

  9
$DIMSTYLE
  2
STANDARD
  9
$DIMCLRD
 70
               0
  9
$DIMCLRE
 70
               0
  9
$DIMCLRT
 70
               0
  9
$DIMTFAC
 40
1.0
  9
$DIMGAP
 40
0.09
  9
$LUNITS
 70
               2
  9
$LUPREC
 70
               4
  9
$AXISMODE
 70
               0
  9
$AXISUNIT
 10
0.0
 20
0.0
  9
$SKETCHINC
 40
0.1
  9
$FILLETRAD
 40
0.0
  9
$AUNITS
 70
               0
  9
$AUPREC
 70
               0
  9
$MENU
  1
acad
  9
$ELEVATION
 40
0.0
  9
$PELEVATION
 40
0.0
  9
$THICKNESS
 40
0.0
  9
$LIMCHECK
 70
               0
  9
$BLIPMODE
 70
               1
  9
$CHAMFERA
 40
0.0
  9
$CHAMFERB
 40
0.0
  9
$SKPOLY
 70
               0
  9
$TDCREATE
 40
0.000000000
  9
$TDUPDATE
 40
0.000000000
  9
$TDINDWG
 40
0.0000000000
  9
$TDUSRTIMER
 40
0.0000000000
  9
$USRTIMER
 70
               1
  9
$ANGBASE
 50
0.0
  9
$ANGDIR
 70
               0
  9
$PDMODE
 70
               0
  9
$PDSIZE
 40
1.0
  9
$PLINEWID
 40
0.0
  9
$COORDS
 70
               1
  9
$SPLFRAME
 70
               0
  9
$SPLINETYPE
 70
               6
  9
$SPLINESEGS
 70
               8
  9
$ATTDIA
 70
               0
  9
$ATTREQ
 70
               1
  9
$HANDLING
 70
               1
  9
$HANDSEED
  5
5A4
  9
$SURFTAB1
 70
               6
  9
$SURFTAB2
 70
               6
  9
$SURFTYPE
 70
               6
  9
$SURFU
 70
               6
  9
$SURFV
 70
               6
  9
$UCSNAME
  2

  9
$UCSORG
 10
0.0
 20
0.0
 30
0.0
  9
$UCSXDIR
 10
1.0
 20
0.0
 30
0.0
  9
$UCSYDIR
 10
0.0
 20
1.0
 30
0.0
  9
$PUCSNAME
  2

  9
$PUCSORG
 10
0.0
 20
0.0
 30
0.0
  9
$PUCSXDIR
 10
1.0
 20
0.0
 30
0.0
  9
$PUCSYDIR
 10
0.0
 20
1.0
 30
0.0
  9
$USERI1
 70
               0
  9
$USERI2
 70
               0
  9
$USERI3
 70
               0
  9
$USERI4
 70
               0
  9
$USERI5
 70
               0
  9
$USERR1
 40
0.0
  9
$USERR2
 40
0.0
  9
$USERR3
 40
0.0
  9
$USERR4
 40
0.0
  9
$USERR5
 40
0.0
  9
$WORLDVIEW
 70
               1
  9
$SHADEDGE
 70
               3
  9
$SHADEDIF
 70
              70
  9
$TILEMODE
 70
               1
  9
$MAXACTVP
 70
              16
  9
$PINSBASE
 10
0.0
 20
0.0
 30
0.0
  9
$PLIMCHECK
 70
               0
  9
$PEXTMIN
 10
1.0000000000000000E+20
 20
1.0000000000000000E+20
 30
1.0000000000000000E+20
  9
$PEXTMAX
 10
-1.0000000000000000E+20
 20
-1.0000000000000000E+20
 30
-1.0000000000000000E+20
  9
$PLIMMIN
 10
0.0
 20
0.0
  9
$PLIMMAX
 10
12.0
 20
9.0
  9
$UNITMODE
 70
               0
  9
$VISRETAIN
 70
               0
  9
$PLINEGEN
 70
               1
  9
$PSLTSCALE
 70
               0
  9
$TREEDEPTH
 70
            3020
  9
$DWGCODEPAGE
  3
dos932
  0
ENDSEC
  0
SECTION
  2
TABLES
  0
TABLE
  2
VPORT
 70
               1
  0
VPORT
  2
*ACTIVE
 70
               0
 10
0.0
 20
0.0
 11
1.0
 21
1.0
 12
44.924841146320205
 22
-537.08176079692612
 13
0.0
 23
0.0
 14
1.0
 24
1.0
 15
0.0
 25
0.0
 16
0.0
 26
0.0
 36
1.0
 17
0.0
 27
0.0
 37
0.0
 40
2590.8531913612064
 41
0.5682795335004075
 42
50.0
 43
0.0
 44
0.0
 50
0.0
 51
0.0
 71
               0
 72
             100
 73
               1
 74
               1
 75
               0
 76
               0
 77
               0
 78
               0
  0
ENDTAB
  0
TABLE
  2
LTYPE
 70
              26
  0
LTYPE
  2
CONTINUOUS
 70
               0
  3
Solid line
 72
              65
 73
               0
 40
0.0
  0
LTYPE
  2
HIDDENX2
 70
               0
  3
CADPAC FUSION LINETYPE
 72
              65
 73
               2
 40
47.560000000000002
 49
35.670000000000002
 49
-11.890000000000001
  0
LTYPE
  2
HIDDEN
 70
               0
  3
CADPAC FUSION LINETYPE
 72
              65
 73
               2
 40
35.670000000000002
 49
23.780000000000001
 49
-11.890000000000001
  0
LTYPE
  2
HIDDEN2
 70
               0
  3
CADPAC FUSION LINETYPE
 72
              65
 73
               2
 40
29.725000000000001
 49
17.835000000000001
 49
-11.890000000000001
  0
LTYPE
  2
DASHED
 70
               0
  3
CADPAC FUSION LINETYPE
 72
              65
 73
               2
 40
35.670000000000002
 49
23.780000000000001
 49
-11.890000000000001
  0
LTYPE
  2
DASHED2
 70
               0
  3
CADPAC FUSION LINETYPE
 72
              65
 73
               2
 40
26.752500000000001
 49
17.835000000000001
 49
-8.9175000000000004
  0
LTYPE
  2
DASHEDX2
 70
               0
  3
CADPAC FUSION LINETYPE
 72
              65
 73
               2
 40
53.505000000000003
 49
35.670000000000002
 49
-17.835000000000001
  0
LTYPE
  2
DOTX2
 70
               0
  3
CADPAC FUSION LINETYPE
 72
              65
 73
               2
 40
14.862500000000001
 49
0.0
 49
-14.862500000000001
  0
LTYPE
  2
DOT
 70
               0
  3
CADPAC FUSION LINETYPE
 72
              65
 73
               2
 40
11.890000000000001
 49
0.0
 49
-11.890000000000001
  0
LTYPE
  2
DOTS
 70
               0
  3
CADPAC FUSION LINETYPE
 72
              65
 73
               2
 40
11.890000000000001
 49
0.0
 49
-11.890000000000001
  0
LTYPE
  2
DOT2
 70
               0
  3
CADPAC FUSION LINETYPE
 72
              65
 73
               2
 40
8.9175000000000004
 49
0.0
 49
-8.9175000000000004
  0
LTYPE
  2
CENTERX2
 70
               0
  3
CADPAC FUSION LINETYPE
 72
              65
 73
               4
 40
71.340000000000003
 49
29.725000000000001
 49
-14.862500000000001
 49
11.890000000000001
 49
-14.862500000000001
  0
LTYPE
  2
CENTER
 70
               0
  3
CADPAC FUSION LINETYPE
 72
              65
 73
               4
 40
54.694000000000003
 49
23.780000000000001
 49
-11.890000000000001
 49
7.1340000000000003
 49
-11.890000000000001
  0
LTYPE
  2
CENTER2
 70
               0
  3
CADPAC FUSION LINETYPE
 72
              65
 73
               4
 40
38.048000000000002
 49
17.835000000000001
 49
-8.9175000000000004
 49
2.3780000000000001
 49
-8.9175000000000004
  0
LTYPE
  2
DASHDOTX2
 70
               0
  3
CADPAC FUSION LINETYPE
 72
              65
 73
               4
 40
59.450000000000003
 49
29.725000000000001
 49
-14.862500000000001
 49
0.0
 49
-14.862500000000001
  0
LTYPE
  2
DASHDOT
 70
               0
  3
CADPAC FUSION LINETYPE
 72
              65
 73
               4
 40
47.560000000000002
 49
23.780000000000001
 49
-11.890000000000001
 49
0.0
 49
-11.890000000000001
  0
LTYPE
  2
DASHDOT2
 70
               0
  3
CADPAC FUSION LINETYPE
 72
              65
 73
               4
 40
35.670000000000002
 49
17.835000000000001
 49
-8.9175000000000004
 49
0.0
 49
-8.9175000000000004
  0
LTYPE
  2
DIVIDEX2
 70
               0
  3
CADPAC FUSION LINETYPE
 72
              65
 73
               6
 40
74.3125
 49
29.725000000000001
 49
-14.862500000000001
 49
0.0
 49
-14.862500000000001
 49
0.0
 49
-14.862500000000001
  0
LTYPE
  2
DIVIDE
 70
               0
  3
CADPAC FUSION LINETYPE
 72
              65
 73
               6
 40
59.450000000000003
 49
23.780000000000001
 49
-11.890000000000001
 49
0.0
 49
-11.890000000000001
 49
0.0
 49
-11.890000000000001
  0
LTYPE
  2
DIVIDE2
 70
               0
  3
CADPAC FUSION LINETYPE
 72
              65
 73
               6
 40
44.587500000000006
 49
17.835000000000001
 49
-8.9175000000000004
 49
0.0
 49
-8.9175000000000004
 49
0.0
 49
-8.9175000000000004
  0
LTYPE
  2
BORDERX2
 70
               0
  3
CADPAC FUSION LINETYPE
 72
              65
 73
               6
 40
104.03750000000001
 49
29.725000000000001
 49
-14.862500000000001
 49
29.725000000000001
 49
-14.862500000000001
 49
0.0
 49
-14.862500000000001
  0
LTYPE
  2
BORDER
 70
               0
  3
CADPAC FUSION LINETYPE
 72
              65
 73
               6
 40
83.230000000000004
 49
23.780000000000001
 49
-11.890000000000001
 49
23.780000000000001
 49
-11.890000000000001
 49
0.0
 49
-11.890000000000001
  0
LTYPE
  2
BORDER2
 70
               0
  3
CADPAC FUSION LINETYPE
 72
              65
 73
               6
 40
62.422499999999999
 49
17.835000000000001
 49
-8.9175000000000004
 49
17.835000000000001
 49
-8.9175000000000004
 49
0.0
 49
-8.9175000000000004
  0
LTYPE
  2
PHANTOMX2
 70
               0
  3
CADPAC FUSION LINETYPE
 72
              65
 73
               6
 40
89.175000000000011
 49
29.725000000000001
 49
-11.890000000000001
 49
11.890000000000001
 49
-11.890000000000001
 49
11.890000000000001
 49
-11.890000000000001
  0
LTYPE
  2
PHANTOM
 70
               0
  3
CADPAC FUSION LINETYPE
 72
              65
 73
               6
 40
73.718000000000004
 49
23.780000000000001
 49
-11.890000000000001
 49
7.1340000000000003
 49
-11.890000000000001
 49
7.1340000000000003
 49
-11.890000000000001
  0
LTYPE
  2
PHANTOM2
 70
               0
  3
CADPAC FUSION LINETYPE
 72
              65
 73
               6
 40
63.017000000000003
 49
17.835000000000001
 49
-11.890000000000001
 49
4.7560000000000002
 49
-11.890000000000001
 49
4.7560000000000002
 49
-11.890000000000001
  0
ENDTAB
  0
TABLE
  2
LAYER
 70
             256
  0
LAYER
  2
0
 70
               0
 62
               7
  6
CONTINUOUS
  0
LAYER
  2
LAYER001
 70
               0
 62
               7
  6
CONTINUOUS
  0
LAYER
  2
LAYER002
 70
               0
 62
               7
  6
CONTINUOUS
  0
LAYER
  2
LAYER003
 70
               0
 62
               7
  6
CONTINUOUS
  0
LAYER
  2
LAYER004
 70
               0
 62
               7
  6
CONTINUOUS
  0
LAYER
  2
LAYER005
 70
               0
 62
               7
  6
CONTINUOUS
  0
LAYER
  2
LAYER006
 70
               0
 62
               7
  6
CONTINUOUS
  0
LAYER
  2
LAYER007
 70
               0
 62
               7
  6
CONTINUOUS
  0
LAYER
  2
LAYER008
 70
               0
 62
               7
  6
CONTINUOUS
  0
LAYER
  2
LAYER009
 70
               0
 62
               7
  6
CONTINUOUS
  0
LAYER
  2
LAYER010
 70
               0
 62
               7
  6
CONTINUOUS
  0
LAYER
  2
LAYER011
 70
               0
 62
               7
  6
CONTINUOUS
  0
LAYER
  2
LAYER012
 70
               0
 62
               7
  6
CONTINUOUS
  0
LAYER
  2
LAYER013
 70
               0
 62
               7
  6
CONTINUOUS
  0
LAYER
  2
LAYER014
 70
               0
 62
               7
  6
CONTINUOUS
  0
LAYER
  2
LAYER015
 70
               0
 62
               7
  6
CONTINUOUS
  0
LAYER
  2
LAYER016
 70
               0
 62
               7
  6
CONTINUOUS
  0
LAYER
  2
LAYER017
 70
               0
 62
               7
  6
CONTINUOUS
  0
LAYER
  2
LAYER018
 70
               0
 62
               7
  6
CONTINUOUS
  0
LAYER
  2
LAYER019
 70
               0
 62
               7
  6
CONTINUOUS
  0
LAYER
  2
LAYER020
 70
               0
 62
               7
  6
CONTINUOUS
  0
LAYER
  2
LAYER021
 70
               0
 62
               7
  6
CONTINUOUS
  0
LAYER
  2
LAYER022
 70
               0
 62
               7
  6
CONTINUOUS
  0
LAYER
  2
LAYER023
 70
               0
 62
               7
  6
CONTINUOUS
  0
LAYER
  2
LAYER024
 70
               0
 62
               7
  6
CONTINUOUS
  0
LAYER
  2
LAYER025
 70
               0
 62
               7
  6
CONTINUOUS
  0
LAYER
  2
LAYER026
 70
               0
 62
               7
  6
CONTINUOUS
  0
LAYER
  2
LAYER027
 70
               0
 62
               7
  6
CONTINUOUS
  0
LAYER
  2
LAYER028
 70
               0
 62
               7
  6
CONTINUOUS
  0
LAYER
  2
LAYER029
 70
               0
 62
               7
  6
CONTINUOUS
  0
LAYER
  2
LAYER030
 70
               0
 62
               7
  6
CONTINUOUS
  0
LAYER
  2
LAYER031
 70
               0
 62
               7
  6
CONTINUOUS
  0
LAYER
  2
LAYER032
 70
               0
 62
               7
  6
CONTINUOUS
  0
LAYER
  2
LAYER033
 70
               0
 62
               7
  6
CONTINUOUS
  0
LAYER
  2
LAYER034
 70
               0
 62
               7
  6
CONTINUOUS
  0
LAYER
  2
LAYER035
 70
               0
 62
               7
  6
CONTINUOUS
  0
LAYER
  2
LAYER036
 70
               0
 62
               7
  6
CONTINUOUS
  0
LAYER
  2
LAYER037
 70
               0
 62
               7
  6
CONTINUOUS
  0
LAYER
  2
LAYER038
 70
               0
 62
               7
  6
CONTINUOUS
  0
LAYER
  2
LAYER039
 70
               0
 62
               7
  6
CONTINUOUS
  0
LAYER
  2
LAYER040
 70
               0
 62
               7
  6
CONTINUOUS
  0
LAYER
  2
LAYER041
 70
               0
 62
               7
  6
CONTINUOUS
  0
LAYER
  2
LAYER042
 70
               0
 62
               7
  6
CONTINUOUS
  0
LAYER
  2
LAYER043
 70
               0
 62
               7
  6
CONTINUOUS
  0
LAYER
  2
LAYER044
 70
               0
 62
               7
  6
CONTINUOUS
  0
LAYER
  2
LAYER045
 70
               0
 62
               7
  6
CONTINUOUS
  0
LAYER
  2
LAYER046
 70
               0
 62
               7
  6
CONTINUOUS
  0
LAYER
  2
LAYER047
 70
               0
 62
               7
  6
CONTINUOUS
  0
LAYER
  2
LAYER048
 70
               0
 62
               7
  6
CONTINUOUS
  0
LAYER
  2
LAYER049
 70
               0
 62
               7
  6
CONTINUOUS
  0
LAYER
  2
LAYER050
 70
               0
 62
               7
  6
CONTINUOUS
  0
LAYER
  2
LAYER051
 70
               0
 62
               7
  6
CONTINUOUS
  0
LAYER
  2
LAYER052
 70
               0
 62
               7
  6
CONTINUOUS
  0
LAYER
  2
LAYER053
 70
               0
 62
               7
  6
CONTINUOUS
  0
LAYER
  2
LAYER054
 70
               0
 62
               7
  6
CONTINUOUS
  0
LAYER
  2
LAYER055
 70
               0
 62
               7
  6
CONTINUOUS
  0
LAYER
  2
LAYER056
 70
               0
 62
               7
  6
CONTINUOUS
  0
LAYER
  2
LAYER057
 70
               0
 62
               7
  6
CONTINUOUS
  0
LAYER
  2
LAYER058
 70
               0
 62
               7
  6
CONTINUOUS
  0
LAYER
  2
LAYER059
 70
               0
 62
               7
  6
CONTINUOUS
  0
LAYER
  2
LAYER060
 70
               0
 62
               7
  6
CONTINUOUS
  0
LAYER
  2
LAYER061
 70
               0
 62
               7
  6
CONTINUOUS
  0
LAYER
  2
LAYER062
 70
               0
 62
               7
  6
CONTINUOUS
  0
LAYER
  2
LAYER063
 70
               0
 62
               7
  6
CONTINUOUS
  0
LAYER
  2
LAYER064
 70
               0
 62
               7
  6
CONTINUOUS
  0
LAYER
  2
LAYER065
 70
               0
 62
               7
  6
CONTINUOUS
  0
LAYER
  2
LAYER066
 70
               0
 62
               7
  6
CONTINUOUS
  0
LAYER
  2
LAYER067
 70
               0
 62
               7
  6
CONTINUOUS
  0
LAYER
  2
LAYER068
 70
               0
 62
               7
  6
CONTINUOUS
  0
LAYER
  2
LAYER069
 70
               0
 62
               7
  6
CONTINUOUS
  0
LAYER
  2
LAYER070
 70
               0
 62
               7
  6
CONTINUOUS
  0
LAYER
  2
LAYER071
 70
               0
 62
               7
  6
CONTINUOUS
  0
LAYER
  2
LAYER072
 70
               0
 62
               7
  6
CONTINUOUS
  0
LAYER
  2
LAYER073
 70
               0
 62
               7
  6
CONTINUOUS
  0
LAYER
  2
LAYER074
 70
               0
 62
               7
  6
CONTINUOUS
  0
LAYER
  2
LAYER075
 70
               0
 62
               7
  6
CONTINUOUS
  0
LAYER
  2
LAYER076
 70
               0
 62
               7
  6
CONTINUOUS
  0
LAYER
  2
LAYER077
 70
               0
 62
               7
  6
CONTINUOUS
  0
LAYER
  2
LAYER078
 70
               0
 62
               7
  6
CONTINUOUS
  0
LAYER
  2
LAYER079
 70
               0
 62
               7
  6
CONTINUOUS
  0
LAYER
  2
LAYER080
 70
               0
 62
               7
  6
CONTINUOUS
  0
LAYER
  2
LAYER081
 70
               0
 62
               7
  6
CONTINUOUS
  0
LAYER
  2
LAYER082
 70
               0
 62
               7
  6
CONTINUOUS
  0
LAYER
  2
LAYER083
 70
               0
 62
               7
  6
CONTINUOUS
  0
LAYER
  2
LAYER084
 70
               0
 62
               7
  6
CONTINUOUS
  0
LAYER
  2
LAYER085
 70
               0
 62
               7
  6
CONTINUOUS
  0
LAYER
  2
LAYER086
 70
               0
 62
               7
  6
CONTINUOUS
  0
LAYER
  2
LAYER087
 70
               0
 62
               7
  6
CONTINUOUS
  0
LAYER
  2
LAYER088
 70
               0
 62
               7
  6
CONTINUOUS
  0
LAYER
  2
LAYER089
 70
               0
 62
               7
  6
CONTINUOUS
  0
LAYER
  2
LAYER090
 70
               0
 62
               7
  6
CONTINUOUS
  0
LAYER
  2
LAYER091
 70
               0
 62
               7
  6
CONTINUOUS
  0
LAYER
  2
LAYER092
 70
               0
 62
               7
  6
CONTINUOUS
  0
LAYER
  2
LAYER093
 70
               0
 62
               7
  6
CONTINUOUS
  0
LAYER
  2
LAYER094
 70
               0
 62
               7
  6
CONTINUOUS
  0
LAYER
  2
LAYER095
 70
               0
 62
               7
  6
CONTINUOUS
  0
LAYER
  2
LAYER096
 70
               0
 62
               7
  6
CONTINUOUS
  0
LAYER
  2
LAYER097
 70
               0
 62
               7
  6
CONTINUOUS
  0
LAYER
  2
LAYER098
 70
               0
 62
               7
  6
CONTINUOUS
  0
LAYER
  2
LAYER099
 70
               0
 62
               7
  6
CONTINUOUS
  0
LAYER
  2
LAYER100
 70
               0
 62
               7
  6
CONTINUOUS
  0
LAYER
  2
LAYER101
 70
               0
 62
               7
  6
CONTINUOUS
  0
LAYER
  2
LAYER102
 70
               0
 62
               7
  6
CONTINUOUS
  0
LAYER
  2
LAYER103
 70
               0
 62
               7
  6
CONTINUOUS
  0
LAYER
  2
LAYER104
 70
               0
 62
               7
  6
CONTINUOUS
  0
LAYER
  2
LAYER105
 70
               0
 62
               7
  6
CONTINUOUS
  0
LAYER
  2
LAYER106
 70
               0
 62
               7
  6
CONTINUOUS
  0
LAYER
  2
LAYER107
 70
               0
 62
               7
  6
CONTINUOUS
  0
LAYER
  2
LAYER108
 70
               0
 62
               7
  6
CONTINUOUS
  0
LAYER
  2
LAYER109
 70
               0
 62
               7
  6
CONTINUOUS
  0
LAYER
  2
LAYER110
 70
               0
 62
               7
  6
CONTINUOUS
  0
LAYER
  2
LAYER111
 70
               0
 62
               7
  6
CONTINUOUS
  0
LAYER
  2
LAYER112
 70
               0
 62
               7
  6
CONTINUOUS
  0
LAYER
  2
LAYER113
 70
               0
 62
               7
  6
CONTINUOUS
  0
LAYER
  2
LAYER114
 70
               0
 62
               7
  6
CONTINUOUS
  0
LAYER
  2
LAYER115
 70
               0
 62
               7
  6
CONTINUOUS
  0
LAYER
  2
LAYER116
 70
               0
 62
               7
  6
CONTINUOUS
  0
LAYER
  2
LAYER117
 70
               0
 62
               7
  6
CONTINUOUS
  0
LAYER
  2
LAYER118
 70
               0
 62
               7
  6
CONTINUOUS
  0
LAYER
  2
LAYER119
 70
               0
 62
               7
  6
CONTINUOUS
  0
LAYER
  2
LAYER120
 70
               0
 62
               7
  6
CONTINUOUS
  0
LAYER
  2
LAYER121
 70
               0
 62
               7
  6
CONTINUOUS
  0
LAYER
  2
LAYER122
 70
               0
 62
               7
  6
CONTINUOUS
  0
LAYER
  2
LAYER123
 70
               0
 62
               7
  6
CONTINUOUS
  0
LAYER
  2
LAYER124
 70
               0
 62
               7
  6
CONTINUOUS
  0
LAYER
  2
LAYER125
 70
               0
 62
               7
  6
CONTINUOUS
  0
LAYER
  2
LAYER126
 70
               0
 62
               7
  6
CONTINUOUS
  0
LAYER
  2
LAYER127
 70
               0
 62
               7
  6
CONTINUOUS
  0
LAYER
  2
LAYER128
 70
               0
 62
               7
  6
CONTINUOUS
  0
LAYER
  2
LAYER129
 70
               0
 62
               7
  6
CONTINUOUS
  0
LAYER
  2
LAYER130
 70
               0
 62
               7
  6
CONTINUOUS
  0
LAYER
  2
LAYER131
 70
               0
 62
               7
  6
CONTINUOUS
  0
LAYER
  2
LAYER132
 70
               0
 62
               7
  6
CONTINUOUS
  0
LAYER
  2
LAYER133
 70
               0
 62
               7
  6
CONTINUOUS
  0
LAYER
  2
LAYER134
 70
               0
 62
               7
  6
CONTINUOUS
  0
LAYER
  2
LAYER135
 70
               0
 62
               7
  6
CONTINUOUS
  0
LAYER
  2
LAYER136
 70
               0
 62
               7
  6
CONTINUOUS
  0
LAYER
  2
LAYER137
 70
               0
 62
               7
  6
CONTINUOUS
  0
LAYER
  2
LAYER138
 70
               0
 62
               7
  6
CONTINUOUS
  0
LAYER
  2
LAYER139
 70
               0
 62
               7
  6
CONTINUOUS
  0
LAYER
  2
LAYER140
 70
               0
 62
               7
  6
CONTINUOUS
  0
LAYER
  2
LAYER141
 70
               0
 62
               7
  6
CONTINUOUS
  0
LAYER
  2
LAYER142
 70
               0
 62
               7
  6
CONTINUOUS
  0
LAYER
  2
LAYER143
 70
               0
 62
               7
  6
CONTINUOUS
  0
LAYER
  2
LAYER144
 70
               0
 62
               7
  6
CONTINUOUS
  0
LAYER
  2
LAYER145
 70
               0
 62
               7
  6
CONTINUOUS
  0
LAYER
  2
LAYER146
 70
               0
 62
               7
  6
CONTINUOUS
  0
LAYER
  2
LAYER147
 70
               0
 62
               7
  6
CONTINUOUS
  0
LAYER
  2
LAYER148
 70
               0
 62
               7
  6
CONTINUOUS
  0
LAYER
  2
LAYER149
 70
               0
 62
               7
  6
CONTINUOUS
  0
LAYER
  2
LAYER150
 70
               0
 62
               7
  6
CONTINUOUS
  0
LAYER
  2
LAYER151
 70
               0
 62
               7
  6
CONTINUOUS
  0
LAYER
  2
LAYER152
 70
               0
 62
               7
  6
CONTINUOUS
  0
LAYER
  2
LAYER153
 70
               0
 62
               7
  6
CONTINUOUS
  0
LAYER
  2
LAYER154
 70
               0
 62
               7
  6
CONTINUOUS
  0
LAYER
  2
LAYER155
 70
               0
 62
               7
  6
CONTINUOUS
  0
LAYER
  2
LAYER156
 70
               0
 62
               7
  6
CONTINUOUS
  0
LAYER
  2
LAYER157
 70
               0
 62
               7
  6
CONTINUOUS
  0
LAYER
  2
LAYER158
 70
               0
 62
               7
  6
CONTINUOUS
  0
LAYER
  2
LAYER159
 70
               0
 62
               7
  6
CONTINUOUS
  0
LAYER
  2
LAYER160
 70
               0
 62
               7
  6
CONTINUOUS
  0
LAYER
  2
LAYER161
 70
               0
 62
               7
  6
CONTINUOUS
  0
LAYER
  2
LAYER162
 70
               0
 62
               7
  6
CONTINUOUS
  0
LAYER
  2
LAYER163
 70
               0
 62
               7
  6
CONTINUOUS
  0
LAYER
  2
LAYER164
 70
               0
 62
               7
  6
CONTINUOUS
  0
LAYER
  2
LAYER165
 70
               0
 62
               7
  6
CONTINUOUS
  0
LAYER
  2
LAYER166
 70
               0
 62
               7
  6
CONTINUOUS
  0
LAYER
  2
LAYER167
 70
               0
 62
               7
  6
CONTINUOUS
  0
LAYER
  2
LAYER168
 70
               0
 62
               7
  6
CONTINUOUS
  0
LAYER
  2
LAYER169
 70
               0
 62
               7
  6
CONTINUOUS
  0
LAYER
  2
LAYER170
 70
               0
 62
               7
  6
CONTINUOUS
  0
LAYER
  2
LAYER171
 70
               0
 62
               7
  6
CONTINUOUS
  0
LAYER
  2
LAYER172
 70
               0
 62
               7
  6
CONTINUOUS
  0
LAYER
  2
LAYER173
 70
               0
 62
               7
  6
CONTINUOUS
  0
LAYER
  2
LAYER174
 70
               0
 62
               7
  6
CONTINUOUS
  0
LAYER
  2
LAYER175
 70
               0
 62
               7
  6
CONTINUOUS
  0
LAYER
  2
LAYER176
 70
               0
 62
               7
  6
CONTINUOUS
  0
LAYER
  2
LAYER177
 70
               0
 62
               7
  6
CONTINUOUS
  0
LAYER
  2
LAYER178
 70
               0
 62
               7
  6
CONTINUOUS
  0
LAYER
  2
LAYER179
 70
               0
 62
               7
  6
CONTINUOUS
  0
LAYER
  2
LAYER180
 70
               0
 62
               7
  6
CONTINUOUS
  0
LAYER
  2
LAYER181
 70
               0
 62
               7
  6
CONTINUOUS
  0
LAYER
  2
LAYER182
 70
               0
 62
               7
  6
CONTINUOUS
  0
LAYER
  2
LAYER183
 70
               0
 62
               7
  6
CONTINUOUS
  0
LAYER
  2
LAYER184
 70
               0
 62
               7
  6
CONTINUOUS
  0
LAYER
  2
LAYER185
 70
               0
 62
               7
  6
CONTINUOUS
  0
LAYER
  2
LAYER186
 70
               0
 62
               7
  6
CONTINUOUS
  0
LAYER
  2
LAYER187
 70
               0
 62
               7
  6
CONTINUOUS
  0
LAYER
  2
LAYER188
 70
               0
 62
               7
  6
CONTINUOUS
  0
LAYER
  2
LAYER189
 70
               0
 62
               7
  6
CONTINUOUS
  0
LAYER
  2
LAYER190
 70
               0
 62
               7
  6
CONTINUOUS
  0
LAYER
  2
LAYER191
 70
               0
 62
               7
  6
CONTINUOUS
  0
LAYER
  2
LAYER192
 70
               0
 62
               7
  6
CONTINUOUS
  0
LAYER
  2
LAYER193
 70
               0
 62
               7
  6
CONTINUOUS
  0
LAYER
  2
LAYER194
 70
               0
 62
               7
  6
CONTINUOUS
  0
LAYER
  2
LAYER195
 70
               0
 62
               7
  6
CONTINUOUS
  0
LAYER
  2
LAYER196
 70
               0
 62
               7
  6
CONTINUOUS
  0
LAYER
  2
LAYER197
 70
               0
 62
               7
  6
CONTINUOUS
  0
LAYER
  2
LAYER198
 70
               0
 62
               7
  6
CONTINUOUS
  0
LAYER
  2
LAYER199
 70
               0
 62
               7
  6
CONTINUOUS
  0
LAYER
  2
LAYER200
 70
               0
 62
               7
  6
CONTINUOUS
  0
LAYER
  2
LAYER201
 70
               0
 62
               7
  6
CONTINUOUS
  0
LAYER
  2
LAYER202
 70
               0
 62
               7
  6
CONTINUOUS
  0
LAYER
  2
LAYER203
 70
               0
 62
               7
  6
CONTINUOUS
  0
LAYER
  2
LAYER204
 70
               0
 62
               7
  6
CONTINUOUS
  0
LAYER
  2
LAYER205
 70
               0
 62
               7
  6
CONTINUOUS
  0
LAYER
  2
LAYER206
 70
               0
 62
               7
  6
CONTINUOUS
  0
LAYER
  2
LAYER207
 70
               0
 62
               7
  6
CONTINUOUS
  0
LAYER
  2
LAYER208
 70
               0
 62
               7
  6
CONTINUOUS
  0
LAYER
  2
LAYER209
 70
               0
 62
               7
  6
CONTINUOUS
  0
LAYER
  2
LAYER210
 70
               0
 62
               7
  6
CONTINUOUS
  0
LAYER
  2
LAYER211
 70
               0
 62
               7
  6
CONTINUOUS
  0
LAYER
  2
LAYER212
 70
               0
 62
               7
  6
CONTINUOUS
  0
LAYER
  2
LAYER213
 70
               0
 62
               7
  6
CONTINUOUS
  0
LAYER
  2
LAYER214
 70
               0
 62
               7
  6
CONTINUOUS
  0
LAYER
  2
LAYER215
 70
               0
 62
               7
  6
CONTINUOUS
  0
LAYER
  2
LAYER216
 70
               0
 62
               7
  6
CONTINUOUS
  0
LAYER
  2
LAYER217
 70
               0
 62
               7
  6
CONTINUOUS
  0
LAYER
  2
LAYER218
 70
               0
 62
               7
  6
CONTINUOUS
  0
LAYER
  2
LAYER219
 70
               0
 62
               7
  6
CONTINUOUS
  0
LAYER
  2
LAYER220
 70
               0
 62
               7
  6
CONTINUOUS
  0
LAYER
  2
LAYER221
 70
               0
 62
               7
  6
CONTINUOUS
  0
LAYER
  2
LAYER222
 70
               0
 62
               7
  6
CONTINUOUS
  0
LAYER
  2
LAYER223
 70
               0
 62
               7
  6
CONTINUOUS
  0
LAYER
  2
LAYER224
 70
               0
 62
               7
  6
CONTINUOUS
  0
LAYER
  2
LAYER225
 70
               0
 62
               7
  6
CONTINUOUS
  0
LAYER
  2
LAYER226
 70
               0
 62
               7
  6
CONTINUOUS
  0
LAYER
  2
LAYER227
 70
               0
 62
               7
  6
CONTINUOUS
  0
LAYER
  2
LAYER228
 70
               0
 62
               7
  6
CONTINUOUS
  0
LAYER
  2
LAYER229
 70
               0
 62
               7
  6
CONTINUOUS
  0
LAYER
  2
LAYER230
 70
               0
 62
               7
  6
CONTINUOUS
  0
LAYER
  2
LAYER231
 70
               0
 62
               7
  6
CONTINUOUS
  0
LAYER
  2
LAYER232
 70
               0
 62
               7
  6
CONTINUOUS
  0
LAYER
  2
LAYER233
 70
               0
 62
               7
  6
CONTINUOUS
  0
LAYER
  2
LAYER234
 70
               0
 62
               7
  6
CONTINUOUS
  0
LAYER
  2
LAYER235
 70
               0
 62
               7
  6
CONTINUOUS
  0
LAYER
  2
LAYER236
 70
               0
 62
               7
  6
CONTINUOUS
  0
LAYER
  2
LAYER237
 70
               0
 62
               7
  6
CONTINUOUS
  0
LAYER
  2
LAYER238
 70
               0
 62
               7
  6
CONTINUOUS
  0
LAYER
  2
LAYER239
 70
               0
 62
               7
  6
CONTINUOUS
  0
LAYER
  2
LAYER240
 70
               0
 62
               7
  6
CONTINUOUS
  0
LAYER
  2
LAYER241
 70
               0
 62
               7
  6
CONTINUOUS
  0
LAYER
  2
LAYER242
 70
               0
 62
               7
  6
CONTINUOUS
  0
LAYER
  2
LAYER243
 70
               0
 62
               7
  6
CONTINUOUS
  0
LAYER
  2
LAYER244
 70
               0
 62
               7
  6
CONTINUOUS
  0
LAYER
  2
LAYER245
 70
               0
 62
               7
  6
CONTINUOUS
  0
LAYER
  2
LAYER246
 70
               0
 62
               7
  6
CONTINUOUS
  0
LAYER
  2
LAYER247
 70
               0
 62
               7
  6
CONTINUOUS
  0
LAYER
  2
LAYER248
 70
               0
 62
               7
  6
CONTINUOUS
  0
LAYER
  2
LAYER249
 70
               0
 62
               7
  6
CONTINUOUS
  0
LAYER
  2
LAYER250
 70
               0
 62
               7
  6
CONTINUOUS
  0
LAYER
  2
LAYER251
 70
               0
 62
               7
  6
CONTINUOUS
  0
LAYER
  2
LAYER252
 70
               0
 62
               7
  6
CONTINUOUS
  0
LAYER
  2
LAYER253
 70
               0
 62
               7
  6
CONTINUOUS
  0
LAYER
  2
LAYER254
 70
               0
 62
               7
  6
CONTINUOUS
  0
LAYER
  2
LAYER255
 70
               0
 62
               7
  6
CONTINUOUS
  0
ENDTAB
  0
TABLE
  2
STYLE
 70
               1
  0
STYLE
  2
STANDARD
 70
               0
 40
0.0
 41
0.8
 50
0.0
 71
               0
 42
40.0
  3
MS PGothic.ttf
  4

  0
ENDTAB
  0
TABLE
  2
VIEW
 70
               0
  0
VIEW
  2
QQQQ
 70
               0
 40
2590.8531913612064
 10
44.924841146320205
 20
-537.08176079692612
 41
1472.3288429547883
 11
0.0
 21
0.0
 31
1.0
 12
100.0
 22
100.0
 32
0.0
 42
50.0
 43
0.0
 44
0.0
 50
0.0
 71
               0
  0
ENDTAB
  0
TABLE
  2
UCS
 70
               0
  0
ENDTAB
  0
TABLE
  2
APPID
 70
               1
  0
APPID
  2
ACAD
 70
               0
  0
ENDTAB
  0
TABLE
  2
DIMSTYLE
 70
               1
  0
DIMSTYLE
  2
STANDARD
 70
               0
  3

  4

  5

  6

  7

 40
1.0
 41
0.18
 42
0.0625
 43
0.38
 44
0.18
 45
0.0
 46
0.0
 47
0.0
 48
0.0
140
0.18
141
0.09
142
0.0
143
25.399999999999999
144
1.0
145
0.0
146
1.0
147
0.09
 71
               0
 72
               0
 73
               1
 74
               1
 75
               0
 76
               0
 77
               0
 78
               0
170
               0
171
               2
172
               0
173
               0
174
               0
175
               0
176
               0
177
               0
178
               0
  0
ENDTAB
  0
ENDSEC
  0
SECTION
  2
BLOCKS
  0
BLOCK
  8
0
  5
140
  2
GROUP_1
 70
               0
 10
0.0
 20
0.0
 30
0.0
  3
GROUP_1
  0
LINE
  8
0
  6
CONTINUOUS
 62
               4
  5
141
 10
-81.96590813917993
 20
462.40328291202428
 30
0.0
 11
-76.481080581878189
 21
452.90328291202439
 31
0.0
  0
LINE
  8
0
  6
CONTINUOUS
 62
               4
  5
142
 10
-76.481080581878189
 20
452.90328291202439
 30
0.0
 11
-65.51142546727516
 21
452.90328291202439
 31
0.0
  0
LINE
  8
0
  6
CONTINUOUS
 62
               4
  5
143
 10
-65.51142546727516
 20
452.90328291202439
 30
0.0
 11
-60.026597909973873
 21
462.40328291202428
 31
0.0
  0
LINE
  8
0
  6
CONTINUOUS
 62
               4
  5
144
 10
-60.026597909973873
 20
462.40328291202428
 30
0.0
 11
-65.51142546727516
 21
471.90328291202417
 31
0.0
  0
LINE
  8
0
  6
CONTINUOUS
 62
               4
  5
145
 10
-65.51142546727516
 20
471.90328291202417
 30
0.0
 11
-76.481080581878189
 21
471.90328291202417
 31
0.0
  0
LINE
  8
0
  6
CONTINUOUS
 62
               4
  5
146
 10
-76.481080581878189
 20
471.90328291202417
 30
0.0
 11
-81.96590813917993
 21
462.40328291202428
 31
0.0
  0
CIRCLE
  8
0
  6
CONTINUOUS
 62
               4
  5
147
 10
-70.996253024576902
 20
462.40328291202428
 30
0.0
 40
6.0000000000000009
  0
ENDBLK
  8
0
  5
148
  0
BLOCK
  8
0
  5
149
  2
GROUP_2
 70
               0
 10
0.0
 20
0.0
 30
0.0
  3
GROUP_2
  0
LINE
  8
0
  6
CONTINUOUS
 62
               4
  5
14A
 10
-81.96590813917993
 20
591.09671708797555
 30
0.0
 11
-76.481080581878189
 21
581.59671708797578
 31
0.0
  0
LINE
  8
0
  6
CONTINUOUS
 62
               4
  5
14B
 10
-76.481080581878189
 20
581.59671708797578
 30
0.0
 11
-65.51142546727516
 21
581.59671708797578
 31
0.0
  0
LINE
  8
0
  6
CONTINUOUS
 62
               4
  5
14C
 10
-65.51142546727516
 20
581.59671708797578
 30
0.0
 11
-60.026597909973873
 21
591.09671708797555
 31
0.0
  0
LINE
  8
0
  6
CONTINUOUS
 62
               4
  5
14D
 10
-60.026597909973873
 20
591.09671708797555
 30
0.0
 11
-65.51142546727516
 21
600.59671708797578
 31
0.0
  0
LINE
  8
0
  6
CONTINUOUS
 62
               4
  5
14E
 10
-65.51142546727516
 20
600.59671708797578
 30
0.0
 11
-76.481080581878189
 21
600.59671708797578
 31
0.0
  0
LINE
  8
0
  6
CONTINUOUS
 62
               4
  5
14F
 10
-76.481080581878189
 20
600.59671708797578
 30
0.0
 11
-81.96590813917993
 21
591.09671708797555
 31
0.0
  0
CIRCLE
  8
0
  6
CONTINUOUS
 62
               4
  5
150
 10
-70.996253024576902
 20
591.09671708797555
 30
0.0
 40
6.0000000000000009
  0
ENDBLK
  8
0
  5
151
  0
BLOCK
  8
0
  5
152
  2
GROUP_3
 70
               0
 10
0.0
 20
0.0
 30
0.0
  3
GROUP_3
  0
LINE
  8
0
  6
CONTINUOUS
 62
               4
  5
153
 10
68.666836265978702
 20
591.09671708797555
 30
0.0
 11
63.182008708677074
 21
581.59671708797578
 31
0.0
  0
LINE
  8
0
  6
CONTINUOUS
 62
               4
  5
154
 10
63.182008708677074
 20
581.59671708797578
 30
0.0
 11
52.212353594073932
 21
581.59671708797578
 31
0.0
  0
LINE
  8
0
  6
CONTINUOUS
 62
               4
  5
155
 10
52.212353594073932
 20
581.59671708797578
 30
0.0
 11
46.727526036772758
 21
591.09671708797555
 31
0.0
  0
LINE
  8
0
  6
CONTINUOUS
 62
               4
  5
156
 10
46.727526036772758
 20
591.09671708797555
 30
0.0
 11
52.212353594073932
 21
600.59671708797578
 31
0.0
  0
LINE
  8
0
  6
CONTINUOUS
 62
               4
  5
157
 10
52.212353594073932
 20
600.59671708797578
 30
0.0
 11
63.182008708677074
 21
600.59671708797578
 31
0.0
  0
LINE
  8
0
  6
CONTINUOUS
 62
               4
  5
158
 10
63.182008708677074
 20
600.59671708797578
 30
0.0
 11
68.666836265978702
 21
591.09671708797555
 31
0.0
  0
CIRCLE
  8
0
  6
CONTINUOUS
 62
               4
  5
159
 10
57.697181151375673
 20
591.09671708797555
 30
0.0
 40
6.0000000000000009
  0
ENDBLK
  8
0
  5
15A
  0
BLOCK
  8
0
  5
15B
  2
GROUP_4
 70
               0
 10
0.0
 20
0.0
 30
0.0
  3
GROUP_4
  0
LINE
  8
0
  6
CONTINUOUS
 62
               4
  5
15C
 10
68.666836265978702
 20
462.40328291202428
 30
0.0
 11
63.182008708677074
 21
452.90328291202439
 31
0.0
  0
LINE
  8
0
  6
CONTINUOUS
 62
               4
  5
15D
 10
63.182008708677074
 20
452.90328291202439
 30
0.0
 11
52.212353594073932
 21
452.90328291202439
 31
0.0
  0
LINE
  8
0
  6
CONTINUOUS
 62
               4
  5
15E
 10
52.212353594073932
 20
452.90328291202439
 30
0.0
 11
46.727526036772758
 21
462.40328291202428
 31
0.0
  0
LINE
  8
0
  6
CONTINUOUS
 62
               4
  5
15F
 10
46.727526036772758
 20
462.40328291202428
 30
0.0
 11
52.212353594073932
 21
471.90328291202417
 31
0.0
  0
LINE
  8
0
  6
CONTINUOUS
 62
               4
  5
160
 10
52.212353594073932
 20
471.90328291202417
 30
0.0
 11
63.182008708677074
 21
471.90328291202417
 31
0.0
  0
LINE
  8
0
  6
CONTINUOUS
 62
               4
  5
161
 10
63.182008708677074
 20
471.90328291202417
 30
0.0
 11
68.666836265978702
 21
462.40328291202428
 31
0.0
  0
CIRCLE
  8
0
  6
CONTINUOUS
 62
               4
  5
162
 10
57.697181151375673
 20
462.40328291202428
 30
0.0
 40
6.0000000000000009
  0
ENDBLK
  8
0
  5
163
  0
BLOCK
  8
0
  5
164
  2
GROUP_5
 70
               0
 10
0.0
 20
0.0
 30
0.0
  3
GROUP_5
  0
LINE
  8
0
  6
CONTINUOUS
 62
               4
  5
165
 10
-81.949535936600398
 20
47.049999999999955
 30
0.0
 11
-81.949535936600398
 21
57.049999999999955
 31
0.0
  0
LINE
  8
0
  6
CONTINUOUS
 62
               4
  5
166
 10
-76.464708379299111
 20
47.049999999999955
 30
0.0
 11
-76.464708379299111
 21
57.049999999999955
 31
0.0
  0
LINE
  8
0
  6
CONTINUOUS
 62
               4
  5
167
 10
-81.949535936600398
 20
47.049999999999955
 30
0.0
 11
-60.049535936600762
 21
47.049999999999955
 31
0.0
  0
LINE
  8
0
  6
CONTINUOUS
 62
               4
  5
168
 10
-81.949535936600398
 20
57.049999999999955
 30
0.0
 11
-60.049535936600762
 21
57.049999999999955
 31
0.0
  0
LINE
  8
0
  6
CONTINUOUS
 62
               4
  5
169
 10
-60.049535936600762
 20
47.049999999999955
 30
0.0
 11
-60.049535936600762
 21
57.049999999999955
 31
0.0
  0
LINE
  8
0
  6
CONTINUOUS
 62
               4
  5
16A
 10
-65.534363493902049
 20
47.049999999999955
 30
0.0
 11
-65.534363493902049
 21
57.049999999999955
 31
0.0
  0
ENDBLK
  8
0
  5
16B
  0
BLOCK
  8
0
  5
16C
  2
GROUP_6
 70
               0
 10
0.0
 20
0.0
 30
0.0
  3
GROUP_6
  0
LINE
  8
0
  6
CONTINUOUS
 62
               4
  5
16D
 10
68.650464063399056
 20
47.049999999999962
 30
0.0
 11
68.650464063399056
 21
57.049999999999962
 31
0.0
  0
LINE
  8
0
  6
CONTINUOUS
 62
               4
  5
16E
 10
63.165636506097769
 20
47.049999999999962
 30
0.0
 11
63.165636506097769
 21
57.049999999999962
 31
0.0
  0
LINE
  8
0
  6
CONTINUOUS
 62
               4
  5
16F
 10
68.650464063399056
 20
47.049999999999962
 30
0.0
 11
46.75046406339942
 21
47.049999999999955
 31
0.0
  0
LINE
  8
0
  6
CONTINUOUS
 62
               4
  5
170
 10
68.650464063399056
 20
57.049999999999962
 30
0.0
 11
46.75046406339942
 21
57.049999999999955
 31
0.0
  0
LINE
  8
0
  6
CONTINUOUS
 62
               4
  5
171
 10
46.75046406339942
 20
47.049999999999955
 30
0.0
 11
46.75046406339942
 21
57.049999999999955
 31
0.0
  0
LINE
  8
0
  6
CONTINUOUS
 62
               4
  5
172
 10
52.235291620700707
 20
47.049999999999962
 30
0.0
 11
52.235291620700707
 21
57.049999999999962
 31
0.0
  0
ENDBLK
  8
0
  5
173
  0
BLOCK
  8
0
  5
174
  2
GROUP_7
 70
               0
 10
0.0
 20
0.0
 30
0.0
  3
GROUP_7
  0
LINE
  8
0
  6
CONTINUOUS
 62
               4
  5
175
 10
418.0504640633996
 20
47.050000000000026
 30
0.0
 11
418.0504640633996
 21
57.050000000000026
 31
0.0
  0
LINE
  8
0
  6
CONTINUOUS
 62
               4
  5
176
 10
423.53529162070089
 20
47.050000000000026
 30
0.0
 11
423.53529162070089
 21
57.050000000000026
 31
0.0
  0
LINE
  8
0
  6
CONTINUOUS
 62
               4
  5
177
 10
418.0504640633996
 20
47.050000000000026
 30
0.0
 11
439.95046406339924
 21
47.050000000000026
 31
0.0
  0
LINE
  8
0
  6
CONTINUOUS
 62
               4
  5
178
 10
418.0504640633996
 20
57.050000000000026
 30
0.0
 11
439.95046406339924
 21
57.050000000000026
 31
0.0
  0
LINE
  8
0
  6
CONTINUOUS
 62
               4
  5
179
 10
439.95046406339924
 20
47.050000000000026
 30
0.0
 11
439.95046406339924
 21
57.050000000000026
 31
0.0
  0
LINE
  8
0
  6
CONTINUOUS
 62
               4
  5
17A
 10
434.46563650609795
 20
47.050000000000026
 30
0.0
 11
434.46563650609795
 21
57.050000000000026
 31
0.0
  0
ENDBLK
  8
0
  5
17B
  0
BLOCK
  8
0
  5
17C
  2
GROUP_8
 70
               0
 10
0.0
 20
0.0
 30
0.0
  3
GROUP_8
  0
LINE
  8
0
  6
CONTINUOUS
 62
               4
  5
17D
 10
568.65046406339911
 20
47.050000000000026
 30
0.0
 11
568.65046406339911
 21
57.050000000000026
 31
0.0
  0
LINE
  8
0
  6
CONTINUOUS
 62
               4
  5
17E
 10
563.16563650609783
 20
47.050000000000026
 30
0.0
 11
563.16563650609783
 21
57.050000000000026
 31
0.0
  0
LINE
  8
0
  6
CONTINUOUS
 62
               4
  5
17F
 10
568.65046406339911
 20
47.050000000000026
 30
0.0
 11
546.75046406339948
 21
47.050000000000026
 31
0.0
  0
LINE
  8
0
  6
CONTINUOUS
 62
               4
  5
180
 10
568.65046406339911
 20
57.050000000000026
 30
0.0
 11
546.75046406339948
 21
57.050000000000026
 31
0.0
  0
LINE
  8
0
  6
CONTINUOUS
 62
               4
  5
181
 10
546.75046406339948
 20
47.050000000000026
 30
0.0
 11
546.75046406339948
 21
57.050000000000026
 31
0.0
  0
LINE
  8
0
  6
CONTINUOUS
 62
               4
  5
182
 10
552.23529162070076
 20
47.050000000000026
 30
0.0
 11
552.23529162070076
 21
57.050000000000026
 31
0.0
  0
ENDBLK
  8
0
  5
183
  0
BLOCK
  8
0
  5
184
  2
GROUP_9
 70
               0
 10
0.0
 20
0.0
 30
0.0
  3
GROUP_9
  0
LINE
  8
0
  6
CONTINUOUS
 62
               4
  5
185
 10
-581.94953593660034
 20
47.050000000000026
 30
0.0
 11
-581.94953593660034
 21
57.050000000000026
 31
0.0
  0
LINE
  8
0
  6
CONTINUOUS
 62
               4
  5
186
 10
-576.46470837929905
 20
47.050000000000026
 30
0.0
 11
-576.46470837929905
 21
57.050000000000026
 31
0.0
  0
LINE
  8
0
  6
CONTINUOUS
 62
               4
  5
187
 10
-581.94953593660034
 20
47.050000000000026
 30
0.0
 11
-560.04953593660071
 21
47.050000000000026
 31
0.0
  0
LINE
  8
0
  6
CONTINUOUS
 62
               4
  5
188
 10
-581.94953593660034
 20
57.050000000000026
 30
0.0
 11
-560.04953593660071
 21
57.050000000000026
 31
0.0
  0
LINE
  8
0
  6
CONTINUOUS
 62
               4
  5
189
 10
-560.04953593660071
 20
47.050000000000026
 30
0.0
 11
-560.04953593660071
 21
57.050000000000026
 31
0.0
  0
LINE
  8
0
  6
CONTINUOUS
 62
               4
  5
18A
 10
-565.53436349390199
 20
47.050000000000026
 30
0.0
 11
-565.53436349390199
 21
57.050000000000026
 31
0.0
  0
ENDBLK
  8
0
  5
18B
  0
BLOCK
  8
0
  5
18C
  2
GROUP_10
 70
               0
 10
0.0
 20
0.0
 30
0.0
  3
GROUP_10
  0
LINE
  8
0
  6
CONTINUOUS
 62
               4
  5
18D
 10
-431.34953593660094
 20
47.050000000000026
 30
0.0
 11
-431.34953593660094
 21
57.050000000000026
 31
0.0
  0
LINE
  8
0
  6
CONTINUOUS
 62
               4
  5
18E
 10
-436.83436349390223
 20
47.050000000000026
 30
0.0
 11
-436.83436349390223
 21
57.050000000000026
 31
0.0
  0
LINE
  8
0
  6
CONTINUOUS
 62
               4
  5
18F
 10
-431.34953593660094
 20
47.050000000000026
 30
0.0
 11
-453.24953593660058
 21
47.050000000000026
 31
0.0
  0
LINE
  8
0
  6
CONTINUOUS
 62
               4
  5
190
 10
-431.34953593660094
 20
57.050000000000026
 30
0.0
 11
-453.24953593660058
 21
57.050000000000026
 31
0.0
  0
LINE
  8
0
  6
CONTINUOUS
 62
               4
  5
191
 10
-453.24953593660058
 20
47.050000000000026
 30
0.0
 11
-453.24953593660058
 21
57.050000000000026
 31
0.0
  0
LINE
  8
0
  6
CONTINUOUS
 62
               4
  5
192
 10
-447.76470837929929
 20
47.050000000000026
 30
0.0
 11
-447.76470837929929
 21
57.050000000000026
 31
0.0
  0
ENDBLK
  8
0
  5
193
  0
ENDSEC
  0
SECTION
  2
ENTITIES
  0
CIRCLE
  8
0
  6
CONTINUOUS
 62
               3
  5
194
 10
-6.649535936600671
 20
526.75
 30
0.0
 40
75.0
  0
LINE
  8
0
  6
CONTINUOUS
 62
               3
  5
195
 10
-92.860034137226023
 20
546.75
 30
0.0
 11
-78.933697410606158
 21
546.75
 31
0.0
  0
LINE
  8
0
  6
CONTINUOUS
 62
               3
  5
196
 10
-78.933697410606158
 20
506.74999999999994
 30
0.0
 11
-92.860034137226023
 21
506.74999999999994
 31
0.0
  0
ARC
  8
0
  6
CONTINUOUS
 62
               3
  5
197
 10
-6.649535936600671
 20
526.75
 30
0.0
 40
88.5
 50
166.9389758851672
 51
193.0610241147632
  0
LINE
  8
0
  6
CONTINUOUS
 62
               3
  5
198
 10
-26.649535936600671
 20
440.53950179937505
 30
0.0
 11
-26.649535936600671
 21
454.46583852599491
 31
0.0
  0
LINE
  8
0
  6
CONTINUOUS
 62
               3
  5
199
 10
13.350464063399329
 20
454.46583852599491
 30
0.0
 11
13.350464063399329
 21
440.53950179937505
 31
0.0
  0
ARC
  8
0
  6
CONTINUOUS
 62
               3
  5
19A
 10
-6.649535936600671
 20
526.75
 30
0.0
 40
88.5
 50
256.93897588514983
 51
283.06102411474581
  0
LINE
  8
0
  6
CONTINUOUS
 62
               3
  5
19B
 10
79.560962264023772
 20
506.74999999999994
 30
0.0
 11
65.634625537403451
 21
506.74999999999994
 31
0.0
  0
LINE
  8
0
  6
CONTINUOUS
 62
               3
  5
19C
 10
65.634625537403451
 20
546.75
 30
0.0
 11
79.560962264023772
 21
546.75
 31
0.0
  0
ARC
  8
0
  6
CONTINUOUS
 62
               3
  5
19D
 10
-6.649535936600671
 20
526.75
 30
0.0
 40
88.5
 50
346.93897588513238
 51
373.06102411472841
  0
LINE
  8
0
  6
CONTINUOUS
 62
               3
  5
19E
 10
13.350464063399329
 20
612.96049820062558
 30
0.0
 11
13.350464063399329
 21
599.0341614740048
 31
0.0
  0
LINE
  8
0
  6
CONTINUOUS
 62
               3
  5
19F
 10
-26.649535936600671
 20
599.0341614740048
 30
0.0
 11
-26.649535936600671
 21
612.96049820062558
 31
0.0
  0
ARC
  8
0
  6
CONTINUOUS
 62
               3
  5
1A0
 10
-6.649535936600671
 20
526.75
 30
0.0
 40
88.5
 50
76.938975885184604
 51
103.06102411478064
  0
ARC
  8
0
  6
CONTINUOUS
 62
               3
  5
1A1
 10
-70.996253024575992
 20
591.09671708797555
 30
0.0
 40
17.5
 50
97.816433606452236
 51
172.1835663934956
  0
LINE
  8
0
  6
CONTINUOUS
 62
               3
  5
1A2
 10
-88.333658314424895
 20
593.47671242736715
 30
0.0
 11
-95.813334570108339
 21
538.9899760311564
 31
0.0
  0
ARC
  8
0
  6
CONTINUOUS
 62
               3
  5
1A3
 10
57.69718115137556
 20
591.09671708797555
 30
0.0
 40
17.5
 50
7.8164336064694728
 51
82.183566393513019
  0
ARC
  8
0
  6
CONTINUOUS
 62
               3
  5
1A4
 10
57.69718115137556
 20
462.40328291202428
 30
0.0
 40
17.5
 50
277.81643360641743
 51
352.18356639346075
  0
ARC
  8
0
  6
CONTINUOUS
 62
               3
  5
1A5
 10
-70.996253024575992
 20
462.40328291202428
 30
0.0
 40
17.5
 50
187.81643360643486
 51
262.1835663934782
  0
LINE
  8
0
  6
CONTINUOUS
 62
               3
  5
1A6
 10
-88.333658314424895
 20
460.02328757263268
 30
0.0
 11
-95.813334570108395
 21
514.5100239688436
 31
0.0
  0
LINE
  8
0
  6
CONTINUOUS
 62
               3
  5
1A7
 10
75.034586441224008
 20
460.02328757263268
 30
0.0
 11
82.514262696907451
 21
514.51002396884337
 31
0.0
  0
ARC
  8
0
  6
CONTINUOUS
 62
               3
  5
1A8
 10
-6.649535936600671
 20
526.75
 30
0.0
 40
90.0
 50
352.18356639346075
 51
367.81643360639998
  0
LINE
  8
0
  6
CONTINUOUS
 62
               3
  5
1A9
 10
75.034586441224008
 20
593.47671242736715
 30
0.0
 11
82.514262696907451
 21
538.9899760311564
 31
0.0
  0
LINE
  8
0
  6
CONTINUOUS
 62
               3
  5
1AA
 10
60.077176490766931
 20
608.43412237782468
 30
0.0
 11
5.5904400945561861
 21
615.91379863350744
 31
0.0
  0
ARC
  8
0
  6
CONTINUOUS
 62
               3
  5
1AB
 10
-6.649535936600671
 20
526.75
 30
0.0
 40
90.0
 50
82.183566393512962
 51
97.816433606452264
  0
LINE
  8
0
  6
CONTINUOUS
 62
               3
  5
1AC
 10
-73.376248363967818
 20
608.43412237782468
 30
0.0
 11
-18.889511967757073
 21
615.91379863350744
 31
0.0
  0
LINE
  8
0
  6
CONTINUOUS
 62
               3
  5
1AD
 10
60.077176490766931
 20
445.06587762217504
 30
0.0
 11
5.590440094555845
 21
437.58620136649239
 31
0.0
  0
LINE
  8
0
  6
CONTINUOUS
 62
               3
  5
1AE
 10
-73.376248363967818
 20
445.06587762217504
 30
0.0
 11
-18.889511967757187
 21
437.58620136649239
 31
0.0
  0
ARC
  8
0
  6
CONTINUOUS
 62
               3
  5
1AF
 10
-6.649535936600671
 20
526.75
 30
0.0
 40
90.0
 50
262.1835663934782
 51
277.81643360641743
  0
ARC
  8
0
  6
CONTINUOUS
 62
               3
  5
1B0
 10
-6.649535936600671
 20
526.75
 30
0.0
 40
90.0
 50
172.18356639349557
 51
187.8164336064348
  0
ARC
  8
0
  6
CONTINUOUS
 62
               3
  5
1B1
 10
48.350464063398874
 20
165.75000000000051
 30
0.0
 40
19.999999999999996
 50
0.0
 51
31.788330617045627
  0
LINE
  8
0
  6
CONTINUOUS
 62
               3
  5
1B2
 10
65.350464063398874
 20
251.16742430504507
 30
0.0
 11
65.350464063398874
 21
176.28565375285325
 31
0.0
  0
ARC
  8
0
  6
CONTINUOUS
 62
               3
  5
1B3
 10
-61.649535936600671
 20
165.75000000000051
 30
0.0
 40
19.999999999999996
 50
148.21166938291961
 51
179.99999999996524
  0
LINE
  8
0
  6
CONTINUOUS
 62
               3
  5
1B4
 10
-78.649535936601126
 20
176.28565375285325
 30
0.0
 11
-78.649535936601126
 21
251.16742430504507
 31
0.0
  0
ARC
  8
0
  6
CONTINUOUS
 62
               3
  5
1B5
 10
-71.649535936600671
 20
-115.74999999999991
 30
0.0
 40
2.4999999999999996
 50
89.999999999982535
 51
269.99999999994793
  0
LINE
  8
0
  6
CONTINUOUS
 62
               3
  5
1B6
 10
-96.649535936600671
 20
26.750000000000014
 30
0.0
 11
-96.649535936600671
 21
44.749999999999986
 31
0.0
  0
LINE
  8
0
  6
CONTINUOUS
 62
               3
  5
1B7
 10
83.350464063399329
 20
26.750000000000014
 30
0.0
 11
83.350464063399329
 21
44.749999999999986
 31
0.0
  0
LINE
  8
0
  6
CONTINUOUS
 62
               3
  5
1B8
 10
83.350464063398874
 20
44.750000000001123
 30
0.0
 11
-96.649535936601126
 21
44.749999999999986
 31
0.0
  0
LINE
  8
0
  6
CONTINUOUS
 62
               3
  5
1B9
 10
-81.649535936600671
 20
57.049999999999955
 30
0.0
 11
-81.649535936600671
 21
165.75000000000051
 31
0.0
  0
LINE
  8
0
  6
CONTINUOUS
 62
               3
  5
1BA
 10
68.350464063398874
 20
165.75000000000051
 30
0.0
 11
68.350464063398874
 21
57.049999999999962
 31
0.0
  0
ARC
  8
0
  6
CONTINUOUS
 62
               3
  5
1BB
 10
-86.649535936601126
 20
49.749999999999986
 30
0.0
 40
5.0
 50
327.31636115368025
 51
340.05155641115505
  0
ARC
  8
0
  6
CONTINUOUS
 62
               3
  5
1BC
 10
-86.649535936601126
 20
49.749999999999986
 30
0.0
 40
5.0
 50
269.99999999994782
 51
302.00545482770701
  0
LINE
  8
0
  6
CONTINUOUS
 62
               3
  5
1BD
 10
83.350464063399784
 20
21.749999999999943
 30
0.0
 11
83.350464063399784
 21
0.7500000000000711
 31
0.0
  0
LINE
  8
0
  6
CONTINUOUS
 62
               3
  5
1BE
 10
-96.649535936601126
 20
21.749999999999943
 30
0.0
 11
-96.649535936601126
 21
0.7500000000000711
 31
0.0
  0
LINE
  8
0
  6
CONTINUOUS
 62
               3
  5
1BF
 10
65.350464063398874
 20
176.28565375285325
 30
0.0
 11
5.0774640633995318
 21
176.28565375285331
 31
0.0
  0
LINE
  8
0
  6
CONTINUOUS
 62
               3
  5
1C0
 10
-18.376535936600192
 20
176.28565375285325
 30
0.0
 11
-78.649535936601126
 21
176.28565375285325
 31
0.0
  0
LINE
  8
0
  6
CONTINUOUS
 62
               3
  5
1C1
 10
83.350464063399784
 20
26.749999999999943
 30
0.0
 11
-96.649535936600216
 21
26.749999999999943
 31
0.0
  0
LINE
  8
0
  6
CONTINUOUS
 62
               3
  5
1C2
 10
79.350464063399784
 20
26.749999999999943
 30
0.0
 11
79.350464063399784
 21
21.749999999999943
 31
0.0
  0
LINE
  8
0
  6
CONTINUOUS
 62
               3
  5
1C3
 10
-96.649535936601126
 20
21.749999999999943
 30
0.0
 11
83.350464063399784
 21
21.749999999999943
 31
0.0
  0
LINE
  8
0
  6
CONTINUOUS
 62
               3
  5
1C4
 10
-92.649535936601126
 20
26.749999999999943
 30
0.0
 11
-92.649535936601126
 21
21.749999999999943
 31
0.0
  0
LINE
  8
0
  6
CONTINUOUS
 62
               3
  5
1C5
 10
68.350464063399329
 20
272.75000000000051
 30
0.0
 11
-81.649535936600671
 21
272.75000000000051
 31
0.0
  0
LINE
  8
0
  6
CONTINUOUS
 62
               3
  5
1C6
 10
81.850464063399784
 20
262.75000000000051
 30
0.0
 11
81.850464063399784
 21
255.7500000000008
 31
0.0
  0
LINE
  8
0
  6
CONTINUOUS
 62
               3
  5
1C7
 10
81.850464063399784
 20
262.75000000000051
 30
0.0
 11
68.350464063399329
 21
272.75000000000051
 31
0.0
  0
ARC
  8
0
  6
CONTINUOUS
 62
               3
  5
1C8
 10
70.350464063399329
 20
251.16742430504507
 30
0.0
 40
4.9999999999999991
 50
113.57817847817988
 51
179.99999999996507
  0
LINE
  8
0
  6
CONTINUOUS
 62
               3
  5
1C9
 10
81.850464063399784
 20
255.7500000000008
 30
0.0
 11
-95.149535936600216
 21
255.7500000000008
 31
0.0
  0
LINE
  8
0
  6
CONTINUOUS
 62
               3
  5
1CA
 10
13.350464063399329
 20
255.7500000000008
 30
0.0
 11
13.350464063399329
 21
272.75000000000051
 31
0.0
  0
LINE
  8
0
  6
CONTINUOUS
 62
               3
  5
1CB
 10
-26.649535936600671
 20
272.75000000000051
 30
0.0
 11
-26.649535936600671
 21
255.7500000000008
 31
0.0
  0
LINE
  8
0
  6
CONTINUOUS
 62
               3
  5
1CC
 10
13.350464063399329
 20
262.75000000000051
 30
0.0
 11
-26.649535936600671
 21
262.75000000000051
 31
0.0
  0
LINE
  8
0
  6
CONTINUOUS
 62
               3
  5
1CD
 10
65.634625537404816
 20
272.75000000000051
 30
0.0
 11
65.634625537404816
 21
255.7500000000008
 31
0.0
  0
LINE
  8
0
  6
CONTINUOUS
 62
               3
  5
1CE
 10
-95.149535936600216
 20
262.75000000000051
 30
0.0
 11
-95.149535936600216
 21
255.7500000000008
 31
0.0
  0
LINE
  8
0
  6
CONTINUOUS
 62
               3
  5
1CF
 10
-95.149535936600216
 20
262.75000000000051
 30
0.0
 11
-81.649535936600671
 21
272.75000000000051
 31
0.0
  0
ARC
  8
0
  6
CONTINUOUS
 62
               3
  5
1D0
 10
-83.649535936600671
 20
251.16742430504507
 30
0.0
 40
4.9999999999999991
 50
0.0
 51
66.421821521785446
  0
LINE
  8
0
  6
CONTINUOUS
 62
               3
  5
1D1
 10
-78.933697410604793
 20
272.75000000000051
 30
0.0
 11
-78.933697410604793
 21
255.7500000000008
 31
0.0
  0
ARC
  8
0
  6
CONTINUOUS
 62
               3
  5
1D2
 10
73.35046406339967
 20
49.749999999999993
 30
0.0
 40
5.0
 50
199.94844358874056
 51
212.68363884621539
  0
ARC
  8
0
  6
CONTINUOUS
 62
               3
  5
1D3
 10
73.35046406339967
 20
49.749999999999993
 30
0.0
 40
5.0
 50
237.99454517218854
 51
269.99999999994782
  0
LINE
  8
0
  6
CONTINUOUS
 62
               3
  5
1D4
 10
-81.649535936600216
 20
-231.25000000000006
 30
0.0
 11
68.350464063399329
 21
-231.24999999999983
 31
0.0
  0
LINE
  8
0
  6
CONTINUOUS
 62
               3
  5
1D5
 10
-79.37082377056737
 20
-251.24999999999994
 30
0.0
 11
66.071751897367392
 21
-251.24999999999994
 31
0.0
  0
LINE
  8
0
  6
CONTINUOUS
 62
               3
  5
1D6
 10
-81.649535936601254
 20
-132.17575586106679
 30
0.0
 11
-81.649535936600216
 21
-231.25000000000006
 31
0.0
  0
LINE
  8
0
  6
CONTINUOUS
 62
               3
  5
1D7
 10
51.350464063399784
 20
-380.45708506678932
 30
0.0
 11
68.350464063399329
 21
-231.25000000000904
 31
0.0
  0
LINE
  8
0
  6
CONTINUOUS
 62
               3
  5
1D8
 10
-64.649535936600216
 20
-380.45708506678932
 30
0.0
 11
-81.649535936600216
 21
-231.25000000000006
 31
0.0
  0
LINE
  8
0
  6
CONTINUOUS
 62
               3
  5
1D9
 10
565.35046406339939
 20
251.16742430504507
 30
0.0
 11
565.35046406339939
 21
181.28565375285325
 31
0.0
  0
LINE
  8
0
  6
CONTINUOUS
 62
               3
  5
1DA
 10
421.35046406339933
 20
181.28565375285393
 30
0.0
 11
421.35046406339933
 21
251.16742430504507
 31
0.0
  0
LINE
  8
0
  6
CONTINUOUS
 62
               3
  5
1DB
 10
564.85046406339984
 20
176.28565375285325
 30
0.0
 11
421.85046406339887
 21
176.28565375285325
 31
0.0
  0
LINE
  8
0
  6
CONTINUOUS
 62
               3
  5
1DC
 10
403.35046406339933
 20
44.750000000001265
 30
0.0
 11
583.35046406339939
 21
44.749999999999986
 31
0.0
  0
LINE
  8
0
  6
CONTINUOUS
 62
               3
  5
1DD
 10
583.35046406339984
 20
21.750000000000014
 30
0.0
 11
583.35046406339984
 21
0.7500000000000711
 31
0.0
  0
LINE
  8
0
  6
CONTINUOUS
 62
               3
  5
1DE
 10
583.35046406339984
 20
26.750000000000014
 30
0.0
 11
583.35046406339984
 21
44.749999999999986
 31
0.0
  0
LINE
  8
0
  6
CONTINUOUS
 62
               3
  5
1DF
 10
403.35046406339978
 20
26.750000000000014
 30
0.0
 11
403.35046406339978
 21
44.749999999999986
 31
0.0
  0
LINE
  8
0
  6
CONTINUOUS
 62
               3
  5
1E0
 10
583.35046406339984
 20
26.750000000000014
 30
0.0
 11
403.35046406339978
 21
26.750000000000014
 31
0.0
  0
LINE
  8
0
  6
CONTINUOUS
 62
               3
  5
1E1
 10
579.35046406339984
 20
26.750000000000014
 30
0.0
 11
579.35046406339984
 21
21.750000000000014
 31
0.0
  0
LINE
  8
0
  6
CONTINUOUS
 62
               3
  5
1E2
 10
403.35046406339887
 20
21.750000000000014
 30
0.0
 11
583.35046406339984
 21
21.750000000000014
 31
0.0
  0
LINE
  8
0
  6
CONTINUOUS
 62
               3
  5
1E3
 10
403.35046406339887
 20
21.750000000000014
 30
0.0
 11
403.35046406339887
 21
0.7500000000000711
 31
0.0
  0
LINE
  8
0
  6
CONTINUOUS
 62
               3
  5
1E4
 10
407.35046406339887
 20
26.750000000000014
 30
0.0
 11
407.35046406339887
 21
21.750000000000014
 31
0.0
  0
ARC
  8
0
  6
CONTINUOUS
 62
               3
  5
1E5
 10
568.35046406339893
 20
-115.75
 30
0.0
 40
2.4999999999999996
 50
269.99999999994731
 51
449.99999999991297
  0
LINE
  8
0
  6
CONTINUOUS
 62
               3
  5
1E6
 10
568.35046406339893
 20
-113.25
 30
0.0
 11
568.35046406339893
 21
-72.250000000000057
 31
0.0
  0
LINE
  8
0
  6
CONTINUOUS
 62
               3
  5
1E7
 10
568.35046406339939
 20
272.75000000000051
 30
0.0
 11
418.35046406339933
 21
272.75000000000051
 31
0.0
  0
LINE
  8
0
  6
CONTINUOUS
 62
               3
  5
1E8
 10
581.85046406339984
 20
262.75000000000051
 30
0.0
 11
581.85046406339984
 21
255.7500000000008
 31
0.0
  0
LINE
  8
0
  6
CONTINUOUS
 62
               3
  5
1E9
 10
581.85046406339984
 20
262.75000000000051
 30
0.0
 11
568.35046406339939
 21
272.75000000000051
 31
0.0
  0
ARC
  8
0
  6
CONTINUOUS
 62
               3
  5
1EA
 10
570.35046406339939
 20
251.16742430504507
 30
0.0
 40
4.9999999999999991
 50
113.57817847818016
 51
179.99999999996507
  0
LINE
  8
0
  6
CONTINUOUS
 62
               3
  5
1EB
 10
581.85046406339984
 20
255.7500000000008
 30
0.0
 11
404.85046406339978
 21
255.7500000000008
 31
0.0
  0
LINE
  8
0
  6
CONTINUOUS
 62
               3
  5
1EC
 10
513.35046406339939
 20
255.7500000000008
 30
0.0
 11
513.35046406339939
 21
272.75000000000051
 31
0.0
  0
LINE
  8
0
  6
CONTINUOUS
 62
               3
  5
1ED
 10
473.35046406339933
 20
272.75000000000051
 30
0.0
 11
473.35046406339933
 21
255.7500000000008
 31
0.0
  0
LINE
  8
0
  6
CONTINUOUS
 62
               3
  5
1EE
 10
513.35046406339939
 20
262.75000000000051
 30
0.0
 11
473.35046406339933
 21
262.75000000000051
 31
0.0
  0
LINE
  8
0
  6
CONTINUOUS
 62
               3
  5
1EF
 10
565.63462553740487
 20
272.75000000000051
 30
0.0
 11
565.63462553740487
 21
255.7500000000008
 31
0.0
  0
LINE
  8
0
  6
CONTINUOUS
 62
               3
  5
1F0
 10
404.85046406339978
 20
262.75000000000051
 30
0.0
 11
404.85046406339978
 21
255.7500000000008
 31
0.0
  0
LINE
  8
0
  6
CONTINUOUS
 62
               3
  5
1F1
 10
404.85046406339978
 20
262.75000000000051
 30
0.0
 11
418.35046406339933
 21
272.75000000000051
 31
0.0
  0
ARC
  8
0
  6
CONTINUOUS
 62
               3
  5
1F2
 10
416.35046406339933
 20
251.16742430504507
 30
0.0
 40
4.9999999999999991
 50
0.0
 51
66.421821521785304
  0
LINE
  8
0
  6
CONTINUOUS
 62
               3
  5
1F3
 10
421.06630258939521
 20
272.75000000000051
 30
0.0
 11
421.06630258939521
 21
255.7500000000008
 31
0.0
  0
LINE
  8
0
  6
CONTINUOUS
 62
               3
  5
1F4
 10
418.35046406339978
 20
-231.25000000000006
 30
0.0
 11
568.35046406339939
 21
-231.24999999999983
 31
0.0
  0
LINE
  8
0
  6
CONTINUOUS
 62
               3
  5
1F5
 10
420.62917622943263
 20
-251.24999999999994
 30
0.0
 11
566.07175189736745
 21
-251.24999999999994
 31
0.0
  0
LINE
  8
0
  6
CONTINUOUS
 62
               3
  5
1F6
 10
568.35046406339939
 20
-231.25000000000904
 30
0.0
 11
568.35046406339893
 21
-118.25
 31
0.0
  0
LINE
  8
0
  6
CONTINUOUS
 62
               3
  5
1F7
 10
551.35046406339984
 20
-380.45708506678932
 30
0.0
 11
568.35046406339939
 21
-231.25000000000904
 31
0.0
  0
LINE
  8
0
  6
CONTINUOUS
 62
               3
  5
1F8
 10
435.35046406339978
 20
-380.45708506678932
 30
0.0
 11
418.35046406339978
 21
-231.25000000000006
 31
0.0
  0
LINE
  8
0
  6
CONTINUOUS
 62
               3
  5
1F9
 10
-564.64953593660016
 20
-380.45708506678932
 30
0.0
 11
-581.64953593660016
 21
-231.25000000000006
 31
0.0
  0
LINE
  8
0
  6
CONTINUOUS
 62
               3
  5
1FA
 10
-581.64953593660016
 20
-118.25
 30
0.0
 11
-581.64953593660016
 21
-231.25000000000006
 31
0.0
  0
ARC
  8
0
  6
CONTINUOUS
 62
               3
  5
1FB
 10
-581.64953593660016
 20
-115.75
 30
0.0
 40
2.4999999999999996
 50
89.999999999981569
 51
269.99999999994731
  0
LINE
  8
0
  6
CONTINUOUS
 62
               3
  5
1FC
 10
-448.64953593660022
 20
-380.45708506678932
 30
0.0
 11
-431.64953593660067
 21
-231.25000000000904
 31
0.0
  0
LINE
  8
0
  6
CONTINUOUS
 62
               3
  5
1FD
 10
-581.64953593660016
 20
-118.25
 30
0.0
 11
-529.14953593660016
 21
-118.25
 31
0.0
  0
LINE
  8
0
  6
CONTINUOUS
 62
               3
  5
1FE
 10
-581.64953593660016
 20
-113.25
 30
0.0
 11
-529.14953593660016
 21
-113.25
 31
0.0
  0
ARC
  8
0
  6
CONTINUOUS
 62
               3
  5
1FF
 10
-529.14953593660016
 20
-115.75
 30
0.0
 40
2.4999999999999996
 50
269.99999999994731
 51
449.99999999991297
  0
ARC
  8
0
  6
CONTINUOUS
 62
               3
  5
200
 10
-484.14953593660022
 20
-115.75
 30
0.0
 40
2.4999999999999996
 50
89.999999999982862
 51
269.99999999994731
  0
LINE
  8
0
  6
CONTINUOUS
 62
               3
  5
201
 10
-416.64953593660022
 20
21.750000000000014
 30
0.0
 11
-416.64953593660022
 21
0.7500000000000711
 31
0.0
  0
LINE
  8
0
  6
CONTINUOUS
 62
               3
  5
202
 10
-581.64953593660016
 20
-72.250000000000057
 30
0.0
 11
-581.64953593660016
 21
-113.25
 31
0.0
  0
LINE
  8
0
  6
CONTINUOUS
 62
               3
  5
203
 10
-581.64953593660016
 20
-231.25000000000006
 30
0.0
 11
-431.64953593660067
 21
-231.24999999999983
 31
0.0
  0
LINE
  8
0
  6
CONTINUOUS
 62
               3
  5
204
 10
-579.37082377056731
 20
-251.24999999999994
 30
0.0
 11
-433.92824810263261
 21
-251.24999999999994
 31
0.0
  0
LINE
  8
0
  6
CONTINUOUS
 62
               3
  5
205
 10
-596.64953593660107
 20
21.750000000000014
 30
0.0
 11
-596.64953593660107
 21
0.7500000000000711
 31
0.0
  0
LINE
  8
0
  6
CONTINUOUS
 62
               3
  5
206
 10
-431.64953593660067
 20
272.75000000000051
 30
0.0
 11
-581.64953593660061
 21
272.75000000000051
 31
0.0
  0
LINE
  8
0
  6
CONTINUOUS
 62
               3
  5
207
 10
-418.14953593660022
 20
262.75000000000051
 30
0.0
 11
-418.14953593660022
 21
255.7500000000008
 31
0.0
  0
LINE
  8
0
  6
CONTINUOUS
 62
               3
  5
208
 10
-418.14953593660022
 20
262.75000000000051
 30
0.0
 11
-431.64953593660067
 21
272.75000000000051
 31
0.0
  0
ARC
  8
0
  6
CONTINUOUS
 62
               3
  5
209
 10
-429.64953593660067
 20
251.16742430504507
 30
0.0
 40
4.9999999999999991
 50
113.57817847817958
 51
179.99999999996507
  0
LINE
  8
0
  6
CONTINUOUS
 62
               3
  5
20A
 10
-418.14953593660022
 20
255.7500000000008
 30
0.0
 11
-595.14953593660016
 21
255.7500000000008
 31
0.0
  0
LINE
  8
0
  6
CONTINUOUS
 62
               3
  5
20B
 10
-434.64953593660067
 20
251.16742430504507
 30
0.0
 11
-434.64953593660067
 21
181.28565375285325
 31
0.0
  0
LINE
  8
0
  6
CONTINUOUS
 62
               3
  5
20C
 10
-578.64953593660061
 20
181.28565375285393
 30
0.0
 11
-578.64953593660061
 21
251.16742430504507
 31
0.0
  0
LINE
  8
0
  6
CONTINUOUS
 62
               3
  5
20D
 10
-435.14953593660022
 20
176.28565375285325
 30
0.0
 11
-578.14953593660107
 21
176.28565375285325
 31
0.0
  0
LINE
  8
0
  6
CONTINUOUS
 62
               3
  5
20E
 10
-486.64953593660067
 20
255.7500000000008
 30
0.0
 11
-486.64953593660067
 21
272.75000000000051
 31
0.0
  0
LINE
  8
0
  6
CONTINUOUS
 62
               3
  5
20F
 10
-526.64953593660061
 20
272.75000000000051
 30
0.0
 11
-526.64953593660061
 21
255.7500000000008
 31
0.0
  0
LINE
  8
0
  6
CONTINUOUS
 62
               3
  5
210
 10
-486.64953593660067
 20
262.75000000000051
 30
0.0
 11
-526.64953593660061
 21
262.75000000000051
 31
0.0
  0
LINE
  8
0
  6
CONTINUOUS
 62
               3
  5
211
 10
-434.36537446259518
 20
272.75000000000051
 30
0.0
 11
-434.36537446259518
 21
255.7500000000008
 31
0.0
  0
LINE
  8
0
  6
CONTINUOUS
 62
               3
  5
212
 10
-595.14953593660016
 20
262.75000000000051
 30
0.0
 11
-595.14953593660016
 21
255.7500000000008
 31
0.0
  0
LINE
  8
0
  6
CONTINUOUS
 62
               3
  5
213
 10
-595.14953593660016
 20
262.75000000000051
 30
0.0
 11
-581.64953593660061
 21
272.75000000000051
 31
0.0
  0
ARC
  8
0
  6
CONTINUOUS
 62
               3
  5
214
 10
-583.64953593660061
 20
251.16742430504507
 30
0.0
 40
4.9999999999999991
 50
0.0
 51
66.421821521785304
  0
LINE
  8
0
  6
CONTINUOUS
 62
               3
  5
215
 10
-578.93369741060474
 20
272.75000000000051
 30
0.0
 11
-578.93369741060474
 21
255.7500000000008
 31
0.0
  0
LINE
  8
0
  6
CONTINUOUS
 62
               3
  5
216
 10
-596.64953593660061
 20
44.750000000001265
 30
0.0
 11
-416.64953593660067
 21
44.749999999999986
 31
0.0
  0
LINE
  8
0
  6
CONTINUOUS
 62
               3
  5
217
 10
-416.64953593660022
 20
26.750000000000014
 30
0.0
 11
-416.64953593660022
 21
44.749999999999986
 31
0.0
  0
LINE
  8
0
  6
CONTINUOUS
 62
               3
  5
218
 10
-596.64953593660016
 20
26.750000000000014
 30
0.0
 11
-596.64953593660016
 21
44.749999999999986
 31
0.0
  0
LINE
  8
0
  6
CONTINUOUS
 62
               3
  5
219
 10
-416.64953593660022
 20
26.750000000000014
 30
0.0
 11
-596.64953593660016
 21
26.750000000000014
 31
0.0
  0
LINE
  8
0
  6
CONTINUOUS
 62
               3
  5
21A
 10
-420.64953593660022
 20
26.750000000000014
 30
0.0
 11
-420.64953593660022
 21
21.750000000000014
 31
0.0
  0
LINE
  8
0
  6
CONTINUOUS
 62
               3
  5
21B
 10
-596.64953593660107
 20
21.750000000000014
 30
0.0
 11
-416.64953593660022
 21
21.750000000000014
 31
0.0
  0
LINE
  8
0
  6
CONTINUOUS
 62
               3
  5
21C
 10
-592.64953593660107
 20
26.750000000000014
 30
0.0
 11
-592.64953593660107
 21
21.750000000000014
 31
0.0
  0
LINE
  8
0
  6
CONTINUOUS
 62
               3
  5
21D
 10
-143.64953593660044
 20
469.14999999999992
 30
0.0
 11
-143.64953593660044
 21
584.34999999999991
 31
0.0
  0
LINE
  8
0
  6
CONTINUOUS
 62
               3
  5
21E
 10
-143.64953593660044
 20
584.34999999999991
 30
0.0
 11
-146.64953593660056
 21
581.35000000000036
 31
0.0
  0
LINE
  8
0
  6
CONTINUOUS
 62
               3
  5
21F
 10
-143.64953593660044
 20
469.14999999999992
 30
0.0
 11
-146.64953593660056
 21
472.14999999999992
 31
0.0
  0
LINE
  8
0
  6
CONTINUOUS
 62
               3
  5
220
 10
-151.64953593660056
 20
581.85000000000014
 30
0.0
 11
-151.64953593660056
 21
471.64999999999992
 31
0.0
  0
LINE
  8
0
  6
CONTINUOUS
 62
               3
  5
221
 10
-146.64953593660056
 20
469.14999999999992
 30
0.0
 11
-146.64953593660056
 21
584.35000000000014
 31
0.0
  0
LINE
  8
0
  6
CONTINUOUS
 62
               3
  5
222
 10
-146.64953593660056
 20
584.35000000000014
 30
0.0
 11
-149.14953593660056
 21
584.35000000000014
 31
0.0
  0
LINE
  8
0
  6
CONTINUOUS
 62
               3
  5
223
 10
-146.64953593660056
 20
469.14999999999992
 30
0.0
 11
-149.14953593660056
 21
469.14999999999992
 31
0.0
  0
ARC
  8
0
  6
CONTINUOUS
 62
               3
  5
224
 10
-149.14953593660056
 20
471.64999999999992
 30
0.0
 40
2.5
 50
179.99999999996572
 51
269.99999999994793
  0
ARC
  8
0
  6
CONTINUOUS
 62
               3
  5
225
 10
-149.14953593660056
 20
581.85000000000014
 30
0.0
 40
2.5
 50
89.999999999982862
 51
179.99999999996572
  0
LINE
  8
0
  6
CONTINUOUS
 62
               3
  5
226
 10
-89.329203239509269
 20
467.27547229953717
 30
0.0
 11
-143.64953593660044
 21
469.14999999999992
 31
0.0
  0
LINE
  8
0
  6
CONTINUOUS
 62
               3
  5
227
 10
-89.32611620664747
 20
586.24701561839356
 30
0.0
 11
-143.64953593660044
 21
584.34999999999991
 31
0.0
  0
LINE
  8
0
  6
CONTINUOUS
 62
               3
  5
228
 10
-143.64953593660056
 20
-110.84999999999982
 30
0.0
 11
-146.64953593660067
 21
-107.85000000000076
 31
0.0
  0
LINE
  8
0
  6
CONTINUOUS
 62
               3
  5
229
 10
-143.64953593660056
 20
-110.84999999999982
 30
0.0
 11
-101.3258650230427
 21
-112.32797515601723
 31
0.0
  0
LINE
  8
0
  6
CONTINUOUS
 62
               3
  5
22A
 10
-143.64953593660056
 20
4.350000000000172
 30
0.0
 11
-146.64953593660067
 21
1.3500000000000796
 31
0.0
  0
LINE
  8
0
  6
CONTINUOUS
 62
               3
  5
22B
 10
-143.64953593660056
 20
-110.84999999999982
 30
0.0
 11
-143.64953593660056
 21
4.350000000000172
 31
0.0
  0
LINE
  8
0
  6
CONTINUOUS
 62
               3
  5
22C
 10
-146.64953593660067
 20
-110.85000000000034
 30
0.0
 11
-146.64953593660067
 21
4.3500000000000583
 31
0.0
  0
LINE
  8
0
  6
CONTINUOUS
 62
               3
  5
22D
 10
-146.64953593660067
 20
4.3500000000000583
 30
0.0
 11
-149.14953593660067
 21
4.3500000000000583
 31
0.0
  0
ARC
  8
0
  6
CONTINUOUS
 62
               3
  5
22E
 10
-149.14953593660067
 20
1.8500000000000583
 30
0.0
 40
2.5
 50
89.999999999982862
 51
179.99999999996524
  0
LINE
  8
0
  6
CONTINUOUS
 62
               3
  5
22F
 10
-151.64953593660067
 20
1.8500000000000583
 30
0.0
 11
-151.64953593660067
 21
-108.35000000000034
 31
0.0
  0
LINE
  8
0
  6
CONTINUOUS
 62
               3
  5
230
 10
-146.64953593660067
 20
-110.85000000000034
 30
0.0
 11
-149.14953593660067
 21
-110.85000000000034
 31
0.0
  0
ARC
  8
0
  6
CONTINUOUS
 62
               3
  5
231
 10
-149.14953593660067
 20
-108.35000000000034
 30
0.0
 40
2.5
 50
179.99999999996507
 51
269.99999999994793
  0
LINE
  8
0
  6
CONTINUOUS
 62
               3
  5
232
 10
-143.64953593660056
 20
4.350000000000172
 30
0.0
 11
-99.544837446493887
 21
5.8901700094761864
 31
0.0
  0
ARC
  8
0
  6
CONTINUOUS
 62
               3
  5
233
 10
-99.649535936601353
 20
8.8883424905334678
 30
0.0
 40
3.0
 50
271.99999999994657
 51
359.99999999993042
  0
ARC
  8
0
  6
CONTINUOUS
 62
               3
  5
234
 10
-101.50036250655518
 20
-117.32492929111274
 30
0.0
 40
5.0
 50
44.999999999992419
 51
87.99999999998262
  0
LINE
  8
0
  6
CONTINUOUS
 62
               3
  5
235
 10
-83.114002030668019
 20
-128.64022195513408
 30
0.0
 11
-97.964828600622525
 21
-113.78939538517992
 31
0.0
  0
ARC
  8
0
  6
CONTINUOUS
 62
               3
  5
236
 10
-86.649535936600671
 20
-132.17575586106685
 30
0.0
 40
5.0
 50
0.0
 51
44.99999999999207
  0
LINE
  8
0
  6
CONTINUOUS
 62
               3
  5
237
 10
-479.86217884412105
 20
-25.250000000000171
 30
0.0
 11
-533.43689302908001
 21
-25.250000000000171
 31
0.0
  0
CIRCLE
  8
0
  6
CONTINUOUS
 62
               3
  5
238
 10
-506.64953593660067
 20
-53.250000000000057
 30
0.0
 40
38.75
  0
CIRCLE
  8
0
  6
CONTINUOUS
 62
               3
  5
239
 10
-506.64953593660067
 20
-53.250000000000057
 30
0.0
 40
47.299999999999997
  0
LINE
  8
0
  6
CONTINUOUS
 62
               3
  5
23A
 10
-538.46934108999517
 20
-85.069805153394384
 30
0.0
 11
-540.09568668672432
 21
-86.696150750123763
 31
0.0
  0
LINE
  8
0
  6
CONTINUOUS
 62
               3
  5
23B
 10
-474.82973078320589
 20
-85.069805153394384
 30
0.0
 11
-473.20338518647696
 21
-86.696150750123763
 31
0.0
  0
ARC
  8
0
  6
CONTINUOUS
 62
               3
  5
23C
 10
-506.64953593660067
 20
-53.250000000000057
 30
0.0
 40
45.0
 50
224.99999999995646
 51
314.99999999993918
  0
CIRCLE
  8
0
  6
CONTINUOUS
 62
               3
  5
23D
 10
-506.64953593660067
 20
-53.250000000000057
 30
0.0
 40
57.5
  0
LINE
  8
0
  6
CONTINUOUS
 62
               3
  5
23E
 10
-526.40428220173862
 20
0.7500000000000817
 30
0.0
 11
-596.64953593660016
 21
0.7500000000000711
 31
0.0
  0
LINE
  8
0
  6
CONTINUOUS
 62
               3
  5
23F
 10
-416.64953593660022
 20
0.7500000000000711
 30
0.0
 11
-486.89478967146266
 21
0.7500000000000817
 31
0.0
  0
LINE
  8
0
  6
CONTINUOUS
 62
               3
  5
240
 10
50.950464063399352
 20
389.75000000000017
 30
0.0
 11
-64.249535936600694
 21
389.75000000000017
 31
0.0
  0
LINE
  8
0
  6
CONTINUOUS
 62
               3
  5
241
 10
-64.249535936600694
 20
389.75000000000017
 30
0.0
 11
-61.249535936601148
 21
386.75000000000006
 31
0.0
  0
LINE
  8
0
  6
CONTINUOUS
 62
               3
  5
242
 10
50.950464063399352
 20
389.75000000000017
 30
0.0
 11
47.950464063399352
 21
386.75000000000006
 31
0.0
  0
LINE
  8
0
  6
CONTINUOUS
 62
               3
  5
243
 10
-61.749535936600807
 20
381.75000000000006
 30
0.0
 11
48.450464063399352
 21
381.75000000000006
 31
0.0
  0
LINE
  8
0
  6
CONTINUOUS
 62
               3
  5
244
 10
50.950464063399352
 20
386.75000000000006
 30
0.0
 11
-64.249535936600807
 21
386.75000000000006
 31
0.0
  0
LINE
  8
0
  6
CONTINUOUS
 62
               3
  5
245
 10
-64.249535936600807
 20
386.75000000000006
 30
0.0
 11
-64.249535936600807
 21
384.25000000000006
 31
0.0
  0
LINE
  8
0
  6
CONTINUOUS
 62
               3
  5
246
 10
50.950464063399352
 20
386.75000000000006
 30
0.0
 11
50.950464063399352
 21
384.25000000000006
 31
0.0
  0
ARC
  8
0
  6
CONTINUOUS
 62
               3
  5
247
 10
48.450464063399352
 20
384.25000000000006
 30
0.0
 40
2.5
 50
269.99999999994782
 51
359.99999999993014
  0
ARC
  8
0
  6
CONTINUOUS
 62
               3
  5
248
 10
-61.749535936600807
 20
384.25000000000006
 30
0.0
 40
2.5
 50
179.99999999996572
 51
269.99999999994782
  0
LINE
  8
0
  6
CONTINUOUS
 62
               3
  5
249
 10
52.824991763862101
 20
444.07033269709132
 30
0.0
 11
50.950464063399352
 21
389.75000000000017
 31
0.0
  0
LINE
  8
0
  6
CONTINUOUS
 62
               3
  5
24A
 10
-66.146551554994232
 20
444.07341972995312
 30
0.0
 11
-64.249535936600694
 21
389.75000000000017
 31
0.0
  0
CIRCLE
  8
0
  6
CONTINUOUS
 62
               3
  5
24B
 10
-6.649535936600671
 20
-53.250000000000128
 30
0.0
 40
57.5
  0
CIRCLE
  8
0
  6
CONTINUOUS
 62
               3
  5
24C
 10
-6.649535936600671
 20
-53.250000000000128
 30
0.0
 40
47.299999999999997
  0
LINE
  8
0
  6
CONTINUOUS
 62
               3
  5
24D
 10
20.137821155878953
 20
-25.250000000000242
 30
0.0
 11
-33.436893029080068
 21
-25.250000000000242
 31
0.0
  0
LINE
  8
0
  6
CONTINUOUS
 62
               3
  5
24E
 10
-38.469341089995226
 20
-85.069805153394455
 30
0.0
 11
-40.095686686724378
 21
-86.696150750123834
 31
0.0
  0
LINE
  8
0
  6
CONTINUOUS
 62
               3
  5
24F
 10
25.170269216794111
 20
-85.069805153394455
 30
0.0
 11
26.796614813523036
 21
-86.696150750123834
 31
0.0
  0
ARC
  8
0
  6
CONTINUOUS
 62
               3
  5
250
 10
-6.649535936600671
 20
-53.250000000000128
 30
0.0
 40
45.0
 50
224.99999999995646
 51
314.99999999993918
  0
CIRCLE
  8
0
  6
CONTINUOUS
 62
               3
  5
251
 10
-6.649535936600671
 20
-53.250000000000128
 30
0.0
 40
38.75
  0
LINE
  8
0
  6
CONTINUOUS
 62
               3
  5
252
 10
-26.404282201738681
 20
0.7500000000000107
 30
0.0
 11
-96.649535936600216
 21
0.75
 31
0.0
  0
LINE
  8
0
  6
CONTINUOUS
 62
               3
  5
253
 10
83.350464063399784
 20
0.75
 30
0.0
 11
13.105210328537339
 21
0.7500000000000107
 31
0.0
  0
ARC
  8
0
  6
CONTINUOUS
 62
               3
  5
254
 10
-29.149535936600216
 20
-115.75000000000006
 30
0.0
 40
2.4999999999999996
 50
269.99999999994782
 51
449.99999999991297
  0
ARC
  8
0
  6
CONTINUOUS
 62
               3
  5
255
 10
15.850464063399784
 20
-115.75000000000006
 30
0.0
 40
2.4999999999999996
 50
89.99999999998262
 51
269.99999999994782
  0
LINE
  8
0
  6
CONTINUOUS
 62
               3
  5
256
 10
15.850464063399784
 20
-118.24999999999991
 30
0.0
 11
58.350464063399329
 21
-118.24999999999991
 31
0.0
  0
LINE
  8
0
  6
CONTINUOUS
 62
               3
  5
257
 10
15.850464063399784
 20
-113.24999999999991
 30
0.0
 11
58.350464063399329
 21
-113.24999999999991
 31
0.0
  0
LINE
  8
0
  6
CONTINUOUS
 62
               3
  5
258
 10
-71.649535936600671
 20
-118.24999999999991
 30
0.0
 11
-29.149535936600216
 21
-118.24999999999991
 31
0.0
  0
LINE
  8
0
  6
CONTINUOUS
 62
               3
  5
259
 10
-71.649535936600671
 20
-113.24999999999991
 30
0.0
 11
-29.149535936600216
 21
-113.24999999999991
 31
0.0
  0
LINE
  8
0
  6
CONTINUOUS
 62
               3
  5
25A
 10
-369.64953593660078
 20
-110.84999999999982
 30
0.0
 11
-366.64953593660067
 21
-107.85000000000076
 31
0.0
  0
LINE
  8
0
  6
CONTINUOUS
 62
               3
  5
25B
 10
-369.64953593660078
 20
4.350000000000172
 30
0.0
 11
-366.64953593660067
 21
1.3500000000000796
 31
0.0
  0
LINE
  8
0
  6
CONTINUOUS
 62
               3
  5
25C
 10
-369.64953593660078
 20
-110.84999999999982
 30
0.0
 11
-369.64953593660078
 21
4.350000000000172
 31
0.0
  0
LINE
  8
0
  6
CONTINUOUS
 62
               3
  5
25D
 10
-366.64953593660067
 20
-110.85000000000034
 30
0.0
 11
-366.64953593660067
 21
4.3500000000000583
 31
0.0
  0
LINE
  8
0
  6
CONTINUOUS
 62
               3
  5
25E
 10
-366.64953593660067
 20
4.3500000000000583
 30
0.0
 11
-364.14953593660067
 21
4.3500000000000583
 31
0.0
  0
ARC
  8
0
  6
CONTINUOUS
 62
               3
  5
25F
 10
-364.14953593660067
 20
1.8500000000000583
 30
0.0
 40
2.5
 50
0.0
 51
89.999999999982862
  0
LINE
  8
0
  6
CONTINUOUS
 62
               3
  5
260
 10
-361.64953593660067
 20
1.8500000000000583
 30
0.0
 11
-361.64953593660067
 21
-108.35000000000034
 31
0.0
  0
LINE
  8
0
  6
CONTINUOUS
 62
               3
  5
261
 10
-366.64953593660067
 20
-110.85000000000034
 30
0.0
 11
-364.14953593660067
 21
-110.85000000000034
 31
0.0
  0
ARC
  8
0
  6
CONTINUOUS
 62
               3
  5
262
 10
-364.14953593660067
 20
-108.35000000000034
 30
0.0
 40
2.5
 50
269.99999999994731
 51
359.99999999993014
  0
ARC
  8
0
  6
CONTINUOUS
 62
               3
  5
263
 10
-441.64953593660067
 20
-115.74999999999991
 30
0.0
 40
2.4999999999999996
 50
269.99999999994731
 51
449.99999999991297
  0
ARC
  8
0
  6
CONTINUOUS
 62
               3
  5
264
 10
-411.79870936664616
 20
-117.32492929111274
 30
0.0
 40
5.0
 50
91.999999999982577
 51
134.99999999997274
  0
LINE
  8
0
  6
CONTINUOUS
 62
               3
  5
265
 10
-430.18506984253332
 20
-128.64022195513408
 30
0.0
 11
-415.33424327257882
 21
-113.78939538517992
 31
0.0
  0
ARC
  8
0
  6
CONTINUOUS
 62
               3
  5
266
 10
-426.64953593660067
 20
-132.17575586106685
 30
0.0
 40
5.0
 50
134.9999999999732
 51
179.99999999996507
  0
LINE
  8
0
  6
CONTINUOUS
 62
               3
  5
267
 10
-369.64953593660078
 20
-110.84999999999982
 30
0.0
 11
-411.97320685015865
 21
-112.32797515601723
 31
0.0
  0
LINE
  8
0
  6
CONTINUOUS
 62
               3
  5
268
 10
-369.64953593660078
 20
4.350000000000172
 30
0.0
 11
-413.75423442670746
 21
5.8901700094761864
 31
0.0
  0
LINE
  8
0
  6
CONTINUOUS
 62
               3
  5
269
 10
-431.6495359366001
 20
-132.17575586106679
 30
0.0
 11
-431.64953593660113
 21
-231.25000000000006
 31
0.0
  0
LINE
  8
0
  6
CONTINUOUS
 62
               3
  5
26A
 10
-441.64953593660067
 20
-118.24999999999991
 30
0.0
 11
-484.14953593660113
 21
-118.24999999999991
 31
0.0
  0
LINE
  8
0
  6
CONTINUOUS
 62
               3
  5
26B
 10
-441.64953593660067
 20
-113.24999999999991
 30
0.0
 11
-484.14953593660113
 21
-113.24999999999991
 31
0.0
  0
ARC
  8
0
  6
CONTINUOUS
 62
               3
  5
26C
 10
-413.64953593659999
 20
8.8883424905334678
 30
0.0
 40
3.0
 50
179.99999999996518
 51
267.99999999994907
  0
LINE
  8
0
  6
CONTINUOUS
 62
               3
  5
26D
 10
356.35046406339944
 20
-110.84999999999982
 30
0.0
 11
353.35046406339933
 21
-107.85000000000076
 31
0.0
  0
LINE
  8
0
  6
CONTINUOUS
 62
               3
  5
26E
 10
356.35046406339944
 20
4.350000000000172
 30
0.0
 11
353.35046406339933
 21
1.3500000000000796
 31
0.0
  0
LINE
  8
0
  6
CONTINUOUS
 62
               3
  5
26F
 10
356.35046406339944
 20
-110.84999999999982
 30
0.0
 11
356.35046406339944
 21
4.350000000000172
 31
0.0
  0
LINE
  8
0
  6
CONTINUOUS
 62
               3
  5
270
 10
353.35046406339933
 20
-110.85000000000034
 30
0.0
 11
353.35046406339933
 21
4.3500000000000583
 31
0.0
  0
LINE
  8
0
  6
CONTINUOUS
 62
               3
  5
271
 10
353.35046406339933
 20
4.3500000000000583
 30
0.0
 11
350.85046406339933
 21
4.3500000000000583
 31
0.0
  0
ARC
  8
0
  6
CONTINUOUS
 62
               3
  5
272
 10
350.85046406339933
 20
1.8500000000000583
 30
0.0
 40
2.5
 50
89.999999999982862
 51
179.99999999996524
  0
LINE
  8
0
  6
CONTINUOUS
 62
               3
  5
273
 10
348.35046406339933
 20
1.8500000000000583
 30
0.0
 11
348.35046406339933
 21
-108.35000000000034
 31
0.0
  0
LINE
  8
0
  6
CONTINUOUS
 62
               3
  5
274
 10
353.35046406339933
 20
-110.85000000000034
 30
0.0
 11
350.85046406339933
 21
-110.85000000000034
 31
0.0
  0
ARC
  8
0
  6
CONTINUOUS
 62
               3
  5
275
 10
350.85046406339933
 20
-108.35000000000034
 30
0.0
 40
2.5
 50
179.99999999996507
 51
269.99999999994731
  0
ARC
  8
0
  6
CONTINUOUS
 62
               3
  5
276
 10
428.35046406339933
 20
-115.74999999999991
 30
0.0
 40
2.4999999999999996
 50
89.999999999982862
 51
269.99999999994731
  0
ARC
  8
0
  6
CONTINUOUS
 62
               3
  5
277
 10
398.49963749344482
 20
-117.32492929111274
 30
0.0
 40
5.0
 50
44.999999999992305
 51
87.999999999982478
  0
LINE
  8
0
  6
CONTINUOUS
 62
               3
  5
278
 10
416.88599796933198
 20
-128.64022195513408
 30
0.0
 11
402.03517139937748
 21
-113.78939538517992
 31
0.0
  0
ARC
  8
0
  6
CONTINUOUS
 62
               3
  5
279
 10
413.35046406339933
 20
-132.17575586106685
 30
0.0
 40
5.0
 50
0.0
 51
44.99999999999207
  0
LINE
  8
0
  6
CONTINUOUS
 62
               3
  5
27A
 10
356.35046406339944
 20
-110.84999999999982
 30
0.0
 11
398.6741349769573
 21
-112.32797515601723
 31
0.0
  0
LINE
  8
0
  6
CONTINUOUS
 62
               3
  5
27B
 10
356.35046406339944
 20
4.350000000000172
 30
0.0
 11
400.45516255350611
 21
5.8901700094761864
 31
0.0
  0
LINE
  8
0
  6
CONTINUOUS
 62
               3
  5
27C
 10
418.35046406339876
 20
-132.17575586106679
 30
0.0
 11
418.35046406339978
 21
-231.25000000000006
 31
0.0
  0
ARC
  8
0
  6
CONTINUOUS
 62
               3
  5
27D
 10
400.35046406339865
 20
8.8883424905334678
 30
0.0
 40
3.0
 50
271.99999999994657
 51
359.99999999993042
  0
LINE
  8
0
  6
CONTINUOUS
 62
               3
  5
27E
 10
576.35046406339939
 20
0.7500000000000711
 30
0.0
 11
576.35046406339939
 21
-72.250000000000057
 31
0.0
  0
LINE
  8
0
  6
CONTINUOUS
 62
               3
  5
27F
 10
576.35046406339939
 20
-72.250000000000057
 30
0.0
 11
568.35046406339893
 21
-72.250000000000057
 31
0.0
  0
LINE
  8
0
  6
CONTINUOUS
 62
               3
  5
280
 10
-589.64953593660061
 20
-72.250000000000057
 30
0.0
 11
-581.64953593660016
 21
-72.250000000000057
 31
0.0
  0
LINE
  8
0
  6
CONTINUOUS
 62
               3
  5
281
 10
-589.64953593660061
 20
0.7500000000000711
 30
0.0
 11
-589.64953593660061
 21
-72.250000000000057
 31
0.0
  0
LINE
  8
0
  6
CONTINUOUS
 62
               3
  5
282
 10
130.35046406339922
 20
-110.84999999999982
 30
0.0
 11
133.35046406339933
 21
-107.85000000000076
 31
0.0
  0
LINE
  8
0
  6
CONTINUOUS
 62
               3
  5
283
 10
133.35046406339933
 20
-110.85000000000034
 30
0.0
 11
135.85046406339933
 21
-110.85000000000034
 31
0.0
  0
ARC
  8
0
  6
CONTINUOUS
 62
               3
  5
284
 10
135.85046406339933
 20
-108.35000000000034
 30
0.0
 40
2.5
 50
269.99999999994793
 51
359.99999999993014
  0
ARC
  8
0
  6
CONTINUOUS
 62
               3
  5
285
 10
58.350464063399329
 20
-115.74999999999991
 30
0.0
 40
2.4999999999999996
 50
269.99999999994793
 51
449.99999999991297
  0
ARC
  8
0
  6
CONTINUOUS
 62
               3
  5
286
 10
88.201290633353835
 20
-117.32492929111274
 30
0.0
 40
5.0
 50
91.999999999982577
 51
134.99999999997297
  0
LINE
  8
0
  6
CONTINUOUS
 62
               3
  5
287
 10
69.814930157466677
 20
-128.64022195513408
 30
0.0
 11
84.665756727421183
 21
-113.78939538517992
 31
0.0
  0
ARC
  8
0
  6
CONTINUOUS
 62
               3
  5
288
 10
73.350464063399329
 20
-132.17575586106685
 30
0.0
 40
5.0
 50
134.99999999997311
 51
179.99999999996507
  0
LINE
  8
0
  6
CONTINUOUS
 62
               3
  5
289
 10
130.35046406339922
 20
-110.84999999999982
 30
0.0
 11
88.026793149841353
 21
-112.32797515601723
 31
0.0
  0
LINE
  8
0
  6
CONTINUOUS
 62
               3
  5
28A
 10
130.35046406339922
 20
4.350000000000172
 30
0.0
 11
133.35046406339933
 21
1.3500000000000796
 31
0.0
  0
LINE
  8
0
  6
CONTINUOUS
 62
               3
  5
28B
 10
130.35046406339922
 20
-110.84999999999982
 30
0.0
 11
130.35046406339922
 21
4.350000000000172
 31
0.0
  0
LINE
  8
0
  6
CONTINUOUS
 62
               3
  5
28C
 10
133.35046406339933
 20
-110.85000000000034
 30
0.0
 11
133.35046406339933
 21
4.3500000000000583
 31
0.0
  0
LINE
  8
0
  6
CONTINUOUS
 62
               3
  5
28D
 10
133.35046406339933
 20
4.3500000000000583
 30
0.0
 11
135.85046406339933
 21
4.3500000000000583
 31
0.0
  0
ARC
  8
0
  6
CONTINUOUS
 62
               3
  5
28E
 10
135.85046406339933
 20
1.8500000000000583
 30
0.0
 40
2.5
 50
0.0
 51
89.999999999982862
  0
LINE
  8
0
  6
CONTINUOUS
 62
               3
  5
28F
 10
138.35046406339933
 20
1.8500000000000583
 30
0.0
 11
138.35046406339933
 21
-108.35000000000034
 31
0.0
  0
LINE
  8
0
  6
CONTINUOUS
 62
               3
  5
290
 10
130.35046406339922
 20
4.350000000000172
 30
0.0
 11
86.245765573292545
 21
5.8901700094761864
 31
0.0
  0
ARC
  8
0
  6
CONTINUOUS
 62
               3
  5
291
 10
86.350464063400011
 20
8.8883424905334678
 30
0.0
 40
3.0
 50
179.99999999996518
 51
267.99999999994873
  0
LINE
  8
0
  6
CONTINUOUS
 62
               3
  5
292
 10
68.350464063399897
 20
-132.17575586106688
 30
0.0
 11
68.350464063398874
 21
-231.25000000000011
 31
0.0
  0
CIRCLE
  8
0
  6
CONTINUOUS
 62
               3
  5
293
 10
493.35046406339933
 20
-53.250000000000128
 30
0.0
 40
47.299999999999997
  0
LINE
  8
0
  6
CONTINUOUS
 62
               3
  5
294
 10
520.13782115587901
 20
-25.250000000000242
 30
0.0
 11
466.56310697091993
 21
-25.250000000000242
 31
0.0
  0
LINE
  8
0
  6
CONTINUOUS
 62
               3
  5
295
 10
461.53065891000477
 20
-85.069805153394455
 30
0.0
 11
459.90431331327562
 21
-86.696150750123834
 31
0.0
  0
LINE
  8
0
  6
CONTINUOUS
 62
               3
  5
296
 10
525.17026921679417
 20
-85.069805153394455
 30
0.0
 11
526.79661481352309
 21
-86.696150750123834
 31
0.0
  0
ARC
  8
0
  6
CONTINUOUS
 62
               3
  5
297
 10
493.35046406339933
 20
-53.250000000000128
 30
0.0
 40
45.0
 50
224.99999999995646
 51
314.99999999993918
  0
CIRCLE
  8
0
  6
CONTINUOUS
 62
               3
  5
298
 10
493.35046406339933
 20
-53.250000000000128
 30
0.0
 40
38.75
  0
ARC
  8
0
  6
CONTINUOUS
 62
               3
  5
299
 10
470.85046406339978
 20
-115.75000000000006
 30
0.0
 40
2.4999999999999996
 50
269.99999999994731
 51
449.99999999991297
  0
ARC
  8
0
  6
CONTINUOUS
 62
               3
  5
29A
 10
515.85046406339984
 20
-115.75000000000006
 30
0.0
 40
2.4999999999999996
 50
89.999999999981569
 51
269.99999999994731
  0
CIRCLE
  8
0
  6
CONTINUOUS
 62
               3
  5
29B
 10
493.35046406339933
 20
-53.250000000000128
 30
0.0
 40
57.5
  0
LINE
  8
0
  6
CONTINUOUS
 62
               3
  5
29C
 10
428.35046406339933
 20
-113.24999999999991
 30
0.0
 11
470.85046406339978
 21
-113.24999999999991
 31
0.0
  0
LINE
  8
0
  6
CONTINUOUS
 62
               3
  5
29D
 10
428.35046406339933
 20
-118.24999999999991
 30
0.0
 11
470.85046406339978
 21
-118.24999999999991
 31
0.0
  0
LINE
  8
0
  6
CONTINUOUS
 62
               3
  5
29E
 10
515.85046406339984
 20
-118.24999999999991
 30
0.0
 11
568.35046406339939
 21
-118.24999999999991
 31
0.0
  0
LINE
  8
0
  6
CONTINUOUS
 62
               3
  5
29F
 10
515.85046406339984
 20
-113.24999999999991
 30
0.0
 11
568.35046406339939
 21
-113.24999999999991
 31
0.0
  0
LINE
  8
0
  6
CONTINUOUS
 62
               3
  5
2A0
 10
473.59571779826149
 20
0.7500000000000817
 30
0.0
 11
403.35046406339978
 21
0.7500000000000711
 31
0.0
  0
LINE
  8
0
  6
CONTINUOUS
 62
               3
  5
2A1
 10
583.35046406339984
 20
0.7500000000000711
 30
0.0
 11
513.10521032853717
 21
0.7500000000000817
 31
0.0
  0
LINE
  8
0
  6
CONTINUOUS
 62
               3
  5
2A2
 10
130.35046406339913
 20
469.14999999999992
 30
0.0
 11
130.35046406339913
 21
584.34999999999991
 31
0.0
  0
LINE
  8
0
  6
CONTINUOUS
 62
               3
  5
2A3
 10
130.35046406339913
 20
584.34999999999991
 30
0.0
 11
133.35046406339924
 21
581.35000000000036
 31
0.0
  0
LINE
  8
0
  6
CONTINUOUS
 62
               3
  5
2A4
 10
130.35046406339913
 20
469.14999999999992
 30
0.0
 11
133.35046406339924
 21
472.14999999999992
 31
0.0
  0
LINE
  8
0
  6
CONTINUOUS
 62
               3
  5
2A5
 10
138.35046406339924
 20
581.85000000000014
 30
0.0
 11
138.35046406339924
 21
471.64999999999992
 31
0.0
  0
LINE
  8
0
  6
CONTINUOUS
 62
               3
  5
2A6
 10
133.35046406339924
 20
469.14999999999992
 30
0.0
 11
133.35046406339924
 21
584.35000000000014
 31
0.0
  0
LINE
  8
0
  6
CONTINUOUS
 62
               3
  5
2A7
 10
133.35046406339924
 20
584.35000000000014
 30
0.0
 11
135.85046406339924
 21
584.35000000000014
 31
0.0
  0
LINE
  8
0
  6
CONTINUOUS
 62
               3
  5
2A8
 10
133.35046406339924
 20
469.14999999999992
 30
0.0
 11
135.85046406339924
 21
469.14999999999992
 31
0.0
  0
ARC
  8
0
  6
CONTINUOUS
 62
               3
  5
2A9
 10
135.85046406339924
 20
471.64999999999992
 30
0.0
 40
2.5
 50
269.99999999994793
 51
359.99999999993014
  0
ARC
  8
0
  6
CONTINUOUS
 62
               3
  5
2AA
 10
135.85046406339924
 20
581.85000000000014
 30
0.0
 40
2.5
 50
0.0
 51
89.999999999982862
  0
LINE
  8
0
  6
CONTINUOUS
 62
               3
  5
2AB
 10
76.030131366307941
 20
467.27547229953717
 30
0.0
 11
130.35046406339913
 21
469.14999999999992
 31
0.0
  0
LINE
  8
0
  6
CONTINUOUS
 62
               3
  5
2AC
 10
76.027044333446128
 20
586.24701561839356
 30
0.0
 11
130.35046406339913
 21
584.34999999999991
 31
0.0
  0
LINE
  8
0
  6
CONTINUOUS
 62
               3
  5
2AD
 10
-564.64953593660016
 20
-380.45708506678892
 30
0.0
 11
-448.64953593660022
 21
-380.45708506678932
 31
0.0
  0
LINE
  8
0
  6
CONTINUOUS
 62
               3
  5
2AE
 10
-566.92824810263301
 20
-360.45708506678903
 30
0.0
 11
-446.37082377056737
 21
-360.45708506678903
 31
0.0
  0
LINE
  8
0
  6
CONTINUOUS
 62
               3
  5
2AF
 10
-64.649535936600216
 20
-380.45708506678892
 30
0.0
 11
51.350464063399784
 21
-380.45708506678932
 31
0.0
  0
LINE
  8
0
  6
CONTINUOUS
 62
               3
  5
2B0
 10
-66.928248102633063
 20
-360.45708506678903
 30
0.0
 11
53.62917622943263
 21
-360.45708506678903
 31
0.0
  0
LINE
  8
0
  6
CONTINUOUS
 62
               3
  5
2B1
 10
435.35046406339978
 20
-380.45708506678892
 30
0.0
 11
551.35046406339984
 21
-380.45708506678932
 31
0.0
  0
LINE
  8
0
  6
CONTINUOUS
 62
               3
  5
2B2
 10
433.07175189736694
 20
-360.45708506678903
 30
0.0
 11
553.62917622943269
 21
-360.45708506678903
 31
0.0
  0
CIRCLE
  8
0
  6
CONTINUOUS
 62
               3
  5
2B3
 10
-6.649535936600671
 20
526.75
 30
0.0
 40
59.0
  0
CIRCLE
  8
0
  6
CONTINUOUS
 62
               3
  5
2B4
 10
-6.649535936600671
 20
526.75
 30
0.0
 40
50.0
  0
LINE
  8
0
  6
CONTINUOUS
 62
               3
  5
2B5
 10
-36.649535936600685
 20
566.75
 30
0.0
 11
23.350464063399617
 21
566.74999999999977
 31
0.0
  0
LINE
  8
0
  6
CONTINUOUS
 62
               3
  5
2B6
 10
-28.649535936601239
 20
526.75
 30
0.0
 11
-28.649535936601239
 21
481.85011135871292
 31
0.0
  0
LINE
  8
0
  6
CONTINUOUS
 62
               3
  5
2B7
 10
-28.649535936601239
 20
526.75
 30
0.0
 11
-49.81835678064332
 21
551.97801829187051
 31
0.0
  0
LINE
  8
0
  6
CONTINUOUS
 62
               3
  5
2B8
 10
-28.649535936601239
 20
504.74999999999949
 30
0.0
 11
38.250352704686399
 21
504.74999999999949
 31
0.0
  0
LINE
  8
0
  6
CONTINUOUS
 62
               3
  5
2B9
 10
-449.64953593659959
 20
-527.25000000000011
 30
0.0
 11
-449.64953593659959
 21
-492.24999999999955
 31
0.0
  0
LINE
  8
0
  6
CONTINUOUS
 62
               3
  5
2BA
 10
-563.64953593659948
 20
-527.25000000000011
 30
0.0
 11
-563.64953593659948
 21
-492.24999999999955
 31
0.0
  0
LINE
  8
0
  6
CONTINUOUS
 62
               3
  5
2BB
 10
-563.64953593659948
 20
-492.24999999999955
 30
0.0
 11
-449.64953593659959
 21
-492.24999999999955
 31
0.0
  0
LINE
  8
0
  6
CONTINUOUS
 62
               3
  5
2BC
 10
-449.64953593659959
 20
-492.24999999999955
 30
0.0
 11
-448.64953593659914
 21
-491.24999999999909
 31
0.0
  0
LINE
  8
0
  6
CONTINUOUS
 62
               3
  5
2BD
 10
-563.64953593659948
 20
-492.24999999999955
 30
0.0
 11
-564.64953593659902
 21
-491.24999999999909
 31
0.0
  0
LINE
  8
0
  6
CONTINUOUS
 62
               3
  5
2BE
 10
-568.6495359365997
 20
-672.24999999999852
 30
0.0
 11
-568.6495359365997
 21
-657.24999999999943
 31
0.0
  0
LINE
  8
0
  6
CONTINUOUS
 62
               3
  5
2BF
 10
-571.64953593659948
 20
-672.24999999999852
 30
0.0
 11
-441.64953593659959
 21
-672.24999999999852
 31
0.0
  0
ARC
  8
0
  6
CONTINUOUS
 62
               3
  5
2C0
 10
-582.6495359365988
 20
-531.25000000000034
 30
0.0
 40
4.0
 50
89.999999999982236
 51
179.99999999996518
  0
LINE
  8
0
  6
CONTINUOUS
 62
               3
  5
2C1
 10
-586.6495359365988
 20
-531.24999999999795
 30
0.0
 11
-586.64953593659902
 21
-550.25000000000034
 31
0.0
  0
LINE
  8
0
  6
CONTINUOUS
 62
               3
  5
2C2
 10
-522.6495359365988
 20
-527.24999999999977
 30
0.0
 11
-582.6495359365988
 21
-527.25000000000034
 31
0.0
  0
LINE
  8
0
  6
CONTINUOUS
 62
               3
  5
2C3
 10
-522.6495359365988
 20
-658.24999999999841
 30
0.0
 11
-490.64953593659851
 21
-658.24999999999795
 31
0.0
  0
ARC
  8
0
  6
CONTINUOUS
 62
               3
  5
2C4
 10
-582.64953593659857
 20
-653.24999999999943
 30
0.0
 40
4.0
 50
179.99999999996601
 51
269.99999999994901
  0
LINE
  8
0
  6
CONTINUOUS
 62
               3
  5
2C5
 10
-586.64953593659857
 20
-653.24999999999943
 30
0.0
 11
-586.64953593659857
 21
-634.7499999999992
 31
0.0
  0
LINE
  8
0
  6
CONTINUOUS
 62
               3
  5
2C6
 10
-522.6495359365988
 20
-657.24999999999875
 30
0.0
 11
-582.64953593660198
 21
-657.24999999999943
 31
0.0
  0
LINE
  8
0
  6
CONTINUOUS
 62
               3
  5
2C7
 10
-522.6495359365988
 20
-634.74999999999864
 30
0.0
 11
-586.64953593659857
 21
-634.7499999999992
 31
0.0
  0
LINE
  8
0
  6
CONTINUOUS
 62
               3
  5
2C8
 10
-586.64953593659902
 20
-550.25000000000034
 30
0.0
 11
-522.6495359365988
 21
-550.25000000000034
 31
0.0
  0
LINE
  8
0
  6
CONTINUOUS
 62
               3
  5
2C9
 10
-583.64953593659902
 20
-550.25000000000034
 30
0.0
 11
-583.6495359365997
 21
-634.7499999999992
 31
0.0
  0
LINE
  8
0
  6
CONTINUOUS
 62
               3
  5
2CA
 10
-490.64953593659902
 20
-527.24999999999977
 30
0.0
 11
-427.64953593659925
 21
-527.25000000000034
 31
0.0
  0
LINE
  8
0
  6
CONTINUOUS
 62
               3
  5
2CB
 10
-490.64953593659851
 20
-657.24999999999875
 30
0.0
 11
-430.64953593660056
 21
-657.24999999999943
 31
0.0
  0
LINE
  8
0
  6
CONTINUOUS
 62
               3
  5
2CC
 10
-490.64953593659851
 20
-634.74999999999875
 30
0.0
 11
-426.64953593660044
 21
-634.7499999999992
 31
0.0
  0
LINE
  8
0
  6
CONTINUOUS
 62
               3
  5
2CD
 10
-426.64953593659902
 20
-550.25000000000034
 30
0.0
 11
-490.64953593659902
 21
-550.25000000000034
 31
0.0
  0
LINE
  8
0
  6
CONTINUOUS
 62
               3
  5
2CE
 10
-444.6495359365997
 20
-672.24999999999852
 30
0.0
 11
-444.6495359365997
 21
-657.24999999999943
 31
0.0
  0
LINE
  8
0
  6
CONTINUOUS
 62
               3
  5
2CF
 10
-522.6495359365988
 20
-526.25000000000034
 30
0.0
 11
-522.6495359365988
 21
-658.24999999999841
 31
0.0
  0
LINE
  8
0
  6
CONTINUOUS
 62
               3
  5
2D0
 10
-490.64953593659851
 20
-658.24999999999795
 30
0.0
 11
-490.64953593659902
 21
-526.25000000000034
 31
0.0
  0
LINE
  8
0
  6
CONTINUOUS
 62
               3
  5
2D1
 10
-522.64953593659948
 20
-526.25000000000034
 30
0.0
 11
-490.64953593659959
 21
-526.25000000000034
 31
0.0
  0
LINE
  8
0
  6
CONTINUOUS
 62
               3
  5
2D2
 10
-522.6495359365988
 20
-593.2499999999992
 30
0.0
 11
-490.64953593659851
 21
-593.2499999999992
 31
0.0
  0
LINE
  8
0
  6
CONTINUOUS
 62
               3
  5
2D3
 10
-522.6495359365988
 20
-592.24999999999943
 30
0.0
 11
-490.64953593659851
 21
-592.24999999999943
 31
0.0
  0
LINE
  8
0
  6
CONTINUOUS
 62
               3
  5
2D4
 10
-522.6495359365988
 20
-594.24999999999943
 30
0.0
 11
-490.64953593659851
 21
-594.24999999999943
 31
0.0
  0
ARC
  8
0
  6
CONTINUOUS
 62
               3
  5
2D5
 10
-430.64953593660022
 20
-531.25000000000034
 30
0.0
 40
4.0
 50
0.0000000000344079
 51
90.000000000017366
  0
LINE
  8
0
  6
CONTINUOUS
 62
               3
  5
2D6
 10
-426.64953593660022
 20
-531.24999999999795
 30
0.0
 11
-426.64953593659999
 21
-550.25000000000034
 31
0.0
  0
ARC
  8
0
  6
CONTINUOUS
 62
               3
  5
2D7
 10
-430.6495359366005
 20
-653.24999999999943
 30
0.0
 40
4.0
 50
270.00000000004979
 51
360.0000000000328
  0
LINE
  8
0
  6
CONTINUOUS
 62
               3
  5
2D8
 10
-426.64953593660044
 20
-653.24999999999943
 30
0.0
 11
-426.64953593660056
 21
-634.7499999999992
 31
0.0
  0
LINE
  8
0
  6
CONTINUOUS
 62
               3
  5
2D9
 10
-429.64953593659999
 20
-550.25000000000034
 30
0.0
 11
-429.64953593659942
 21
-634.7499999999992
 31
0.0
  0
LINE
  8
0
  6
CONTINUOUS
 62
               3
  5
2DA
 10
50.350464063400409
 20
-527.24999999999989
 30
0.0
 11
50.350464063400409
 21
-492.24999999999943
 31
0.0
  0
LINE
  8
0
  6
CONTINUOUS
 62
               3
  5
2DB
 10
-63.649535936599591
 20
-527.24999999999989
 30
0.0
 11
-63.649535936599591
 21
-492.24999999999943
 31
0.0
  0
LINE
  8
0
  6
CONTINUOUS
 62
               3
  5
2DC
 10
-63.649535936599591
 20
-492.24999999999943
 30
0.0
 11
50.350464063400409
 21
-492.24999999999943
 31
0.0
  0
LINE
  8
0
  6
CONTINUOUS
 62
               3
  5
2DD
 10
50.350464063400409
 20
-492.24999999999943
 30
0.0
 11
51.350464063400864
 21
-491.24999999999898
 31
0.0
  0
LINE
  8
0
  6
CONTINUOUS
 62
               3
  5
2DE
 10
-63.649535936599591
 20
-492.24999999999943
 30
0.0
 11
-64.649535936599136
 21
-491.24999999999898
 31
0.0
  0
LINE
  8
0
  6
CONTINUOUS
 62
               3
  5
2DF
 10
-68.649535936599761
 20
-672.24999999999829
 30
0.0
 11
-68.649535936599761
 21
-657.2499999999992
 31
0.0
  0
LINE
  8
0
  6
CONTINUOUS
 62
               3
  5
2E0
 10
-71.649535936599591
 20
-672.24999999999829
 30
0.0
 11
58.350464063400395
 21
-672.24999999999829
 31
0.0
  0
ARC
  8
0
  6
CONTINUOUS
 62
               3
  5
2E1
 10
-82.649535936598966
 20
-531.25000000000011
 30
0.0
 40
4.0
 50
89.999999999982236
 51
179.99999999996518
  0
ARC
  8
0
  6
CONTINUOUS
 62
               3
  5
2E2
 10
-85.649535936598937
 20
-528.25000000000011
 30
0.0
 40
1.0000000000000004
 50
89.999999999981483
 51
179.99999999996524
  0
ARC
  8
0
  6
CONTINUOUS
 62
               3
  5
2E3
 10
-85.649535936598937
 20
-528.25000000000011
 30
0.0
 40
1.9999999999999996
 50
89.999999999983004
 51
179.99999999996524
  0
LINE
  8
0
  6
CONTINUOUS
 62
               3
  5
2E4
 10
-87.649535936598966
 20
-528.25000000000011
 30
0.0
 11
-87.649535936599534
 21
-591.24999999999898
 31
0.0
  0
LINE
  8
0
  6
CONTINUOUS
 62
               3
  5
2E5
 10
-86.649535936599165
 20
-528.25000000000011
 30
0.0
 11
-86.649535936599733
 21
-591.24999999999898
 31
0.0
  0
ARC
  8
0
  6
CONTINUOUS
 62
               3
  5
2E6
 10
-88.649535936599477
 20
-591.24999999999898
 30
0.0
 40
1.9999999999999996
 50
269.99999999994748
 51
359.99999999993048
  0
ARC
  8
0
  6
CONTINUOUS
 62
               3
  5
2E7
 10
-88.649535936599477
 20
-591.24999999999898
 30
0.0
 40
1.0000000000000004
 50
269.99999999994748
 51
359.99999999993048
  0
LINE
  8
0
  6
CONTINUOUS
 62
               3
  5
2E8
 10
-88.649535936599477
 20
-593.24999999999898
 30
0.0
 11
-151.64953593659959
 21
-593.24999999999943
 31
0.0
  0
LINE
  8
0
  6
CONTINUOUS
 62
               3
  5
2E9
 10
-88.649535936599477
 20
-592.24999999999898
 30
0.0
 11
-151.64953593659959
 21
-592.24999999999943
 31
0.0
  0
LINE
  8
0
  6
CONTINUOUS
 62
               3
  5
2EA
 10
-71.649535936599165
 20
-526.25000000000011
 30
0.0
 11
-85.649535936598937
 21
-526.25000000000011
 31
0.0
  0
LINE
  8
0
  6
CONTINUOUS
 62
               3
  5
2EB
 10
-6.649535936599019
 20
-527.24999999999943
 30
0.0
 11
-85.649535936598937
 21
-527.25000000000011
 31
0.0
  0
LINE
  8
0
  6
CONTINUOUS
 62
               3
  5
2EC
 10
-71.649535936599165
 20
-526.25000000000011
 30
0.0
 11
-71.649535936599165
 21
-527.25
 31
0.0
  0
LINE
  8
0
  6
CONTINUOUS
 62
               3
  5
2ED
 10
-71.649535936598596
 20
-658.24999999999898
 30
0.0
 11
-85.649535936598511
 21
-658.2499999999992
 31
0.0
  0
ARC
  8
0
  6
CONTINUOUS
 62
               3
  5
2EE
 10
-85.649535936598511
 20
-656.2499999999992
 30
0.0
 40
1.0000000000000004
 50
179.99999999996601
 51
269.99999999994748
  0
ARC
  8
0
  6
CONTINUOUS
 62
               3
  5
2EF
 10
-85.649535936598511
 20
-656.2499999999992
 30
0.0
 40
1.9999999999999996
 50
179.99999999996601
 51
269.99999999994901
  0
ARC
  8
0
  6
CONTINUOUS
 62
               3
  5
2F0
 10
-82.649535936598681
 20
-653.2499999999992
 30
0.0
 40
4.0
 50
179.99999999996601
 51
269.99999999994901
  0
LINE
  8
0
  6
CONTINUOUS
 62
               3
  5
2F1
 10
-71.649535936598596
 20
-658.24999999999898
 30
0.0
 11
-71.649535936598596
 21
-657.2499999999992
 31
0.0
  0
LINE
  8
0
  6
CONTINUOUS
 62
               3
  5
2F2
 10
-87.649535936598681
 20
-656.2499999999992
 30
0.0
 11
-87.649535936599534
 21
-595.24999999999898
 31
0.0
  0
LINE
  8
0
  6
CONTINUOUS
 62
               3
  5
2F3
 10
-86.649535936598596
 20
-656.2499999999992
 30
0.0
 11
-86.649535936599591
 21
-595.24999999999898
 31
0.0
  0
LINE
  8
0
  6
CONTINUOUS
 62
               3
  5
2F4
 10
-6.6495359365995874
 20
-657.24999999999829
 30
0.0
 11
-85.649535936598511
 21
-657.2499999999992
 31
0.0
  0
LINE
  8
0
  6
CONTINUOUS
 62
               3
  5
2F5
 10
-6.6495359365995874
 20
-634.74999999999829
 30
0.0
 11
-86.649535936598738
 21
-634.74999999999898
 31
0.0
  0
ARC
  8
0
  6
CONTINUOUS
 62
               3
  5
2F6
 10
-88.649535936599477
 20
-595.24999999999898
 30
0.0
 40
1.9999999999999996
 50
0.000000000001145
 51
89.999999999983004
  0
ARC
  8
0
  6
CONTINUOUS
 62
               3
  5
2F7
 10
-88.649535936599477
 20
-595.24999999999898
 30
0.0
 40
1.0000000000000004
 50
0.0000000000007633
 51
89.999999999984539
  0
LINE
  8
0
  6
CONTINUOUS
 62
               3
  5
2F8
 10
-88.649535936599477
 20
-594.24999999999898
 30
0.0
 11
-151.64953593659959
 21
-594.24999999999943
 31
0.0
  0
LINE
  8
0
  6
CONTINUOUS
 62
               3
  5
2F9
 10
-86.649535936599165
 20
-550.25000000000011
 30
0.0
 11
-6.649535936599019
 21
-550.25000000000011
 31
0.0
  0
LINE
  8
0
  6
CONTINUOUS
 62
               3
  5
2FA
 10
-83.649535936599193
 20
-550.25000000000011
 30
0.0
 11
-83.649535936599761
 21
-634.74999999999898
 31
0.0
  0
LINE
  8
0
  6
CONTINUOUS
 62
               3
  5
2FB
 10
-151.64953593659959
 20
-592.24999999999943
 30
0.0
 11
-151.64953593659959
 21
-593.24999999999943
 31
0.0
  0
LINE
  8
0
  6
CONTINUOUS
 62
               3
  5
2FC
 10
-151.64953593659959
 20
-594.24999999999943
 30
0.0
 11
-151.64953593659959
 21
-593.24999999999943
 31
0.0
  0
LINE
  8
0
  6
CONTINUOUS
 62
               3
  5
2FD
 10
-93.899535936599534
 20
-590.74999999999898
 30
0.0
 11
-101.39953593659953
 21
-590.74999999999898
 31
0.0
  0
LINE
  8
0
  6
CONTINUOUS
 62
               3
  5
2FE
 10
-93.899535936599534
 20
-595.74999999999898
 30
0.0
 11
-101.39953593659953
 21
-595.7499999999992
 31
0.0
  0
LINE
  8
0
  6
CONTINUOUS
 62
               3
  5
2FF
 10
-93.899535936599534
 20
-590.74999999999898
 30
0.0
 11
-93.899535936599534
 21
-592.24999999999898
 31
0.0
  0
LINE
  8
0
  6
CONTINUOUS
 62
               3
  5
300
 10
-93.899535936599534
 20
-594.24999999999898
 30
0.0
 11
-93.899535936599534
 21
-595.74999999999898
 31
0.0
  0
LINE
  8
0
  6
CONTINUOUS
 62
               3
  5
301
 10
-101.39953593659953
 20
-590.74999999999898
 30
0.0
 11
-101.39953593659953
 21
-592.24999999999898
 31
0.0
  0
LINE
  8
0
  6
CONTINUOUS
 62
               3
  5
302
 10
-101.39953593659953
 20
-594.2499999999992
 30
0.0
 11
-101.39953593659953
 21
-595.7499999999992
 31
0.0
  0
ARC
  8
0
  6
CONTINUOUS
 62
               3
  5
303
 10
69.350464063400793
 20
-531.25000000000011
 30
0.0
 40
4.0
 50
0.0000000000344079
 51
90.000000000017366
  0
ARC
  8
0
  6
CONTINUOUS
 62
               3
  5
304
 10
72.350464063400736
 20
-528.25000000000011
 30
0.0
 40
1.0000000000000004
 50
0.000000000034357
 51
90.000000000018133
  0
ARC
  8
0
  6
CONTINUOUS
 62
               3
  5
305
 10
72.350464063400736
 20
-528.25000000000011
 30
0.0
 40
1.9999999999999996
 50
0.000000000034357
 51
90.000000000016598
  0
LINE
  8
0
  6
CONTINUOUS
 62
               3
  5
306
 10
74.350464063400793
 20
-528.25000000000011
 30
0.0
 11
74.350464063400224
 21
-591.24999999999898
 31
0.0
  0
LINE
  8
0
  6
CONTINUOUS
 62
               3
  5
307
 10
73.350464063400963
 20
-528.25000000000011
 30
0.0
 11
73.350464063400395
 21
-591.24999999999898
 31
0.0
  0
ARC
  8
0
  6
CONTINUOUS
 62
               3
  5
308
 10
75.350464063400281
 20
-591.24999999999898
 30
0.0
 40
1.9999999999999996
 50
180.0000000000683
 51
270.00000000005133
  0
ARC
  8
0
  6
CONTINUOUS
 62
               3
  5
309
 10
75.350464063400281
 20
-591.24999999999898
 30
0.0
 40
1.0000000000000004
 50
180.0000000000683
 51
270.00000000005133
  0
LINE
  8
0
  6
CONTINUOUS
 62
               3
  5
30A
 10
75.350464063400281
 20
-593.24999999999898
 30
0.0
 11
138.35046406340041
 21
-593.24999999999943
 31
0.0
  0
LINE
  8
0
  6
CONTINUOUS
 62
               3
  5
30B
 10
75.350464063400281
 20
-592.24999999999898
 30
0.0
 11
138.35046406340041
 21
-592.24999999999943
 31
0.0
  0
LINE
  8
0
  6
CONTINUOUS
 62
               3
  5
30C
 10
58.350464063400963
 20
-526.25000000000011
 30
0.0
 11
72.350464063400736
 21
-526.25000000000011
 31
0.0
  0
LINE
  8
0
  6
CONTINUOUS
 62
               3
  5
30D
 10
-6.649535936599019
 20
-527.24999999999943
 30
0.0
 11
72.350464063400736
 21
-527.25000000000011
 31
0.0
  0
LINE
  8
0
  6
CONTINUOUS
 62
               3
  5
30E
 10
58.350464063400963
 20
-526.25000000000011
 30
0.0
 11
58.350464063400963
 21
-527.25
 31
0.0
  0
LINE
  8
0
  6
CONTINUOUS
 62
               3
  5
30F
 10
58.350464063399258
 20
-658.24999999999898
 30
0.0
 11
72.350464063399315
 21
-658.2499999999992
 31
0.0
  0
ARC
  8
0
  6
CONTINUOUS
 62
               3
  5
310
 10
72.350464063399315
 20
-656.2499999999992
 30
0.0
 40
1.0000000000000004
 50
270.00000000005133
 51
360.0000000000328
  0
ARC
  8
0
  6
CONTINUOUS
 62
               3
  5
311
 10
72.350464063399315
 20
-656.2499999999992
 30
0.0
 40
1.9999999999999996
 50
270.00000000004979
 51
360.0000000000328
  0
ARC
  8
0
  6
CONTINUOUS
 62
               3
  5
312
 10
69.350464063399372
 20
-653.2499999999992
 30
0.0
 40
4.0
 50
270.00000000004979
 51
360.0000000000328
  0
LINE
  8
0
  6
CONTINUOUS
 62
               3
  5
313
 10
58.350464063399258
 20
-658.24999999999898
 30
0.0
 11
58.350464063399258
 21
-657.2499999999992
 31
0.0
  0
LINE
  8
0
  6
CONTINUOUS
 62
               3
  5
314
 10
74.350464063399201
 20
-656.2499999999992
 30
0.0
 11
74.350464063400224
 21
-595.24999999999898
 31
0.0
  0
LINE
  8
0
  6
CONTINUOUS
 62
               3
  5
315
 10
73.350464063399258
 20
-656.2499999999992
 30
0.0
 11
73.350464063400281
 21
-595.24999999999898
 31
0.0
  0
LINE
  8
0
  6
CONTINUOUS
 62
               3
  5
316
 10
-6.6495359365995874
 20
-657.24999999999829
 30
0.0
 11
72.350464063399315
 21
-657.2499999999992
 31
0.0
  0
LINE
  8
0
  6
CONTINUOUS
 62
               3
  5
317
 10
-6.6495359365995874
 20
-634.74999999999829
 30
0.0
 11
73.350464063399542
 21
-634.74999999999898
 31
0.0
  0
ARC
  8
0
  6
CONTINUOUS
 62
               3
  5
318
 10
75.350464063400281
 20
-595.24999999999898
 30
0.0
 40
1.9999999999999996
 50
90.000000000016598
 51
179.99999999999847
  0
ARC
  8
0
  6
CONTINUOUS
 62
               3
  5
319
 10
75.350464063400281
 20
-595.24999999999898
 30
0.0
 40
1.0000000000000004
 50
90.000000000015078
 51
179.99999999999883
  0
LINE
  8
0
  6
CONTINUOUS
 62
               3
  5
31A
 10
75.350464063400281
 20
-594.24999999999898
 30
0.0
 11
138.35046406340041
 21
-594.24999999999943
 31
0.0
  0
LINE
  8
0
  6
CONTINUOUS
 62
               3
  5
31B
 10
73.350464063400963
 20
-550.25000000000011
 30
0.0
 11
-6.649535936599019
 21
-550.25000000000011
 31
0.0
  0
LINE
  8
0
  6
CONTINUOUS
 62
               3
  5
31C
 10
70.35046406340085
 20
-550.25000000000011
 30
0.0
 11
70.350464063400281
 21
-634.74999999999898
 31
0.0
  0
LINE
  8
0
  6
CONTINUOUS
 62
               3
  5
31D
 10
138.35046406340041
 20
-592.24999999999943
 30
0.0
 11
138.35046406340041
 21
-593.24999999999943
 31
0.0
  0
LINE
  8
0
  6
CONTINUOUS
 62
               3
  5
31E
 10
138.35046406340041
 20
-594.24999999999943
 30
0.0
 11
138.35046406340041
 21
-593.24999999999943
 31
0.0
  0
LINE
  8
0
  6
CONTINUOUS
 62
               3
  5
31F
 10
80.600464063400224
 20
-590.74999999999898
 30
0.0
 11
88.100464063400224
 21
-590.74999999999898
 31
0.0
  0
LINE
  8
0
  6
CONTINUOUS
 62
               3
  5
320
 10
80.600464063400224
 20
-595.74999999999898
 30
0.0
 11
88.100464063400224
 21
-595.7499999999992
 31
0.0
  0
LINE
  8
0
  6
CONTINUOUS
 62
               3
  5
321
 10
80.600464063400224
 20
-590.74999999999898
 30
0.0
 11
80.600464063400224
 21
-592.24999999999898
 31
0.0
  0
LINE
  8
0
  6
CONTINUOUS
 62
               3
  5
322
 10
80.600464063400224
 20
-594.24999999999898
 30
0.0
 11
80.600464063400224
 21
-595.74999999999898
 31
0.0
  0
LINE
  8
0
  6
CONTINUOUS
 62
               3
  5
323
 10
88.100464063400224
 20
-590.74999999999898
 30
0.0
 11
88.100464063400224
 21
-592.24999999999898
 31
0.0
  0
LINE
  8
0
  6
CONTINUOUS
 62
               3
  5
324
 10
88.100464063400224
 20
-594.2499999999992
 30
0.0
 11
88.100464063400224
 21
-595.7499999999992
 31
0.0
  0
LINE
  8
0
  6
CONTINUOUS
 62
               3
  5
325
 10
55.350464063400295
 20
-672.24999999999829
 30
0.0
 11
55.350464063400295
 21
-657.2499999999992
 31
0.0
  0
LINE
  8
0
  6
CONTINUOUS
 62
               3
  5
326
 10
550.35046406340052
 20
-527.25000000000068
 30
0.0
 11
550.35046406340052
 21
-492.25000000000028
 31
0.0
  0
LINE
  8
0
  6
CONTINUOUS
 62
               3
  5
327
 10
436.35046406340041
 20
-527.25000000000068
 30
0.0
 11
436.35046406340041
 21
-492.25000000000028
 31
0.0
  0
LINE
  8
0
  6
CONTINUOUS
 62
               3
  5
328
 10
436.35046406340041
 20
-492.25000000000028
 30
0.0
 11
550.35046406340052
 21
-492.25000000000028
 31
0.0
  0
LINE
  8
0
  6
CONTINUOUS
 62
               3
  5
329
 10
550.35046406340052
 20
-492.25000000000028
 30
0.0
 11
551.35046406340098
 21
-491.24999999999983
 31
0.0
  0
LINE
  8
0
  6
CONTINUOUS
 62
               3
  5
32A
 10
436.35046406340041
 20
-492.25000000000028
 30
0.0
 11
435.35046406340086
 21
-491.24999999999983
 31
0.0
  0
LINE
  8
0
  6
CONTINUOUS
 62
               3
  5
32B
 10
431.3504640634003
 20
-672.24999999999909
 30
0.0
 11
431.3504640634003
 21
-657.25
 31
0.0
  0
LINE
  8
0
  6
CONTINUOUS
 62
               3
  5
32C
 10
428.35046406340041
 20
-672.24999999999909
 30
0.0
 11
558.35046406340052
 21
-672.24999999999909
 31
0.0
  0
ARC
  8
0
  6
CONTINUOUS
 62
               3
  5
32D
 10
417.35046406340109
 20
-531.25000000000091
 30
0.0
 40
4.0
 50
89.999999999982236
 51
179.99999999996518
  0
LINE
  8
0
  6
CONTINUOUS
 62
               3
  5
32E
 10
413.35046406340109
 20
-531.24999999999864
 30
0.0
 11
413.35046406340086
 21
-550.25000000000091
 31
0.0
  0
LINE
  8
0
  6
CONTINUOUS
 62
               3
  5
32F
 10
477.35046406340109
 20
-527.25000000000045
 30
0.0
 11
417.35046406340109
 21
-527.25000000000091
 31
0.0
  0
LINE
  8
0
  6
CONTINUOUS
 62
               3
  5
330
 10
477.35046406340109
 20
-658.24999999999909
 30
0.0
 11
509.3504640634016
 21
-658.24999999999864
 31
0.0
  0
ARC
  8
0
  6
CONTINUOUS
 62
               3
  5
331
 10
417.35046406340132
 20
-653.25
 30
0.0
 40
4.0
 50
179.99999999996601
 51
269.99999999994901
  0
LINE
  8
0
  6
CONTINUOUS
 62
               3
  5
332
 10
413.35046406340132
 20
-653.25
 30
0.0
 11
413.35046406340143
 21
-634.74999999999977
 31
0.0
  0
LINE
  8
0
  6
CONTINUOUS
 62
               3
  5
333
 10
477.35046406340109
 20
-657.24999999999932
 30
0.0
 11
417.35046406339791
 21
-657.25
 31
0.0
  0
LINE
  8
0
  6
CONTINUOUS
 62
               3
  5
334
 10
477.35046406340109
 20
-634.74999999999932
 30
0.0
 11
413.35046406340132
 21
-634.74999999999977
 31
0.0
  0
LINE
  8
0
  6
CONTINUOUS
 62
               3
  5
335
 10
413.35046406340086
 20
-550.25000000000091
 30
0.0
 11
477.35046406340109
 21
-550.25000000000091
 31
0.0
  0
LINE
  8
0
  6
CONTINUOUS
 62
               3
  5
336
 10
416.35046406340086
 20
-550.25000000000091
 30
0.0
 11
416.3504640634003
 21
-634.74999999999977
 31
0.0
  0
LINE
  8
0
  6
CONTINUOUS
 62
               3
  5
337
 10
509.35046406340115
 20
-527.25000000000045
 30
0.0
 11
572.35046406340098
 21
-527.25000000000091
 31
0.0
  0
LINE
  8
0
  6
CONTINUOUS
 62
               3
  5
338
 10
509.3504640634016
 20
-657.24999999999932
 30
0.0
 11
569.35046406339961
 21
-657.25
 31
0.0
  0
LINE
  8
0
  6
CONTINUOUS
 62
               3
  5
339
 10
509.3504640634016
 20
-634.74999999999932
 30
0.0
 11
573.35046406339961
 21
-634.74999999999977
 31
0.0
  0
LINE
  8
0
  6
CONTINUOUS
 62
               3
  5
33A
 10
573.3504640634012
 20
-550.25000000000091
 30
0.0
 11
509.35046406340115
 21
-550.25000000000091
 31
0.0
  0
LINE
  8
0
  6
CONTINUOUS
 62
               3
  5
33B
 10
555.35046406340052
 20
-672.24999999999909
 30
0.0
 11
555.35046406340052
 21
-657.25
 31
0.0
  0
LINE
  8
0
  6
CONTINUOUS
 62
               3
  5
33C
 10
477.35046406340109
 20
-526.25000000000091
 30
0.0
 11
477.35046406340109
 21
-658.24999999999909
 31
0.0
  0
LINE
  8
0
  6
CONTINUOUS
 62
               3
  5
33D
 10
509.3504640634016
 20
-658.24999999999864
 30
0.0
 11
509.35046406340115
 21
-526.25000000000091
 31
0.0
  0
LINE
  8
0
  6
CONTINUOUS
 62
               3
  5
33E
 10
477.35046406340041
 20
-526.25000000000091
 30
0.0
 11
509.35046406340047
 21
-526.25000000000091
 31
0.0
  0
LINE
  8
0
  6
CONTINUOUS
 62
               3
  5
33F
 10
477.35046406340109
 20
-593.24999999999977
 30
0.0
 11
509.3504640634016
 21
-593.24999999999977
 31
0.0
  0
LINE
  8
0
  6
CONTINUOUS
 62
               3
  5
340
 10
477.35046406340109
 20
-592.25
 30
0.0
 11
509.3504640634016
 21
-592.25
 31
0.0
  0
LINE
  8
0
  6
CONTINUOUS
 62
               3
  5
341
 10
477.35046406340109
 20
-594.25
 30
0.0
 11
509.3504640634016
 21
-594.25
 31
0.0
  0
ARC
  8
0
  6
CONTINUOUS
 62
               3
  5
342
 10
569.35046406339984
 20
-531.25000000000091
 30
0.0
 40
4.0
 50
0.0000000000344079
 51
90.000000000017366
  0
LINE
  8
0
  6
CONTINUOUS
 62
               3
  5
343
 10
573.35046406339984
 20
-531.24999999999864
 30
0.0
 11
573.35046406340007
 21
-550.25000000000091
 31
0.0
  0
ARC
  8
0
  6
CONTINUOUS
 62
               3
  5
344
 10
569.35046406339961
 20
-653.25
 30
0.0
 40
4.0
 50
270.00000000004979
 51
360.0000000000328
  0
LINE
  8
0
  6
CONTINUOUS
 62
               3
  5
345
 10
573.35046406339961
 20
-653.25
 30
0.0
 11
573.35046406339961
 21
-634.74999999999977
 31
0.0
  0
LINE
  8
0
  6
CONTINUOUS
 62
               3
  5
346
 10
570.35046406340007
 20
-550.25000000000091
 30
0.0
 11
570.35046406340075
 21
-634.74999999999977
 31
0.0
  0
LINE
  8
0
  6
CONTINUOUS
 62
               3
  5
347
 10
-448.64953593659914
 20
-491.24999999999909
 30
0.0
 11
-448.64953593659914
 21
-380.45708506678932
 31
0.0
  0
LINE
  8
0
  6
CONTINUOUS
 62
               3
  5
348
 10
-564.64953593659902
 20
-380.45708506678932
 30
0.0
 11
-564.64953593659902
 21
-491.24999999999909
 31
0.0
  0
LINE
  8
0
  6
CONTINUOUS
 62
               3
  5
349
 10
51.350464063400864
 20
-491.24999999999898
 30
0.0
 11
51.350464063400864
 21
-380.45708506678932
 31
0.0
  0
LINE
  8
0
  6
CONTINUOUS
 62
               3
  5
34A
 10
-64.649535936599136
 20
-380.45708506678932
 30
0.0
 11
-64.649535936599136
 21
-491.24999999999898
 31
0.0
  0
LINE
  8
0
  6
CONTINUOUS
 62
               3
  5
34B
 10
435.35046406340047
 20
-491.24999999999972
 30
0.0
 11
435.35046406340024
 21
-380.45708506679
 31
0.0
  0
LINE
  8
0
  6
CONTINUOUS
 62
               3
  5
34C
 10
551.35046406340052
 20
-380.45708506679
 30
0.0
 11
551.35046406340052
 21
-491.24999999999972
 31
0.0
  0
CIRCLE
  8
0
  6
CONTINUOUS
 62
               3
  5
34D
 10
602.63698727970836
 20
-1156.1068645130488
 30
0.0
 40
75.0
  0
CIRCLE
  8
0
  6
CONTINUOUS
 62
               3
  5
34E
 10
602.63698727970836
 20
-1156.1068645130488
 30
0.0
 40
52.5
  0
LINE
  8
0
  6
CONTINUOUS
 62
               3
  5
34F
 10
516.42648907908313
 20
-1136.1068645130488
 30
0.0
 11
530.35282580570299
 21
-1136.1068645130488
 31
0.0
  0
LINE
  8
0
  6
CONTINUOUS
 62
               3
  5
350
 10
530.35282580570299
 20
-1176.1068645130488
 30
0.0
 11
516.42648907908313
 21
-1176.1068645130488
 31
0.0
  0
ARC
  8
0
  6
CONTINUOUS
 62
               3
  5
351
 10
602.63698727970836
 20
-1156.1068645130488
 30
0.0
 40
88.5
 50
166.93897588510336
 51
193.06102411468945
  0
LINE
  8
0
  6
CONTINUOUS
 62
               3
  5
352
 10
582.63698727970836
 20
-1242.3173627136737
 30
0.0
 11
582.63698727970836
 21
-1228.3910259870538
 31
0.0
  0
LINE
  8
0
  6
CONTINUOUS
 62
               3
  5
353
 10
622.63698727970836
 20
-1228.3910259870538
 30
0.0
 11
622.63698727970836
 21
-1242.3173627136737
 31
0.0
  0
ARC
  8
0
  6
CONTINUOUS
 62
               3
  5
354
 10
602.63698727970836
 20
-1156.1068645130488
 30
0.0
 40
88.5
 50
256.93897588505166
 51
283.06102411463769
  0
LINE
  8
0
  6
CONTINUOUS
 62
               3
  5
355
 10
688.84748548033303
 20
-1176.1068645130488
 30
0.0
 11
674.9211487537126
 21
-1176.1068645130488
 31
0.0
  0
LINE
  8
0
  6
CONTINUOUS
 62
               3
  5
356
 10
674.9211487537126
 20
-1136.1068645130488
 30
0.0
 11
688.84748548033303
 21
-1136.1068645130488
 31
0.0
  0
ARC
  8
0
  6
CONTINUOUS
 62
               3
  5
357
 10
602.63698727970836
 20
-1156.1068645130488
 30
0.0
 40
88.5
 50
346.93897588499982
 51
373.06102411458585
  0
LINE
  8
0
  6
CONTINUOUS
 62
               3
  5
358
 10
622.63698727970836
 20
-1069.8963663124232
 30
0.0
 11
622.63698727970836
 21
-1083.8227030390437
 31
0.0
  0
LINE
  8
0
  6
CONTINUOUS
 62
               3
  5
359
 10
582.63698727970836
 20
-1083.8227030390437
 30
0.0
 11
582.63698727970836
 21
-1069.8963663124232
 31
0.0
  0
ARC
  8
0
  6
CONTINUOUS
 62
               3
  5
35A
 10
602.63698727970836
 20
-1156.1068645130488
 30
0.0
 40
88.5
 50
76.938975885155216
 51
103.06102411474124
  0
LINE
  8
0
  6
CONTINUOUS
 62
               3
  5
35B
 10
554.96886375884731
 20
-1178.1068645130492
 30
0.0
 11
650.30511080056829
 21
-1178.1068645130492
 31
0.0
  0
ARC
  8
0
  6
CONTINUOUS
 62
               3
  5
35C
 10
615.14059892908949
 20
-1147.4004668854298
 30
0.0
 40
54.763804151667173
 50
141.3859176367566
 51
145.15009542087031
  0
ARC
  8
0
  6
CONTINUOUS
 62
               3
  5
35D
 10
602.63698727970836
 20
-1156.1068645130488
 30
0.0
 40
51.5
 50
334.71098847326505
 51
410.95932736340404
  0
ARC
  8
0
  6
CONTINUOUS
 62
               3
  5
35E
 10
602.63698727970836
 20
-1156.1068645130488
 30
0.0
 40
51.5
 50
129.04067263628559
 51
205.28901152642416
  0
ARC
  8
0
  6
CONTINUOUS
 62
               3
  5
35F
 10
602.63698727970836
 20
-1156.1068645130488
 30
0.0
 40
77.5
 50
104.95524831658301
 51
128.57288309095932
  0
ARC
  8
0
  6
CONTINUOUS
 62
               3
  5
360
 10
602.63698727970836
 20
-1156.1068645130488
 30
0.0
 40
77.5
 50
14.9552483166347
 51
75.044751683313535
  0
ARC
  8
0
  6
CONTINUOUS
 62
               3
  5
361
 10
602.63698727970836
 20
-1156.1068645130488
 30
0.0
 40
77.5
 50
321.42711690878122
 51
345.04475168315804
  0
LINE
  8
0
  6
CONTINUOUS
 62
               3
  5
362
 10
462.63698727970842
 20
-1211.1068645130488
 30
0.0
 11
463.30854340567265
 21
-1211.1068645130488
 31
0.0
  0
LINE
  8
0
  6
CONTINUOUS
 62
               3
  5
363
 10
465.80854340567311
 20
-1213.6068645130488
 30
0.0
 11
463.30854340567265
 21
-1211.1068645130488
 31
0.0
  0
LINE
  8
0
  6
CONTINUOUS
 62
               3
  5
364
 10
462.63698727970842
 20
-1101.1068645130488
 30
0.0
 11
463.30854340567265
 21
-1101.1068645130488
 31
0.0
  0
LINE
  8
0
  6
CONTINUOUS
 62
               3
  5
365
 10
465.80854340567265
 20
-1098.6068645130488
 30
0.0
 11
463.30854340567265
 21
-1101.1068645130488
 31
0.0
  0
LINE
  8
0
  6
CONTINUOUS
 62
               3
  5
366
 10
463.30854340567265
 20
-1101.1068645130488
 30
0.0
 11
463.30854340567265
 21
-1211.1068645130488
 31
0.0
  0
LINE
  8
0
  6
CONTINUOUS
 62
               3
  5
367
 10
557.14665149333041
 20
-1095.4172674947072
 30
0.0
 11
465.80854340567265
 21
-1098.6068645130488
 31
0.0
  0
LINE
  8
0
  6
CONTINUOUS
 62
               3
  5
368
 10
537.80051556315732
 20
-1216.1208795780165
 30
0.0
 11
465.80854340567322
 21
-1213.6068645130488
 31
0.0
  0
LINE
  8
0
  6
CONTINUOUS
 62
               3
  5
369
 10
457.63698727970842
 20
-1101.2784206390129
 30
0.0
 11
457.63698727970842
 21
-1211.2068645130487
 31
0.0
  0
LINE
  8
0
  6
CONTINUOUS
 62
               3
  5
36A
 10
462.63698727970842
 20
-1213.7068645130487
 30
0.0
 11
462.63698727970842
 21
-1098.5068645130486
 31
0.0
  0
LINE
  8
0
  6
CONTINUOUS
 62
               3
  5
36B
 10
462.63698727970842
 20
-1098.5068645130486
 30
0.0
 11
460.13698727970842
 21
-1098.5068645130486
 31
0.0
  0
LINE
  8
0
  6
CONTINUOUS
 62
               3
  5
36C
 10
462.63698727970842
 20
-1213.7068645130487
 30
0.0
 11
460.13698727970842
 21
-1213.7068645130487
 31
0.0
  0
ARC
  8
0
  6
CONTINUOUS
 62
               3
  5
36D
 10
460.13698727970842
 20
-1211.2068645130487
 30
0.0
 40
2.5
 50
179.99999999989538
 51
269.99999999984436
  0
ARC
  8
0
  6
CONTINUOUS
 62
               3
  5
36E
 10
460.13698727970842
 20
-1101.0068645130486
 30
0.0
 40
2.5
 50
89.999999999948997
 51
179.99999999989538
  0
LINE
  8
0
  6
CONTINUOUS
 62
               3
  5
36F
 10
570.19858411309076
 20
-1116.106864513049
 30
0.0
 11
602.63698727970836
 21
-1116.106864513049
 31
0.0
  0
LINE
  8
0
  6
CONTINUOUS
 62
               3
  5
370
 10
602.63698727970836
 20
-1116.106864513049
 30
0.0
 11
636.64066355154705
 21
-1116.106864513049
 31
0.0
  0
LINE
  8
0
  6
CONTINUOUS
 62
               3
  5
371
 10
465.80854340567311
 20
-1213.6068645130488
 30
0.0
 11
465.80854340567265
 21
-1098.6068645130488
 31
0.0
  0
ARC
  8
0
  6
CONTINUOUS
 62
               3
  5
372
 10
556.97215400981793
 20
-1090.4203133596116
 30
0.0
 40
5.0
 50
271.99999999984402
 51
304.806757870252
  0
LINE
  8
0
  6
CONTINUOUS
 62
               3
  5
373
 10
657.63698727970825
 20
-1296.1068645130488
 30
0.0
 11
657.63698727970825
 21
-1295.4353083870844
 31
0.0
  0
LINE
  8
0
  6
CONTINUOUS
 62
               3
  5
374
 10
660.13698727970825
 20
-1292.935308387084
 30
0.0
 11
657.63698727970825
 21
-1295.4353083870844
 31
0.0
  0
LINE
  8
0
  6
CONTINUOUS
 62
               3
  5
375
 10
547.63698727970825
 20
-1296.1068645130488
 30
0.0
 11
547.63698727970825
 21
-1295.4353083870844
 31
0.0
  0
LINE
  8
0
  6
CONTINUOUS
 62
               3
  5
376
 10
545.13698727970825
 20
-1292.9353083870844
 30
0.0
 11
547.63698727970825
 21
-1295.4353083870844
 31
0.0
  0
LINE
  8
0
  6
CONTINUOUS
 62
               3
  5
377
 10
547.63698727970825
 20
-1295.4353083870844
 30
0.0
 11
657.63698727970825
 21
-1295.4353083870844
 31
0.0
  0
LINE
  8
0
  6
CONTINUOUS
 62
               3
  5
378
 10
547.80854340567237
 20
-1301.1068645130488
 30
0.0
 11
657.73698727970827
 21
-1301.1068645130488
 31
0.0
  0
LINE
  8
0
  6
CONTINUOUS
 62
               3
  5
379
 10
660.23698727970827
 20
-1296.1068645130488
 30
0.0
 11
545.03698727970823
 21
-1296.1068645130488
 31
0.0
  0
LINE
  8
0
  6
CONTINUOUS
 62
               3
  5
37A
 10
545.03698727970823
 20
-1296.1068645130488
 30
0.0
 11
545.03698727970823
 21
-1298.6068645130488
 31
0.0
  0
LINE
  8
0
  6
CONTINUOUS
 62
               3
  5
37B
 10
660.23698727970827
 20
-1296.1068645130488
 30
0.0
 11
660.23698727970827
 21
-1298.6068645130488
 31
0.0
  0
ARC
  8
0
  6
CONTINUOUS
 62
               3
  5
37C
 10
657.73698727970827
 20
-1298.6068645130488
 30
0.0
 40
2.5
 50
269.99999999984567
 51
359.99999999979076
  0
ARC
  8
0
  6
CONTINUOUS
 62
               3
  5
37D
 10
547.53698727970823
 20
-1298.6068645130488
 30
0.0
 40
2.5
 50
179.99999999989538
 51
269.99999999984567
  0
LINE
  8
0
  6
CONTINUOUS
 62
               3
  5
37E
 10
660.13698727970825
 20
-1292.935308387084
 30
0.0
 11
545.13698727970825
 21
-1292.9353083870844
 31
0.0
  0
LINE
  8
0
  6
CONTINUOUS
 62
               3
  5
37F
 10
663.3265842980494
 20
-1201.5972002994272
 30
0.0
 11
660.13698727970825
 21
-1292.935308387084
 31
0.0
  0
ARC
  8
0
  6
CONTINUOUS
 62
               3
  5
380
 10
668.3235384331449
 20
-1201.7716977829398
 30
0.0
 40
5.0
 50
145.19324212948862
 51
177.99999999989819
  0
LINE
  8
0
  6
CONTINUOUS
 62
               3
  5
381
 10
542.62297221474023
 20
-1220.9433362295997
 30
0.0
 11
545.13698727970825
 21
-1292.9353083870844
 31
0.0
  0
ARC
  8
0
  6
CONTINUOUS
 62
               3
  5
382
 10
537.62601807964484
 20
-1221.1178337131118
 30
0.0
 40
5.0
 50
1.9999999999958187
 51
87.99999999994921
  0
LINE
  8
0
  6
CONTINUOUS
 62
               3
  5
383
 10
527.63698727970836
 20
-1464.6062982616331
 30
0.0
 11
677.63698727970836
 21
-1464.6062982616331
 31
0.0
  0
LINE
  8
0
  6
CONTINUOUS
 62
               3
  5
384
 10
514.13698727970814
 20
-1474.6062982616331
 30
0.0
 11
514.13698727970814
 21
-1481.6062982616327
 31
0.0
  0
LINE
  8
0
  6
CONTINUOUS
 62
               3
  5
385
 10
514.13698727970814
 20
-1474.6062982616331
 30
0.0
 11
527.63698727970836
 21
-1464.6062982616331
 31
0.0
  0
ARC
  8
0
  6
CONTINUOUS
 62
               3
  5
386
 10
525.63698727970848
 20
-1486.1888739565884
 30
0.0
 40
4.9999999999999991
 50
0.0
 51
66.421821521760023
  0
LINE
  8
0
  6
CONTINUOUS
 62
               3
  5
387
 10
514.13698727970814
 20
-1481.6062982616327
 30
0.0
 11
691.13698727970802
 21
-1481.6062982616327
 31
0.0
  0
ARC
  8
0
  6
CONTINUOUS
 62
               3
  5
388
 10
547.63698727970836
 20
-1571.6062982616331
 30
0.0
 40
19.999999999999996
 50
148.21166938286279
 51
167.26981986159123
  0
LINE
  8
0
  6
CONTINUOUS
 62
               3
  5
389
 10
530.63698727970848
 20
-1486.1888739565884
 30
0.0
 11
530.63698727970848
 21
-1561.0706445087803
 31
0.0
  0
LINE
  8
0
  6
CONTINUOUS
 62
               3
  5
38A
 10
674.63698727970825
 20
-1556.0706445087799
 30
0.0
 11
674.63698727970825
 21
-1486.1888739565884
 31
0.0
  0
LINE
  8
0
  6
CONTINUOUS
 62
               3
  5
38B
 10
530.63698727970848
 20
-1561.0706445087803
 30
0.0
 11
674.13698727970871
 21
-1561.0706445087803
 31
0.0
  0
LINE
  8
0
  6
CONTINUOUS
 62
               3
  5
38C
 10
582.63698727970836
 20
-1481.6062982616327
 30
0.0
 11
582.63698727970836
 21
-1464.6062982616331
 31
0.0
  0
LINE
  8
0
  6
CONTINUOUS
 62
               3
  5
38D
 10
622.63698727970836
 20
-1464.6062982616331
 30
0.0
 11
622.63698727970836
 21
-1481.6062982616327
 31
0.0
  0
LINE
  8
0
  6
CONTINUOUS
 62
               3
  5
38E
 10
582.63698727970836
 20
-1474.6062982616331
 30
0.0
 11
622.63698727970836
 21
-1474.6062982616331
 31
0.0
  0
LINE
  8
0
  6
CONTINUOUS
 62
               3
  5
38F
 10
530.35282580570299
 20
-1464.6062982616331
 30
0.0
 11
530.35282580570299
 21
-1481.6062982616327
 31
0.0
  0
LINE
  8
0
  6
CONTINUOUS
 62
               3
  5
390
 10
516.42648907908313
 20
-1474.6062982616331
 30
0.0
 11
516.42648907908313
 21
-1481.6062982616327
 31
0.0
  0
LINE
  8
0
  6
CONTINUOUS
 62
               3
  5
391
 10
514.13698727970814
 20
-1474.6062982616331
 30
0.0
 11
516.42648907908313
 21
-1474.6062982616331
 31
0.0
  0
LINE
  8
0
  6
CONTINUOUS
 62
               3
  5
392
 10
516.42648907908313
 20
-1474.6062982616331
 30
0.0
 11
530.35282580570299
 21
-1464.6062982616331
 31
0.0
  0
LINE
  8
0
  6
CONTINUOUS
 62
               3
  5
393
 10
691.13698727970802
 20
-1474.6062982616331
 30
0.0
 11
691.13698727970802
 21
-1481.6062982616327
 31
0.0
  0
LINE
  8
0
  6
CONTINUOUS
 62
               3
  5
394
 10
691.13698727970802
 20
-1474.6062982616331
 30
0.0
 11
677.63698727970836
 21
-1464.6062982616331
 31
0.0
  0
ARC
  8
0
  6
CONTINUOUS
 62
               3
  5
395
 10
679.63698727970825
 20
-1486.1888739565884
 30
0.0
 40
4.9999999999999991
 50
113.57817847813573
 51
179.99999999989538
  0
LINE
  8
0
  6
CONTINUOUS
 62
               3
  5
396
 10
674.9211487537126
 20
-1464.6062982616331
 30
0.0
 11
674.9211487537126
 21
-1481.6062982616327
 31
0.0
  0
LINE
  8
0
  6
CONTINUOUS
 62
               3
  5
397
 10
688.8474854803336
 20
-1474.6062982616331
 30
0.0
 11
688.8474854803336
 21
-1481.6062982616327
 31
0.0
  0
LINE
  8
0
  6
CONTINUOUS
 62
               3
  5
398
 10
691.13698727970802
 20
-1474.6062982616331
 30
0.0
 11
688.8474854803336
 21
-1474.6062982616331
 31
0.0
  0
LINE
  8
0
  6
CONTINUOUS
 62
               3
  5
399
 10
688.8474854803336
 20
-1474.6062982616331
 30
0.0
 11
674.9211487537126
 21
-1464.6062982616331
 31
0.0
  0
ARC
  8
0
  6
CONTINUOUS
 62
               3
  5
39A
 10
537.63698727970836
 20
-1693.1062982616331
 30
0.0
 40
2.4999999999999996
 50
89.99999999994769
 51
269.99999999984567
  0
ARC
  8
0
  6
CONTINUOUS
 62
               3
  5
39B
 10
677.63698727970836
 20
-1693.1062982616331
 30
0.0
 40
2.4999999999999996
 50
269.99999999984567
 51
449.99999999974102
  0
LINE
  8
0
  6
CONTINUOUS
 62
               3
  5
39C
 10
462.63698727970842
 20
-1685.6062982616331
 30
0.0
 11
463.30854340567276
 21
-1685.6062982616331
 31
0.0
  0
LINE
  8
0
  6
CONTINUOUS
 62
               3
  5
39D
 10
465.80854340567288
 20
-1688.1062982616324
 30
0.0
 11
463.30854340567276
 21
-1685.6062982616331
 31
0.0
  0
LINE
  8
0
  6
CONTINUOUS
 62
               3
  5
39E
 10
465.80854340567367
 20
-1688.1062982616331
 30
0.0
 11
507.973653661951
 21
-1689.5787363574873
 31
0.0
  0
LINE
  8
0
  6
CONTINUOUS
 62
               3
  5
39F
 10
526.1725211856409
 20
-1705.8779876879191
 30
0.0
 11
511.33469008437118
 21
-1691.0401565866498
 31
0.0
  0
ARC
  8
0
  6
CONTINUOUS
 62
               3
  5
3A0
 10
522.63698727970836
 20
-1709.4135215938522
 30
0.0
 40
4.9999999999999991
 50
0.0
 51
44.999999999973191
  0
LINE
  8
0
  6
CONTINUOUS
 62
               3
  5
3A1
 10
462.63698727970842
 20
-1575.6062982616331
 30
0.0
 11
463.30854340567276
 21
-1575.6062982616331
 31
0.0
  0
LINE
  8
0
  6
CONTINUOUS
 62
               3
  5
3A2
 10
465.80854340567288
 20
-1573.1062982616331
 30
0.0
 11
463.30854340567276
 21
-1575.6062982616331
 31
0.0
  0
LINE
  8
0
  6
CONTINUOUS
 62
               3
  5
3A3
 10
465.80854340567276
 20
-1573.1062982616331
 30
0.0
 11
523.42601960784702
 21
-1571.0942516564808
 31
0.0
  0
LINE
  8
0
  6
CONTINUOUS
 62
               3
  5
3A4
 10
463.30854340567276
 20
-1575.6062982616331
 30
0.0
 11
463.30854340567276
 21
-1685.6062982616331
 31
0.0
  0
LINE
  8
0
  6
CONTINUOUS
 62
               3
  5
3A5
 10
462.63698727970842
 20
-1688.206298261633
 30
0.0
 11
462.63698727970842
 21
-1573.0062982616332
 31
0.0
  0
LINE
  8
0
  6
CONTINUOUS
 62
               3
  5
3A6
 10
462.63698727970842
 20
-1573.0062982616332
 30
0.0
 11
460.13698727970842
 21
-1573.0062982616332
 31
0.0
  0
ARC
  8
0
  6
CONTINUOUS
 62
               3
  5
3A7
 10
460.13698727970842
 20
-1575.5062982616332
 30
0.0
 40
2.5
 50
89.999999999948997
 51
179.99999999989538
  0
LINE
  8
0
  6
CONTINUOUS
 62
               3
  5
3A8
 10
457.63698727970842
 20
-1575.5062982616332
 30
0.0
 11
457.63698727970842
 21
-1685.706298261633
 31
0.0
  0
LINE
  8
0
  6
CONTINUOUS
 62
               3
  5
3A9
 10
462.63698727970842
 20
-1688.206298261633
 30
0.0
 11
460.13698727970842
 21
-1688.206298261633
 31
0.0
  0
ARC
  8
0
  6
CONTINUOUS
 62
               3
  5
3AA
 10
460.13698727970842
 20
-1685.706298261633
 30
0.0
 40
2.5
 50
179.99999999989538
 51
269.99999999984436
  0
LINE
  8
0
  6
CONTINUOUS
 62
               3
  5
3AB
 10
465.80854340567288
 20
-1573.1062982616331
 30
0.0
 11
465.80854340567367
 21
-1688.1062982616331
 31
0.0
  0
ARC
  8
0
  6
CONTINUOUS
 62
               3
  5
3AC
 10
507.79915617843852
 20
-1694.5756904925827
 30
0.0
 40
5.0
 50
44.999999999975948
 51
87.999999999949253
  0
ARC
  8
0
  6
CONTINUOUS
 62
               3
  5
3AD
 10
523.25152212433454
 20
-1566.0972975213854
 30
0.0
 40
5.0
 50
271.99999999984408
 51
347.26981986148661
  0
CIRCLE
  8
0
  6
CONTINUOUS
 62
               3
  5
3AE
 10
602.63698727970836
 20
-1630.6062982616331
 30
0.0
 40
48.5
  0
CIRCLE
  8
0
  6
CONTINUOUS
 62
               3
  5
3AF
 10
602.63698727970836
 20
-1630.6062982616331
 30
0.0
 40
47.299999999999997
  0
LINE
  8
0
  6
CONTINUOUS
 62
               3
  5
3B0
 10
570.81718212631381
 20
-1662.4261034150277
 30
0.0
 11
569.19083652958466
 21
-1664.0524490117568
 31
0.0
  0
LINE
  8
0
  6
CONTINUOUS
 62
               3
  5
3B1
 10
634.45679243310303
 20
-1662.4261034150277
 30
0.0
 11
636.08313802983207
 21
-1664.0524490117568
 31
0.0
  0
ARC
  8
0
  6
CONTINUOUS
 62
               3
  5
3B2
 10
602.63698727970836
 20
-1630.6062982616331
 30
0.0
 40
45.0
 50
224.99999999987043
 51
314.99999999981884
  0
CIRCLE
  8
0
  6
CONTINUOUS
 62
               3
  5
3B3
 10
602.63698727970836
 20
-1630.6062982616331
 30
0.0
 40
57.600000000000001
  0
ARC
  8
0
  6
CONTINUOUS
 62
               3
  5
3B4
 10
580.13698727970893
 20
-1693.1062982616331
 30
0.0
 40
2.4999999999999996
 50
269.99999999984567
 51
449.99999999974102
  0
ARC
  8
0
  6
CONTINUOUS
 62
               3
  5
3B5
 10
625.13698727970893
 20
-1693.1062982616331
 30
0.0
 40
2.4999999999999996
 50
89.99999999994769
 51
269.99999999984567
  0
LINE
  8
0
  6
CONTINUOUS
 62
               3
  5
3B6
 10
537.63698727970836
 20
-1695.6062982616331
 30
0.0
 11
580.13698727970893
 21
-1695.6062982616331
 31
0.0
  0
LINE
  8
0
  6
CONTINUOUS
 62
               3
  5
3B7
 10
537.63698727970836
 20
-1690.6062982616331
 30
0.0
 11
580.13698727970893
 21
-1690.6062982616331
 31
0.0
  0
LINE
  8
0
  6
CONTINUOUS
 62
               3
  5
3B8
 10
625.13698727970893
 20
-1690.6062982616331
 30
0.0
 11
677.63698727970836
 21
-1690.6062982616331
 31
0.0
  0
LINE
  8
0
  6
CONTINUOUS
 62
               3
  5
3B9
 10
625.13698727970893
 20
-1695.6062982616331
 30
0.0
 11
677.63698727970836
 21
-1695.6062982616331
 31
0.0
  0
CIRCLE
  8
0
  6
CONTINUOUS
 62
               3
  5
3BA
 10
602.63698727970836
 20
-1156.1068645130488
 30
0.0
 40
59.0
  0
LINE
  8
0
  6
DASHDOT
 62
               4
  5
3BB
 10
-6.649535936600671
 20
635.25
 30
0.0
 11
-6.6495359366006541
 21
360.74325309471391
 31
0.0
  0
LINE
  8
0
  6
DASHDOT
 62
               4
  5
3BC
 10
-183.04615889330984
 20
526.75
 30
0.0
 11
152.45231015581589
 21
526.75
 31
0.0
  0
LINE
  8
0
  6
DASHDOT
 62
               4
  5
3BD
 10
-88.124311161375942
 20
-53.249999999999829
 30
0.0
 11
-176.64953593660113
 21
-53.249999999999829
 31
0.0
  0
LINE
  8
0
  6
DASHDOT
 62
               4
  5
3BE
 10
-438.12431116137583
 20
-53.250000000000057
 30
0.0
 11
-574.82511036217488
 21
-53.250000000000057
 31
0.0
  0
LINE
  8
0
  6
DASHDOT
 62
               4
  5
3BF
 10
61.875688838624171
 20
-53.250000000000128
 30
0.0
 11
-74.825110362174939
 21
-53.250000000000128
 31
0.0
  0
LINE
  8
0
  6
DASHDOT
 62
               4
  5
3C0
 10
-425.1747607118254
 20
-53.249999999999829
 30
0.0
 11
-336.64953593660022
 21
-53.249999999999829
 31
0.0
  0
LINE
  8
0
  6
DASHDOT
 62
               4
  5
3C1
 10
411.87568883862406
 20
-53.249999999999829
 30
0.0
 11
323.35046406339887
 21
-53.249999999999829
 31
0.0
  0
LINE
  8
0
  6
DASHDOT
 62
               4
  5
3C2
 10
558.47346561256222
 20
-33.250000000000057
 30
0.0
 11
596.64953593660107
 21
-33.250000000000057
 31
0.0
  0
LINE
  8
0
  6
DASHDOT
 62
               4
  5
3C3
 10
74.8252392881746
 20
-53.249999999999829
 30
0.0
 11
163.35046406339978
 21
-53.249999999999829
 31
0.0
  0
LINE
  8
0
  6
DASHDOT
 62
               4
  5
3C4
 10
561.87568883862423
 20
-53.250000000000128
 30
0.0
 11
425.17488963782506
 21
-53.250000000000128
 31
0.0
  0
LINE
  8
0
  6
DASHDOT
 62
               4
  5
3C5
 10
-131.64953593659959
 20
-471.25989800199409
 30
0.0
 11
-131.64953593659959
 21
-635.63825962148451
 31
0.0
  0
LINE
  8
0
  6
DASHDOT
 62
               4
  5
3C6
 10
118.35046406340039
 20
-471.25989800199409
 30
0.0
 11
118.35046406340039
 21
-635.63825962148451
 31
0.0
  0
LINE
  8
0
  6
DASHDOT
 62
               4
  5
3C7
 10
-506.64953593660022
 20
292.75000000000051
 30
0.0
 11
-506.64953593660016
 21
-812.14310860625164
 31
0.0
  0
LINE
  8
0
  6
DASHDOT
 62
               4
  5
3C8
 10
-6.6495359366002162
 20
292.75000000000051
 30
0.0
 11
-6.6495359366001461
 21
-812.14310860625164
 31
0.0
  0
LINE
  8
0
  6
DASHDOT
 62
               4
  5
3C9
 10
493.35046406339978
 20
292.75000000000051
 30
0.0
 11
493.3504640633999
 21
-812.14310860625164
 31
0.0
  0
LINE
  8
0
  6
DASHDOT
 62
               4
  5
3CA
 10
-398.78730498706813
 20
-1278.2913000848398
 30
0.0
 11
-398.78730498706801
 21
-1149.2913000848398
 31
0.0
  0
LINE
  8
0
  6
DASHDOT
 62
               4
  5
3CB
 10
-456.78730498706813
 20
-1220.2913000848398
 30
0.0
 11
-340.78730498706813
 21
-1220.2913000848398
 31
0.0
  0
LINE
  8
0
  6
DASHDOT
 62
               4
  5
3CC
 10
-468.59048347117556
 20
-1213.7913000848398
 30
0.0
 11
-334.28730498706813
 21
-1213.7913000848398
 31
0.0
  0
LINE
  8
0
  6
DASHDOT
 62
               4
  5
3CD
 10
-274.88730498706803
 20
-1213.7913000848398
 30
0.0
 11
-176.28730498706813
 21
-1213.7913000848398
 31
0.0
  0
LINE
  8
0
  6
DASHDOT
 62
               4
  5
3CE
 10
-309.28730498706813
 20
-1220.2913000848398
 30
0.0
 11
-234.88730498706815
 21
-1220.2913000848398
 31
0.0
  0
LINE
  8
0
  6
DASHDOT
 62
               4
  5
3CF
 10
-522.68730498706805
 20
-1213.7913000848396
 30
0.0
 11
-621.28730498706818
 21
-1213.7913000848393
 31
0.0
  0
LINE
  8
0
  6
DASHDOT
 62
               4
  5
3D0
 10
-488.28730498706813
 20
-1220.2913000848396
 30
0.0
 11
-562.68730498706805
 21
-1220.2913000848396
 31
0.0
  0
LINE
  8
0
  6
DASHDOT
 62
               4
  5
3D1
 10
-400.73326238283465
 20
-1116.8234160158047
 30
0.0
 11
-400.73326238283465
 21
-983.8234160158047
 31
0.0
  0
LINE
  8
0
  6
DASHDOT
 62
               4
  5
3D2
 10
214.98438774928155
 20
-1213.7913000848398
 30
0.0
 11
313.58438774928169
 21
-1213.7913000848398
 31
0.0
  0
LINE
  8
0
  6
DASHDOT
 62
               4
  5
3D3
 10
189.98438774928155
 20
-1228.2913000848398
 30
0.0
 11
254.98438774928155
 21
-1228.2913000848398
 31
0.0
  0
LINE
  8
0
  6
DASHDOT
 62
               4
  5
3D4
 10
64.228371524038536
 20
-1228.2913000848398
 30
0.0
 11
164.22837152403878
 21
-1228.2913000848398
 31
0.0
  0
LINE
  8
0
  6
DASHDOT
 62
               4
  5
3D5
 10
114.22837152403854
 20
-1278.2913000848398
 30
0.0
 11
114.22837152403876
 21
-1149.2913000848398
 31
0.0
  0
LINE
  8
0
  6
DASHDOT
 62
               4
  5
3D6
 10
49.728371524038536
 20
-1213.7913000848398
 30
0.0
 11
184.27238130398979
 21
-1213.7913000848398
 31
0.0
  0
LINE
  8
0
  6
DASHDOT
 62
               4
  5
3D7
 10
13.472355298795762
 20
-1213.7913000848398
 30
0.0
 11
-85.127644701204261
 21
-1213.7913000848398
 31
0.0
  0
LINE
  8
0
  6
DASHDOT
 62
               4
  5
3D8
 10
38.472355298795762
 20
-1228.2913000848398
 30
0.0
 11
-26.527644701204238
 21
-1228.2913000848398
 31
0.0
  0
LINE
  8
0
  6
DASHDOT
 62
               4
  5
3D9
 10
114.22837152403876
 20
-1127.535283859597
 30
0.0
 11
114.22837152403876
 21
-1003.9352838595969
 31
0.0
  0
LINE
  8
0
  6
DASHDOT
 62
               4
  5
3DA
 10
602.63698727970836
 20
-1047.6068645130488
 30
0.0
 11
602.63698727970836
 21
-1318.1536513128751
 31
0.0
  0
LINE
  8
0
  6
DASHDOT
 62
               4
  5
3DB
 10
440.63698727970853
 20
-1156.1068645130488
 30
0.0
 11
711.13698727970859
 21
-1156.1068645130488
 31
0.0
  0
LINE
  8
0
  6
DASHDOT
 62
               4
  5
3DC
 10
671.16221205493309
 20
-1630.6062982616331
 30
0.0
 11
440.9083739862802
 21
-1630.6062982616331
 31
0.0
  0
LINE
  8
0
  6
DASHDOT
 62
               4
  5
3DD
 10
602.63698727970836
 20
-1444.6062982616331
 30
0.0
 11
602.63698727970836
 21
-1695.6062982616331
 31
0.0
  0
LINE
  8
0
  6
DASHDOT
 62
               4
  5
3DE
 10
552.63698727970836
 20
-1645.1062982616331
 30
0.0
 11
652.63698727970859
 21
-1645.1062982616331
 31
0.0
  0
LINE
  8
0
  6
DASHDOT
 62
               4
  5
3DF
 10
602.63698727970836
 20
-1346.7068645130489
 30
0.0
 11
602.63698727970836
 21
-1223.1068645130485
 31
0.0
  0
LINE
  8
0
  6
DASHDOT
 62
               4
  5
3E0
 10
402.63698727970842
 20
-1637.1062982616331
 30
0.0
 11
477.0369872797084
 21
-1637.1062982616331
 31
0.0
  0
LINE
  8
0
  6
DASHDOT
 62
               4
  5
3E1
 10
402.63698727970865
 20
-1156.1068645130485
 30
0.0
 11
535.63698727970859
 21
-1156.1068645130485
 31
0.0
  0
CIRCLE
  8
0
  6
CONTINUOUS
 62
               4
  5
3E2
 10
-70.996253024576902
 20
462.40328291202428
 30
0.0
 40
13.0
  0
CIRCLE
  8
0
  6
CONTINUOUS
 62
               4
  5
3E3
 10
-70.996253024576902
 20
591.09671708797555
 30
0.0
 40
13.0
  0
CIRCLE
  8
0
  6
CONTINUOUS
 62
               4
  5
3E4
 10
57.697181151375673
 20
591.09671708797555
 30
0.0
 40
13.0
  0
CIRCLE
  8
0
  6
CONTINUOUS
 62
               4
  5
3E5
 10
57.697181151375673
 20
462.40328291202428
 30
0.0
 40
13.0
  0
ARC
  8
0
  6
CONTINUOUS
 62
               4
  5
3E6
 10
19.13442987536547
 20
165.75000000000051
 30
0.0
 40
17.566965811965957
 50
143.14855134074139
 51
179.99999999996521
  0
LINE
  8
0
  6
CONTINUOUS
 62
               4
  5
3E7
 10
-18.376535936600874
 20
181.28565375285325
 30
0.0
 11
5.0774640633995318
 21
181.28565375285325
 31
0.0
  0
ARC
  8
0
  6
CONTINUOUS
 62
               4
  5
3E8
 10
-32.433501748566243
 20
165.75000000000051
 30
0.0
 40
17.566965811965957
 50
0.0
 51
36.851448659223813
  0
LINE
  8
0
  6
CONTINUOUS
 62
               4
  5
3E9
 10
5.0774640633995318
 20
176.28565375285325
 30
0.0
 11
5.0774640633995318
 21
181.28565375285325
 31
0.0
  0
LINE
  8
0
  6
CONTINUOUS
 62
               4
  5
3EA
 10
-18.376535936600874
 20
176.28565375285325
 30
0.0
 11
-18.376535936600874
 21
181.28565375285325
 31
0.0
  0
LINE
  8
0
  6
CONTINUOUS
 62
               4
  5
3EB
 10
5.0774640633995318
 20
181.28565375285325
 30
0.0
 11
-0.6495359366004436
 21
176.28565375285325
 31
0.0
  0
LINE
  8
0
  6
CONTINUOUS
 62
               4
  5
3EC
 10
-12.64953593660033
 20
176.28565375285325
 30
0.0
 11
-18.376535936600874
 21
181.28565375285325
 31
0.0
  0
LINE
  8
0
  6
CONTINUOUS
 62
               4
  5
3ED
 10
-0.6495359366004436
 20
176.28565375285325
 30
0.0
 11
-12.64953593660033
 21
176.28565375285325
 31
0.0
  0
LINE
  8
0
  6
CONTINUOUS
 62
               4
  5
3EE
 10
-12.64953593660033
 20
44.750000000000519
 30
0.0
 11
-12.64953593660033
 21
176.28565375285325
 31
0.0
  0
LINE
  8
0
  6
CONTINUOUS
 62
               4
  5
3EF
 10
-0.6495359366004436
 20
176.28565375285325
 30
0.0
 11
-0.6495359366004436
 21
44.75000000000059
 31
0.0
  0
LINE
  8
0
  6
CONTINUOUS
 62
               4
  5
3F0
 10
1.5674640633995409
 20
165.75000000000051
 30
0.0
 11
1.5674640633995409
 21
44.750000000000611
 31
0.0
  0
LINE
  8
0
  6
CONTINUOUS
 62
               4
  5
3F1
 10
-14.866535936600314
 20
165.75000000000051
 30
0.0
 11
-14.866535936600314
 21
44.750000000000497
 31
0.0
  0
LINE
  8
0
  6
CONTINUOUS
 62
               4
  5
3F2
 10
-57.99953593660058
 20
47.049999999999955
 30
0.0
 11
-57.99953593660058
 21
44.750000000000057
 31
0.0
  0
LINE
  8
0
  6
CONTINUOUS
 62
               4
  5
3F3
 10
-57.99953593660058
 20
44.750000000000057
 30
0.0
 11
-83.99953593660058
 21
44.750000000000057
 31
0.0
  0
LINE
  8
0
  6
CONTINUOUS
 62
               4
  5
3F4
 10
-83.99953593660058
 20
44.750000000000057
 30
0.0
 11
-83.99953593660058
 21
47.049999999999955
 31
0.0
  0
LINE
  8
0
  6
CONTINUOUS
 62
               4
  5
3F5
 10
-83.99953593660058
 20
47.049999999999955
 30
0.0
 11
-57.99953593660058
 21
47.049999999999955
 31
0.0
  0
LINE
  8
0
  6
CONTINUOUS
 62
               4
  5
3F6
 10
-64.999535936600807
 20
57.049999999999955
 30
0.0
 11
-64.999535936600807
 21
65.750000000000142
 31
0.0
  0
LINE
  8
0
  6
CONTINUOUS
 62
               4
  5
3F7
 10
-76.999535936600807
 20
65.750000000000142
 30
0.0
 11
-76.999535936600807
 21
57.049999999999955
 31
0.0
  0
LINE
  8
0
  6
CONTINUOUS
 62
               4
  5
3F8
 10
-76.999535936600807
 20
65.750000000000142
 30
0.0
 11
-64.999535936600807
 21
65.750000000000142
 31
0.0
  0
LINE
  8
0
  6
CONTINUOUS
 62
               4
  5
3F9
 10
44.700464063399238
 20
47.049999999999955
 30
0.0
 11
44.700464063399238
 21
44.750000000000057
 31
0.0
  0
LINE
  8
0
  6
CONTINUOUS
 62
               4
  5
3FA
 10
44.700464063399238
 20
44.750000000000057
 30
0.0
 11
70.700464063399238
 21
44.750000000000064
 31
0.0
  0
LINE
  8
0
  6
CONTINUOUS
 62
               4
  5
3FB
 10
70.700464063399238
 20
44.750000000000064
 30
0.0
 11
70.700464063399238
 21
47.049999999999962
 31
0.0
  0
LINE
  8
0
  6
CONTINUOUS
 62
               4
  5
3FC
 10
70.700464063399238
 20
47.049999999999962
 30
0.0
 11
44.700464063399238
 21
47.049999999999955
 31
0.0
  0
LINE
  8
0
  6
CONTINUOUS
 62
               4
  5
3FD
 10
51.700464063399465
 20
57.049999999999962
 30
0.0
 11
51.700464063399465
 21
65.750000000000142
 31
0.0
  0
LINE
  8
0
  6
CONTINUOUS
 62
               4
  5
3FE
 10
63.700464063399465
 20
65.750000000000142
 30
0.0
 11
63.700464063399465
 21
57.049999999999962
 31
0.0
  0
LINE
  8
0
  6
CONTINUOUS
 62
               4
  5
3FF
 10
63.700464063399465
 20
65.750000000000142
 30
0.0
 11
51.700464063399465
 21
65.750000000000142
 31
0.0
  0
LINE
  8
0
  6
CONTINUOUS
 62
               4
  5
400
 10
416.35046406339933
 20
176.28565375285325
 30
0.0
 11
421.35046406339933
 21
181.28565375285325
 31
0.0
  0
ARC
  8
0
  6
CONTINUOUS
 62
               4
  5
401
 10
438.85046406339933
 20
165.75000000000051
 30
0.0
 40
19.999999999999996
 50
148.21166938291961
 51
179.99999999996524
  0
LINE
  8
0
  6
CONTINUOUS
 62
               4
  5
402
 10
421.85046406339887
 20
176.28565375285325
 30
0.0
 11
421.85046406339887
 21
181.28565375285393
 31
0.0
  0
LINE
  8
0
  6
CONTINUOUS
 62
               4
  5
403
 10
421.35046406339933
 20
181.28565375285325
 30
0.0
 11
421.85046406339887
 21
181.28565375285325
 31
0.0
  0
ARC
  8
0
  6
CONTINUOUS
 62
               4
  5
404
 10
411.35046406339933
 20
49.749999999999986
 30
0.0
 40
5.0
 50
269.99999999994793
 51
359.99999999993042
  0
LINE
  8
0
  6
CONTINUOUS
 62
               4
  5
405
 10
418.85046406339933
 20
165.75000000000051
 30
0.0
 11
418.85046406339933
 21
57.050000000000026
 31
0.0
  0
LINE
  8
0
  6
CONTINUOUS
 62
               4
  5
406
 10
416.35046406339933
 20
176.28565375285325
 30
0.0
 11
416.35046406339933
 21
49.749999999999986
 31
0.0
  0
LINE
  8
0
  6
CONTINUOUS
 62
               4
  5
407
 10
442.00046406339942
 20
47.050000000000026
 30
0.0
 11
442.00046406339942
 21
44.750000000000128
 31
0.0
  0
LINE
  8
0
  6
CONTINUOUS
 62
               4
  5
408
 10
442.00046406339942
 20
44.750000000000128
 30
0.0
 11
416.00046406339942
 21
44.750000000000128
 31
0.0
  0
LINE
  8
0
  6
CONTINUOUS
 62
               4
  5
409
 10
416.00046406339942
 20
44.750000000000128
 30
0.0
 11
416.00046406339942
 21
47.050000000000026
 31
0.0
  0
LINE
  8
0
  6
CONTINUOUS
 62
               4
  5
40A
 10
416.00046406339942
 20
47.050000000000026
 30
0.0
 11
442.00046406339942
 21
47.050000000000026
 31
0.0
  0
LINE
  8
0
  6
CONTINUOUS
 62
               4
  5
40B
 10
435.00046406339919
 20
57.050000000000026
 30
0.0
 11
435.00046406339919
 21
65.750000000000213
 31
0.0
  0
LINE
  8
0
  6
CONTINUOUS
 62
               4
  5
40C
 10
423.00046406339919
 20
65.750000000000213
 30
0.0
 11
423.00046406339919
 21
57.050000000000026
 31
0.0
  0
LINE
  8
0
  6
CONTINUOUS
 62
               4
  5
40D
 10
423.00046406339919
 20
65.750000000000213
 30
0.0
 11
435.00046406339919
 21
65.750000000000213
 31
0.0
  0
LINE
  8
0
  6
CONTINUOUS
 62
               4
  5
40E
 10
570.35046406339939
 20
176.28565375285325
 30
0.0
 11
565.35046406339939
 21
181.28565375285325
 31
0.0
  0
ARC
  8
0
  6
CONTINUOUS
 62
               4
  5
40F
 10
547.85046406339939
 20
165.75000000000051
 30
0.0
 40
19.999999999999996
 50
0.0
 51
31.788330617045538
  0
LINE
  8
0
  6
CONTINUOUS
 62
               4
  5
410
 10
564.85046406339984
 20
176.28565375285325
 30
0.0
 11
564.85046406339984
 21
181.28565375285393
 31
0.0
  0
LINE
  8
0
  6
CONTINUOUS
 62
               4
  5
411
 10
565.35046406339939
 20
181.28565375285325
 30
0.0
 11
564.85046406339984
 21
181.28565375285325
 31
0.0
  0
ARC
  8
0
  6
CONTINUOUS
 62
               4
  5
412
 10
575.35046406339939
 20
49.749999999999986
 30
0.0
 40
5.0
 50
179.99999999996518
 51
269.99999999994731
  0
LINE
  8
0
  6
CONTINUOUS
 62
               4
  5
413
 10
567.85046406339939
 20
165.75000000000051
 30
0.0
 11
567.85046406339939
 21
56.532332308330282
 31
0.0
  0
LINE
  8
0
  6
CONTINUOUS
 62
               4
  5
414
 10
570.35046406339939
 20
176.28565375285325
 30
0.0
 11
570.35046406339939
 21
49.749999999999986
 31
0.0
  0
LINE
  8
0
  6
CONTINUOUS
 62
               4
  5
415
 10
544.70046406339929
 20
47.050000000000026
 30
0.0
 11
544.70046406339929
 21
44.750000000000128
 31
0.0
  0
LINE
  8
0
  6
CONTINUOUS
 62
               4
  5
416
 10
544.70046406339929
 20
44.750000000000128
 30
0.0
 11
570.70046406339929
 21
44.750000000000128
 31
0.0
  0
LINE
  8
0
  6
CONTINUOUS
 62
               4
  5
417
 10
570.70046406339929
 20
44.750000000000128
 30
0.0
 11
570.70046406339929
 21
47.050000000000026
 31
0.0
  0
LINE
  8
0
  6
CONTINUOUS
 62
               4
  5
418
 10
570.70046406339929
 20
47.050000000000026
 30
0.0
 11
544.70046406339929
 21
47.050000000000026
 31
0.0
  0
LINE
  8
0
  6
CONTINUOUS
 62
               4
  5
419
 10
551.70046406339952
 20
57.050000000000026
 30
0.0
 11
551.70046406339952
 21
65.750000000000213
 31
0.0
  0
LINE
  8
0
  6
CONTINUOUS
 62
               4
  5
41A
 10
563.70046406339952
 20
65.750000000000213
 30
0.0
 11
563.70046406339952
 21
57.050000000000026
 31
0.0
  0
LINE
  8
0
  6
CONTINUOUS
 62
               4
  5
41B
 10
563.70046406339952
 20
65.750000000000213
 30
0.0
 11
551.70046406339952
 21
65.750000000000213
 31
0.0
  0
LINE
  8
0
  6
CONTINUOUS
 62
               4
  5
41C
 10
-583.64953593660061
 20
176.28565375285325
 30
0.0
 11
-578.64953593660061
 21
181.28565375285325
 31
0.0
  0
ARC
  8
0
  6
CONTINUOUS
 62
               4
  5
41D
 10
-561.14953593660061
 20
165.75000000000051
 30
0.0
 40
19.999999999999996
 50
148.21166938291961
 51
179.99999999996524
  0
LINE
  8
0
  6
CONTINUOUS
 62
               4
  5
41E
 10
-578.14953593660107
 20
176.28565375285325
 30
0.0
 11
-578.14953593660107
 21
181.28565375285393
 31
0.0
  0
LINE
  8
0
  6
CONTINUOUS
 62
               4
  5
41F
 10
-578.64953593660061
 20
181.28565375285325
 30
0.0
 11
-578.14953593660107
 21
181.28565375285325
 31
0.0
  0
ARC
  8
0
  6
CONTINUOUS
 62
               4
  5
420
 10
-588.64953593660061
 20
49.749999999999986
 30
0.0
 40
5.0
 50
269.99999999994731
 51
359.99999999993042
  0
LINE
  8
0
  6
CONTINUOUS
 62
               4
  5
421
 10
-581.14953593660061
 20
165.75000000000051
 30
0.0
 11
-581.14953593660061
 21
57.050000000000026
 31
0.0
  0
LINE
  8
0
  6
CONTINUOUS
 62
               4
  5
422
 10
-583.64953593660061
 20
176.28565375285325
 30
0.0
 11
-583.64953593660061
 21
49.749999999999986
 31
0.0
  0
LINE
  8
0
  6
CONTINUOUS
 62
               4
  5
423
 10
-557.99953593660052
 20
47.050000000000026
 30
0.0
 11
-557.99953593660052
 21
44.750000000000128
 31
0.0
  0
LINE
  8
0
  6
CONTINUOUS
 62
               4
  5
424
 10
-557.99953593660052
 20
44.750000000000128
 30
0.0
 11
-583.99953593660052
 21
44.750000000000128
 31
0.0
  0
LINE
  8
0
  6
CONTINUOUS
 62
               4
  5
425
 10
-583.99953593660052
 20
44.750000000000128
 30
0.0
 11
-583.99953593660052
 21
47.050000000000026
 31
0.0
  0
LINE
  8
0
  6
CONTINUOUS
 62
               4
  5
426
 10
-583.99953593660052
 20
47.050000000000026
 30
0.0
 11
-557.99953593660052
 21
47.050000000000026
 31
0.0
  0
LINE
  8
0
  6
CONTINUOUS
 62
               4
  5
427
 10
-564.99953593660075
 20
57.050000000000026
 30
0.0
 11
-564.99953593660075
 21
65.750000000000213
 31
0.0
  0
LINE
  8
0
  6
CONTINUOUS
 62
               4
  5
428
 10
-576.99953593660075
 20
65.750000000000213
 30
0.0
 11
-576.99953593660075
 21
57.050000000000026
 31
0.0
  0
LINE
  8
0
  6
CONTINUOUS
 62
               4
  5
429
 10
-576.99953593660075
 20
65.750000000000213
 30
0.0
 11
-564.99953593660075
 21
65.750000000000213
 31
0.0
  0
LINE
  8
0
  6
CONTINUOUS
 62
               4
  5
42A
 10
-429.64953593660067
 20
176.28565375285325
 30
0.0
 11
-434.64953593660067
 21
181.28565375285325
 31
0.0
  0
ARC
  8
0
  6
CONTINUOUS
 62
               4
  5
42B
 10
-452.14953593660067
 20
165.75000000000051
 30
0.0
 40
19.999999999999996
 50
0.0
 51
31.788330617045627
  0
LINE
  8
0
  6
CONTINUOUS
 62
               4
  5
42C
 10
-435.14953593660022
 20
176.28565375285325
 30
0.0
 11
-435.14953593660022
 21
181.28565375285393
 31
0.0
  0
LINE
  8
0
  6
CONTINUOUS
 62
               4
  5
42D
 10
-434.64953593660067
 20
181.28565375285325
 30
0.0
 11
-435.14953593660022
 21
181.28565375285325
 31
0.0
  0
ARC
  8
0
  6
CONTINUOUS
 62
               4
  5
42E
 10
-424.64953593660067
 20
49.749999999999986
 30
0.0
 40
5.0
 50
179.99999999996518
 51
269.99999999994793
  0
LINE
  8
0
  6
CONTINUOUS
 62
               4
  5
42F
 10
-432.14953593660067
 20
165.75000000000051
 30
0.0
 11
-432.14953593660067
 21
56.532332308330282
 31
0.0
  0
LINE
  8
0
  6
CONTINUOUS
 62
               4
  5
430
 10
-429.64953593660067
 20
176.28565375285325
 30
0.0
 11
-429.64953593660067
 21
49.749999999999986
 31
0.0
  0
LINE
  8
0
  6
CONTINUOUS
 62
               4
  5
431
 10
-455.29953593660076
 20
47.050000000000026
 30
0.0
 11
-455.29953593660076
 21
44.750000000000128
 31
0.0
  0
LINE
  8
0
  6
CONTINUOUS
 62
               4
  5
432
 10
-455.29953593660076
 20
44.750000000000128
 30
0.0
 11
-429.29953593660076
 21
44.750000000000128
 31
0.0
  0
LINE
  8
0
  6
CONTINUOUS
 62
               4
  5
433
 10
-429.29953593660076
 20
44.750000000000128
 30
0.0
 11
-429.29953593660076
 21
47.050000000000026
 31
0.0
  0
LINE
  8
0
  6
CONTINUOUS
 62
               4
  5
434
 10
-429.29953593660076
 20
47.050000000000026
 30
0.0
 11
-455.29953593660076
 21
47.050000000000026
 31
0.0
  0
LINE
  8
0
  6
CONTINUOUS
 62
               4
  5
435
 10
-448.29953593660053
 20
57.050000000000026
 30
0.0
 11
-448.29953593660053
 21
65.750000000000213
 31
0.0
  0
LINE
  8
0
  6
CONTINUOUS
 62
               4
  5
436
 10
-436.29953593660053
 20
65.750000000000213
 30
0.0
 11
-436.29953593660053
 21
57.050000000000026
 31
0.0
  0
LINE
  8
0
  6
CONTINUOUS
 62
               4
  5
437
 10
-436.29953593660053
 20
65.750000000000213
 30
0.0
 11
-448.29953593660053
 21
65.750000000000213
 31
0.0
  0
LINE
  8
0
  6
CONTINUOUS
 62
               4
  5
438
 10
-584.87600993796059
 20
-2.8499999999998948
 30
0.0
 11
-578.99953593659893
 21
-6.2499999999999858
 31
0.0
  0
LINE
  8
0
  6
CONTINUOUS
 62
               4
  5
439
 10
-562.4995359365987
 20
-6.2499999999999858
 30
0.0
 11
-562.4995359365987
 21
0.7500000000000746
 31
0.0
  0
LINE
  8
0
  6
CONTINUOUS
 62
               4
  5
43A
 10
-562.4995359365987
 20
-6.2499999999999858
 30
0.0
 11
-578.99953593659893
 21
-6.2499999999999858
 31
0.0
  0
LINE
  8
0
  6
CONTINUOUS
 62
               4
  5
43B
 10
-587.82659740307645
 20
-2.8499999999998948
 30
0.0
 11
-584.87600993796059
 21
-2.8499999999998948
 31
0.0
  0
LINE
  8
0
  6
CONTINUOUS
 62
               4
  5
43C
 10
-587.82659740307645
 20
0.7500000000000711
 30
0.0
 11
-587.82659740307645
 21
-2.8499999999998948
 31
0.0
  0
LINE
  8
0
  6
CONTINUOUS
 62
               4
  5
43D
 10
-562.4995359365987
 20
0.7500000000000746
 30
0.0
 11
-587.82659740307645
 21
0.7500000000000711
 31
0.0
  0
LINE
  8
0
  6
CONTINUOUS
 62
               4
  5
43E
 10
-459.12659740307612
 20
0.7500000000000817
 30
0.0
 11
-459.12659740307612
 21
-2.8499999999998842
 31
0.0
  0
LINE
  8
0
  6
CONTINUOUS
 62
               4
  5
43F
 10
-459.12659740307612
 20
-2.8499999999998842
 30
0.0
 11
-444.15519465778897
 21
-2.8499999999998806
 31
0.0
  0
LINE
  8
0
  6
CONTINUOUS
 62
               4
  5
440
 10
-456.17600993796026
 20
-2.8499999999998842
 30
0.0
 11
-450.29953593659849
 21
-6.2499999999999716
 31
0.0
  0
LINE
  8
0
  6
CONTINUOUS
 62
               4
  5
441
 10
-447.10578212290483
 20
0.7500000000000817
 30
0.0
 11
-447.10578212290483
 21
-2.8499999999998842
 31
0.0
  0
LINE
  8
0
  6
CONTINUOUS
 62
               4
  5
442
 10
-436.64268168710618
 20
-6.2499999999999716
 30
0.0
 11
-444.15519465778897
 21
-2.8499999999998806
 31
0.0
  0
LINE
  8
0
  6
CONTINUOUS
 62
               4
  5
443
 10
-433.79953593659849
 20
-6.2499999999999716
 30
0.0
 11
-450.29953593659849
 21
-6.2499999999999716
 31
0.0
  0
LINE
  8
0
  6
CONTINUOUS
 62
               4
  5
444
 10
-433.79953593659849
 20
-6.2499999999999716
 30
0.0
 11
-433.79953593659849
 21
0.7500000000000853
 31
0.0
  0
LINE
  8
0
  6
CONTINUOUS
 62
               4
  5
445
 10
-433.79953593659849
 20
0.7500000000000853
 30
0.0
 11
-459.12659740307612
 21
0.7500000000000817
 31
0.0
  0
LINE
  8
0
  6
CONTINUOUS
 62
               4
  5
446
 10
-84.876009937960646
 20
-2.8499999999998948
 30
0.0
 11
-78.999535936598875
 21
-6.2499999999999858
 31
0.0
  0
LINE
  8
0
  6
CONTINUOUS
 62
               4
  5
447
 10
-62.499535936598761
 20
-6.2499999999999858
 30
0.0
 11
-62.499535936598761
 21
0.7500000000000746
 31
0.0
  0
LINE
  8
0
  6
CONTINUOUS
 62
               4
  5
448
 10
-62.499535936598761
 20
-6.2499999999999858
 30
0.0
 11
-78.999535936598875
 21
-6.2499999999999858
 31
0.0
  0
LINE
  8
0
  6
CONTINUOUS
 62
               4
  5
449
 10
-87.826597403076505
 20
-2.8499999999998948
 30
0.0
 11
-84.876009937960646
 21
-2.8499999999998948
 31
0.0
  0
LINE
  8
0
  6
CONTINUOUS
 62
               4
  5
44A
 10
-87.826597403076505
 20
0.7500000000000711
 30
0.0
 11
-87.826597403076505
 21
-2.8499999999998948
 31
0.0
  0
LINE
  8
0
  6
CONTINUOUS
 62
               4
  5
44B
 10
-62.499535936598761
 20
0.7500000000000746
 30
0.0
 11
-87.826597403076505
 21
0.7500000000000711
 31
0.0
  0
LINE
  8
0
  6
CONTINUOUS
 62
               4
  5
44C
 10
40.873402596923881
 20
0.7500000000000817
 30
0.0
 11
40.873402596923881
 21
-2.8499999999998842
 31
0.0
  0
LINE
  8
0
  6
CONTINUOUS
 62
               4
  5
44D
 10
40.873402596923881
 20
-2.8499999999998842
 30
0.0
 11
55.844805342211032
 21
-2.8499999999998806
 31
0.0
  0
LINE
  8
0
  6
CONTINUOUS
 62
               4
  5
44E
 10
43.823990062039741
 20
-2.8499999999998842
 30
0.0
 11
49.700464063401512
 21
-6.2499999999999716
 31
0.0
  0
LINE
  8
0
  6
CONTINUOUS
 62
               4
  5
44F
 10
52.894217877095173
 20
0.7500000000000817
 30
0.0
 11
52.894217877095173
 21
-2.8499999999998842
 31
0.0
  0
LINE
  8
0
  6
CONTINUOUS
 62
               4
  5
450
 10
63.357318312893824
 20
-6.2499999999999716
 30
0.0
 11
55.844805342211032
 21
-2.8499999999998806
 31
0.0
  0
LINE
  8
0
  6
CONTINUOUS
 62
               4
  5
451
 10
66.200464063401512
 20
-6.2499999999999716
 30
0.0
 11
49.700464063401512
 21
-6.2499999999999716
 31
0.0
  0
LINE
  8
0
  6
CONTINUOUS
 62
               4
  5
452
 10
66.200464063401512
 20
-6.2499999999999716
 30
0.0
 11
66.200464063401512
 21
0.7500000000000853
 31
0.0
  0
LINE
  8
0
  6
CONTINUOUS
 62
               4
  5
453
 10
66.200464063401512
 20
0.7500000000000853
 30
0.0
 11
40.873402596923881
 21
0.7500000000000817
 31
0.0
  0
LINE
  8
0
  6
CONTINUOUS
 62
               4
  5
454
 10
415.12399006203935
 20
-2.8499999999998948
 30
0.0
 11
421.00046406340113
 21
-6.2499999999999858
 31
0.0
  0
LINE
  8
0
  6
CONTINUOUS
 62
               4
  5
455
 10
437.50046406340124
 20
-6.2499999999999858
 30
0.0
 11
437.50046406340124
 21
0.7500000000000746
 31
0.0
  0
LINE
  8
0
  6
CONTINUOUS
 62
               4
  5
456
 10
437.50046406340124
 20
-6.2499999999999858
 30
0.0
 11
421.00046406340113
 21
-6.2499999999999858
 31
0.0
  0
LINE
  8
0
  6
CONTINUOUS
 62
               4
  5
457
 10
412.17340259692349
 20
-2.8499999999998948
 30
0.0
 11
415.12399006203935
 21
-2.8499999999998948
 31
0.0
  0
LINE
  8
0
  6
CONTINUOUS
 62
               4
  5
458
 10
412.17340259692349
 20
0.7500000000000711
 30
0.0
 11
412.17340259692349
 21
-2.8499999999998948
 31
0.0
  0
LINE
  8
0
  6
CONTINUOUS
 62
               4
  5
459
 10
437.50046406340124
 20
0.7500000000000746
 30
0.0
 11
412.17340259692349
 21
0.7500000000000711
 31
0.0
  0
LINE
  8
0
  6
CONTINUOUS
 62
               4
  5
45A
 10
540.87340259692382
 20
0.7500000000000817
 30
0.0
 11
540.87340259692382
 21
-2.8499999999998842
 31
0.0
  0
LINE
  8
0
  6
CONTINUOUS
 62
               4
  5
45B
 10
540.87340259692382
 20
-2.8499999999998842
 30
0.0
 11
555.84480534221098
 21
-2.8499999999998806
 31
0.0
  0
LINE
  8
0
  6
CONTINUOUS
 62
               4
  5
45C
 10
543.82399006203968
 20
-2.8499999999998842
 30
0.0
 11
549.70046406340157
 21
-6.2499999999999716
 31
0.0
  0
LINE
  8
0
  6
CONTINUOUS
 62
               4
  5
45D
 10
552.89421787709512
 20
0.7500000000000817
 30
0.0
 11
552.89421787709512
 21
-2.8499999999998842
 31
0.0
  0
LINE
  8
0
  6
CONTINUOUS
 62
               4
  5
45E
 10
563.35731831289377
 20
-6.2499999999999716
 30
0.0
 11
555.84480534221098
 21
-2.8499999999998806
 31
0.0
  0
LINE
  8
0
  6
CONTINUOUS
 62
               4
  5
45F
 10
566.20046406340157
 20
-6.2499999999999716
 30
0.0
 11
549.70046406340157
 21
-6.2499999999999716
 31
0.0
  0
LINE
  8
0
  6
CONTINUOUS
 62
               4
  5
460
 10
566.20046406340157
 20
-6.2499999999999716
 30
0.0
 11
566.20046406340157
 21
0.7500000000000853
 31
0.0
  0
LINE
  8
0
  6
CONTINUOUS
 62
               4
  5
461
 10
566.20046406340157
 20
0.7500000000000853
 30
0.0
 11
540.87340259692382
 21
0.7500000000000817
 31
0.0
  0
LINE
  8
0
  6
CONTINUOUS
 62
               4
  5
462
 10
-572.14953593660039
 20
-697.24999999999852
 30
0.0
 11
-441.14953593659862
 21
-697.24999999999852
 31
0.0
  0
LINE
  8
0
  6
CONTINUOUS
 62
               4
  5
463
 10
-97.649535936599534
 20
-597.99522178732184
 30
0.0
 11
-97.649535936599534
 21
-588.12093558026606
 31
0.0
  0
LINE
  8
0
  6
CONTINUOUS
 62
               4
  5
464
 10
84.350464063400224
 20
-597.99522178732184
 30
0.0
 11
84.350464063400224
 21
-588.12093558026606
 31
0.0
  0
LINE
  8
0
  6
CONTINUOUS
 62
               4
  5
465
 10
-72.149535936600557
 20
-697.24999999999829
 30
0.0
 11
58.850464063401361
 21
-697.24999999999829
 31
0.0
  0
LINE
  8
0
  6
CONTINUOUS
 62
               4
  5
466
 10
427.8504640633995
 20
-697.24999999999909
 30
0.0
 11
558.85046406340143
 21
-697.24999999999909
 31
0.0
  0
POINT
  8
0
  6
CONTINUOUS
 62
               4
  5
467
 10
-253.6873049870681
 20
-1169.2913000848398
 30
0.0
  0
POINT
  8
0
  6
CONTINUOUS
 62
               4
  5
468
 10
-543.88730498706809
 20
-1169.2913000848396
 30
0.0
  0
POINT
  8
0
  6
CONTINUOUS
 62
               4
  5
469
 10
-356.23326238283465
 20
-1061.2234160158048
 30
0.0
  0
POINT
  8
0
  6
CONTINUOUS
 62
               4
  5
46A
 10
236.1843877492816
 20
-1169.2913000848398
 30
0.0
  0
POINT
  8
0
  6
CONTINUOUS
 62
               4
  5
46B
 10
-7.7276447012042837
 20
-1169.2913000848398
 30
0.0
  0
POINT
  8
0
  6
CONTINUOUS
 62
               4
  5
46C
 10
158.72837152403878
 20
-1081.335283859597
 30
0.0
  0
LINE
  8
0
  6
CONTINUOUS
 62
               4
  5
46D
 10
679.63698727970825
 20
-1561.0706445087803
 30
0.0
 11
674.63698727970825
 21
-1556.0706445087803
 31
0.0
  0
ARC
  8
0
  6
CONTINUOUS
 62
               4
  5
46E
 10
657.13698727970825
 20
-1571.6062982616331
 30
0.0
 40
19.999999999999996
 50
0.0
 51
31.78833061703342
  0
LINE
  8
0
  6
CONTINUOUS
 62
               4
  5
46F
 10
674.13698727970871
 20
-1561.0706445087803
 30
0.0
 11
674.13698727970871
 21
-1556.0706445087799
 31
0.0
  0
LINE
  8
0
  6
CONTINUOUS
 62
               4
  5
470
 10
674.63698727970825
 20
-1556.0706445087803
 30
0.0
 11
674.13698727970871
 21
-1556.0706445087803
 31
0.0
  0
LINE
  8
0
  6
CONTINUOUS
 62
               4
  5
471
 10
679.38698727970848
 20
-1561.3206445087803
 30
0.0
 11
674.13698727970871
 21
-1556.0706445087803
 31
0.0
  0
LINE
  8
0
  6
CONTINUOUS
 62
               4
  5
472
 10
679.38698727970848
 20
-1561.3206445087803
 30
0.0
 11
679.63698727970825
 21
-1561.0706445087803
 31
0.0
  0
LINE
  8
0
  6
CONTINUOUS
 62
               4
  5
473
 10
679.63698727970825
 20
-1561.0706445087803
 30
0.0
 11
679.63698727970825
 21
-1691.7593218587501
 31
0.0
  0
LINE
  8
0
  6
CONTINUOUS
 62
               4
  5
474
 10
679.38698727970848
 20
-1561.3206445087803
 30
0.0
 11
679.38698727970848
 21
-1691.4739647516146
 31
0.0
  0
LINE
  8
0
  6
CONTINUOUS
 62
               4
  5
475
 10
677.13698727970825
 20
-1571.4532746645159
 30
0.0
 11
677.13698727970825
 21
-1690.6062982616331
 31
0.0
  0
POINT
  8
0
  6
CONTINUOUS
 62
               4
  5
476
 10
647.13698727970836
 20
-1300.5068645130489
 30
0.0
  0
POINT
  8
0
  6
CONTINUOUS
 62
               4
  5
477
 10
458.23698727970844
 20
-1586.1062982616331
 30
0.0
  0
POINT
  8
0
  6
CONTINUOUS
 62
               4
  5
478
 10
458.23698727970856
 20
-1200.6068645130485
 30
0.0
  0
LINE
  8
0
  6
DASHED2
 62
               4
  5
479
 10
-63.649535936600671
 20
207.75000000000051
 30
0.0
 11
50.350464063399329
 21
207.75000000000051
 31
0.0
  0
LINE
  8
0
  6
DASHED2
 62
               4
  5
47A
 10
436.35046406339933
 20
207.75000000000051
 30
0.0
 11
550.35046406339939
 21
207.75000000000051
 31
0.0
  0
LINE
  8
0
  6
DASHED2
 62
               4
  5
47B
 10
-563.64953593660061
 20
207.75000000000051
 30
0.0
 11
-449.64953593660067
 21
207.75000000000051
 31
0.0
  0
LINE
  8
0
  6
DASHED2
 62
               4
  5
47C
 10
-563.64953593659857
 20
-527.2499999999992
 30
0.0
 11
-563.64953593659857
 21
-592.24999999999966
 31
0.0
  0
LINE
  8
0
  6
DASHED2
 62
               4
  5
47D
 10
-564.14953593660175
 20
-607.2500000000008
 30
0.0
 11
-564.14953593660175
 21
-672.24999999999852
 31
0.0
  0
LINE
  8
0
  6
DASHED2
 62
               4
  5
47E
 10
-506.64953593659902
 20
-592.24999999999966
 30
0.0
 11
-563.64953593659902
 21
-592.24999999999966
 31
0.0
  0
LINE
  8
0
  6
DASHED2
 62
               4
  5
47F
 10
-564.14953593660175
 20
-607.2500000000008
 30
0.0
 11
-506.64953593660016
 21
-607.24999999999966
 31
0.0
  0
LINE
  8
0
  6
DASHED2
 62
               4
  5
480
 10
-449.64953593659942
 20
-527.25000000000023
 30
0.0
 11
-449.64953593659942
 21
-592.24999999999966
 31
0.0
  0
LINE
  8
0
  6
DASHED2
 62
               4
  5
481
 10
-506.64953593659902
 20
-592.24999999999966
 30
0.0
 11
-449.64953593659914
 21
-592.24999999999966
 31
0.0
  0
LINE
  8
0
  6
DASHED2
 62
               4
  5
482
 10
-449.14953593659732
 20
-607.2500000000008
 30
0.0
 11
-506.64953593659902
 21
-607.24999999999966
 31
0.0
  0
LINE
  8
0
  6
DASHED2
 62
               4
  5
483
 10
-449.14953593659732
 20
-607.2500000000008
 30
0.0
 11
-449.14953593659732
 21
-672.24999999999852
 31
0.0
  0
LINE
  8
0
  6
DASHED2
 62
               4
  5
484
 10
-518.40953593659981
 20
-592.24999999999966
 30
0.0
 11
-518.40953593659981
 21
-583.72387150069244
 31
0.0
  0
LINE
  8
0
  6
DASHED2
 62
               4
  5
485
 10
-512.52056319086535
 20
-583.72387150069244
 30
0.0
 11
-512.52056319086535
 21
-592.24999999999966
 31
0.0
  0
LINE
  8
0
  6
DASHED2
 62
               4
  5
486
 10
-515.46504956373246
 20
-582.64999999999952
 30
0.0
 11
-497.83402230946649
 21
-582.64999999999952
 31
0.0
  0
LINE
  8
0
  6
DASHED2
 62
               4
  5
487
 10
-494.88953593659949
 20
-592.24999999999966
 30
0.0
 11
-494.88953593659949
 21
-583.72387150069244
 31
0.0
  0
LINE
  8
0
  6
DASHED2
 62
               4
  5
488
 10
-500.77850868233418
 20
-592.24999999999966
 30
0.0
 11
-500.77850868233418
 21
-583.72387150069244
 31
0.0
  0
ARC
  8
0
  6
DASHED2
 62
               4
  5
489
 10
-515.46504956373246
 20
-587.22373158411551
 30
0.0
 40
4.5737315841157447
 50
49.925579661612304
 51
130.07442033835341
  0
ARC
  8
0
  6
DASHED2
 62
               4
  5
48A
 10
-497.83402230946649
 20
-587.22373158411551
 30
0.0
 40
4.5737315841157686
 50
49.925579661612304
 51
130.07442033835341
  0
ARC
  8
0
  6
DASHED2
 62
               4
  5
48B
 10
-506.64953593659959
 20
-599.23585826952001
 30
0.0
 40
16.58585826952007
 50
69.269184858547646
 51
110.73081514141818
  0
LINE
  8
0
  6
DASHED2
 62
               4
  5
48C
 10
-518.40953593660117
 20
-594.25
 30
0.0
 11
-518.40953593660117
 21
-602.77612849930722
 31
0.0
  0
LINE
  8
0
  6
DASHED2
 62
               4
  5
48D
 10
-512.52056319086682
 20
-602.77612849930722
 30
0.0
 11
-512.52056319086682
 21
-594.25
 31
0.0
  0
LINE
  8
0
  6
DASHED2
 62
               4
  5
48E
 10
-515.46504956373383
 20
-603.8499999999998
 30
0.0
 11
-497.8340223094682
 21
-603.8499999999998
 31
0.0
  0
LINE
  8
0
  6
DASHED2
 62
               4
  5
48F
 10
-494.88953593660085
 20
-594.25
 30
0.0
 11
-494.88953593660085
 21
-602.77612849930722
 31
0.0
  0
LINE
  8
0
  6
DASHED2
 62
               4
  5
490
 10
-500.77850868233531
 20
-594.25
 30
0.0
 11
-500.77850868233531
 21
-602.77612849930722
 31
0.0
  0
ARC
  8
0
  6
DASHED2
 62
               4
  5
491
 10
-515.46504956373383
 20
-599.27626841588437
 30
0.0
 40
4.5737315841157447
 50
229.92557966157796
 51
310.07442033831961
  0
ARC
  8
0
  6
DASHED2
 62
               4
  5
492
 10
-497.8340223094682
 20
-599.27626841588437
 30
0.0
 40
4.5737315841157686
 50
229.92557966157852
 51
310.07442033831961
  0
ARC
  8
0
  6
DASHED2
 62
               4
  5
493
 10
-506.64953593660107
 20
-587.26414173047988
 30
0.0
 40
16.58585826952007
 50
249.26918485851303
 51
290.73081514138352
  0
LINE
  8
0
  6
DASHED2
 62
               4
  5
494
 10
-512.64953593659959
 20
-603.8499999999998
 30
0.0
 11
-512.64953593659959
 21
-614.36936624232442
 31
0.0
  0
LINE
  8
0
  6
DASHED2
 62
               4
  5
495
 10
-500.6495359365997
 20
-603.8499999999998
 30
0.0
 11
-500.6495359365997
 21
-614.36936624232442
 31
0.0
  0
LINE
  8
0
  6
DASHED2
 62
               4
  5
496
 10
-511.44953593659977
 20
-615.5693662423248
 30
0.0
 11
-501.84953593659975
 21
-615.5693662423248
 31
0.0
  0
LINE
  8
0
  6
DASHED2
 62
               4
  5
497
 10
-512.64953593659959
 20
-614.36936624232442
 30
0.0
 11
-511.44953593659977
 21
-615.5693662423248
 31
0.0
  0
LINE
  8
0
  6
DASHED2
 62
               4
  5
498
 10
-500.6495359365997
 20
-614.36936624232442
 30
0.0
 11
-501.84953593659975
 21
-615.5693662423248
 31
0.0
  0
LINE
  8
0
  6
DASHED2
 62
               4
  5
499
 10
-518.40953593659981
 20
-592.24999999999966
 30
0.0
 11
-494.88953593659949
 21
-592.24999999999966
 31
0.0
  0
LINE
  8
0
  6
DASHED2
 62
               4
  5
49A
 10
-494.88953593660085
 20
-594.25
 30
0.0
 11
-518.40953593660117
 21
-594.25
 31
0.0
  0
LINE
  8
0
  6
DASHED2
 62
               4
  5
49B
 10
-512.64953593659959
 20
-477.18642052407085
 30
0.0
 11
-512.64953593659959
 21
-582.64999999999952
 31
0.0
  0
LINE
  8
0
  6
DASHED2
 62
               4
  5
49C
 10
-500.6495359365997
 20
-477.18642052407085
 30
0.0
 11
-500.6495359365997
 21
-582.64999999999952
 31
0.0
  0
LINE
  8
0
  6
DASHED2
 62
               4
  5
49D
 10
-500.6495359365997
 20
-477.18642052407085
 30
0.0
 11
-512.64953593659959
 21
-477.18642052407085
 31
0.0
  0
LINE
  8
0
  6
DASHED2
 62
               4
  5
49E
 10
-63.649535936598625
 20
-527.24999999999898
 30
0.0
 11
-63.649535936598625
 21
-592.24999999999943
 31
0.0
  0
LINE
  8
0
  6
DASHED2
 62
               4
  5
49F
 10
-64.149535936602007
 20
-607.25000000000057
 30
0.0
 11
-64.149535936602007
 21
-672.24999999999829
 31
0.0
  0
LINE
  8
0
  6
DASHED2
 62
               4
  5
4A0
 10
-6.649535936599019
 20
-592.24999999999943
 30
0.0
 11
-63.649535936599193
 21
-592.24999999999943
 31
0.0
  0
LINE
  8
0
  6
DASHED2
 62
               4
  5
4A1
 10
-64.149535936602007
 20
-607.25000000000057
 30
0.0
 11
-6.6495359366001558
 21
-607.24999999999943
 31
0.0
  0
LINE
  8
0
  6
DASHED2
 62
               4
  5
4A2
 10
50.35046406340058
 20
-527.25
 30
0.0
 11
50.35046406340058
 21
-592.24999999999943
 31
0.0
  0
LINE
  8
0
  6
DASHED2
 62
               4
  5
4A3
 10
-6.649535936599019
 20
-592.24999999999943
 30
0.0
 11
50.350464063400864
 21
-592.24999999999943
 31
0.0
  0
LINE
  8
0
  6
DASHED2
 62
               4
  5
4A4
 10
50.850464063402683
 20
-607.25000000000057
 30
0.0
 11
-6.649535936599019
 21
-607.24999999999943
 31
0.0
  0
LINE
  8
0
  6
DASHED2
 62
               4
  5
4A5
 10
50.850464063402683
 20
-607.25000000000057
 30
0.0
 11
50.850464063402683
 21
-672.24999999999829
 31
0.0
  0
LINE
  8
0
  6
DASHED2
 62
               4
  5
4A6
 10
-143.40953593659975
 20
-592.24999999999898
 30
0.0
 11
-143.40953593659975
 21
-583.72387150069176
 31
0.0
  0
LINE
  8
0
  6
DASHED2
 62
               4
  5
4A7
 10
-137.52056319086535
 20
-583.72387150069176
 30
0.0
 11
-137.52056319086535
 21
-592.24999999999898
 31
0.0
  0
LINE
  8
0
  6
DASHED2
 62
               4
  5
4A8
 10
-140.46504956373241
 20
-582.64999999999884
 30
0.0
 11
-122.83402230946649
 21
-582.64999999999884
 31
0.0
  0
LINE
  8
0
  6
DASHED2
 62
               4
  5
4A9
 10
-119.88953593659943
 20
-592.24999999999898
 30
0.0
 11
-119.88953593659943
 21
-583.72387150069176
 31
0.0
  0
LINE
  8
0
  6
DASHED2
 62
               4
  5
4AA
 10
-125.77850868233412
 20
-592.24999999999898
 30
0.0
 11
-125.77850868233412
 21
-583.72387150069176
 31
0.0
  0
ARC
  8
0
  6
DASHED2
 62
               4
  5
4AB
 10
-140.46504956373241
 20
-587.22373158411483
 30
0.0
 40
4.5737315841157447
 50
49.925579661612304
 51
130.07442033835341
  0
ARC
  8
0
  6
DASHED2
 62
               4
  5
4AC
 10
-122.83402230946649
 20
-587.22373158411483
 30
0.0
 40
4.5737315841157686
 50
49.925579661612304
 51
130.07442033835341
  0
ARC
  8
0
  6
DASHED2
 62
               4
  5
4AD
 10
-131.64953593659959
 20
-599.23585826951933
 30
0.0
 40
16.58585826952007
 50
69.269184858547646
 51
110.73081514141818
  0
LINE
  8
0
  6
DASHED2
 62
               4
  5
4AE
 10
-143.40953593660117
 20
-594.24999999999932
 30
0.0
 11
-143.40953593660117
 21
-602.77612849930654
 31
0.0
  0
LINE
  8
0
  6
DASHED2
 62
               4
  5
4AF
 10
-137.52056319086677
 20
-602.77612849930654
 30
0.0
 11
-137.52056319086677
 21
-594.24999999999932
 31
0.0
  0
LINE
  8
0
  6
DASHED2
 62
               4
  5
4B0
 10
-140.46504956373383
 20
-603.84999999999911
 30
0.0
 11
-122.8340223094682
 21
-603.84999999999911
 31
0.0
  0
LINE
  8
0
  6
DASHED2
 62
               4
  5
4B1
 10
-119.88953593660085
 20
-594.24999999999932
 30
0.0
 11
-119.88953593660085
 21
-602.77612849930654
 31
0.0
  0
LINE
  8
0
  6
DASHED2
 62
               4
  5
4B2
 10
-125.77850868233526
 20
-594.24999999999932
 30
0.0
 11
-125.77850868233526
 21
-602.77612849930654
 31
0.0
  0
ARC
  8
0
  6
DASHED2
 62
               4
  5
4B3
 10
-140.46504956373383
 20
-599.27626841588369
 30
0.0
 40
4.5737315841157447
 50
229.92557966157796
 51
310.07442033831961
  0
ARC
  8
0
  6
DASHED2
 62
               4
  5
4B4
 10
-122.8340223094682
 20
-599.27626841588369
 30
0.0
 40
4.5737315841157686
 50
229.92557966157852
 51
310.07442033831961
  0
ARC
  8
0
  6
DASHED2
 62
               4
  5
4B5
 10
-131.64953593660101
 20
-587.2641417304792
 30
0.0
 40
16.58585826952007
 50
249.26918485851303
 51
290.73081514138352
  0
LINE
  8
0
  6
DASHED2
 62
               4
  5
4B6
 10
-137.64953593659953
 20
-603.84999999999911
 30
0.0
 11
-137.64953593659953
 21
-614.36936624232374
 31
0.0
  0
LINE
  8
0
  6
DASHED2
 62
               4
  5
4B7
 10
-125.64953593659965
 20
-603.84999999999911
 30
0.0
 11
-125.64953593659965
 21
-614.36936624232374
 31
0.0
  0
LINE
  8
0
  6
DASHED2
 62
               4
  5
4B8
 10
-136.44953593659977
 20
-615.56936624232412
 30
0.0
 11
-126.84953593659969
 21
-615.56936624232412
 31
0.0
  0
LINE
  8
0
  6
DASHED2
 62
               4
  5
4B9
 10
-137.64953593659953
 20
-614.36936624232374
 30
0.0
 11
-136.44953593659977
 21
-615.56936624232412
 31
0.0
  0
LINE
  8
0
  6
DASHED2
 62
               4
  5
4BA
 10
-125.64953593659965
 20
-614.36936624232374
 30
0.0
 11
-126.84953593659969
 21
-615.56936624232412
 31
0.0
  0
LINE
  8
0
  6
DASHED2
 62
               4
  5
4BB
 10
-143.40953593659975
 20
-592.24999999999898
 30
0.0
 11
-119.88953593659943
 21
-592.24999999999898
 31
0.0
  0
LINE
  8
0
  6
DASHED2
 62
               4
  5
4BC
 10
-119.88953593660085
 20
-594.24999999999932
 30
0.0
 11
-143.40953593660117
 21
-594.24999999999932
 31
0.0
  0
LINE
  8
0
  6
DASHED2
 62
               4
  5
4BD
 10
-137.64953593659953
 20
-477.18642052407017
 30
0.0
 11
-137.64953593659953
 21
-582.64999999999884
 31
0.0
  0
LINE
  8
0
  6
DASHED2
 62
               4
  5
4BE
 10
-125.64953593659965
 20
-477.18642052407017
 30
0.0
 11
-125.64953593659965
 21
-582.64999999999884
 31
0.0
  0
LINE
  8
0
  6
DASHED2
 62
               4
  5
4BF
 10
-125.64953593659965
 20
-477.18642052407017
 30
0.0
 11
-137.64953593659953
 21
-477.18642052407017
 31
0.0
  0
LINE
  8
0
  6
DASHED2
 62
               4
  5
4C0
 10
130.11046406340057
 20
-592.24999999999898
 30
0.0
 11
130.11046406340057
 21
-583.72387150069176
 31
0.0
  0
LINE
  8
0
  6
DASHED2
 62
               4
  5
4C1
 10
124.22149131766616
 20
-583.72387150069176
 30
0.0
 11
124.22149131766616
 21
-592.24999999999898
 31
0.0
  0
LINE
  8
0
  6
DASHED2
 62
               4
  5
4C2
 10
127.16597769053323
 20
-582.64999999999884
 30
0.0
 11
109.53495043626729
 21
-582.64999999999884
 31
0.0
  0
LINE
  8
0
  6
DASHED2
 62
               4
  5
4C3
 10
106.59046406340023
 20
-592.24999999999898
 30
0.0
 11
106.59046406340023
 21
-583.72387150069176
 31
0.0
  0
LINE
  8
0
  6
DASHED2
 62
               4
  5
4C4
 10
112.47943680913492
 20
-592.24999999999898
 30
0.0
 11
112.47943680913492
 21
-583.72387150069176
 31
0.0
  0
ARC
  8
0
  6
DASHED2
 62
               4
  5
4C5
 10
127.16597769053323
 20
-587.22373158411483
 30
0.0
 40
4.5737315841157447
 50
49.925579661646204
 51
130.07442033838728
  0
ARC
  8
0
  6
DASHED2
 62
               4
  5
4C6
 10
109.53495043626729
 20
-587.22373158411483
 30
0.0
 40
4.5737315841157686
 50
49.925579661646204
 51
130.07442033838728
  0
ARC
  8
0
  6
DASHED2
 62
               4
  5
4C7
 10
118.35046406340039
 20
-599.23585826951933
 30
0.0
 40
16.58585826952007
 50
69.269184858581426
 51
110.73081514145197
  0
LINE
  8
0
  6
DASHED2
 62
               4
  5
4C8
 10
130.11046406340199
 20
-594.24999999999932
 30
0.0
 11
130.11046406340199
 21
-602.77612849930654
 31
0.0
  0
LINE
  8
0
  6
DASHED2
 62
               4
  5
4C9
 10
124.22149131766759
 20
-602.77612849930654
 30
0.0
 11
124.22149131766759
 21
-594.24999999999932
 31
0.0
  0
LINE
  8
0
  6
DASHED2
 62
               4
  5
4CA
 10
127.16597769053465
 20
-603.84999999999911
 30
0.0
 11
109.534950436269
 21
-603.84999999999911
 31
0.0
  0
LINE
  8
0
  6
DASHED2
 62
               4
  5
4CB
 10
106.59046406340165
 20
-594.24999999999932
 30
0.0
 11
106.59046406340165
 21
-602.77612849930654
 31
0.0
  0
LINE
  8
0
  6
DASHED2
 62
               4
  5
4CC
 10
112.47943680913606
 20
-594.24999999999932
 30
0.0
 11
112.47943680913606
 21
-602.77612849930654
 31
0.0
  0
ARC
  8
0
  6
DASHED2
 62
               4
  5
4CD
 10
127.16597769053465
 20
-599.27626841588369
 30
0.0
 40
4.5737315841157447
 50
229.92557966167917
 51
310.07442033842085
  0
ARC
  8
0
  6
DASHED2
 62
               4
  5
4CE
 10
109.534950436269
 20
-599.27626841588369
 30
0.0
 40
4.5737315841157686
 50
229.92557966167917
 51
310.07442033842028
  0
ARC
  8
0
  6
DASHED2
 62
               4
  5
4CF
 10
118.35046406340182
 20
-587.2641417304792
 30
0.0
 40
16.58585826952007
 50
249.26918485861526
 51
290.73081514148578
  0
LINE
  8
0
  6
DASHED2
 62
               4
  5
4D0
 10
124.35046406340035
 20
-603.84999999999911
 30
0.0
 11
124.35046406340035
 21
-614.36936624232374
 31
0.0
  0
LINE
  8
0
  6
DASHED2
 62
               4
  5
4D1
 10
112.35046406340045
 20
-603.84999999999911
 30
0.0
 11
112.35046406340045
 21
-614.36936624232374
 31
0.0
  0
LINE
  8
0
  6
DASHED2
 62
               4
  5
4D2
 10
123.15046406340059
 20
-615.56936624232412
 30
0.0
 11
113.5504640634005
 21
-615.56936624232412
 31
0.0
  0
LINE
  8
0
  6
DASHED2
 62
               4
  5
4D3
 10
124.35046406340035
 20
-614.36936624232374
 30
0.0
 11
123.15046406340059
 21
-615.56936624232412
 31
0.0
  0
LINE
  8
0
  6
DASHED2
 62
               4
  5
4D4
 10
112.35046406340045
 20
-614.36936624232374
 30
0.0
 11
113.5504640634005
 21
-615.56936624232412
 31
0.0
  0
LINE
  8
0
  6
DASHED2
 62
               4
  5
4D5
 10
130.11046406340057
 20
-592.24999999999898
 30
0.0
 11
106.59046406340023
 21
-592.24999999999898
 31
0.0
  0
LINE
  8
0
  6
DASHED2
 62
               4
  5
4D6
 10
106.59046406340165
 20
-594.24999999999932
 30
0.0
 11
130.11046406340199
 21
-594.24999999999932
 31
0.0
  0
LINE
  8
0
  6
DASHED2
 62
               4
  5
4D7
 10
124.35046406340035
 20
-477.18642052407017
 30
0.0
 11
124.35046406340035
 21
-582.64999999999884
 31
0.0
  0
LINE
  8
0
  6
DASHED2
 62
               4
  5
4D8
 10
112.35046406340045
 20
-477.18642052407017
 30
0.0
 11
112.35046406340045
 21
-582.64999999999884
 31
0.0
  0
LINE
  8
0
  6
DASHED2
 62
               4
  5
4D9
 10
112.35046406340045
 20
-477.18642052407017
 30
0.0
 11
124.35046406340035
 21
-477.18642052407017
 31
0.0
  0
LINE
  8
0
  6
DASHED2
 62
               4
  5
4DA
 10
436.35046406340143
 20
-527.24999999999977
 30
0.0
 11
436.35046406340143
 21
-592.25000000000023
 31
0.0
  0
LINE
  8
0
  6
DASHED2
 62
               4
  5
4DB
 10
435.85046406339814
 20
-607.25000000000136
 30
0.0
 11
435.85046406339814
 21
-672.24999999999909
 31
0.0
  0
LINE
  8
0
  6
DASHED2
 62
               4
  5
4DC
 10
493.35046406340103
 20
-592.25000000000023
 30
0.0
 11
436.35046406340086
 21
-592.25000000000023
 31
0.0
  0
LINE
  8
0
  6
DASHED2
 62
               4
  5
4DD
 10
435.85046406339814
 20
-607.25000000000136
 30
0.0
 11
493.3504640633999
 21
-607.25000000000023
 31
0.0
  0
LINE
  8
0
  6
DASHED2
 62
               4
  5
4DE
 10
550.35046406340075
 20
-527.25000000000091
 30
0.0
 11
550.35046406340075
 21
-592.25000000000023
 31
0.0
  0
LINE
  8
0
  6
DASHED2
 62
               4
  5
4DF
 10
493.35046406340103
 20
-592.25000000000023
 30
0.0
 11
550.35046406340098
 21
-592.25000000000023
 31
0.0
  0
LINE
  8
0
  6
DASHED2
 62
               4
  5
4E0
 10
550.8504640634028
 20
-607.25000000000136
 30
0.0
 11
493.35046406340103
 21
-607.25000000000023
 31
0.0
  0
LINE
  8
0
  6
DASHED2
 62
               4
  5
4E1
 10
550.8504640634028
 20
-607.25000000000136
 30
0.0
 11
550.8504640634028
 21
-672.24999999999909
 31
0.0
  0
LINE
  8
0
  6
DASHED2
 62
               4
  5
4E2
 10
481.59046406340025
 20
-592.25000000000023
 30
0.0
 11
481.59046406340025
 21
-583.72387150069312
 31
0.0
  0
LINE
  8
0
  6
DASHED2
 62
               4
  5
4E3
 10
487.47943680913471
 20
-583.72387150069312
 30
0.0
 11
487.47943680913471
 21
-592.25000000000023
 31
0.0
  0
LINE
  8
0
  6
DASHED2
 62
               4
  5
4E4
 10
484.53495043626759
 20
-582.65000000000009
 30
0.0
 11
502.16597769053357
 21
-582.65000000000009
 31
0.0
  0
LINE
  8
0
  6
DASHED2
 62
               4
  5
4E5
 10
505.11046406340057
 20
-592.25000000000023
 30
0.0
 11
505.11046406340057
 21
-583.72387150069312
 31
0.0
  0
LINE
  8
0
  6
DASHED2
 62
               4
  5
4E6
 10
499.22149131766588
 20
-592.25000000000023
 30
0.0
 11
499.22149131766588
 21
-583.72387150069312
 31
0.0
  0
ARC
  8
0
  6
DASHED2
 62
               4
  5
4E7
 10
484.53495043626759
 20
-587.22373158411619
 30
0.0
 40
4.5737315841157447
 50
49.925579661612304
 51
130.07442033835341
  0
ARC
  8
0
  6
DASHED2
 62
               4
  5
4E8
 10
502.16597769053357
 20
-587.22373158411619
 30
0.0
 40
4.5737315841157686
 50
49.925579661612304
 51
130.07442033835341
  0
ARC
  8
0
  6
DASHED2
 62
               4
  5
4E9
 10
493.35046406340047
 20
-599.23585826952058
 30
0.0
 40
16.58585826952007
 50
69.269184858547646
 51
110.73081514141818
  0
LINE
  8
0
  6
DASHED2
 62
               4
  5
4EA
 10
481.59046406339888
 20
-594.25000000000068
 30
0.0
 11
481.59046406339888
 21
-602.77612849930779
 31
0.0
  0
LINE
  8
0
  6
DASHED2
 62
               4
  5
4EB
 10
487.47943680913323
 20
-602.77612849930779
 30
0.0
 11
487.47943680913323
 21
-594.25000000000068
 31
0.0
  0
LINE
  8
0
  6
DASHED2
 62
               4
  5
4EC
 10
484.53495043626623
 20
-603.85000000000036
 30
0.0
 11
502.16597769053186
 21
-603.85000000000036
 31
0.0
  0
LINE
  8
0
  6
DASHED2
 62
               4
  5
4ED
 10
505.11046406339921
 20
-594.25000000000068
 30
0.0
 11
505.11046406339921
 21
-602.77612849930779
 31
0.0
  0
LINE
  8
0
  6
DASHED2
 62
               4
  5
4EE
 10
499.22149131766474
 20
-594.25000000000068
 30
0.0
 11
499.22149131766474
 21
-602.77612849930779
 31
0.0
  0
ARC
  8
0
  6
DASHED2
 62
               4
  5
4EF
 10
484.53495043626623
 20
-599.27626841588494
 30
0.0
 40
4.5737315841157447
 50
229.92557966157796
 51
310.07442033831961
  0
ARC
  8
0
  6
DASHED2
 62
               4
  5
4F0
 10
502.16597769053186
 20
-599.27626841588494
 30
0.0
 40
4.5737315841157686
 50
229.92557966157852
 51
310.07442033831961
  0
ARC
  8
0
  6
DASHED2
 62
               4
  5
4F1
 10
493.35046406339899
 20
-587.26414173048056
 30
0.0
 40
16.58585826952007
 50
249.26918485851303
 51
290.73081514138352
  0
LINE
  8
0
  6
DASHED2
 62
               4
  5
4F2
 10
487.35046406340047
 20
-603.85000000000036
 30
0.0
 11
487.35046406340047
 21
-614.36936624232499
 31
0.0
  0
LINE
  8
0
  6
DASHED2
 62
               4
  5
4F3
 10
499.35046406340035
 20
-603.85000000000036
 30
0.0
 11
499.35046406340035
 21
-614.36936624232499
 31
0.0
  0
LINE
  8
0
  6
DASHED2
 62
               4
  5
4F4
 10
488.55046406340028
 20
-615.56936624232549
 30
0.0
 11
498.15046406340031
 21
-615.56936624232549
 31
0.0
  0
LINE
  8
0
  6
DASHED2
 62
               4
  5
4F5
 10
487.35046406340047
 20
-614.36936624232499
 30
0.0
 11
488.55046406340028
 21
-615.56936624232549
 31
0.0
  0
LINE
  8
0
  6
DASHED2
 62
               4
  5
4F6
 10
499.35046406340035
 20
-614.36936624232499
 30
0.0
 11
498.15046406340031
 21
-615.56936624232549
 31
0.0
  0
LINE
  8
0
  6
DASHED2
 62
               4
  5
4F7
 10
481.59046406340025
 20
-592.25000000000023
 30
0.0
 11
505.11046406340057
 21
-592.25000000000023
 31
0.0
  0
LINE
  8
0
  6
DASHED2
 62
               4
  5
4F8
 10
505.11046406339921
 20
-594.25000000000068
 30
0.0
 11
481.59046406339888
 21
-594.25000000000068
 31
0.0
  0
LINE
  8
0
  6
DASHED2
 62
               4
  5
4F9
 10
487.35046406340047
 20
-477.18642052407159
 30
0.0
 11
487.35046406340047
 21
-582.65000000000009
 31
0.0
  0
LINE
  8
0
  6
DASHED2
 62
               4
  5
4FA
 10
499.35046406340035
 20
-477.18642052407159
 30
0.0
 11
499.35046406340035
 21
-582.65000000000009
 31
0.0
  0
LINE
  8
0
  6
DASHED2
 62
               4
  5
4FB
 10
499.35046406340035
 20
-477.18642052407159
 30
0.0
 11
487.35046406340047
 21
-477.18642052407159
 31
0.0
  0
LINE
  8
0
  6
DASHED2
 62
               4
  5
4FC
 10
545.63698727970848
 20
-1529.6062982616331
 30
0.0
 11
659.63698727970825
 21
-1529.6062982616331
 31
0.0
  0
ARC
  8
0
  6
DIVIDE
 62
               4
  5
4FD
 10
-535.14953593659948
 20
-839.18298130416815
 30
0.0
 40
55.0
 50
58.789629707489617
 51
121.21037029250985
  0
ARC
  8
0
  6
DIVIDE
 62
               4
  5
4FE
 10
-535.14953593659948
 20
-745.10322790313069
 30
0.0
 40
55.0
 50
238.78962970748935
 51
301.21037029250937
  0
ARC
  8
0
  6
DIVIDE
 62
               4
  5
4FF
 10
-539.14953593659948
 20
-814.64560203944598
 30
0.0
 40
65.0
 50
59.999999999999723
 51
119.99999999999987
  0
ARC
  8
0
  6
DIVIDE
 62
               4
  5
500
 10
-478.14953593659948
 20
-745.1032279031308
 30
0.0
 40
55.0
 50
238.78962970748941
 51
301.21037029250959
  0
ARC
  8
0
  6
DIVIDE
 62
               4
  5
501
 10
-474.14953593659959
 20
-702.06229954746902
 30
0.0
 40
65.0
 50
239.99999999999966
 51
299.99999999999932
  0
LINE
  8
0
  6
DIVIDE
 62
               4
  5
502
 10
-563.64953593659925
 20
-754.43970531827745
 30
0.0
 11
-563.64953593659925
 21
-792.14310460364948
 31
0.0
  0
LINE
  8
0
  6
DIVIDE
 62
               4
  5
503
 10
-449.64953593659942
 20
-762.26819626863744
 30
0.0
 11
-449.64953593659942
 21
-792.14310460364948
 31
0.0
  0
ARC
  8
0
  6
DIVIDE
 62
               4
  5
504
 10
-539.14953593659948
 20
-702.06229954746914
 30
0.0
 40
65.0
 50
239.99999999999929
 51
247.85677929855132
  0
LINE
  8
0
  6
DIVIDE
 62
               4
  5
505
 10
-441.64953593659959
 20
-672.24999999999852
 30
0.0
 11
-441.64953593659959
 21
-758.35395079345756
 31
0.0
  0
LINE
  8
0
  6
DIVIDE
 62
               4
  5
506
 10
-571.64953593659948
 20
-672.24999999999852
 30
0.0
 11
-571.64953593659948
 21
-758.35395079345756
 31
0.0
  0
ARC
  8
0
  6
DIVIDE
 62
               4
  5
507
 10
-35.149535936599534
 20
-839.18298130416792
 30
0.0
 40
55.0
 50
58.789629707489617
 51
121.21037029250985
  0
ARC
  8
0
  6
DIVIDE
 62
               4
  5
508
 10
-35.149535936599534
 20
-745.10322790313046
 30
0.0
 40
55.0
 50
238.78962970748935
 51
301.21037029250937
  0
ARC
  8
0
  6
DIVIDE
 62
               4
  5
509
 10
-39.149535936599591
 20
-814.64560203944575
 30
0.0
 40
65.0
 50
59.999999999999723
 51
119.99999999999987
  0
ARC
  8
0
  6
DIVIDE
 62
               4
  5
50A
 10
21.850464063400498
 20
-745.10322790313057
 30
0.0
 40
55.0
 50
238.78962970748941
 51
301.21037029250959
  0
ARC
  8
0
  6
DIVIDE
 62
               4
  5
50B
 10
25.850464063400413
 20
-702.0622995474688
 30
0.0
 40
65.0
 50
239.99999999999966
 51
299.99999999999932
  0
LINE
  8
0
  6
DIVIDE
 62
               4
  5
50C
 10
-63.649535936599477
 20
-754.43970531827722
 30
0.0
 11
-63.649535936599477
 21
-792.14310460364925
 31
0.0
  0
LINE
  8
0
  6
DIVIDE
 62
               4
  5
50D
 10
50.35046406340058
 20
-762.26819626863721
 30
0.0
 11
50.35046406340058
 21
-792.14310460364925
 31
0.0
  0
ARC
  8
0
  6
DIVIDE
 62
               4
  5
50E
 10
-39.149535936599591
 20
-702.06229954746891
 30
0.0
 40
65.0
 50
239.99999999999929
 51
247.85677929855132
  0
LINE
  8
0
  6
DIVIDE
 62
               4
  5
50F
 10
58.350464063400395
 20
-672.24999999999829
 30
0.0
 11
58.350464063400395
 21
-758.35395079345733
 31
0.0
  0
LINE
  8
0
  6
DIVIDE
 62
               4
  5
510
 10
-71.649535936599591
 20
-672.24999999999829
 30
0.0
 11
-71.649535936599591
 21
-758.35395079345733
 31
0.0
  0
ARC
  8
0
  6
DIVIDE
 62
               4
  5
511
 10
464.85046406340052
 20
-839.18298130416883
 30
0.0
 40
55.0
 50
58.789629707489617
 51
121.21037029250985
  0
ARC
  8
0
  6
DIVIDE
 62
               4
  5
512
 10
464.85046406340052
 20
-745.10322790313126
 30
0.0
 40
55.0
 50
238.78962970748935
 51
301.21037029250937
  0
ARC
  8
0
  6
DIVIDE
 62
               4
  5
513
 10
460.85046406340041
 20
-814.64560203944666
 30
0.0
 40
65.0
 50
59.999999999999723
 51
119.99999999999987
  0
ARC
  8
0
  6
DIVIDE
 62
               4
  5
514
 10
521.85046406340075
 20
-745.10322790313148
 30
0.0
 40
55.0
 50
238.78962970748941
 51
301.21037029250959
  0
ARC
  8
0
  6
DIVIDE
 62
               4
  5
515
 10
525.85046406340052
 20
-702.06229954746959
 30
0.0
 40
65.0
 50
239.99999999999966
 51
299.99999999999932
  0
LINE
  8
0
  6
DIVIDE
 62
               4
  5
516
 10
436.35046406340064
 20
-754.43970531827813
 30
0.0
 11
436.35046406340064
 21
-792.14310460365004
 31
0.0
  0
LINE
  8
0
  6
DIVIDE
 62
               4
  5
517
 10
550.35046406340075
 20
-762.26819626863812
 30
0.0
 11
550.35046406340075
 21
-792.14310460365004
 31
0.0
  0
ARC
  8
0
  6
DIVIDE
 62
               4
  5
518
 10
460.85046406340041
 20
-702.06229954746982
 30
0.0
 40
65.0
 50
239.99999999999929
 51
247.85677929855132
  0
LINE
  8
0
  6
DIVIDE
 62
               4
  5
519
 10
558.35046406340052
 20
-672.24999999999909
 30
0.0
 11
558.35046406340052
 21
-758.35395079345813
 31
0.0
  0
LINE
  8
0
  6
DIVIDE
 62
               4
  5
51A
 10
428.35046406340041
 20
-672.24999999999909
 30
0.0
 11
428.35046406340041
 21
-758.35395079345813
 31
0.0
  0
INSERT
  8
0
  6
CONTINUOUS
  5
51B
  2
GROUP_1
 10
0.0
 20
0.0
 30
0.0
  0
INSERT
  8
0
  6
CONTINUOUS
  5
51C
  2
GROUP_2
 10
0.0
 20
0.0
 30
0.0
  0
INSERT
  8
0
  6
CONTINUOUS
  5
51D
  2
GROUP_3
 10
0.0
 20
0.0
 30
0.0
  0
INSERT
  8
0
  6
CONTINUOUS
  5
51E
  2
GROUP_4
 10
0.0
 20
0.0
 30
0.0
  0
INSERT
  8
0
  6
CONTINUOUS
  5
51F
  2
GROUP_5
 10
0.0
 20
0.0
 30
0.0
  0
INSERT
  8
0
  6
CONTINUOUS
  5
520
  2
GROUP_6
 10
0.0
 20
0.0
 30
0.0
  0
INSERT
  8
0
  6
CONTINUOUS
  5
521
  2
GROUP_7
 10
0.0
 20
0.0
 30
0.0
  0
INSERT
  8
0
  6
CONTINUOUS
  5
522
  2
GROUP_8
 10
0.0
 20
0.0
 30
0.0
  0
INSERT
  8
0
  6
CONTINUOUS
  5
523
  2
GROUP_9
 10
0.0
 20
0.0
 30
0.0
  0
INSERT
  8
0
  6
CONTINUOUS
  5
524
  2
GROUP_10
 10
0.0
 20
0.0
 30
0.0
  0
POINT
  8
0
  6
CONTINUOUS
 62
               5
  5
525
 10
-398.78730498706813
 20
-1213.7913000848398
 30
0.0
  0
POINT
  8
0
  6
CONTINUOUS
 62
               5
  5
526
 10
-225.55723347710779
 20
-1215.0820941597287
 30
0.0
  0
POINT
  8
0
  6
CONTINUOUS
 62
               5
  5
527
 10
-572.01737649702841
 20
-1215.0820941597285
 30
0.0
  0
POINT
  8
0
  6
CONTINUOUS
 62
               5
  5
528
 10
-402.0240564577237
 20
-1033.0933445058445
 30
0.0
  0
POINT
  8
0
  6
CONTINUOUS
 62
               5
  5
529
 10
486.36705878966876
 20
-1631.8970923365221
 30
0.0
  0
POINT
  8
0
  6
CONTINUOUS
 62
               5
  5
52A
 10
486.36705878966887
 20
-1154.8160704381596
 30
0.0
  0
CIRCLE
  8
0
  6
CONTINUOUS
 62
               7
  5
52B
 10
-398.78730498706813
 20
-1220.2913000848398
 30
0.0
 40
38.0
  0
CIRCLE
  8
0
  6
CONTINUOUS
 62
               7
  5
52C
 10
-398.78730498706813
 20
-1220.2913000848398
 30
0.0
 40
33.5
  0
LINE
  8
0
  6
CONTINUOUS
 62
               7
  5
52D
 10
-254.28730498706813
 20
-1169.2913000848398
 30
0.0
 11
-254.28730498706813
 21
-1258.2860639641654
 31
0.0
  0
LINE
  8
0
  6
CONTINUOUS
 62
               7
  5
52E
 10
-253.6873049870681
 20
-1169.2913000848398
 30
0.0
 11
-254.28730498706813
 21
-1169.2913000848398
 31
0.0
  0
LINE
  8
0
  6
CONTINUOUS
 62
               7
  5
52F
 10
-289.28730498706813
 20
-1257.2913000848398
 30
0.0
 11
-289.28730498706813
 21
-1183.2913000848398
 31
0.0
  0
LINE
  8
0
  6
CONTINUOUS
 62
               7
  5
530
 10
-196.28730498706813
 20
-1257.2913000848398
 30
0.0
 11
-196.28730498706813
 21
-1170.2913000848398
 31
0.0
  0
LINE
  8
0
  6
CONTINUOUS
 62
               7
  5
531
 10
-254.28730498706813
 20
-1169.2913000848398
 30
0.0
 11
-197.28730498706813
 21
-1169.2913000848398
 31
0.0
  0
LINE
  8
0
  6
CONTINUOUS
 62
               7
  5
532
 10
-288.28730498706813
 20
-1258.2913000848398
 30
0.0
 11
-197.28730498706813
 21
-1258.2913000848398
 31
0.0
  0
LINE
  8
0
  6
CONTINUOUS
 62
               7
  5
533
 10
-197.28730498706813
 20
-1169.2913000848398
 30
0.0
 11
-196.28730498706813
 21
-1170.2913000848398
 31
0.0
  0
LINE
  8
0
  6
CONTINUOUS
 62
               7
  5
534
 10
-196.28730498706813
 20
-1257.2913000848398
 30
0.0
 11
-197.28730498706813
 21
-1258.2913000848398
 31
0.0
  0
LINE
  8
0
  6
CONTINUOUS
 62
               7
  5
535
 10
-288.28730498706813
 20
-1182.2913000848398
 30
0.0
 11
-254.28730498706813
 21
-1182.2913000848398
 31
0.0
  0
CIRCLE
  8
0
  6
CONTINUOUS
 62
               7
  5
536
 10
-398.78730498706813
 20
-1213.7913000848398
 30
0.0
 40
44.5
  0
LINE
  8
0
  6
CONTINUOUS
 62
               7
  5
537
 10
-288.28730498706813
 20
-1182.2913000848398
 30
0.0
 11
-289.28730498706813
 21
-1183.2913000848398
 31
0.0
  0
LINE
  8
0
  6
CONTINUOUS
 62
               7
  5
538
 10
-289.28730498706813
 20
-1257.2913000848398
 30
0.0
 11
-288.28730498706813
 21
-1258.2913000848398
 31
0.0
  0
LINE
  8
0
  6
CONTINUOUS
 62
               7
  5
539
 10
-543.28730498706807
 20
-1169.2913000848396
 30
0.0
 11
-543.28730498706818
 21
-1258.2860639641651
 31
0.0
  0
LINE
  8
0
  6
CONTINUOUS
 62
               7
  5
53A
 10
-543.88730498706809
 20
-1169.2913000848396
 30
0.0
 11
-543.28730498706807
 21
-1169.2913000848396
 31
0.0
  0
LINE
  8
0
  6
CONTINUOUS
 62
               7
  5
53B
 10
-508.28730498706813
 20
-1257.2913000848396
 30
0.0
 11
-508.28730498706801
 21
-1183.2913000848396
 31
0.0
  0
LINE
  8
0
  6
CONTINUOUS
 62
               7
  5
53C
 10
-601.28730498706818
 20
-1257.2913000848396
 30
0.0
 11
-601.28730498706807
 21
-1170.2913000848396
 31
0.0
  0
LINE
  8
0
  6
CONTINUOUS
 62
               7
  5
53D
 10
-543.28730498706807
 20
-1169.2913000848396
 30
0.0
 11
-600.28730498706807
 21
-1169.2913000848396
 31
0.0
  0
LINE
  8
0
  6
CONTINUOUS
 62
               7
  5
53E
 10
-509.28730498706813
 20
-1258.2913000848396
 30
0.0
 11
-600.28730498706818
 21
-1258.2913000848396
 31
0.0
  0
LINE
  8
0
  6
CONTINUOUS
 62
               7
  5
53F
 10
-600.28730498706807
 20
-1169.2913000848396
 30
0.0
 11
-601.28730498706807
 21
-1170.2913000848396
 31
0.0
  0
LINE
  8
0
  6
CONTINUOUS
 62
               7
  5
540
 10
-601.28730498706818
 20
-1257.2913000848396
 30
0.0
 11
-600.28730498706818
 21
-1258.2913000848396
 31
0.0
  0
LINE
  8
0
  6
CONTINUOUS
 62
               7
  5
541
 10
-509.28730498706801
 20
-1182.2913000848396
 30
0.0
 11
-543.28730498706807
 21
-1182.2913000848396
 31
0.0
  0
LINE
  8
0
  6
CONTINUOUS
 62
               7
  5
542
 10
-509.28730498706801
 20
-1182.2913000848396
 30
0.0
 11
-508.28730498706801
 21
-1183.2913000848396
 31
0.0
  0
LINE
  8
0
  6
CONTINUOUS
 62
               7
  5
543
 10
-508.28730498706813
 20
-1257.2913000848396
 30
0.0
 11
-509.28730498706813
 21
-1258.2913000848396
 31
0.0
  0
LINE
  8
0
  6
CONTINUOUS
 62
               7
  5
544
 10
-356.23326238283465
 20
-1061.8234160158049
 30
0.0
 11
-445.2280262621602
 21
-1061.8234160158047
 31
0.0
  0
LINE
  8
0
  6
CONTINUOUS
 62
               7
  5
545
 10
-356.23326238283465
 20
-1061.2234160158048
 30
0.0
 11
-356.23326238283465
 21
-1061.8234160158049
 31
0.0
  0
LINE
  8
0
  6
CONTINUOUS
 62
               7
  5
546
 10
-437.73326238283465
 20
-1096.8234160158047
 30
0.0
 11
-363.73326238283465
 21
-1096.8234160158049
 31
0.0
  0
LINE
  8
0
  6
CONTINUOUS
 62
               7
  5
547
 10
-444.23326238283454
 20
-1003.8234160158047
 30
0.0
 11
-357.23326238283465
 21
-1003.8234160158049
 31
0.0
  0
LINE
  8
0
  6
CONTINUOUS
 62
               7
  5
548
 10
-356.23326238283465
 20
-1061.8234160158049
 30
0.0
 11
-356.23326238283465
 21
-1004.8234160158049
 31
0.0
  0
LINE
  8
0
  6
CONTINUOUS
 62
               7
  5
549
 10
-438.73326238283465
 20
-1095.8234160158047
 30
0.0
 11
-438.73326238283465
 21
-1061.8234160158047
 31
0.0
  0
LINE
  8
0
  6
CONTINUOUS
 62
               7
  5
54A
 10
-356.23326238283465
 20
-1004.8234160158049
 30
0.0
 11
-357.23326238283465
 21
-1003.8234160158049
 31
0.0
  0
LINE
  8
0
  6
CONTINUOUS
 62
               7
  5
54B
 10
-444.23326238283454
 20
-1003.8234160158047
 30
0.0
 11
-445.23326238283454
 21
-1004.8234160158047
 31
0.0
  0
LINE
  8
0
  6
CONTINUOUS
 62
               7
  5
54C
 10
-362.73326238283465
 20
-1095.8234160158049
 30
0.0
 11
-362.73326238283465
 21
-1061.8234160158047
 31
0.0
  0
LINE
  8
0
  6
CONTINUOUS
 62
               7
  5
54D
 10
-362.73326238283465
 20
-1095.8234160158049
 30
0.0
 11
-363.73326238283465
 21
-1096.8234160158049
 31
0.0
  0
LINE
  8
0
  6
CONTINUOUS
 62
               7
  5
54E
 10
-437.73326238283465
 20
-1096.8234160158047
 30
0.0
 11
-438.73326238283465
 21
-1095.8234160158047
 31
0.0
  0
LINE
  8
0
  6
CONTINUOUS
 62
               7
  5
54F
 10
-445.23326238283465
 20
-1061.8234160158047
 30
0.0
 11
-445.23326238283465
 21
-1004.8234160158047
 31
0.0
  0
LINE
  8
0
  6
CONTINUOUS
 62
               7
  5
550
 10
209.98438774928155
 20
-1257.2913000848398
 30
0.0
 11
209.98438774928155
 21
-1199.2913000848398
 31
0.0
  0
LINE
  8
0
  6
CONTINUOUS
 62
               7
  5
551
 10
235.58438774928146
 20
-1169.2913000848398
 30
0.0
 11
235.58438774928146
 21
-1258.2913000848398
 31
0.0
  0
LINE
  8
0
  6
CONTINUOUS
 62
               7
  5
552
 10
236.1843877492816
 20
-1169.2913000848398
 30
0.0
 11
235.58438774928146
 21
-1169.2913000848398
 31
0.0
  0
LINE
  8
0
  6
CONTINUOUS
 62
               7
  5
553
 10
293.58438774928169
 20
-1257.2913000848398
 30
0.0
 11
293.58438774928169
 21
-1170.2913000848398
 31
0.0
  0
CIRCLE
  8
0
  6
CONTINUOUS
 62
               7
  5
554
 10
114.22837152403854
 20
-1228.2913000848398
 30
0.0
 40
30.0
  0
CIRCLE
  8
0
  6
CONTINUOUS
 62
               7
  5
555
 10
114.22837152403854
 20
-1228.2913000848398
 30
0.0
 40
25.5
  0
CIRCLE
  8
0
  6
CONTINUOUS
 62
               7
  5
556
 10
114.22837152403854
 20
-1213.7913000848398
 30
0.0
 40
44.5
  0
LINE
  8
0
  6
CONTINUOUS
 62
               7
  5
557
 10
235.71883949476188
 20
-1169.2913000848398
 30
0.0
 11
292.58438774928169
 21
-1169.2913000848398
 31
0.0
  0
LINE
  8
0
  6
CONTINUOUS
 62
               7
  5
558
 10
210.98438774928155
 20
-1258.2913000848398
 30
0.0
 11
292.58438774928169
 21
-1258.2913000848398
 31
0.0
  0
LINE
  8
0
  6
CONTINUOUS
 62
               7
  5
559
 10
210.98438774928155
 20
-1198.2913000848398
 30
0.0
 11
235.58438774928146
 21
-1198.2913000848398
 31
0.0
  0
LINE
  8
0
  6
CONTINUOUS
 62
               7
  5
55A
 10
210.98438774928155
 20
-1198.2913000848398
 30
0.0
 11
209.98438774928155
 21
-1199.2913000848398
 31
0.0
  0
LINE
  8
0
  6
CONTINUOUS
 62
               7
  5
55B
 10
292.58438774928169
 20
-1169.2913000848398
 30
0.0
 11
293.58438774928169
 21
-1170.2913000848398
 31
0.0
  0
LINE
  8
0
  6
CONTINUOUS
 62
               7
  5
55C
 10
209.98438774928155
 20
-1257.2913000848398
 30
0.0
 11
210.98438774928155
 21
-1258.2913000848398
 31
0.0
  0
LINE
  8
0
  6
CONTINUOUS
 62
               7
  5
55D
 10
293.58438774928169
 20
-1257.2913000848398
 30
0.0
 11
292.58438774928169
 21
-1258.2913000848398
 31
0.0
  0
LINE
  8
0
  6
CONTINUOUS
 62
               7
  5
55E
 10
18.472355298795762
 20
-1257.2913000848398
 30
0.0
 11
18.472355298795762
 21
-1199.2913000848398
 31
0.0
  0
LINE
  8
0
  6
CONTINUOUS
 62
               7
  5
55F
 10
-7.127644701204261
 20
-1169.2913000848398
 30
0.0
 11
-7.127644701204261
 21
-1258.2913000848398
 31
0.0
  0
LINE
  8
0
  6
CONTINUOUS
 62
               7
  5
560
 10
-7.7276447012042837
 20
-1169.2913000848398
 30
0.0
 11
-7.127644701204261
 21
-1169.2913000848398
 31
0.0
  0
LINE
  8
0
  6
CONTINUOUS
 62
               7
  5
561
 10
-65.127644701204261
 20
-1257.2913000848398
 30
0.0
 11
-65.127644701204261
 21
-1170.2913000848398
 31
0.0
  0
LINE
  8
0
  6
CONTINUOUS
 62
               7
  5
562
 10
-7.2620964466845663
 20
-1169.2913000848398
 30
0.0
 11
-64.127644701204261
 21
-1169.2913000848398
 31
0.0
  0
LINE
  8
0
  6
CONTINUOUS
 62
               7
  5
563
 10
17.472355298795762
 20
-1258.2913000848398
 30
0.0
 11
-64.127644701204261
 21
-1258.2913000848398
 31
0.0
  0
LINE
  8
0
  6
CONTINUOUS
 62
               7
  5
564
 10
17.472355298795762
 20
-1198.2913000848398
 30
0.0
 11
-7.127644701204261
 21
-1198.2913000848398
 31
0.0
  0
LINE
  8
0
  6
CONTINUOUS
 62
               7
  5
565
 10
17.472355298795762
 20
-1198.2913000848398
 30
0.0
 11
18.472355298795762
 21
-1199.2913000848398
 31
0.0
  0
LINE
  8
0
  6
CONTINUOUS
 62
               7
  5
566
 10
-64.127644701204261
 20
-1169.2913000848398
 30
0.0
 11
-65.127644701204261
 21
-1170.2913000848398
 31
0.0
  0
LINE
  8
0
  6
CONTINUOUS
 62
               7
  5
567
 10
18.472355298795762
 20
-1257.2913000848398
 30
0.0
 11
17.472355298795762
 21
-1258.2913000848398
 31
0.0
  0
LINE
  8
0
  6
CONTINUOUS
 62
               7
  5
568
 10
-65.127644701204261
 20
-1257.2913000848398
 30
0.0
 11
-64.127644701204261
 21
-1258.2913000848398
 31
0.0
  0
LINE
  8
0
  6
CONTINUOUS
 62
               7
  5
569
 10
85.228371524038764
 20
-1107.535283859597
 30
0.0
 11
143.22837152403878
 21
-1107.535283859597
 31
0.0
  0
LINE
  8
0
  6
CONTINUOUS
 62
               7
  5
56A
 10
158.72837152403878
 20
-1081.9352838595969
 30
0.0
 11
69.728371524038764
 21
-1081.9352838595969
 31
0.0
  0
LINE
  8
0
  6
CONTINUOUS
 62
               7
  5
56B
 10
158.72837152403878
 20
-1081.335283859597
 30
0.0
 11
158.72837152403878
 21
-1081.9352838595969
 31
0.0
  0
LINE
  8
0
  6
CONTINUOUS
 62
               7
  5
56C
 10
70.728371524038764
 20
-1023.9352838595969
 30
0.0
 11
157.72837152403878
 21
-1023.9352838595969
 31
0.0
  0
LINE
  8
0
  6
CONTINUOUS
 62
               7
  5
56D
 10
158.72837152403878
 20
-1081.8008321141167
 30
0.0
 11
158.72837152403878
 21
-1024.9352838595969
 31
0.0
  0
LINE
  8
0
  6
CONTINUOUS
 62
               7
  5
56E
 10
84.228371524038764
 20
-1106.535283859597
 30
0.0
 11
84.228371524038764
 21
-1081.9352838595969
 31
0.0
  0
LINE
  8
0
  6
CONTINUOUS
 62
               7
  5
56F
 10
144.22837152403878
 20
-1106.535283859597
 30
0.0
 11
144.22837152403878
 21
-1081.9352838595969
 31
0.0
  0
LINE
  8
0
  6
CONTINUOUS
 62
               7
  5
570
 10
144.22837152403878
 20
-1106.535283859597
 30
0.0
 11
143.22837152403878
 21
-1107.535283859597
 31
0.0
  0
LINE
  8
0
  6
CONTINUOUS
 62
               7
  5
571
 10
158.72837152403878
 20
-1024.9352838595969
 30
0.0
 11
157.72837152403878
 21
-1023.9352838595969
 31
0.0
  0
LINE
  8
0
  6
CONTINUOUS
 62
               7
  5
572
 10
85.228371524038764
 20
-1107.535283859597
 30
0.0
 11
84.228371524038764
 21
-1106.535283859597
 31
0.0
  0
LINE
  8
0
  6
CONTINUOUS
 62
               7
  5
573
 10
70.728371524038764
 20
-1023.9352838595969
 30
0.0
 11
69.728371524038764
 21
-1024.9352838595969
 31
0.0
  0
LINE
  8
0
  6
CONTINUOUS
 62
               7
  5
574
 10
69.728371524038764
 20
-1081.8008321141165
 30
0.0
 11
69.728371524038764
 21
-1024.9352838595969
 31
0.0
  0
CIRCLE
  8
0
  6
CONTINUOUS
 62
               7
  5
575
 10
602.63698727970836
 20
-1645.1062982616331
 30
0.0
 40
25.5
  0
CIRCLE
  8
0
  6
CONTINUOUS
 62
               7
  5
576
 10
602.63698727970836
 20
-1630.6062982616331
 30
0.0
 40
44.5
  0
CIRCLE
  8
0
  6
CONTINUOUS
 62
               7
  5
577
 10
602.63698727970836
 20
-1645.1062982616331
 30
0.0
 40
30.0
  0
LINE
  8
0
  6
CONTINUOUS
 62
               7
  5
578
 10
573.63698727970836
 20
-1326.7068645130487
 30
0.0
 11
631.63698727970836
 21
-1326.7068645130487
 31
0.0
  0
LINE
  8
0
  6
CONTINUOUS
 62
               7
  5
579
 10
647.13698727970836
 20
-1301.1068645130488
 30
0.0
 11
558.13698727970836
 21
-1301.1068645130488
 31
0.0
  0
LINE
  8
0
  6
CONTINUOUS
 62
               7
  5
57A
 10
647.13698727970836
 20
-1300.5068645130489
 30
0.0
 11
647.13698727970836
 21
-1301.1068645130488
 31
0.0
  0
LINE
  8
0
  6
CONTINUOUS
 62
               7
  5
57B
 10
559.13698727970836
 20
-1243.1068645130485
 30
0.0
 11
646.13698727970836
 21
-1243.1068645130485
 31
0.0
  0
LINE
  8
0
  6
CONTINUOUS
 62
               7
  5
57C
 10
647.13698727970836
 20
-1300.9724127675684
 30
0.0
 11
647.13698727970836
 21
-1244.1068645130485
 31
0.0
  0
LINE
  8
0
  6
CONTINUOUS
 62
               7
  5
57D
 10
572.63698727970836
 20
-1325.7068645130487
 30
0.0
 11
572.63698727970836
 21
-1301.1068645130488
 31
0.0
  0
LINE
  8
0
  6
CONTINUOUS
 62
               7
  5
57E
 10
632.63698727970836
 20
-1325.7068645130487
 30
0.0
 11
632.63698727970836
 21
-1301.1068645130488
 31
0.0
  0
LINE
  8
0
  6
CONTINUOUS
 62
               7
  5
57F
 10
632.63698727970836
 20
-1325.7068645130487
 30
0.0
 11
631.63698727970836
 21
-1326.7068645130487
 31
0.0
  0
LINE
  8
0
  6
CONTINUOUS
 62
               7
  5
580
 10
647.13698727970836
 20
-1244.1068645130485
 30
0.0
 11
646.13698727970836
 21
-1243.1068645130485
 31
0.0
  0
LINE
  8
0
  6
CONTINUOUS
 62
               7
  5
581
 10
573.63698727970836
 20
-1326.7068645130487
 30
0.0
 11
572.63698727970836
 21
-1325.7068645130487
 31
0.0
  0
LINE
  8
0
  6
CONTINUOUS
 62
               7
  5
582
 10
559.13698727970836
 20
-1243.1068645130485
 30
0.0
 11
558.13698727970836
 21
-1244.1068645130485
 31
0.0
  0
LINE
  8
0
  6
CONTINUOUS
 62
               7
  5
583
 10
558.13698727970836
 20
-1300.9724127675684
 30
0.0
 11
558.13698727970836
 21
-1244.1068645130485
 31
0.0
  0
LINE
  8
0
  6
CONTINUOUS
 62
               7
  5
584
 10
457.63698727970842
 20
-1586.1062982616331
 30
0.0
 11
457.63698727970842
 21
-1675.1010621409587
 31
0.0
  0
LINE
  8
0
  6
CONTINUOUS
 62
               7
  5
585
 10
458.23698727970844
 20
-1586.1062982616331
 30
0.0
 11
457.63698727970842
 21
-1586.1062982616331
 31
0.0
  0
LINE
  8
0
  6
CONTINUOUS
 62
               7
  5
586
 10
422.63698727970842
 20
-1674.1062982616331
 30
0.0
 11
422.63698727970842
 21
-1600.1062982616331
 31
0.0
  0
LINE
  8
0
  6
CONTINUOUS
 62
               7
  5
587
 10
515.63698727970836
 20
-1674.1062982616331
 30
0.0
 11
515.63698727970836
 21
-1587.1062982616331
 31
0.0
  0
LINE
  8
0
  6
CONTINUOUS
 62
               7
  5
588
 10
457.63698727970842
 20
-1586.1062982616331
 30
0.0
 11
514.63698727970836
 21
-1586.1062982616331
 31
0.0
  0
LINE
  8
0
  6
CONTINUOUS
 62
               7
  5
589
 10
423.63698727970842
 20
-1675.1062982616331
 30
0.0
 11
514.63698727970836
 21
-1675.1062982616331
 31
0.0
  0
LINE
  8
0
  6
CONTINUOUS
 62
               7
  5
58A
 10
514.63698727970836
 20
-1586.1062982616331
 30
0.0
 11
515.63698727970836
 21
-1587.1062982616331
 31
0.0
  0
LINE
  8
0
  6
CONTINUOUS
 62
               7
  5
58B
 10
515.63698727970836
 20
-1674.1062982616331
 30
0.0
 11
514.63698727970836
 21
-1675.1062982616331
 31
0.0
  0
LINE
  8
0
  6
CONTINUOUS
 62
               7
  5
58C
 10
423.63698727970842
 20
-1599.1062982616331
 30
0.0
 11
457.63698727970842
 21
-1599.1062982616331
 31
0.0
  0
LINE
  8
0
  6
CONTINUOUS
 62
               7
  5
58D
 10
423.63698727970842
 20
-1599.1062982616331
 30
0.0
 11
422.63698727970842
 21
-1600.1062982616331
 31
0.0
  0
LINE
  8
0
  6
CONTINUOUS
 62
               7
  5
58E
 10
422.63698727970842
 20
-1674.1062982616331
 30
0.0
 11
423.63698727970842
 21
-1675.1062982616331
 31
0.0
  0
LINE
  8
0
  6
CONTINUOUS
 62
               7
  5
58F
 10
457.63698727970842
 20
-1200.6068645130485
 30
0.0
 11
457.63698727970865
 21
-1111.612100633723
 31
0.0
  0
LINE
  8
0
  6
CONTINUOUS
 62
               7
  5
590
 10
458.23698727970856
 20
-1200.6068645130485
 30
0.0
 11
457.63698727970842
 21
-1200.6068645130485
 31
0.0
  0
LINE
  8
0
  6
CONTINUOUS
 62
               7
  5
591
 10
422.63698727970865
 20
-1119.1068645130485
 30
0.0
 11
422.63698727970842
 21
-1193.1068645130485
 31
0.0
  0
LINE
  8
0
  6
CONTINUOUS
 62
               7
  5
592
 10
515.63698727970859
 20
-1112.6068645130488
 30
0.0
 11
515.63698727970836
 21
-1199.6068645130485
 31
0.0
  0
LINE
  8
0
  6
CONTINUOUS
 62
               7
  5
593
 10
457.63698727970842
 20
-1200.6068645130485
 30
0.0
 11
514.63698727970836
 21
-1200.6068645130485
 31
0.0
  0
LINE
  8
0
  6
CONTINUOUS
 62
               7
  5
594
 10
423.63698727970865
 20
-1118.1068645130485
 30
0.0
 11
457.63698727970865
 21
-1118.1068645130485
 31
0.0
  0
LINE
  8
0
  6
CONTINUOUS
 62
               7
  5
595
 10
514.63698727970836
 20
-1200.6068645130485
 30
0.0
 11
515.63698727970836
 21
-1199.6068645130485
 31
0.0
  0
LINE
  8
0
  6
CONTINUOUS
 62
               7
  5
596
 10
515.63698727970859
 20
-1112.6068645130488
 30
0.0
 11
514.63698727970859
 21
-1111.6068645130488
 31
0.0
  0
LINE
  8
0
  6
CONTINUOUS
 62
               7
  5
597
 10
423.63698727970842
 20
-1194.1068645130485
 30
0.0
 11
457.63698727970865
 21
-1194.1068645130485
 31
0.0
  0
LINE
  8
0
  6
CONTINUOUS
 62
               7
  5
598
 10
423.63698727970842
 20
-1194.1068645130485
 30
0.0
 11
422.63698727970842
 21
-1193.1068645130485
 31
0.0
  0
LINE
  8
0
  6
CONTINUOUS
 62
               7
  5
599
 10
422.63698727970865
 20
-1119.1068645130485
 30
0.0
 11
423.63698727970865
 21
-1118.1068645130485
 31
0.0
  0
LINE
  8
0
  6
CONTINUOUS
 62
               7
  5
59A
 10
457.63698727970865
 20
-1111.6068645130485
 30
0.0
 11
514.63698727970859
 21
-1111.6068645130485
 31
0.0
  0
CIRCLE
  8
0
  6
DASHED
 62
               7
  5
59B
 10
-398.78730498706813
 20
-1213.7913000848398
 30
0.0
 40
40.0
  0
CIRCLE
  8
0
  6
DASHED
 62
               7
  5
59C
 10
114.22837152403854
 20
-1213.7913000848398
 30
0.0
 40
40.0
  0
CIRCLE
  8
0
  6
DASHED
 62
               7
  5
59D
 10
602.63698727970836
 20
-1630.6062982616331
 30
0.0
 40
40.0
  0
TEXT
  8
0
 62
               3
  5
59E
 10
-398.78730498706813
 20
-1298.2913000848396
 30
0.0
 40
40.0
  1
EMB_80×65
 41
0.8
 72
               1
 11
-398.78730498706813
 21
-1298.2913000848396
 31
0.0
 73
               3
  0
TEXT
  8
0
 62
               3
  5
59F
 10
114.22837152403854
 20
-1298.2913000848398
 30
0.0
 40
40.0
  1
EMB_80×50
 41
0.8
 72
               1
 11
114.22837152403854
 21
-1298.2913000848398
 31
0.0
 73
               3
  0
TEXT
  8
0
 62
               3
  5
5A0
 10
598.93958330206806
 20
-976.66049600782935
 30
0.0
 40
40.0
  1
EMB使用例
 41
0.8
 72
               1
 11
598.93958330206806
 21
-976.66049600782935
 31
0.0
 73
               3
  0
TEXT
  8
0
 62
               3
  5
5A1
 10
-130.39224002749035
 20
-922.30036010748995
 30
0.0
 40
40.0
  1
横枝管に呼び６５、５０の管を接続するときは、EMBをご使用ください。
 41
0.8
 72
               1
 11
-130.39224002749035
 21
-922.30036010748995
 31
0.0
 73
               3
  0
ENDSEC
  0
EOF
