  0
SECTION
  2
HEADER
  9
$ACADVER
  1
AC1009
  9
$INSBASE
 10
0.0
 20
0.0
 30
0.0
  9
$EXTMIN
 10
-613.60000000000048
 20
-841.09097077837669
 30
0.0
  9
$EXTMAX
 10
613.60000000000048
 20
664.19786217212504
 30
0.0
  9
$LIMMIN
 10
-651.9500000000005
 20
-888.13124680807982
  9
$LIMMAX
 10
651.9500000000005
 20
711.23813820182818
  9
$ORTHOMODE
 70
               0
  9
$REGENMODE
 70
               1
  9
$FILLMODE
 70
               1
  9
$QTEXTMODE
 70
               0
  9
$MIRRTEXT
 70
               1
  9
$DRAGMODE
 70
               2
  9
$LTSCALE
 40
1.0
  9
$OSMODE
 70
               0
  9
$ATTMODE
 70
               1
  9
$TEXTSIZE
 40
0.2
  9
$TRACEWID
 40
0.05
  9
$TEXTSTYLE
  7
STANDARD
  9
$CLAYER
  8
0
  9
$CELTYPE
  6
CONTINUOUS
  9
$CECOLOR
 62
             256
  9
$DIMSCALE
 40
1.0
  9
$DIMASZ
 40
0.18
  9
$DIMEXO
 40
0.0625
  9
$DIMDLI
 40
0.38
  9
$DIMRND
 40
0.0
  9
$DIMDLE
 40
0.0
  9
$DIMEXE
 40
0.18
  9
$DIMTP
 40
0.0
  9
$DIMTM
 40
0.0
  9
$DIMTXT
 40
0.18
  9
$DIMCEN
 40
0.09
  9
$DIMTSZ
 40
0.0
  9
$DIMTOL
 70
               0
  9
$DIMLIM
 70
               0
  9
$DIMTIH
 70
               1
  9
$DIMTOH
 70
               1
  9
$DIMSE1
 70
               0
  9
$DIMSE2
 70
               0
  9
$DIMTAD
 70
               0
  9
$DIMZIN
 70
               0
  9
$DIMBLK
  1

  9
$DIMASO
 70
               1
  9
$DIMSHO
 70
               1
  9
$DIMPOST
  1

  9
$DIMAPOST
  1

  9
$DIMALT
 70
               0
  9
$DIMALTD
 70
               2
  9
$DIMALTF
 40
25.399999999999999
  9
$DIMLFAC
 40
1.0
  9
$DIMTOFL
 70
               0
  9
$DIMTVP
 40
0.0
  9
$DIMTIX
 70
               0
  9
$DIMSOXD
 70
               0
  9
$DIMSAH
 70
               0
  9
$DIMBLK1
  1

  9
$DIMBLK2
  1

  9
$DIMSTYLE
  2
STANDARD
  9
$DIMCLRD
 70
               0
  9
$DIMCLRE
 70
               0
  9
$DIMCLRT
 70
               0
  9
$DIMTFAC
 40
1.0
  9
$DIMGAP
 40
0.09
  9
$LUNITS
 70
               2
  9
$LUPREC
 70
               4
  9
$AXISMODE
 70
               0
  9
$AXISUNIT
 10
0.0
 20
0.0
  9
$SKETCHINC
 40
0.1
  9
$FILLETRAD
 40
0.0
  9
$AUNITS
 70
               0
  9
$AUPREC
 70
               0
  9
$MENU
  1
acad
  9
$ELEVATION
 40
0.0
  9
$PELEVATION
 40
0.0
  9
$THICKNESS
 40
0.0
  9
$LIMCHECK
 70
               0
  9
$BLIPMODE
 70
               1
  9
$CHAMFERA
 40
0.0
  9
$CHAMFERB
 40
0.0
  9
$SKPOLY
 70
               0
  9
$TDCREATE
 40
0.000000000
  9
$TDUPDATE
 40
0.000000000
  9
$TDINDWG
 40
0.0000000000
  9
$TDUSRTIMER
 40
0.0000000000
  9
$USRTIMER
 70
               1
  9
$ANGBASE
 50
0.0
  9
$ANGDIR
 70
               0
  9
$PDMODE
 70
               0
  9
$PDSIZE
 40
1.0
  9
$PLINEWID
 40
0.0
  9
$COORDS
 70
               1
  9
$SPLFRAME
 70
               0
  9
$SPLINETYPE
 70
               6
  9
$SPLINESEGS
 70
               8
  9
$ATTDIA
 70
               0
  9
$ATTREQ
 70
               1
  9
$HANDLING
 70
               1
  9
$HANDSEED
  5
433
  9
$SURFTAB1
 70
               6
  9
$SURFTAB2
 70
               6
  9
$SURFTYPE
 70
               6
  9
$SURFU
 70
               6
  9
$SURFV
 70
               6
  9
$UCSNAME
  2

  9
$UCSORG
 10
0.0
 20
0.0
 30
0.0
  9
$UCSXDIR
 10
1.0
 20
0.0
 30
0.0
  9
$UCSYDIR
 10
0.0
 20
1.0
 30
0.0
  9
$PUCSNAME
  2

  9
$PUCSORG
 10
0.0
 20
0.0
 30
0.0
  9
$PUCSXDIR
 10
1.0
 20
0.0
 30
0.0
  9
$PUCSYDIR
 10
0.0
 20
1.0
 30
0.0
  9
$USERI1
 70
               0
  9
$USERI2
 70
               0
  9
$USERI3
 70
               0
  9
$USERI4
 70
               0
  9
$USERI5
 70
               0
  9
$USERR1
 40
0.0
  9
$USERR2
 40
0.0
  9
$USERR3
 40
0.0
  9
$USERR4
 40
0.0
  9
$USERR5
 40
0.0
  9
$WORLDVIEW
 70
               1
  9
$SHADEDGE
 70
               3
  9
$SHADEDIF
 70
              70
  9
$TILEMODE
 70
               1
  9
$MAXACTVP
 70
              16
  9
$PINSBASE
 10
0.0
 20
0.0
 30
0.0
  9
$PLIMCHECK
 70
               0
  9
$PEXTMIN
 10
1.0000000000000000E+20
 20
1.0000000000000000E+20
 30
1.0000000000000000E+20
  9
$PEXTMAX
 10
-1.0000000000000000E+20
 20
-1.0000000000000000E+20
 30
-1.0000000000000000E+20
  9
$PLIMMIN
 10
0.0
 20
0.0
  9
$PLIMMAX
 10
12.0
 20
9.0
  9
$UNITMODE
 70
               0
  9
$VISRETAIN
 70
               0
  9
$PLINEGEN
 70
               1
  9
$PSLTSCALE
 70
               0
  9
$TREEDEPTH
 70
            3020
  9
$DWGCODEPAGE
  3
dos932
  0
ENDSEC
  0
SECTION
  2
TABLES
  0
TABLE
  2
VPORT
 70
               1
  0
VPORT
  2
*ACTIVE
 70
               0
 10
0.0
 20
0.0
 11
1.0
 21
1.0
 12
0.0
 22
-88.446554303125822
 13
0.0
 23
0.0
 14
1.0
 24
1.0
 15
0.0
 25
0.0
 16
0.0
 26
0.0
 36
1.0
 17
0.0
 27
0.0
 37
0.0
 40
1599.369385009908
 41
0.8152588215210356
 42
50.0
 43
0.0
 44
0.0
 50
0.0
 51
0.0
 71
               0
 72
             100
 73
               1
 74
               1
 75
               0
 76
               0
 77
               0
 78
               0
  0
ENDTAB
  0
TABLE
  2
LTYPE
 70
              26
  0
LTYPE
  2
CONTINUOUS
 70
               0
  3
Solid line
 72
              65
 73
               0
 40
0.0
  0
LTYPE
  2
HIDDENX2
 70
               0
  3
CADPAC FUSION LINETYPE
 72
              65
 73
               2
 40
47.560000000000002
 49
35.670000000000002
 49
-11.890000000000001
  0
LTYPE
  2
HIDDEN
 70
               0
  3
CADPAC FUSION LINETYPE
 72
              65
 73
               2
 40
35.670000000000002
 49
23.780000000000001
 49
-11.890000000000001
  0
LTYPE
  2
HIDDEN2
 70
               0
  3
CADPAC FUSION LINETYPE
 72
              65
 73
               2
 40
29.725000000000001
 49
17.835000000000001
 49
-11.890000000000001
  0
LTYPE
  2
DASHED
 70
               0
  3
CADPAC FUSION LINETYPE
 72
              65
 73
               2
 40
35.670000000000002
 49
23.780000000000001
 49
-11.890000000000001
  0
LTYPE
  2
DASHED2
 70
               0
  3
CADPAC FUSION LINETYPE
 72
              65
 73
               2
 40
26.752500000000001
 49
17.835000000000001
 49
-8.9175000000000004
  0
LTYPE
  2
DASHEDX2
 70
               0
  3
CADPAC FUSION LINETYPE
 72
              65
 73
               2
 40
53.505000000000003
 49
35.670000000000002
 49
-17.835000000000001
  0
LTYPE
  2
DOTX2
 70
               0
  3
CADPAC FUSION LINETYPE
 72
              65
 73
               2
 40
14.862500000000001
 49
0.0
 49
-14.862500000000001
  0
LTYPE
  2
DOT
 70
               0
  3
CADPAC FUSION LINETYPE
 72
              65
 73
               2
 40
11.890000000000001
 49
0.0
 49
-11.890000000000001
  0
LTYPE
  2
DOTS
 70
               0
  3
CADPAC FUSION LINETYPE
 72
              65
 73
               2
 40
11.890000000000001
 49
0.0
 49
-11.890000000000001
  0
LTYPE
  2
DOT2
 70
               0
  3
CADPAC FUSION LINETYPE
 72
              65
 73
               2
 40
8.9175000000000004
 49
0.0
 49
-8.9175000000000004
  0
LTYPE
  2
CENTERX2
 70
               0
  3
CADPAC FUSION LINETYPE
 72
              65
 73
               4
 40
71.340000000000003
 49
29.725000000000001
 49
-14.862500000000001
 49
11.890000000000001
 49
-14.862500000000001
  0
LTYPE
  2
CENTER
 70
               0
  3
CADPAC FUSION LINETYPE
 72
              65
 73
               4
 40
54.694000000000003
 49
23.780000000000001
 49
-11.890000000000001
 49
7.1340000000000003
 49
-11.890000000000001
  0
LTYPE
  2
CENTER2
 70
               0
  3
CADPAC FUSION LINETYPE
 72
              65
 73
               4
 40
38.048000000000002
 49
17.835000000000001
 49
-8.9175000000000004
 49
2.3780000000000001
 49
-8.9175000000000004
  0
LTYPE
  2
DASHDOTX2
 70
               0
  3
CADPAC FUSION LINETYPE
 72
              65
 73
               4
 40
59.450000000000003
 49
29.725000000000001
 49
-14.862500000000001
 49
0.0
 49
-14.862500000000001
  0
LTYPE
  2
DASHDOT
 70
               0
  3
CADPAC FUSION LINETYPE
 72
              65
 73
               4
 40
47.560000000000002
 49
23.780000000000001
 49
-11.890000000000001
 49
0.0
 49
-11.890000000000001
  0
LTYPE
  2
DASHDOT2
 70
               0
  3
CADPAC FUSION LINETYPE
 72
              65
 73
               4
 40
35.670000000000002
 49
17.835000000000001
 49
-8.9175000000000004
 49
0.0
 49
-8.9175000000000004
  0
LTYPE
  2
DIVIDEX2
 70
               0
  3
CADPAC FUSION LINETYPE
 72
              65
 73
               6
 40
74.3125
 49
29.725000000000001
 49
-14.862500000000001
 49
0.0
 49
-14.862500000000001
 49
0.0
 49
-14.862500000000001
  0
LTYPE
  2
DIVIDE
 70
               0
  3
CADPAC FUSION LINETYPE
 72
              65
 73
               6
 40
59.450000000000003
 49
23.780000000000001
 49
-11.890000000000001
 49
0.0
 49
-11.890000000000001
 49
0.0
 49
-11.890000000000001
  0
LTYPE
  2
DIVIDE2
 70
               0
  3
CADPAC FUSION LINETYPE
 72
              65
 73
               6
 40
44.587500000000006
 49
17.835000000000001
 49
-8.9175000000000004
 49
0.0
 49
-8.9175000000000004
 49
0.0
 49
-8.9175000000000004
  0
LTYPE
  2
BORDERX2
 70
               0
  3
CADPAC FUSION LINETYPE
 72
              65
 73
               6
 40
104.03750000000001
 49
29.725000000000001
 49
-14.862500000000001
 49
29.725000000000001
 49
-14.862500000000001
 49
0.0
 49
-14.862500000000001
  0
LTYPE
  2
BORDER
 70
               0
  3
CADPAC FUSION LINETYPE
 72
              65
 73
               6
 40
83.230000000000004
 49
23.780000000000001
 49
-11.890000000000001
 49
23.780000000000001
 49
-11.890000000000001
 49
0.0
 49
-11.890000000000001
  0
LTYPE
  2
BORDER2
 70
               0
  3
CADPAC FUSION LINETYPE
 72
              65
 73
               6
 40
62.422499999999999
 49
17.835000000000001
 49
-8.9175000000000004
 49
17.835000000000001
 49
-8.9175000000000004
 49
0.0
 49
-8.9175000000000004
  0
LTYPE
  2
PHANTOMX2
 70
               0
  3
CADPAC FUSION LINETYPE
 72
              65
 73
               6
 40
89.175000000000011
 49
29.725000000000001
 49
-11.890000000000001
 49
11.890000000000001
 49
-11.890000000000001
 49
11.890000000000001
 49
-11.890000000000001
  0
LTYPE
  2
PHANTOM
 70
               0
  3
CADPAC FUSION LINETYPE
 72
              65
 73
               6
 40
73.718000000000004
 49
23.780000000000001
 49
-11.890000000000001
 49
7.1340000000000003
 49
-11.890000000000001
 49
7.1340000000000003
 49
-11.890000000000001
  0
LTYPE
  2
PHANTOM2
 70
               0
  3
CADPAC FUSION LINETYPE
 72
              65
 73
               6
 40
63.017000000000003
 49
17.835000000000001
 49
-11.890000000000001
 49
4.7560000000000002
 49
-11.890000000000001
 49
4.7560000000000002
 49
-11.890000000000001
  0
ENDTAB
  0
TABLE
  2
LAYER
 70
             256
  0
LAYER
  2
0
 70
               0
 62
               7
  6
CONTINUOUS
  0
LAYER
  2
LAYER001
 70
               0
 62
               7
  6
CONTINUOUS
  0
LAYER
  2
LAYER002
 70
               0
 62
               7
  6
CONTINUOUS
  0
LAYER
  2
LAYER003
 70
               0
 62
               7
  6
CONTINUOUS
  0
LAYER
  2
LAYER004
 70
               0
 62
               7
  6
CONTINUOUS
  0
LAYER
  2
LAYER005
 70
               0
 62
               7
  6
CONTINUOUS
  0
LAYER
  2
LAYER006
 70
               0
 62
               7
  6
CONTINUOUS
  0
LAYER
  2
LAYER007
 70
               0
 62
               7
  6
CONTINUOUS
  0
LAYER
  2
LAYER008
 70
               0
 62
               7
  6
CONTINUOUS
  0
LAYER
  2
LAYER009
 70
               0
 62
               7
  6
CONTINUOUS
  0
LAYER
  2
LAYER010
 70
               0
 62
               7
  6
CONTINUOUS
  0
LAYER
  2
LAYER011
 70
               0
 62
               7
  6
CONTINUOUS
  0
LAYER
  2
LAYER012
 70
               0
 62
               7
  6
CONTINUOUS
  0
LAYER
  2
LAYER013
 70
               0
 62
               7
  6
CONTINUOUS
  0
LAYER
  2
LAYER014
 70
               0
 62
               7
  6
CONTINUOUS
  0
LAYER
  2
LAYER015
 70
               0
 62
               7
  6
CONTINUOUS
  0
LAYER
  2
LAYER016
 70
               0
 62
               7
  6
CONTINUOUS
  0
LAYER
  2
LAYER017
 70
               0
 62
               7
  6
CONTINUOUS
  0
LAYER
  2
LAYER018
 70
               0
 62
               7
  6
CONTINUOUS
  0
LAYER
  2
LAYER019
 70
               0
 62
               7
  6
CONTINUOUS
  0
LAYER
  2
LAYER020
 70
               0
 62
               7
  6
CONTINUOUS
  0
LAYER
  2
LAYER021
 70
               0
 62
               7
  6
CONTINUOUS
  0
LAYER
  2
LAYER022
 70
               0
 62
               7
  6
CONTINUOUS
  0
LAYER
  2
LAYER023
 70
               0
 62
               7
  6
CONTINUOUS
  0
LAYER
  2
LAYER024
 70
               0
 62
               7
  6
CONTINUOUS
  0
LAYER
  2
LAYER025
 70
               0
 62
               7
  6
CONTINUOUS
  0
LAYER
  2
LAYER026
 70
               0
 62
               7
  6
CONTINUOUS
  0
LAYER
  2
LAYER027
 70
               0
 62
               7
  6
CONTINUOUS
  0
LAYER
  2
LAYER028
 70
               0
 62
               7
  6
CONTINUOUS
  0
LAYER
  2
LAYER029
 70
               0
 62
               7
  6
CONTINUOUS
  0
LAYER
  2
LAYER030
 70
               0
 62
               7
  6
CONTINUOUS
  0
LAYER
  2
LAYER031
 70
               0
 62
               7
  6
CONTINUOUS
  0
LAYER
  2
LAYER032
 70
               0
 62
               7
  6
CONTINUOUS
  0
LAYER
  2
LAYER033
 70
               0
 62
               7
  6
CONTINUOUS
  0
LAYER
  2
LAYER034
 70
               0
 62
               7
  6
CONTINUOUS
  0
LAYER
  2
LAYER035
 70
               0
 62
               7
  6
CONTINUOUS
  0
LAYER
  2
LAYER036
 70
               0
 62
               7
  6
CONTINUOUS
  0
LAYER
  2
LAYER037
 70
               0
 62
               7
  6
CONTINUOUS
  0
LAYER
  2
LAYER038
 70
               0
 62
               7
  6
CONTINUOUS
  0
LAYER
  2
LAYER039
 70
               0
 62
               7
  6
CONTINUOUS
  0
LAYER
  2
LAYER040
 70
               0
 62
               7
  6
CONTINUOUS
  0
LAYER
  2
LAYER041
 70
               0
 62
               7
  6
CONTINUOUS
  0
LAYER
  2
LAYER042
 70
               0
 62
               7
  6
CONTINUOUS
  0
LAYER
  2
LAYER043
 70
               0
 62
               7
  6
CONTINUOUS
  0
LAYER
  2
LAYER044
 70
               0
 62
               7
  6
CONTINUOUS
  0
LAYER
  2
LAYER045
 70
               0
 62
               7
  6
CONTINUOUS
  0
LAYER
  2
LAYER046
 70
               0
 62
               7
  6
CONTINUOUS
  0
LAYER
  2
LAYER047
 70
               0
 62
               7
  6
CONTINUOUS
  0
LAYER
  2
LAYER048
 70
               0
 62
               7
  6
CONTINUOUS
  0
LAYER
  2
LAYER049
 70
               0
 62
               7
  6
CONTINUOUS
  0
LAYER
  2
LAYER050
 70
               0
 62
               7
  6
CONTINUOUS
  0
LAYER
  2
LAYER051
 70
               0
 62
               7
  6
CONTINUOUS
  0
LAYER
  2
LAYER052
 70
               0
 62
               7
  6
CONTINUOUS
  0
LAYER
  2
LAYER053
 70
               0
 62
               7
  6
CONTINUOUS
  0
LAYER
  2
LAYER054
 70
               0
 62
               7
  6
CONTINUOUS
  0
LAYER
  2
LAYER055
 70
               0
 62
               7
  6
CONTINUOUS
  0
LAYER
  2
LAYER056
 70
               0
 62
               7
  6
CONTINUOUS
  0
LAYER
  2
LAYER057
 70
               0
 62
               7
  6
CONTINUOUS
  0
LAYER
  2
LAYER058
 70
               0
 62
               7
  6
CONTINUOUS
  0
LAYER
  2
LAYER059
 70
               0
 62
               7
  6
CONTINUOUS
  0
LAYER
  2
LAYER060
 70
               0
 62
               7
  6
CONTINUOUS
  0
LAYER
  2
LAYER061
 70
               0
 62
               7
  6
CONTINUOUS
  0
LAYER
  2
LAYER062
 70
               0
 62
               7
  6
CONTINUOUS
  0
LAYER
  2
LAYER063
 70
               0
 62
               7
  6
CONTINUOUS
  0
LAYER
  2
LAYER064
 70
               0
 62
               7
  6
CONTINUOUS
  0
LAYER
  2
LAYER065
 70
               0
 62
               7
  6
CONTINUOUS
  0
LAYER
  2
LAYER066
 70
               0
 62
               7
  6
CONTINUOUS
  0
LAYER
  2
LAYER067
 70
               0
 62
               7
  6
CONTINUOUS
  0
LAYER
  2
LAYER068
 70
               0
 62
               7
  6
CONTINUOUS
  0
LAYER
  2
LAYER069
 70
               0
 62
               7
  6
CONTINUOUS
  0
LAYER
  2
LAYER070
 70
               0
 62
               7
  6
CONTINUOUS
  0
LAYER
  2
LAYER071
 70
               0
 62
               7
  6
CONTINUOUS
  0
LAYER
  2
LAYER072
 70
               0
 62
               7
  6
CONTINUOUS
  0
LAYER
  2
LAYER073
 70
               0
 62
               7
  6
CONTINUOUS
  0
LAYER
  2
LAYER074
 70
               0
 62
               7
  6
CONTINUOUS
  0
LAYER
  2
LAYER075
 70
               0
 62
               7
  6
CONTINUOUS
  0
LAYER
  2
LAYER076
 70
               0
 62
               7
  6
CONTINUOUS
  0
LAYER
  2
LAYER077
 70
               0
 62
               7
  6
CONTINUOUS
  0
LAYER
  2
LAYER078
 70
               0
 62
               7
  6
CONTINUOUS
  0
LAYER
  2
LAYER079
 70
               0
 62
               7
  6
CONTINUOUS
  0
LAYER
  2
LAYER080
 70
               0
 62
               7
  6
CONTINUOUS
  0
LAYER
  2
LAYER081
 70
               0
 62
               7
  6
CONTINUOUS
  0
LAYER
  2
LAYER082
 70
               0
 62
               7
  6
CONTINUOUS
  0
LAYER
  2
LAYER083
 70
               0
 62
               7
  6
CONTINUOUS
  0
LAYER
  2
LAYER084
 70
               0
 62
               7
  6
CONTINUOUS
  0
LAYER
  2
LAYER085
 70
               0
 62
               7
  6
CONTINUOUS
  0
LAYER
  2
LAYER086
 70
               0
 62
               7
  6
CONTINUOUS
  0
LAYER
  2
LAYER087
 70
               0
 62
               7
  6
CONTINUOUS
  0
LAYER
  2
LAYER088
 70
               0
 62
               7
  6
CONTINUOUS
  0
LAYER
  2
LAYER089
 70
               0
 62
               7
  6
CONTINUOUS
  0
LAYER
  2
LAYER090
 70
               0
 62
               7
  6
CONTINUOUS
  0
LAYER
  2
LAYER091
 70
               0
 62
               7
  6
CONTINUOUS
  0
LAYER
  2
LAYER092
 70
               0
 62
               7
  6
CONTINUOUS
  0
LAYER
  2
LAYER093
 70
               0
 62
               7
  6
CONTINUOUS
  0
LAYER
  2
LAYER094
 70
               0
 62
               7
  6
CONTINUOUS
  0
LAYER
  2
LAYER095
 70
               0
 62
               7
  6
CONTINUOUS
  0
LAYER
  2
LAYER096
 70
               0
 62
               7
  6
CONTINUOUS
  0
LAYER
  2
LAYER097
 70
               0
 62
               7
  6
CONTINUOUS
  0
LAYER
  2
LAYER098
 70
               0
 62
               7
  6
CONTINUOUS
  0
LAYER
  2
LAYER099
 70
               0
 62
               7
  6
CONTINUOUS
  0
LAYER
  2
LAYER100
 70
               0
 62
               7
  6
CONTINUOUS
  0
LAYER
  2
LAYER101
 70
               0
 62
               7
  6
CONTINUOUS
  0
LAYER
  2
LAYER102
 70
               0
 62
               7
  6
CONTINUOUS
  0
LAYER
  2
LAYER103
 70
               0
 62
               7
  6
CONTINUOUS
  0
LAYER
  2
LAYER104
 70
               0
 62
               7
  6
CONTINUOUS
  0
LAYER
  2
LAYER105
 70
               0
 62
               7
  6
CONTINUOUS
  0
LAYER
  2
LAYER106
 70
               0
 62
               7
  6
CONTINUOUS
  0
LAYER
  2
LAYER107
 70
               0
 62
               7
  6
CONTINUOUS
  0
LAYER
  2
LAYER108
 70
               0
 62
               7
  6
CONTINUOUS
  0
LAYER
  2
LAYER109
 70
               0
 62
               7
  6
CONTINUOUS
  0
LAYER
  2
LAYER110
 70
               0
 62
               7
  6
CONTINUOUS
  0
LAYER
  2
LAYER111
 70
               0
 62
               7
  6
CONTINUOUS
  0
LAYER
  2
LAYER112
 70
               0
 62
               7
  6
CONTINUOUS
  0
LAYER
  2
LAYER113
 70
               0
 62
               7
  6
CONTINUOUS
  0
LAYER
  2
LAYER114
 70
               0
 62
               7
  6
CONTINUOUS
  0
LAYER
  2
LAYER115
 70
               0
 62
               7
  6
CONTINUOUS
  0
LAYER
  2
LAYER116
 70
               0
 62
               7
  6
CONTINUOUS
  0
LAYER
  2
LAYER117
 70
               0
 62
               7
  6
CONTINUOUS
  0
LAYER
  2
LAYER118
 70
               0
 62
               7
  6
CONTINUOUS
  0
LAYER
  2
LAYER119
 70
               0
 62
               7
  6
CONTINUOUS
  0
LAYER
  2
LAYER120
 70
               0
 62
               7
  6
CONTINUOUS
  0
LAYER
  2
LAYER121
 70
               0
 62
               7
  6
CONTINUOUS
  0
LAYER
  2
LAYER122
 70
               0
 62
               7
  6
CONTINUOUS
  0
LAYER
  2
LAYER123
 70
               0
 62
               7
  6
CONTINUOUS
  0
LAYER
  2
LAYER124
 70
               0
 62
               7
  6
CONTINUOUS
  0
LAYER
  2
LAYER125
 70
               0
 62
               7
  6
CONTINUOUS
  0
LAYER
  2
LAYER126
 70
               0
 62
               7
  6
CONTINUOUS
  0
LAYER
  2
LAYER127
 70
               0
 62
               7
  6
CONTINUOUS
  0
LAYER
  2
LAYER128
 70
               0
 62
               7
  6
CONTINUOUS
  0
LAYER
  2
LAYER129
 70
               0
 62
               7
  6
CONTINUOUS
  0
LAYER
  2
LAYER130
 70
               0
 62
               7
  6
CONTINUOUS
  0
LAYER
  2
LAYER131
 70
               0
 62
               7
  6
CONTINUOUS
  0
LAYER
  2
LAYER132
 70
               0
 62
               7
  6
CONTINUOUS
  0
LAYER
  2
LAYER133
 70
               0
 62
               7
  6
CONTINUOUS
  0
LAYER
  2
LAYER134
 70
               0
 62
               7
  6
CONTINUOUS
  0
LAYER
  2
LAYER135
 70
               0
 62
               7
  6
CONTINUOUS
  0
LAYER
  2
LAYER136
 70
               0
 62
               7
  6
CONTINUOUS
  0
LAYER
  2
LAYER137
 70
               0
 62
               7
  6
CONTINUOUS
  0
LAYER
  2
LAYER138
 70
               0
 62
               7
  6
CONTINUOUS
  0
LAYER
  2
LAYER139
 70
               0
 62
               7
  6
CONTINUOUS
  0
LAYER
  2
LAYER140
 70
               0
 62
               7
  6
CONTINUOUS
  0
LAYER
  2
LAYER141
 70
               0
 62
               7
  6
CONTINUOUS
  0
LAYER
  2
LAYER142
 70
               0
 62
               7
  6
CONTINUOUS
  0
LAYER
  2
LAYER143
 70
               0
 62
               7
  6
CONTINUOUS
  0
LAYER
  2
LAYER144
 70
               0
 62
               7
  6
CONTINUOUS
  0
LAYER
  2
LAYER145
 70
               0
 62
               7
  6
CONTINUOUS
  0
LAYER
  2
LAYER146
 70
               0
 62
               7
  6
CONTINUOUS
  0
LAYER
  2
LAYER147
 70
               0
 62
               7
  6
CONTINUOUS
  0
LAYER
  2
LAYER148
 70
               0
 62
               7
  6
CONTINUOUS
  0
LAYER
  2
LAYER149
 70
               0
 62
               7
  6
CONTINUOUS
  0
LAYER
  2
LAYER150
 70
               0
 62
               7
  6
CONTINUOUS
  0
LAYER
  2
LAYER151
 70
               0
 62
               7
  6
CONTINUOUS
  0
LAYER
  2
LAYER152
 70
               0
 62
               7
  6
CONTINUOUS
  0
LAYER
  2
LAYER153
 70
               0
 62
               7
  6
CONTINUOUS
  0
LAYER
  2
LAYER154
 70
               0
 62
               7
  6
CONTINUOUS
  0
LAYER
  2
LAYER155
 70
               0
 62
               7
  6
CONTINUOUS
  0
LAYER
  2
LAYER156
 70
               0
 62
               7
  6
CONTINUOUS
  0
LAYER
  2
LAYER157
 70
               0
 62
               7
  6
CONTINUOUS
  0
LAYER
  2
LAYER158
 70
               0
 62
               7
  6
CONTINUOUS
  0
LAYER
  2
LAYER159
 70
               0
 62
               7
  6
CONTINUOUS
  0
LAYER
  2
LAYER160
 70
               0
 62
               7
  6
CONTINUOUS
  0
LAYER
  2
LAYER161
 70
               0
 62
               7
  6
CONTINUOUS
  0
LAYER
  2
LAYER162
 70
               0
 62
               7
  6
CONTINUOUS
  0
LAYER
  2
LAYER163
 70
               0
 62
               7
  6
CONTINUOUS
  0
LAYER
  2
LAYER164
 70
               0
 62
               7
  6
CONTINUOUS
  0
LAYER
  2
LAYER165
 70
               0
 62
               7
  6
CONTINUOUS
  0
LAYER
  2
LAYER166
 70
               0
 62
               7
  6
CONTINUOUS
  0
LAYER
  2
LAYER167
 70
               0
 62
               7
  6
CONTINUOUS
  0
LAYER
  2
LAYER168
 70
               0
 62
               7
  6
CONTINUOUS
  0
LAYER
  2
LAYER169
 70
               0
 62
               7
  6
CONTINUOUS
  0
LAYER
  2
LAYER170
 70
               0
 62
               7
  6
CONTINUOUS
  0
LAYER
  2
LAYER171
 70
               0
 62
               7
  6
CONTINUOUS
  0
LAYER
  2
LAYER172
 70
               0
 62
               7
  6
CONTINUOUS
  0
LAYER
  2
LAYER173
 70
               0
 62
               7
  6
CONTINUOUS
  0
LAYER
  2
LAYER174
 70
               0
 62
               7
  6
CONTINUOUS
  0
LAYER
  2
LAYER175
 70
               0
 62
               7
  6
CONTINUOUS
  0
LAYER
  2
LAYER176
 70
               0
 62
               7
  6
CONTINUOUS
  0
LAYER
  2
LAYER177
 70
               0
 62
               7
  6
CONTINUOUS
  0
LAYER
  2
LAYER178
 70
               0
 62
               7
  6
CONTINUOUS
  0
LAYER
  2
LAYER179
 70
               0
 62
               7
  6
CONTINUOUS
  0
LAYER
  2
LAYER180
 70
               0
 62
               7
  6
CONTINUOUS
  0
LAYER
  2
LAYER181
 70
               0
 62
               7
  6
CONTINUOUS
  0
LAYER
  2
LAYER182
 70
               0
 62
               7
  6
CONTINUOUS
  0
LAYER
  2
LAYER183
 70
               0
 62
               7
  6
CONTINUOUS
  0
LAYER
  2
LAYER184
 70
               0
 62
               7
  6
CONTINUOUS
  0
LAYER
  2
LAYER185
 70
               0
 62
               7
  6
CONTINUOUS
  0
LAYER
  2
LAYER186
 70
               0
 62
               7
  6
CONTINUOUS
  0
LAYER
  2
LAYER187
 70
               0
 62
               7
  6
CONTINUOUS
  0
LAYER
  2
LAYER188
 70
               0
 62
               7
  6
CONTINUOUS
  0
LAYER
  2
LAYER189
 70
               0
 62
               7
  6
CONTINUOUS
  0
LAYER
  2
LAYER190
 70
               0
 62
               7
  6
CONTINUOUS
  0
LAYER
  2
LAYER191
 70
               0
 62
               7
  6
CONTINUOUS
  0
LAYER
  2
LAYER192
 70
               0
 62
               7
  6
CONTINUOUS
  0
LAYER
  2
LAYER193
 70
               0
 62
               7
  6
CONTINUOUS
  0
LAYER
  2
LAYER194
 70
               0
 62
               7
  6
CONTINUOUS
  0
LAYER
  2
LAYER195
 70
               0
 62
               7
  6
CONTINUOUS
  0
LAYER
  2
LAYER196
 70
               0
 62
               7
  6
CONTINUOUS
  0
LAYER
  2
LAYER197
 70
               0
 62
               7
  6
CONTINUOUS
  0
LAYER
  2
LAYER198
 70
               0
 62
               7
  6
CONTINUOUS
  0
LAYER
  2
LAYER199
 70
               0
 62
               7
  6
CONTINUOUS
  0
LAYER
  2
LAYER200
 70
               0
 62
               7
  6
CONTINUOUS
  0
LAYER
  2
LAYER201
 70
               0
 62
               7
  6
CONTINUOUS
  0
LAYER
  2
LAYER202
 70
               0
 62
               7
  6
CONTINUOUS
  0
LAYER
  2
LAYER203
 70
               0
 62
               7
  6
CONTINUOUS
  0
LAYER
  2
LAYER204
 70
               0
 62
               7
  6
CONTINUOUS
  0
LAYER
  2
LAYER205
 70
               0
 62
               7
  6
CONTINUOUS
  0
LAYER
  2
LAYER206
 70
               0
 62
               7
  6
CONTINUOUS
  0
LAYER
  2
LAYER207
 70
               0
 62
               7
  6
CONTINUOUS
  0
LAYER
  2
LAYER208
 70
               0
 62
               7
  6
CONTINUOUS
  0
LAYER
  2
LAYER209
 70
               0
 62
               7
  6
CONTINUOUS
  0
LAYER
  2
LAYER210
 70
               0
 62
               7
  6
CONTINUOUS
  0
LAYER
  2
LAYER211
 70
               0
 62
               7
  6
CONTINUOUS
  0
LAYER
  2
LAYER212
 70
               0
 62
               7
  6
CONTINUOUS
  0
LAYER
  2
LAYER213
 70
               0
 62
               7
  6
CONTINUOUS
  0
LAYER
  2
LAYER214
 70
               0
 62
               7
  6
CONTINUOUS
  0
LAYER
  2
LAYER215
 70
               0
 62
               7
  6
CONTINUOUS
  0
LAYER
  2
LAYER216
 70
               0
 62
               7
  6
CONTINUOUS
  0
LAYER
  2
LAYER217
 70
               0
 62
               7
  6
CONTINUOUS
  0
LAYER
  2
LAYER218
 70
               0
 62
               7
  6
CONTINUOUS
  0
LAYER
  2
LAYER219
 70
               0
 62
               7
  6
CONTINUOUS
  0
LAYER
  2
LAYER220
 70
               0
 62
               7
  6
CONTINUOUS
  0
LAYER
  2
LAYER221
 70
               0
 62
               7
  6
CONTINUOUS
  0
LAYER
  2
LAYER222
 70
               0
 62
               7
  6
CONTINUOUS
  0
LAYER
  2
LAYER223
 70
               0
 62
               7
  6
CONTINUOUS
  0
LAYER
  2
LAYER224
 70
               0
 62
               7
  6
CONTINUOUS
  0
LAYER
  2
LAYER225
 70
               0
 62
               7
  6
CONTINUOUS
  0
LAYER
  2
LAYER226
 70
               0
 62
               7
  6
CONTINUOUS
  0
LAYER
  2
LAYER227
 70
               0
 62
               7
  6
CONTINUOUS
  0
LAYER
  2
LAYER228
 70
               0
 62
               7
  6
CONTINUOUS
  0
LAYER
  2
LAYER229
 70
               0
 62
               7
  6
CONTINUOUS
  0
LAYER
  2
LAYER230
 70
               0
 62
               7
  6
CONTINUOUS
  0
LAYER
  2
LAYER231
 70
               0
 62
               7
  6
CONTINUOUS
  0
LAYER
  2
LAYER232
 70
               0
 62
               7
  6
CONTINUOUS
  0
LAYER
  2
LAYER233
 70
               0
 62
               7
  6
CONTINUOUS
  0
LAYER
  2
LAYER234
 70
               0
 62
               7
  6
CONTINUOUS
  0
LAYER
  2
LAYER235
 70
               0
 62
               7
  6
CONTINUOUS
  0
LAYER
  2
LAYER236
 70
               0
 62
               7
  6
CONTINUOUS
  0
LAYER
  2
LAYER237
 70
               0
 62
               7
  6
CONTINUOUS
  0
LAYER
  2
LAYER238
 70
               0
 62
               7
  6
CONTINUOUS
  0
LAYER
  2
LAYER239
 70
               0
 62
               7
  6
CONTINUOUS
  0
LAYER
  2
LAYER240
 70
               0
 62
               7
  6
CONTINUOUS
  0
LAYER
  2
LAYER241
 70
               0
 62
               7
  6
CONTINUOUS
  0
LAYER
  2
LAYER242
 70
               0
 62
               7
  6
CONTINUOUS
  0
LAYER
  2
LAYER243
 70
               0
 62
               7
  6
CONTINUOUS
  0
LAYER
  2
LAYER244
 70
               0
 62
               7
  6
CONTINUOUS
  0
LAYER
  2
LAYER245
 70
               0
 62
               7
  6
CONTINUOUS
  0
LAYER
  2
LAYER246
 70
               0
 62
               7
  6
CONTINUOUS
  0
LAYER
  2
LAYER247
 70
               0
 62
               7
  6
CONTINUOUS
  0
LAYER
  2
LAYER248
 70
               0
 62
               7
  6
CONTINUOUS
  0
LAYER
  2
LAYER249
 70
               0
 62
               7
  6
CONTINUOUS
  0
LAYER
  2
LAYER250
 70
               0
 62
               7
  6
CONTINUOUS
  0
LAYER
  2
LAYER251
 70
               0
 62
               7
  6
CONTINUOUS
  0
LAYER
  2
LAYER252
 70
               0
 62
               7
  6
CONTINUOUS
  0
LAYER
  2
LAYER253
 70
               0
 62
               7
  6
CONTINUOUS
  0
LAYER
  2
LAYER254
 70
               0
 62
               7
  6
CONTINUOUS
  0
LAYER
  2
LAYER255
 70
               0
 62
               7
  6
CONTINUOUS
  0
ENDTAB
  0
TABLE
  2
STYLE
 70
               1
  0
STYLE
  2
STANDARD
 70
               0
 40
0.0
 41
1.0
 50
0.0
 71
               0
 42
0.0
  3
txt
  4

  0
ENDTAB
  0
TABLE
  2
VIEW
 70
               0
  0
VIEW
  2
QQQQ
 70
               0
 40
1599.369385009908
 10
0.0
 20
-88.446554303125822
 41
1303.900000000001
 11
0.0
 21
0.0
 31
1.0
 12
100.0
 22
100.0
 32
0.0
 42
50.0
 43
0.0
 44
0.0
 50
0.0
 71
               0
  0
ENDTAB
  0
TABLE
  2
UCS
 70
               0
  0
ENDTAB
  0
TABLE
  2
APPID
 70
               1
  0
APPID
  2
ACAD
 70
               0
  0
ENDTAB
  0
TABLE
  2
DIMSTYLE
 70
               1
  0
DIMSTYLE
  2
STANDARD
 70
               0
  3

  4

  5

  6

  7

 40
1.0
 41
0.18
 42
0.0625
 43
0.38
 44
0.18
 45
0.0
 46
0.0
 47
0.0
 48
0.0
140
0.18
141
0.09
142
0.0
143
25.399999999999999
144
1.0
145
0.0
146
1.0
147
0.09
 71
               0
 72
               0
 73
               1
 74
               1
 75
               0
 76
               0
 77
               0
 78
               0
170
               0
171
               2
172
               0
173
               0
174
               0
175
               0
176
               0
177
               0
178
               0
  0
ENDTAB
  0
ENDSEC
  0
SECTION
  2
BLOCKS
  0
BLOCK
  8
0
  5
140
  2
GROUP_1
 70
               0
 10
0.0
 20
0.0
 30
0.0
  3
GROUP_1
  0
LINE
  8
0
  6
CONTINUOUS
 62
               4
  5
141
 10
-75.316372202579259
 20
462.40328291202428
 30
0.0
 11
-69.831544645277518
 21
452.90328291202439
 31
0.0
  0
LINE
  8
0
  6
CONTINUOUS
 62
               4
  5
142
 10
-69.831544645277518
 20
452.90328291202439
 30
0.0
 11
-58.861889530674489
 21
452.90328291202439
 31
0.0
  0
LINE
  8
0
  6
CONTINUOUS
 62
               4
  5
143
 10
-58.861889530674489
 20
452.90328291202439
 30
0.0
 11
-53.377061973373202
 21
462.40328291202428
 31
0.0
  0
LINE
  8
0
  6
CONTINUOUS
 62
               4
  5
144
 10
-53.377061973373202
 20
462.40328291202428
 30
0.0
 11
-58.861889530674489
 21
471.90328291202417
 31
0.0
  0
LINE
  8
0
  6
CONTINUOUS
 62
               4
  5
145
 10
-58.861889530674489
 20
471.90328291202417
 30
0.0
 11
-69.831544645277518
 21
471.90328291202417
 31
0.0
  0
LINE
  8
0
  6
CONTINUOUS
 62
               4
  5
146
 10
-69.831544645277518
 20
471.90328291202417
 30
0.0
 11
-75.316372202579259
 21
462.40328291202428
 31
0.0
  0
CIRCLE
  8
0
  6
CONTINUOUS
 62
               4
  5
147
 10
-64.346717087976231
 20
462.40328291202428
 30
0.0
 40
6.0000000000000009
  0
ENDBLK
  8
0
  5
148
  0
BLOCK
  8
0
  5
149
  2
GROUP_2
 70
               0
 10
0.0
 20
0.0
 30
0.0
  3
GROUP_2
  0
LINE
  8
0
  6
CONTINUOUS
 62
               4
  5
14A
 10
-75.316372202579259
 20
591.09671708797555
 30
0.0
 11
-69.831544645277518
 21
581.59671708797578
 31
0.0
  0
LINE
  8
0
  6
CONTINUOUS
 62
               4
  5
14B
 10
-69.831544645277518
 20
581.59671708797578
 30
0.0
 11
-58.861889530674489
 21
581.59671708797578
 31
0.0
  0
LINE
  8
0
  6
CONTINUOUS
 62
               4
  5
14C
 10
-58.861889530674489
 20
581.59671708797578
 30
0.0
 11
-53.377061973373202
 21
591.09671708797555
 31
0.0
  0
LINE
  8
0
  6
CONTINUOUS
 62
               4
  5
14D
 10
-53.377061973373202
 20
591.09671708797555
 30
0.0
 11
-58.861889530674489
 21
600.59671708797578
 31
0.0
  0
LINE
  8
0
  6
CONTINUOUS
 62
               4
  5
14E
 10
-58.861889530674489
 20
600.59671708797578
 30
0.0
 11
-69.831544645277518
 21
600.59671708797578
 31
0.0
  0
LINE
  8
0
  6
CONTINUOUS
 62
               4
  5
14F
 10
-69.831544645277518
 20
600.59671708797578
 30
0.0
 11
-75.316372202579259
 21
591.09671708797555
 31
0.0
  0
CIRCLE
  8
0
  6
CONTINUOUS
 62
               4
  5
150
 10
-64.346717087976231
 20
591.09671708797555
 30
0.0
 40
6.0000000000000009
  0
ENDBLK
  8
0
  5
151
  0
BLOCK
  8
0
  5
152
  2
GROUP_3
 70
               0
 10
0.0
 20
0.0
 30
0.0
  3
GROUP_3
  0
LINE
  8
0
  6
CONTINUOUS
 62
               4
  5
153
 10
75.316372202579373
 20
591.09671708797555
 30
0.0
 11
69.831544645277745
 21
581.59671708797578
 31
0.0
  0
LINE
  8
0
  6
CONTINUOUS
 62
               4
  5
154
 10
69.831544645277745
 20
581.59671708797578
 30
0.0
 11
58.861889530674603
 21
581.59671708797578
 31
0.0
  0
LINE
  8
0
  6
CONTINUOUS
 62
               4
  5
155
 10
58.861889530674603
 20
581.59671708797578
 30
0.0
 11
53.377061973373429
 21
591.09671708797555
 31
0.0
  0
LINE
  8
0
  6
CONTINUOUS
 62
               4
  5
156
 10
53.377061973373429
 20
591.09671708797555
 30
0.0
 11
58.861889530674603
 21
600.59671708797578
 31
0.0
  0
LINE
  8
0
  6
CONTINUOUS
 62
               4
  5
157
 10
58.861889530674603
 20
600.59671708797578
 30
0.0
 11
69.831544645277745
 21
600.59671708797578
 31
0.0
  0
LINE
  8
0
  6
CONTINUOUS
 62
               4
  5
158
 10
69.831544645277745
 20
600.59671708797578
 30
0.0
 11
75.316372202579373
 21
591.09671708797555
 31
0.0
  0
CIRCLE
  8
0
  6
CONTINUOUS
 62
               4
  5
159
 10
64.346717087976344
 20
591.09671708797555
 30
0.0
 40
6.0000000000000009
  0
ENDBLK
  8
0
  5
15A
  0
BLOCK
  8
0
  5
15B
  2
GROUP_4
 70
               0
 10
0.0
 20
0.0
 30
0.0
  3
GROUP_4
  0
LINE
  8
0
  6
CONTINUOUS
 62
               4
  5
15C
 10
75.316372202579373
 20
462.40328291202428
 30
0.0
 11
69.831544645277745
 21
452.90328291202439
 31
0.0
  0
LINE
  8
0
  6
CONTINUOUS
 62
               4
  5
15D
 10
69.831544645277745
 20
452.90328291202439
 30
0.0
 11
58.861889530674603
 21
452.90328291202439
 31
0.0
  0
LINE
  8
0
  6
CONTINUOUS
 62
               4
  5
15E
 10
58.861889530674603
 20
452.90328291202439
 30
0.0
 11
53.377061973373429
 21
462.40328291202428
 31
0.0
  0
LINE
  8
0
  6
CONTINUOUS
 62
               4
  5
15F
 10
53.377061973373429
 20
462.40328291202428
 30
0.0
 11
58.861889530674603
 21
471.90328291202417
 31
0.0
  0
LINE
  8
0
  6
CONTINUOUS
 62
               4
  5
160
 10
58.861889530674603
 20
471.90328291202417
 30
0.0
 11
69.831544645277745
 21
471.90328291202417
 31
0.0
  0
LINE
  8
0
  6
CONTINUOUS
 62
               4
  5
161
 10
69.831544645277745
 20
471.90328291202417
 30
0.0
 11
75.316372202579373
 21
462.40328291202428
 31
0.0
  0
CIRCLE
  8
0
  6
CONTINUOUS
 62
               4
  5
162
 10
64.346717087976344
 20
462.40328291202428
 30
0.0
 40
6.0000000000000009
  0
ENDBLK
  8
0
  5
163
  0
BLOCK
  8
0
  5
164
  2
GROUP_5
 70
               0
 10
0.0
 20
0.0
 30
0.0
  3
GROUP_5
  0
LINE
  8
0
  6
CONTINUOUS
 62
               4
  5
165
 10
-75.299999999999727
 20
47.049999999999955
 30
0.0
 11
-75.299999999999727
 21
57.049999999999955
 31
0.0
  0
LINE
  8
0
  6
CONTINUOUS
 62
               4
  5
166
 10
-69.81517244269844
 20
47.049999999999955
 30
0.0
 11
-69.81517244269844
 21
57.049999999999955
 31
0.0
  0
LINE
  8
0
  6
CONTINUOUS
 62
               4
  5
167
 10
-75.299999999999727
 20
47.049999999999955
 30
0.0
 11
-53.400000000000091
 21
47.049999999999955
 31
0.0
  0
LINE
  8
0
  6
CONTINUOUS
 62
               4
  5
168
 10
-75.299999999999727
 20
57.049999999999955
 30
0.0
 11
-53.400000000000091
 21
57.049999999999955
 31
0.0
  0
LINE
  8
0
  6
CONTINUOUS
 62
               4
  5
169
 10
-53.400000000000091
 20
47.049999999999955
 30
0.0
 11
-53.400000000000091
 21
57.049999999999955
 31
0.0
  0
LINE
  8
0
  6
CONTINUOUS
 62
               4
  5
16A
 10
-58.884827557301378
 20
47.049999999999955
 30
0.0
 11
-58.884827557301378
 21
57.049999999999955
 31
0.0
  0
ENDBLK
  8
0
  5
16B
  0
BLOCK
  8
0
  5
16C
  2
GROUP_6
 70
               0
 10
0.0
 20
0.0
 30
0.0
  3
GROUP_6
  0
LINE
  8
0
  6
CONTINUOUS
 62
               4
  5
16D
 10
75.299999999999727
 20
47.049999999999962
 30
0.0
 11
75.299999999999727
 21
57.049999999999962
 31
0.0
  0
LINE
  8
0
  6
CONTINUOUS
 62
               4
  5
16E
 10
69.81517244269844
 20
47.049999999999962
 30
0.0
 11
69.81517244269844
 21
57.049999999999962
 31
0.0
  0
LINE
  8
0
  6
CONTINUOUS
 62
               4
  5
16F
 10
75.299999999999727
 20
47.049999999999962
 30
0.0
 11
53.400000000000091
 21
47.049999999999955
 31
0.0
  0
LINE
  8
0
  6
CONTINUOUS
 62
               4
  5
170
 10
75.299999999999727
 20
57.049999999999962
 30
0.0
 11
53.400000000000091
 21
57.049999999999955
 31
0.0
  0
LINE
  8
0
  6
CONTINUOUS
 62
               4
  5
171
 10
53.400000000000091
 20
47.049999999999955
 30
0.0
 11
53.400000000000091
 21
57.049999999999955
 31
0.0
  0
LINE
  8
0
  6
CONTINUOUS
 62
               4
  5
172
 10
58.884827557301378
 20
47.049999999999962
 30
0.0
 11
58.884827557301378
 21
57.049999999999962
 31
0.0
  0
ENDBLK
  8
0
  5
173
  0
BLOCK
  8
0
  5
174
  2
GROUP_7
 70
               0
 10
0.0
 20
0.0
 30
0.0
  3
GROUP_7
  0
LINE
  8
0
  6
CONTINUOUS
 62
               4
  5
175
 10
424.70000000000027
 20
47.050000000000026
 30
0.0
 11
424.70000000000027
 21
57.050000000000026
 31
0.0
  0
LINE
  8
0
  6
CONTINUOUS
 62
               4
  5
176
 10
430.18482755730156
 20
47.050000000000026
 30
0.0
 11
430.18482755730156
 21
57.050000000000026
 31
0.0
  0
LINE
  8
0
  6
CONTINUOUS
 62
               4
  5
177
 10
424.70000000000027
 20
47.050000000000026
 30
0.0
 11
446.59999999999991
 21
47.050000000000026
 31
0.0
  0
LINE
  8
0
  6
CONTINUOUS
 62
               4
  5
178
 10
424.70000000000027
 20
57.050000000000026
 30
0.0
 11
446.59999999999991
 21
57.050000000000026
 31
0.0
  0
LINE
  8
0
  6
CONTINUOUS
 62
               4
  5
179
 10
446.59999999999991
 20
47.050000000000026
 30
0.0
 11
446.59999999999991
 21
57.050000000000026
 31
0.0
  0
LINE
  8
0
  6
CONTINUOUS
 62
               4
  5
17A
 10
441.11517244269862
 20
47.050000000000026
 30
0.0
 11
441.11517244269862
 21
57.050000000000026
 31
0.0
  0
ENDBLK
  8
0
  5
17B
  0
BLOCK
  8
0
  5
17C
  2
GROUP_8
 70
               0
 10
0.0
 20
0.0
 30
0.0
  3
GROUP_8
  0
LINE
  8
0
  6
CONTINUOUS
 62
               4
  5
17D
 10
575.29999999999973
 20
47.050000000000026
 30
0.0
 11
575.29999999999973
 21
57.050000000000026
 31
0.0
  0
LINE
  8
0
  6
CONTINUOUS
 62
               4
  5
17E
 10
569.81517244269844
 20
47.050000000000026
 30
0.0
 11
569.81517244269844
 21
57.050000000000026
 31
0.0
  0
LINE
  8
0
  6
CONTINUOUS
 62
               4
  5
17F
 10
575.29999999999973
 20
47.050000000000026
 30
0.0
 11
553.40000000000009
 21
47.050000000000026
 31
0.0
  0
LINE
  8
0
  6
CONTINUOUS
 62
               4
  5
180
 10
575.29999999999973
 20
57.050000000000026
 30
0.0
 11
553.40000000000009
 21
57.050000000000026
 31
0.0
  0
LINE
  8
0
  6
CONTINUOUS
 62
               4
  5
181
 10
553.40000000000009
 20
47.050000000000026
 30
0.0
 11
553.40000000000009
 21
57.050000000000026
 31
0.0
  0
LINE
  8
0
  6
CONTINUOUS
 62
               4
  5
182
 10
558.88482755730138
 20
47.050000000000026
 30
0.0
 11
558.88482755730138
 21
57.050000000000026
 31
0.0
  0
ENDBLK
  8
0
  5
183
  0
BLOCK
  8
0
  5
184
  2
GROUP_9
 70
               0
 10
0.0
 20
0.0
 30
0.0
  3
GROUP_9
  0
LINE
  8
0
  6
CONTINUOUS
 62
               4
  5
185
 10
-575.29999999999973
 20
47.050000000000026
 30
0.0
 11
-575.29999999999973
 21
57.050000000000026
 31
0.0
  0
LINE
  8
0
  6
CONTINUOUS
 62
               4
  5
186
 10
-569.81517244269844
 20
47.050000000000026
 30
0.0
 11
-569.81517244269844
 21
57.050000000000026
 31
0.0
  0
LINE
  8
0
  6
CONTINUOUS
 62
               4
  5
187
 10
-575.29999999999973
 20
47.050000000000026
 30
0.0
 11
-553.40000000000009
 21
47.050000000000026
 31
0.0
  0
LINE
  8
0
  6
CONTINUOUS
 62
               4
  5
188
 10
-575.29999999999973
 20
57.050000000000026
 30
0.0
 11
-553.40000000000009
 21
57.050000000000026
 31
0.0
  0
LINE
  8
0
  6
CONTINUOUS
 62
               4
  5
189
 10
-553.40000000000009
 20
47.050000000000026
 30
0.0
 11
-553.40000000000009
 21
57.050000000000026
 31
0.0
  0
LINE
  8
0
  6
CONTINUOUS
 62
               4
  5
18A
 10
-558.88482755730138
 20
47.050000000000026
 30
0.0
 11
-558.88482755730138
 21
57.050000000000026
 31
0.0
  0
ENDBLK
  8
0
  5
18B
  0
BLOCK
  8
0
  5
18C
  2
GROUP_10
 70
               0
 10
0.0
 20
0.0
 30
0.0
  3
GROUP_10
  0
LINE
  8
0
  6
CONTINUOUS
 62
               4
  5
18D
 10
-424.70000000000027
 20
47.050000000000026
 30
0.0
 11
-424.70000000000027
 21
57.050000000000026
 31
0.0
  0
LINE
  8
0
  6
CONTINUOUS
 62
               4
  5
18E
 10
-430.18482755730156
 20
47.050000000000026
 30
0.0
 11
-430.18482755730156
 21
57.050000000000026
 31
0.0
  0
LINE
  8
0
  6
CONTINUOUS
 62
               4
  5
18F
 10
-424.70000000000027
 20
47.050000000000026
 30
0.0
 11
-446.59999999999991
 21
47.050000000000026
 31
0.0
  0
LINE
  8
0
  6
CONTINUOUS
 62
               4
  5
190
 10
-424.70000000000027
 20
57.050000000000026
 30
0.0
 11
-446.59999999999991
 21
57.050000000000026
 31
0.0
  0
LINE
  8
0
  6
CONTINUOUS
 62
               4
  5
191
 10
-446.59999999999991
 20
47.050000000000026
 30
0.0
 11
-446.59999999999991
 21
57.050000000000026
 31
0.0
  0
LINE
  8
0
  6
CONTINUOUS
 62
               4
  5
192
 10
-441.11517244269862
 20
47.050000000000026
 30
0.0
 11
-441.11517244269862
 21
57.050000000000026
 31
0.0
  0
ENDBLK
  8
0
  5
193
  0
ENDSEC
  0
SECTION
  2
ENTITIES
  0
CIRCLE
  8
0
  6
CONTINUOUS
 62
               3
  5
194
 10
0.0
 20
526.75
 30
0.0
 40
75.0
  0
LINE
  8
0
  6
CONTINUOUS
 62
               3
  5
195
 10
-86.210498200625352
 20
546.75
 30
0.0
 11
-72.284161474005487
 21
546.75
 31
0.0
  0
LINE
  8
0
  6
CONTINUOUS
 62
               3
  5
196
 10
-72.284161474005487
 20
506.74999999999994
 30
0.0
 11
-86.210498200625352
 21
506.74999999999994
 31
0.0
  0
ARC
  8
0
  6
CONTINUOUS
 62
               3
  5
197
 10
0.0
 20
526.75
 30
0.0
 40
88.5
 50
166.9389758851672
 51
193.0610241147632
  0
LINE
  8
0
  6
CONTINUOUS
 62
               3
  5
198
 10
-20.0
 20
440.53950179937505
 30
0.0
 11
-20.0
 21
454.46583852599491
 31
0.0
  0
LINE
  8
0
  6
CONTINUOUS
 62
               3
  5
199
 10
20.0
 20
454.46583852599491
 30
0.0
 11
20.0
 21
440.53950179937505
 31
0.0
  0
ARC
  8
0
  6
CONTINUOUS
 62
               3
  5
19A
 10
0.0
 20
526.75
 30
0.0
 40
88.5
 50
256.93897588514983
 51
283.06102411474581
  0
LINE
  8
0
  6
CONTINUOUS
 62
               3
  5
19B
 10
86.210498200624443
 20
506.74999999999994
 30
0.0
 11
72.284161474004122
 21
506.74999999999994
 31
0.0
  0
LINE
  8
0
  6
CONTINUOUS
 62
               3
  5
19C
 10
72.284161474004122
 20
546.75
 30
0.0
 11
86.210498200624443
 21
546.75
 31
0.0
  0
ARC
  8
0
  6
CONTINUOUS
 62
               3
  5
19D
 10
0.0
 20
526.75
 30
0.0
 40
88.5
 50
346.93897588513238
 51
373.06102411472841
  0
LINE
  8
0
  6
CONTINUOUS
 62
               3
  5
19E
 10
20.0
 20
612.96049820062558
 30
0.0
 11
20.0
 21
599.0341614740048
 31
0.0
  0
LINE
  8
0
  6
CONTINUOUS
 62
               3
  5
19F
 10
-20.0
 20
599.0341614740048
 30
0.0
 11
-20.0
 21
612.96049820062558
 31
0.0
  0
ARC
  8
0
  6
CONTINUOUS
 62
               3
  5
1A0
 10
0.0
 20
526.75
 30
0.0
 40
88.5
 50
76.938975885184604
 51
103.06102411478064
  0
LINE
  8
0
  6
CONTINUOUS
 62
               3
  5
1A1
 10
-30.000000000000011
 20
566.75
 30
0.0
 11
30.000000000000288
 21
566.74999999999977
 31
0.0
  0
ARC
  8
0
  6
CONTINUOUS
 62
               3
  5
1A2
 10
-64.346717087975321
 20
591.09671708797555
 30
0.0
 40
17.5
 50
97.816433606452236
 51
172.1835663934956
  0
LINE
  8
0
  6
CONTINUOUS
 62
               3
  5
1A3
 10
-81.684122377824224
 20
593.47671242736715
 30
0.0
 11
-89.163798633507668
 21
538.9899760311564
 31
0.0
  0
ARC
  8
0
  6
CONTINUOUS
 62
               3
  5
1A4
 10
64.346717087976231
 20
591.09671708797555
 30
0.0
 40
17.5
 50
7.8164336064694728
 51
82.183566393513019
  0
ARC
  8
0
  6
CONTINUOUS
 62
               3
  5
1A5
 10
64.346717087976231
 20
462.40328291202428
 30
0.0
 40
17.5
 50
277.81643360641743
 51
352.18356639346075
  0
ARC
  8
0
  6
CONTINUOUS
 62
               3
  5
1A6
 10
-64.346717087975321
 20
462.40328291202428
 30
0.0
 40
17.5
 50
187.81643360643486
 51
262.1835663934782
  0
LINE
  8
0
  6
CONTINUOUS
 62
               3
  5
1A7
 10
-81.684122377824224
 20
460.02328757263268
 30
0.0
 11
-89.163798633507724
 21
514.5100239688436
 31
0.0
  0
LINE
  8
0
  6
CONTINUOUS
 62
               3
  5
1A8
 10
81.684122377824679
 20
460.02328757263268
 30
0.0
 11
89.163798633508122
 21
514.51002396884337
 31
0.0
  0
ARC
  8
0
  6
CONTINUOUS
 62
               3
  5
1A9
 10
0.0
 20
526.75
 30
0.0
 40
90.0
 50
352.18356639346075
 51
367.81643360639998
  0
LINE
  8
0
  6
CONTINUOUS
 62
               3
  5
1AA
 10
81.684122377824679
 20
593.47671242736715
 30
0.0
 11
89.163798633508122
 21
538.9899760311564
 31
0.0
  0
LINE
  8
0
  6
CONTINUOUS
 62
               3
  5
1AB
 10
66.726712427367602
 20
608.43412237782468
 30
0.0
 11
12.239976031156857
 21
615.91379863350744
 31
0.0
  0
ARC
  8
0
  6
CONTINUOUS
 62
               3
  5
1AC
 10
0.0
 20
526.75
 30
0.0
 40
90.0
 50
82.183566393512962
 51
97.816433606452264
  0
LINE
  8
0
  6
CONTINUOUS
 62
               3
  5
1AD
 10
-66.726712427367147
 20
608.43412237782468
 30
0.0
 11
-12.239976031156402
 21
615.91379863350744
 31
0.0
  0
LINE
  8
0
  6
CONTINUOUS
 62
               3
  5
1AE
 10
66.726712427367602
 20
445.06587762217504
 30
0.0
 11
12.239976031156516
 21
437.58620136649239
 31
0.0
  0
LINE
  8
0
  6
CONTINUOUS
 62
               3
  5
1AF
 10
-66.726712427367147
 20
445.06587762217504
 30
0.0
 11
-12.239976031156516
 21
437.58620136649239
 31
0.0
  0
ARC
  8
0
  6
CONTINUOUS
 62
               3
  5
1B0
 10
0.0
 20
526.75
 30
0.0
 40
90.0
 50
262.1835663934782
 51
277.81643360641743
  0
ARC
  8
0
  6
CONTINUOUS
 62
               3
  5
1B1
 10
0.0
 20
526.75
 30
0.0
 40
90.0
 50
172.18356639349557
 51
187.8164336064348
  0
LINE
  8
0
  6
CONTINUOUS
 62
               3
  5
1B2
 10
-22.000000000000568
 20
526.75
 30
0.0
 11
-22.000000000000568
 21
481.85011135871292
 31
0.0
  0
LINE
  8
0
  6
CONTINUOUS
 62
               3
  5
1B3
 10
-22.000000000000568
 20
526.75
 30
0.0
 11
-43.168820844042649
 21
551.97801829187028
 31
0.0
  0
LINE
  8
0
  6
CONTINUOUS
 62
               3
  5
1B4
 10
-22.000000000000568
 20
504.74999999999949
 30
0.0
 11
44.89988864128707
 21
504.74999999999949
 31
0.0
  0
ARC
  8
0
  6
CONTINUOUS
 62
               3
  5
1B5
 10
54.999999999999545
 20
165.75000000000051
 30
0.0
 40
19.999999999999996
 50
0.0
 51
31.788330617045627
  0
LINE
  8
0
  6
CONTINUOUS
 62
               3
  5
1B6
 10
71.999999999999545
 20
251.16742430504507
 30
0.0
 11
71.999999999999545
 21
176.28565375285325
 31
0.0
  0
ARC
  8
0
  6
CONTINUOUS
 62
               3
  5
1B7
 10
-55.0
 20
165.75000000000051
 30
0.0
 40
19.999999999999996
 50
148.21166938291961
 51
179.99999999996524
  0
LINE
  8
0
  6
CONTINUOUS
 62
               3
  5
1B8
 10
-72.000000000000455
 20
176.28565375285325
 30
0.0
 11
-72.000000000000455
 21
251.16742430504507
 31
0.0
  0
ARC
  8
0
  6
CONTINUOUS
 62
               3
  5
1B9
 10
-65.0
 20
-115.74999999999991
 30
0.0
 40
2.4999999999999996
 50
89.999999999982535
 51
269.99999999994793
  0
LINE
  8
0
  6
CONTINUOUS
 62
               3
  5
1BA
 10
-90.0
 20
26.750000000000014
 30
0.0
 11
-90.0
 21
44.749999999999986
 31
0.0
  0
LINE
  8
0
  6
CONTINUOUS
 62
               3
  5
1BB
 10
90.0
 20
26.750000000000014
 30
0.0
 11
90.0
 21
44.749999999999986
 31
0.0
  0
LINE
  8
0
  6
CONTINUOUS
 62
               3
  5
1BC
 10
89.999999999999545
 20
44.750000000001123
 30
0.0
 11
-90.000000000000455
 21
44.749999999999986
 31
0.0
  0
LINE
  8
0
  6
CONTINUOUS
 62
               3
  5
1BD
 10
-75.0
 20
57.049999999999955
 30
0.0
 11
-75.0
 21
165.75000000000051
 31
0.0
  0
LINE
  8
0
  6
CONTINUOUS
 62
               3
  5
1BE
 10
74.999999999999545
 20
165.75000000000051
 30
0.0
 11
74.999999999999545
 21
57.049999999999962
 31
0.0
  0
ARC
  8
0
  6
CONTINUOUS
 62
               3
  5
1BF
 10
-80.000000000000455
 20
49.749999999999986
 30
0.0
 40
5.0
 50
327.31636115368025
 51
340.05155641115505
  0
ARC
  8
0
  6
CONTINUOUS
 62
               3
  5
1C0
 10
-80.000000000000455
 20
49.749999999999986
 30
0.0
 40
5.0
 50
269.99999999994782
 51
302.00545482770701
  0
LINE
  8
0
  6
CONTINUOUS
 62
               3
  5
1C1
 10
0.0
 20
-118.24999999999991
 30
0.0
 11
75.0
 21
-118.24999999999991
 31
0.0
  0
LINE
  8
0
  6
CONTINUOUS
 62
               3
  5
1C2
 10
0.0
 20
-113.24999999999991
 30
0.0
 11
75.0
 21
-113.24999999999991
 31
0.0
  0
LINE
  8
0
  6
CONTINUOUS
 62
               3
  5
1C3
 10
-65.0
 20
-113.24999999999991
 30
0.0
 11
0.0
 21
-113.24999999999991
 31
0.0
  0
LINE
  8
0
  6
CONTINUOUS
 62
               3
  5
1C4
 10
-65.0
 20
-118.24999999999991
 30
0.0
 11
0.0
 21
-118.24999999999991
 31
0.0
  0
LINE
  8
0
  6
CONTINUOUS
 62
               3
  5
1C5
 10
90.000000000000455
 20
0.7500000000000711
 30
0.0
 11
-89.999999999999545
 21
0.7500000000000711
 31
0.0
  0
LINE
  8
0
  6
CONTINUOUS
 62
               3
  5
1C6
 10
90.000000000000455
 20
21.749999999999943
 30
0.0
 11
90.000000000000455
 21
0.7500000000000711
 31
0.0
  0
LINE
  8
0
  6
CONTINUOUS
 62
               3
  5
1C7
 10
-90.000000000000455
 20
21.749999999999943
 30
0.0
 11
-90.000000000000455
 21
0.7500000000000711
 31
0.0
  0
LINE
  8
0
  6
CONTINUOUS
 62
               3
  5
1C8
 10
71.999999999999545
 20
176.28565375285325
 30
0.0
 11
11.727000000000203
 21
176.28565375285331
 31
0.0
  0
LINE
  8
0
  6
CONTINUOUS
 62
               3
  5
1C9
 10
-11.726999999999521
 20
176.28565375285325
 30
0.0
 11
-72.000000000000455
 21
176.28565375285325
 31
0.0
  0
LINE
  8
0
  6
CONTINUOUS
 62
               3
  5
1CA
 10
90.000000000000455
 20
26.749999999999943
 30
0.0
 11
-89.999999999999545
 21
26.749999999999943
 31
0.0
  0
LINE
  8
0
  6
CONTINUOUS
 62
               3
  5
1CB
 10
86.000000000000455
 20
26.749999999999943
 30
0.0
 11
86.000000000000455
 21
21.749999999999943
 31
0.0
  0
LINE
  8
0
  6
CONTINUOUS
 62
               3
  5
1CC
 10
-90.000000000000455
 20
21.749999999999943
 30
0.0
 11
90.000000000000455
 21
21.749999999999943
 31
0.0
  0
LINE
  8
0
  6
CONTINUOUS
 62
               3
  5
1CD
 10
-86.000000000000455
 20
26.749999999999943
 30
0.0
 11
-86.000000000000455
 21
21.749999999999943
 31
0.0
  0
LINE
  8
0
  6
CONTINUOUS
 62
               3
  5
1CE
 10
75.0
 20
272.75000000000051
 30
0.0
 11
-75.0
 21
272.75000000000051
 31
0.0
  0
LINE
  8
0
  6
CONTINUOUS
 62
               3
  5
1CF
 10
88.500000000000455
 20
262.75000000000051
 30
0.0
 11
88.500000000000455
 21
255.7500000000008
 31
0.0
  0
LINE
  8
0
  6
CONTINUOUS
 62
               3
  5
1D0
 10
88.500000000000455
 20
262.75000000000051
 30
0.0
 11
75.0
 21
272.75000000000051
 31
0.0
  0
ARC
  8
0
  6
CONTINUOUS
 62
               3
  5
1D1
 10
77.0
 20
251.16742430504507
 30
0.0
 40
4.9999999999999991
 50
113.57817847817988
 51
179.99999999996507
  0
LINE
  8
0
  6
CONTINUOUS
 62
               3
  5
1D2
 10
88.500000000000455
 20
255.7500000000008
 30
0.0
 11
-88.499999999999545
 21
255.7500000000008
 31
0.0
  0
LINE
  8
0
  6
CONTINUOUS
 62
               3
  5
1D3
 10
20.0
 20
255.7500000000008
 30
0.0
 11
20.0
 21
272.75000000000051
 31
0.0
  0
LINE
  8
0
  6
CONTINUOUS
 62
               3
  5
1D4
 10
-20.0
 20
272.75000000000051
 30
0.0
 11
-20.0
 21
255.7500000000008
 31
0.0
  0
LINE
  8
0
  6
CONTINUOUS
 62
               3
  5
1D5
 10
20.0
 20
262.75000000000051
 30
0.0
 11
-20.0
 21
262.75000000000051
 31
0.0
  0
LINE
  8
0
  6
CONTINUOUS
 62
               3
  5
1D6
 10
72.284161474005487
 20
272.75000000000051
 30
0.0
 11
72.284161474005487
 21
255.7500000000008
 31
0.0
  0
LINE
  8
0
  6
CONTINUOUS
 62
               3
  5
1D7
 10
-88.499999999999545
 20
262.75000000000051
 30
0.0
 11
-88.499999999999545
 21
255.7500000000008
 31
0.0
  0
LINE
  8
0
  6
CONTINUOUS
 62
               3
  5
1D8
 10
-88.499999999999545
 20
262.75000000000051
 30
0.0
 11
-75.0
 21
272.75000000000051
 31
0.0
  0
ARC
  8
0
  6
CONTINUOUS
 62
               3
  5
1D9
 10
-77.0
 20
251.16742430504507
 30
0.0
 40
4.9999999999999991
 50
0.0
 51
66.421821521785446
  0
LINE
  8
0
  6
CONTINUOUS
 62
               3
  5
1DA
 10
-72.284161474004122
 20
272.75000000000051
 30
0.0
 11
-72.284161474004122
 21
255.7500000000008
 31
0.0
  0
ARC
  8
0
  6
CONTINUOUS
 62
               3
  5
1DB
 10
80.000000000000341
 20
49.749999999999993
 30
0.0
 40
5.0
 50
199.94844358874056
 51
212.68363884621539
  0
ARC
  8
0
  6
CONTINUOUS
 62
               3
  5
1DC
 10
80.000000000000341
 20
49.749999999999993
 30
0.0
 40
5.0
 50
237.99454517218854
 51
269.99999999994782
  0
LINE
  8
0
  6
CONTINUOUS
 62
               3
  5
1DD
 10
-74.999999999999545
 20
-231.25000000000006
 30
0.0
 11
75.0
 21
-231.24999999999983
 31
0.0
  0
LINE
  8
0
  6
CONTINUOUS
 62
               3
  5
1DE
 10
-72.721287833966699
 20
-251.24999999999994
 30
0.0
 11
72.721287833968063
 21
-251.24999999999994
 31
0.0
  0
LINE
  8
0
  6
CONTINUOUS
 62
               3
  5
1DF
 10
-75.000000000000568
 20
-134.07877945818348
 30
0.0
 11
-74.999999999999545
 21
-231.25000000000006
 31
0.0
  0
LINE
  8
0
  6
CONTINUOUS
 62
               3
  5
1E0
 10
75.0
 20
-231.25000000000904
 30
0.0
 11
75.0
 21
-4.2499999999999289
 31
0.0
  0
LINE
  8
0
  6
CONTINUOUS
 62
               3
  5
1E1
 10
58.000000000000455
 20
-380.45708506678932
 30
0.0
 11
75.0
 21
-231.25000000000904
 31
0.0
  0
LINE
  8
0
  6
CONTINUOUS
 62
               3
  5
1E2
 10
-57.999999999999545
 20
-380.45708506678932
 30
0.0
 11
-74.999999999999545
 21
-231.25000000000006
 31
0.0
  0
LINE
  8
0
  6
CONTINUOUS
 62
               3
  5
1E3
 10
572.0
 20
251.16742430504507
 30
0.0
 11
572.0
 21
181.28565375285325
 31
0.0
  0
LINE
  8
0
  6
CONTINUOUS
 62
               3
  5
1E4
 10
428.0
 20
181.28565375285393
 30
0.0
 11
428.0
 21
251.16742430504507
 31
0.0
  0
LINE
  8
0
  6
CONTINUOUS
 62
               3
  5
1E5
 10
571.50000000000045
 20
176.28565375285325
 30
0.0
 11
428.49999999999955
 21
176.28565375285325
 31
0.0
  0
ARC
  8
0
  6
CONTINUOUS
 62
               3
  5
1E6
 10
425.00000000000045
 20
-115.75
 30
0.0
 40
2.4999999999999996
 50
89.999999999982862
 51
269.99999999994731
  0
LINE
  8
0
  6
CONTINUOUS
 62
               3
  5
1E7
 10
425.00000000000045
 20
-118.25
 30
0.0
 11
500.0
 21
-118.25
 31
0.0
  0
LINE
  8
0
  6
CONTINUOUS
 62
               3
  5
1E8
 10
500.0
 20
-118.25
 30
0.0
 11
575.0
 21
-118.25
 31
0.0
  0
LINE
  8
0
  6
CONTINUOUS
 62
               3
  5
1E9
 10
425.00000000000045
 20
-113.25
 30
0.0
 11
500.0
 21
-113.25
 31
0.0
  0
LINE
  8
0
  6
CONTINUOUS
 62
               3
  5
1EA
 10
500.0
 20
-113.25
 30
0.0
 11
575.0
 21
-113.25
 31
0.0
  0
LINE
  8
0
  6
CONTINUOUS
 62
               3
  5
1EB
 10
410.0
 20
44.750000000001265
 30
0.0
 11
590.0
 21
44.749999999999986
 31
0.0
  0
LINE
  8
0
  6
CONTINUOUS
 62
               3
  5
1EC
 10
590.00000000000045
 20
21.750000000000014
 30
0.0
 11
590.00000000000045
 21
0.7500000000000711
 31
0.0
  0
LINE
  8
0
  6
CONTINUOUS
 62
               3
  5
1ED
 10
590.00000000000045
 20
26.750000000000014
 30
0.0
 11
590.00000000000045
 21
44.749999999999986
 31
0.0
  0
LINE
  8
0
  6
CONTINUOUS
 62
               3
  5
1EE
 10
410.00000000000045
 20
26.750000000000014
 30
0.0
 11
410.00000000000045
 21
44.749999999999986
 31
0.0
  0
LINE
  8
0
  6
CONTINUOUS
 62
               3
  5
1EF
 10
590.00000000000045
 20
26.750000000000014
 30
0.0
 11
410.00000000000045
 21
26.750000000000014
 31
0.0
  0
LINE
  8
0
  6
CONTINUOUS
 62
               3
  5
1F0
 10
586.00000000000045
 20
26.750000000000014
 30
0.0
 11
586.00000000000045
 21
21.750000000000014
 31
0.0
  0
LINE
  8
0
  6
CONTINUOUS
 62
               3
  5
1F1
 10
425.00000000000045
 20
-4.716767657286141
 30
0.0
 11
425.00000000000045
 21
-113.25
 31
0.0
  0
LINE
  8
0
  6
CONTINUOUS
 62
               3
  5
1F2
 10
409.99999999999955
 20
21.750000000000014
 30
0.0
 11
590.00000000000045
 21
21.750000000000014
 31
0.0
  0
LINE
  8
0
  6
CONTINUOUS
 62
               3
  5
1F3
 10
409.99999999999955
 20
21.750000000000014
 30
0.0
 11
409.99999999999955
 21
0.7500000000000711
 31
0.0
  0
LINE
  8
0
  6
CONTINUOUS
 62
               3
  5
1F4
 10
413.99999999999955
 20
26.750000000000014
 30
0.0
 11
413.99999999999955
 21
21.750000000000014
 31
0.0
  0
LINE
  8
0
  6
CONTINUOUS
 62
               3
  5
1F5
 10
590.00000000000045
 20
0.7500000000000711
 30
0.0
 11
410.00000000000045
 21
0.7500000000000711
 31
0.0
  0
ARC
  8
0
  6
CONTINUOUS
 62
               3
  5
1F6
 10
574.99999999999955
 20
-115.75
 30
0.0
 40
2.4999999999999996
 50
269.99999999994731
 51
449.99999999991297
  0
LINE
  8
0
  6
CONTINUOUS
 62
               3
  5
1F7
 10
574.99999999999955
 20
-113.25
 30
0.0
 11
574.99999999999955
 21
-4.2499999999999289
 31
0.0
  0
LINE
  8
0
  6
CONTINUOUS
 62
               3
  5
1F8
 10
575.0
 20
272.75000000000051
 30
0.0
 11
425.0
 21
272.75000000000051
 31
0.0
  0
LINE
  8
0
  6
CONTINUOUS
 62
               3
  5
1F9
 10
588.50000000000045
 20
262.75000000000051
 30
0.0
 11
588.50000000000045
 21
255.7500000000008
 31
0.0
  0
LINE
  8
0
  6
CONTINUOUS
 62
               3
  5
1FA
 10
588.50000000000045
 20
262.75000000000051
 30
0.0
 11
575.0
 21
272.75000000000051
 31
0.0
  0
ARC
  8
0
  6
CONTINUOUS
 62
               3
  5
1FB
 10
577.0
 20
251.16742430504507
 30
0.0
 40
4.9999999999999991
 50
113.57817847818016
 51
179.99999999996507
  0
LINE
  8
0
  6
CONTINUOUS
 62
               3
  5
1FC
 10
588.50000000000045
 20
255.7500000000008
 30
0.0
 11
411.50000000000045
 21
255.7500000000008
 31
0.0
  0
LINE
  8
0
  6
CONTINUOUS
 62
               3
  5
1FD
 10
520.0
 20
255.7500000000008
 30
0.0
 11
520.0
 21
272.75000000000051
 31
0.0
  0
LINE
  8
0
  6
CONTINUOUS
 62
               3
  5
1FE
 10
480.0
 20
272.75000000000051
 30
0.0
 11
480.0
 21
255.7500000000008
 31
0.0
  0
LINE
  8
0
  6
CONTINUOUS
 62
               3
  5
1FF
 10
520.0
 20
262.75000000000051
 30
0.0
 11
480.0
 21
262.75000000000051
 31
0.0
  0
LINE
  8
0
  6
CONTINUOUS
 62
               3
  5
200
 10
572.28416147400549
 20
272.75000000000051
 30
0.0
 11
572.28416147400549
 21
255.7500000000008
 31
0.0
  0
LINE
  8
0
  6
CONTINUOUS
 62
               3
  5
201
 10
411.50000000000045
 20
262.75000000000051
 30
0.0
 11
411.50000000000045
 21
255.7500000000008
 31
0.0
  0
LINE
  8
0
  6
CONTINUOUS
 62
               3
  5
202
 10
411.50000000000045
 20
262.75000000000051
 30
0.0
 11
425.0
 21
272.75000000000051
 31
0.0
  0
ARC
  8
0
  6
CONTINUOUS
 62
               3
  5
203
 10
423.0
 20
251.16742430504507
 30
0.0
 40
4.9999999999999991
 50
0.0
 51
66.421821521785304
  0
LINE
  8
0
  6
CONTINUOUS
 62
               3
  5
204
 10
427.71583852599588
 20
272.75000000000051
 30
0.0
 11
427.71583852599588
 21
255.7500000000008
 31
0.0
  0
LINE
  8
0
  6
CONTINUOUS
 62
               3
  5
205
 10
425.00000000000045
 20
-231.25000000000006
 30
0.0
 11
575.0
 21
-231.24999999999983
 31
0.0
  0
LINE
  8
0
  6
CONTINUOUS
 62
               3
  5
206
 10
427.2787121660333
 20
-251.24999999999994
 30
0.0
 11
572.72128783396806
 21
-251.24999999999994
 31
0.0
  0
LINE
  8
0
  6
CONTINUOUS
 62
               3
  5
207
 10
425.00000000000045
 20
-118.25
 30
0.0
 11
425.00000000000045
 21
-231.25000000000006
 31
0.0
  0
LINE
  8
0
  6
CONTINUOUS
 62
               3
  5
208
 10
575.0
 20
-231.25000000000904
 30
0.0
 11
574.99999999999955
 21
-118.25
 31
0.0
  0
LINE
  8
0
  6
CONTINUOUS
 62
               3
  5
209
 10
558.00000000000045
 20
-380.45708506678932
 30
0.0
 11
575.0
 21
-231.25000000000904
 31
0.0
  0
LINE
  8
0
  6
CONTINUOUS
 62
               3
  5
20A
 10
442.00000000000045
 20
-380.45708506678932
 30
0.0
 11
425.00000000000045
 21
-231.25000000000006
 31
0.0
  0
LINE
  8
0
  6
CONTINUOUS
 62
               3
  5
20B
 10
-557.99999999999955
 20
-380.45708506678932
 30
0.0
 11
-574.99999999999955
 21
-231.25000000000006
 31
0.0
  0
LINE
  8
0
  6
CONTINUOUS
 62
               3
  5
20C
 10
-574.99999999999955
 20
-118.25
 30
0.0
 11
-574.99999999999955
 21
-231.25000000000006
 31
0.0
  0
ARC
  8
0
  6
CONTINUOUS
 62
               3
  5
20D
 10
-574.99999999999955
 20
-115.75
 30
0.0
 40
2.4999999999999996
 50
89.999999999981569
 51
269.99999999994731
  0
LINE
  8
0
  6
CONTINUOUS
 62
               3
  5
20E
 10
-441.99999999999955
 20
-380.45708506678932
 30
0.0
 11
-425.0
 21
-231.25000000000904
 31
0.0
  0
LINE
  8
0
  6
CONTINUOUS
 62
               3
  5
20F
 10
-574.99999999999955
 20
-118.25
 30
0.0
 11
-522.49999999999955
 21
-118.25
 31
0.0
  0
LINE
  8
0
  6
CONTINUOUS
 62
               3
  5
210
 10
-477.49999999999955
 20
-118.25
 30
0.0
 11
-425.0
 21
-118.25
 31
0.0
  0
LINE
  8
0
  6
CONTINUOUS
 62
               3
  5
211
 10
-574.99999999999955
 20
-113.25
 30
0.0
 11
-522.49999999999955
 21
-113.25
 31
0.0
  0
LINE
  8
0
  6
CONTINUOUS
 62
               3
  5
212
 10
-477.49999999999955
 20
-113.25
 30
0.0
 11
-425.0
 21
-113.25
 31
0.0
  0
ARC
  8
0
  6
CONTINUOUS
 62
               3
  5
213
 10
-522.49999999999955
 20
-115.75
 30
0.0
 40
2.4999999999999996
 50
269.99999999994731
 51
449.99999999991297
  0
ARC
  8
0
  6
CONTINUOUS
 62
               3
  5
214
 10
-477.49999999999955
 20
-115.75
 30
0.0
 40
2.4999999999999996
 50
89.999999999982862
 51
269.99999999994731
  0
LINE
  8
0
  6
CONTINUOUS
 62
               3
  5
215
 10
-409.99999999999955
 20
21.750000000000014
 30
0.0
 11
-409.99999999999955
 21
0.7500000000000711
 31
0.0
  0
LINE
  8
0
  6
CONTINUOUS
 62
               3
  5
216
 10
-574.99999999999955
 20
-4.7167676572861978
 30
0.0
 11
-574.99999999999955
 21
-113.25
 31
0.0
  0
LINE
  8
0
  6
CONTINUOUS
 62
               3
  5
217
 10
-574.99999999999955
 20
-231.25000000000006
 30
0.0
 11
-425.0
 21
-231.24999999999983
 31
0.0
  0
LINE
  8
0
  6
CONTINUOUS
 62
               3
  5
218
 10
-572.7212878339667
 20
-251.24999999999994
 30
0.0
 11
-427.27871216603194
 21
-251.24999999999994
 31
0.0
  0
LINE
  8
0
  6
CONTINUOUS
 62
               3
  5
219
 10
-590.00000000000045
 20
21.750000000000014
 30
0.0
 11
-590.00000000000045
 21
0.7500000000000711
 31
0.0
  0
LINE
  8
0
  6
CONTINUOUS
 62
               3
  5
21A
 10
-409.99999999999955
 20
0.7500000000000711
 30
0.0
 11
-589.99999999999955
 21
0.7500000000000711
 31
0.0
  0
ARC
  8
0
  6
CONTINUOUS
 62
               3
  5
21B
 10
-425.00000000000045
 20
-115.75
 30
0.0
 40
2.4999999999999996
 50
269.99999999994731
 51
449.99999999991297
  0
LINE
  8
0
  6
CONTINUOUS
 62
               3
  5
21C
 10
-425.0
 20
-231.25000000000904
 30
0.0
 11
-425.00000000000045
 21
-118.25
 31
0.0
  0
LINE
  8
0
  6
CONTINUOUS
 62
               3
  5
21D
 10
-425.00000000000045
 20
-113.25
 30
0.0
 11
-425.00000000000045
 21
-4.2499999999999289
 31
0.0
  0
LINE
  8
0
  6
CONTINUOUS
 62
               3
  5
21E
 10
-425.0
 20
272.75000000000051
 30
0.0
 11
-575.0
 21
272.75000000000051
 31
0.0
  0
LINE
  8
0
  6
CONTINUOUS
 62
               3
  5
21F
 10
-411.49999999999955
 20
262.75000000000051
 30
0.0
 11
-411.49999999999955
 21
255.7500000000008
 31
0.0
  0
LINE
  8
0
  6
CONTINUOUS
 62
               3
  5
220
 10
-411.49999999999955
 20
262.75000000000051
 30
0.0
 11
-425.0
 21
272.75000000000051
 31
0.0
  0
ARC
  8
0
  6
CONTINUOUS
 62
               3
  5
221
 10
-423.0
 20
251.16742430504507
 30
0.0
 40
4.9999999999999991
 50
113.57817847817958
 51
179.99999999996507
  0
LINE
  8
0
  6
CONTINUOUS
 62
               3
  5
222
 10
-411.49999999999955
 20
255.7500000000008
 30
0.0
 11
-588.49999999999955
 21
255.7500000000008
 31
0.0
  0
LINE
  8
0
  6
CONTINUOUS
 62
               3
  5
223
 10
-428.0
 20
251.16742430504507
 30
0.0
 11
-428.0
 21
181.28565375285325
 31
0.0
  0
LINE
  8
0
  6
CONTINUOUS
 62
               3
  5
224
 10
-572.0
 20
181.28565375285393
 30
0.0
 11
-572.0
 21
251.16742430504507
 31
0.0
  0
LINE
  8
0
  6
CONTINUOUS
 62
               3
  5
225
 10
-428.49999999999955
 20
176.28565375285325
 30
0.0
 11
-571.50000000000045
 21
176.28565375285325
 31
0.0
  0
LINE
  8
0
  6
CONTINUOUS
 62
               3
  5
226
 10
-480.0
 20
255.7500000000008
 30
0.0
 11
-480.0
 21
272.75000000000051
 31
0.0
  0
LINE
  8
0
  6
CONTINUOUS
 62
               3
  5
227
 10
-520.0
 20
272.75000000000051
 30
0.0
 11
-520.0
 21
255.7500000000008
 31
0.0
  0
LINE
  8
0
  6
CONTINUOUS
 62
               3
  5
228
 10
-480.0
 20
262.75000000000051
 30
0.0
 11
-520.0
 21
262.75000000000051
 31
0.0
  0
LINE
  8
0
  6
CONTINUOUS
 62
               3
  5
229
 10
-427.71583852599451
 20
272.75000000000051
 30
0.0
 11
-427.71583852599451
 21
255.7500000000008
 31
0.0
  0
LINE
  8
0
  6
CONTINUOUS
 62
               3
  5
22A
 10
-588.49999999999955
 20
262.75000000000051
 30
0.0
 11
-588.49999999999955
 21
255.7500000000008
 31
0.0
  0
LINE
  8
0
  6
CONTINUOUS
 62
               3
  5
22B
 10
-588.49999999999955
 20
262.75000000000051
 30
0.0
 11
-575.0
 21
272.75000000000051
 31
0.0
  0
ARC
  8
0
  6
CONTINUOUS
 62
               3
  5
22C
 10
-577.0
 20
251.16742430504507
 30
0.0
 40
4.9999999999999991
 50
0.0
 51
66.421821521785304
  0
LINE
  8
0
  6
CONTINUOUS
 62
               3
  5
22D
 10
-572.28416147400412
 20
272.75000000000051
 30
0.0
 11
-572.28416147400412
 21
255.7500000000008
 31
0.0
  0
LINE
  8
0
  6
CONTINUOUS
 62
               3
  5
22E
 10
-590.0
 20
44.750000000001265
 30
0.0
 11
-410.0
 21
44.749999999999986
 31
0.0
  0
LINE
  8
0
  6
CONTINUOUS
 62
               3
  5
22F
 10
-409.99999999999955
 20
26.750000000000014
 30
0.0
 11
-409.99999999999955
 21
44.749999999999986
 31
0.0
  0
LINE
  8
0
  6
CONTINUOUS
 62
               3
  5
230
 10
-589.99999999999955
 20
26.750000000000014
 30
0.0
 11
-589.99999999999955
 21
44.749999999999986
 31
0.0
  0
LINE
  8
0
  6
CONTINUOUS
 62
               3
  5
231
 10
-409.99999999999955
 20
26.750000000000014
 30
0.0
 11
-589.99999999999955
 21
26.750000000000014
 31
0.0
  0
LINE
  8
0
  6
CONTINUOUS
 62
               3
  5
232
 10
-413.99999999999955
 20
26.750000000000014
 30
0.0
 11
-413.99999999999955
 21
21.750000000000014
 31
0.0
  0
LINE
  8
0
  6
CONTINUOUS
 62
               3
  5
233
 10
-590.00000000000045
 20
21.750000000000014
 30
0.0
 11
-409.99999999999955
 21
21.750000000000014
 31
0.0
  0
LINE
  8
0
  6
CONTINUOUS
 62
               3
  5
234
 10
-586.00000000000045
 20
26.750000000000014
 30
0.0
 11
-586.00000000000045
 21
21.750000000000014
 31
0.0
  0
LINE
  8
0
  6
CONTINUOUS
 62
               3
  5
235
 10
-136.99999999999977
 20
475.89999999999992
 30
0.0
 11
-136.99999999999977
 21
577.59999999999991
 31
0.0
  0
LINE
  8
0
  6
CONTINUOUS
 62
               3
  5
236
 10
-136.99999999999977
 20
577.59999999999991
 30
0.0
 11
-139.99999999999989
 21
574.60000000000036
 31
0.0
  0
LINE
  8
0
  6
CONTINUOUS
 62
               3
  5
237
 10
-136.99999999999977
 20
475.89999999999992
 30
0.0
 11
-139.99999999999989
 21
478.89999999999992
 31
0.0
  0
LINE
  8
0
  6
CONTINUOUS
 62
               3
  5
238
 10
-144.99999999999989
 20
575.10000000000014
 30
0.0
 11
-144.99999999999989
 21
478.39999999999992
 31
0.0
  0
LINE
  8
0
  6
CONTINUOUS
 62
               3
  5
239
 10
-139.99999999999989
 20
475.89999999999992
 30
0.0
 11
-139.99999999999989
 21
577.60000000000014
 31
0.0
  0
LINE
  8
0
  6
CONTINUOUS
 62
               3
  5
23A
 10
-139.99999999999989
 20
577.60000000000014
 30
0.0
 11
-142.49999999999989
 21
577.60000000000014
 31
0.0
  0
LINE
  8
0
  6
CONTINUOUS
 62
               3
  5
23B
 10
-139.99999999999989
 20
475.89999999999992
 30
0.0
 11
-142.49999999999989
 21
475.89999999999992
 31
0.0
  0
ARC
  8
0
  6
CONTINUOUS
 62
               3
  5
23C
 10
-142.49999999999989
 20
478.39999999999992
 30
0.0
 40
2.5
 50
179.99999999996572
 51
269.99999999994793
  0
ARC
  8
0
  6
CONTINUOUS
 62
               3
  5
23D
 10
-142.49999999999989
 20
575.10000000000014
 30
0.0
 40
2.5
 50
89.999999999982862
 51
179.99999999996572
  0
LINE
  8
0
  6
CONTINUOUS
 62
               3
  5
23E
 10
-83.610685146837469
 20
474.05760057731851
 30
0.0
 11
-136.99999999999977
 21
475.89999999999992
 31
0.0
  0
LINE
  8
0
  6
CONTINUOUS
 62
               3
  5
23F
 10
-83.607651023862928
 20
579.46450191121903
 30
0.0
 11
-136.99999999999977
 21
577.59999999999991
 31
0.0
  0
LINE
  8
0
  6
CONTINUOUS
 62
               3
  5
240
 10
-139.99999999999994
 20
-13.228443874035904
 30
0.0
 11
-139.32844387403571
 21
-13.228443874035904
 31
0.0
  0
LINE
  8
0
  6
CONTINUOUS
 62
               3
  5
241
 10
-137.00000000000006
 20
-10.90000000000019
 30
0.0
 11
-139.32844387403571
 21
-13.228443874035904
 31
0.0
  0
LINE
  8
0
  6
CONTINUOUS
 62
               3
  5
242
 10
-137.00000000000006
 20
-10.90000000000019
 30
0.0
 11
-79.659852060136473
 21
-8.8976379111688146
 31
0.0
  0
LINE
  8
0
  6
CONTINUOUS
 62
               3
  5
243
 10
-139.99999999999994
 20
-110.27155612596508
 30
0.0
 11
-139.32844387403571
 21
-110.27155612596508
 31
0.0
  0
LINE
  8
0
  6
CONTINUOUS
 62
               3
  5
244
 10
-137.00000000000006
 20
-112.60000000000022
 30
0.0
 11
-139.32844387403571
 21
-110.27155612596508
 31
0.0
  0
LINE
  8
0
  6
CONTINUOUS
 62
               3
  5
245
 10
-139.32844387403571
 20
-13.228443874035904
 30
0.0
 11
-139.32844387403571
 21
-110.27155612596508
 31
0.0
  0
LINE
  8
0
  6
CONTINUOUS
 62
               3
  5
246
 10
-137.00000000000006
 20
-112.60000000000022
 30
0.0
 11
-137.00000000000006
 21
-10.90000000000019
 31
0.0
  0
LINE
  8
0
  6
CONTINUOUS
 62
               3
  5
247
 10
-137.00000000000006
 20
-112.60000000000022
 30
0.0
 11
-94.834889743722727
 21
-114.07243809585415
 31
0.0
  0
ARC
  8
0
  6
CONTINUOUS
 62
               3
  5
248
 10
-95.009387227234754
 20
-119.06939223094915
 30
0.0
 40
4.9999999999999991
 50
44.999999999990344
 51
87.999999999983288
  0
LINE
  8
0
  6
CONTINUOUS
 62
               3
  5
249
 10
-144.99999999999994
 20
-13.40000000000019
 30
0.0
 11
-144.99999999999994
 21
-110.10000000000022
 31
0.0
  0
LINE
  8
0
  6
CONTINUOUS
 62
               3
  5
24A
 10
-139.99999999999994
 20
-10.90000000000019
 30
0.0
 11
-142.49999999999994
 21
-10.90000000000019
 31
0.0
  0
ARC
  8
0
  6
CONTINUOUS
 62
               3
  5
24B
 10
-142.49999999999994
 20
-13.40000000000019
 30
0.0
 40
2.5
 50
89.999999999982862
 51
179.99999999996524
  0
ARC
  8
0
  6
CONTINUOUS
 62
               3
  5
24C
 10
-142.49999999999994
 20
-110.10000000000022
 30
0.0
 40
2.5
 50
179.99999999996507
 51
269.99999999994793
  0
LINE
  8
0
  6
CONTINUOUS
 62
               3
  5
24D
 10
-139.99999999999994
 20
-112.60000000000022
 30
0.0
 11
-139.99999999999994
 21
-10.90000000000019
 31
0.0
  0
LINE
  8
0
  6
CONTINUOUS
 62
               3
  5
24E
 10
-139.99999999999994
 20
-112.60000000000022
 30
0.0
 11
-142.49999999999994
 21
-112.60000000000022
 31
0.0
  0
LINE
  8
0
  6
CONTINUOUS
 62
               3
  5
24F
 10
-76.464466094067745
 20
-130.54324555225125
 30
0.0
 11
-91.473853321302215
 21
-115.53385832501695
 31
0.0
  0
ARC
  8
0
  6
CONTINUOUS
 62
               3
  5
250
 10
-79.999999999999716
 20
-134.07877945818419
 30
0.0
 40
4.9999999999999991
 50
0.0
 51
44.999999999990344
  0
ARC
  8
0
  6
CONTINUOUS
 62
               3
  5
251
 10
-79.828252206279899
 20
-4.0752886733267815
 30
0.0
 40
4.8252886733268916
 50
271.99999999994787
 51
352.65529582500591
  0
CIRCLE
  8
0
  6
CONTINUOUS
 62
               3
  5
252
 10
-500.0
 20
-61.749999999999716
 30
0.0
 40
50.75
  0
LINE
  8
0
  6
CONTINUOUS
 62
               3
  5
253
 10
-519.08042190309197
 20
-35.749999999999602
 30
0.0
 11
-480.91957809690757
 21
-35.749999999999602
 31
0.0
  0
CIRCLE
  8
0
  6
CONTINUOUS
 62
               3
  5
254
 10
-500.00000000000045
 20
-61.749999999999716
 30
0.0
 40
40.75
  0
CIRCLE
  8
0
  6
CONTINUOUS
 62
               3
  5
255
 10
-500.0
 20
-61.749999999999716
 30
0.0
 40
32.25
  0
LINE
  8
0
  6
CONTINUOUS
 62
               3
  5
256
 10
-527.04683438038546
 20
-88.796834380384951
 30
0.0
 11
-528.81460133335213
 21
-90.564601333351504
 31
0.0
  0
LINE
  8
0
  6
CONTINUOUS
 62
               3
  5
257
 10
-472.95316561962159
 20
-88.796834380391772
 30
0.0
 11
-471.18539866664946
 21
-90.564601333352186
 31
0.0
  0
ARC
  8
0
  6
CONTINUOUS
 62
               3
  5
258
 10
-500.0
 20
-61.749999999999716
 30
0.0
 40
38.25
 50
224.99999999994745
 51
314.99999999992463
  0
LINE
  8
0
  6
CONTINUOUS
 62
               3
  5
259
 10
-557.99999999999955
 20
-380.45708506678892
 30
0.0
 11
-441.99999999999955
 21
-380.45708506678932
 31
0.0
  0
LINE
  8
0
  6
CONTINUOUS
 62
               3
  5
25A
 10
-560.27871216603239
 20
-360.45708506678903
 30
0.0
 11
-439.7212878339667
 21
-360.45708506678903
 31
0.0
  0
LINE
  8
0
  6
CONTINUOUS
 62
               3
  5
25B
 10
-57.999999999999545
 20
-380.45708506678892
 30
0.0
 11
58.000000000000455
 21
-380.45708506678932
 31
0.0
  0
LINE
  8
0
  6
CONTINUOUS
 62
               3
  5
25C
 10
-60.278712166032392
 20
-360.45708506678903
 30
0.0
 11
60.278712166033301
 21
-360.45708506678903
 31
0.0
  0
LINE
  8
0
  6
CONTINUOUS
 62
               3
  5
25D
 10
442.00000000000045
 20
-380.45708506678892
 30
0.0
 11
558.00000000000045
 21
-380.45708506678932
 31
0.0
  0
LINE
  8
0
  6
CONTINUOUS
 62
               3
  5
25E
 10
439.72128783396761
 20
-360.45708506678903
 30
0.0
 11
560.2787121660333
 21
-360.45708506678903
 31
0.0
  0
CIRCLE
  8
0
  6
CONTINUOUS
 62
               3
  5
25F
 10
0.0
 20
526.75
 30
0.0
 40
59.0
  0
CIRCLE
  8
0
  6
CONTINUOUS
 62
               3
  5
260
 10
0.0
 20
526.75
 30
0.0
 40
50.0
  0
ARC
  8
0
  6
CONTINUOUS
 62
               3
  5
261
 10
-420.00000000000045
 20
-4.2499999999999289
 30
0.0
 40
5.0
 50
89.999999999982862
 51
179.99999999996518
  0
ARC
  8
0
  6
CONTINUOUS
 62
               3
  5
262
 10
80.0
 20
-4.2499999999999289
 30
0.0
 40
5.0
 50
89.999999999982535
 51
179.99999999996518
  0
ARC
  8
0
  6
CONTINUOUS
 62
               3
  5
263
 10
579.99999999999955
 20
-4.2499999999999289
 30
0.0
 40
5.0
 50
89.999999999982862
 51
179.99999999996518
  0
LINE
  8
0
  6
CONTINUOUS
 62
               3
  5
264
 10
-442.99999999999892
 20
-527.25000000000011
 30
0.0
 11
-442.99999999999892
 21
-492.24999999999955
 31
0.0
  0
LINE
  8
0
  6
CONTINUOUS
 62
               3
  5
265
 10
-556.99999999999886
 20
-527.25000000000011
 30
0.0
 11
-556.99999999999886
 21
-492.24999999999955
 31
0.0
  0
LINE
  8
0
  6
CONTINUOUS
 62
               3
  5
266
 10
-556.99999999999886
 20
-492.24999999999955
 30
0.0
 11
-442.99999999999892
 21
-492.24999999999955
 31
0.0
  0
LINE
  8
0
  6
CONTINUOUS
 62
               3
  5
267
 10
-442.99999999999892
 20
-492.24999999999955
 30
0.0
 11
-441.99999999999847
 21
-491.24999999999909
 31
0.0
  0
LINE
  8
0
  6
CONTINUOUS
 62
               3
  5
268
 10
-556.99999999999886
 20
-492.24999999999955
 30
0.0
 11
-557.99999999999841
 21
-491.24999999999909
 31
0.0
  0
LINE
  8
0
  6
CONTINUOUS
 62
               3
  5
269
 10
-561.99999999999909
 20
-672.24999999999852
 30
0.0
 11
-561.99999999999909
 21
-657.24999999999943
 31
0.0
  0
LINE
  8
0
  6
CONTINUOUS
 62
               3
  5
26A
 10
-564.99999999999886
 20
-672.24999999999852
 30
0.0
 11
-434.99999999999892
 21
-672.24999999999852
 31
0.0
  0
ARC
  8
0
  6
CONTINUOUS
 62
               3
  5
26B
 10
-575.99999999999818
 20
-531.25000000000034
 30
0.0
 40
4.0
 50
89.999999999982236
 51
179.99999999996518
  0
LINE
  8
0
  6
CONTINUOUS
 62
               3
  5
26C
 10
-579.99999999999818
 20
-531.24999999999795
 30
0.0
 11
-579.99999999999841
 21
-550.25000000000034
 31
0.0
  0
LINE
  8
0
  6
CONTINUOUS
 62
               3
  5
26D
 10
-515.99999999999818
 20
-527.24999999999977
 30
0.0
 11
-575.99999999999818
 21
-527.25000000000034
 31
0.0
  0
LINE
  8
0
  6
CONTINUOUS
 62
               3
  5
26E
 10
-515.99999999999818
 20
-658.24999999999841
 30
0.0
 11
-483.99999999999784
 21
-658.24999999999795
 31
0.0
  0
ARC
  8
0
  6
CONTINUOUS
 62
               3
  5
26F
 10
-575.99999999999795
 20
-653.24999999999943
 30
0.0
 40
4.0
 50
179.99999999996601
 51
269.99999999994901
  0
LINE
  8
0
  6
CONTINUOUS
 62
               3
  5
270
 10
-579.99999999999795
 20
-653.24999999999943
 30
0.0
 11
-579.99999999999795
 21
-634.7499999999992
 31
0.0
  0
LINE
  8
0
  6
CONTINUOUS
 62
               3
  5
271
 10
-515.99999999999818
 20
-657.24999999999875
 30
0.0
 11
-576.00000000000136
 21
-657.24999999999943
 31
0.0
  0
LINE
  8
0
  6
CONTINUOUS
 62
               3
  5
272
 10
-515.99999999999818
 20
-634.74999999999864
 30
0.0
 11
-579.99999999999795
 21
-634.7499999999992
 31
0.0
  0
LINE
  8
0
  6
CONTINUOUS
 62
               3
  5
273
 10
-579.99999999999841
 20
-550.25000000000034
 30
0.0
 11
-515.99999999999818
 21
-550.25000000000034
 31
0.0
  0
LINE
  8
0
  6
CONTINUOUS
 62
               3
  5
274
 10
-576.99999999999841
 20
-550.25000000000034
 30
0.0
 11
-576.99999999999909
 21
-634.7499999999992
 31
0.0
  0
LINE
  8
0
  6
CONTINUOUS
 62
               3
  5
275
 10
-483.99999999999835
 20
-527.24999999999977
 30
0.0
 11
-420.99999999999858
 21
-527.25000000000034
 31
0.0
  0
LINE
  8
0
  6
CONTINUOUS
 62
               3
  5
276
 10
-483.99999999999784
 20
-657.24999999999875
 30
0.0
 11
-423.99999999999989
 21
-657.24999999999943
 31
0.0
  0
LINE
  8
0
  6
CONTINUOUS
 62
               3
  5
277
 10
-483.99999999999784
 20
-634.74999999999875
 30
0.0
 11
-419.99999999999977
 21
-634.7499999999992
 31
0.0
  0
LINE
  8
0
  6
CONTINUOUS
 62
               3
  5
278
 10
-419.99999999999835
 20
-550.25000000000034
 30
0.0
 11
-483.99999999999835
 21
-550.25000000000034
 31
0.0
  0
LINE
  8
0
  6
CONTINUOUS
 62
               3
  5
279
 10
-437.99999999999903
 20
-672.24999999999852
 30
0.0
 11
-437.99999999999903
 21
-657.24999999999943
 31
0.0
  0
LINE
  8
0
  6
CONTINUOUS
 62
               3
  5
27A
 10
-515.99999999999818
 20
-526.25000000000034
 30
0.0
 11
-515.99999999999818
 21
-658.24999999999841
 31
0.0
  0
LINE
  8
0
  6
CONTINUOUS
 62
               3
  5
27B
 10
-483.99999999999784
 20
-658.24999999999795
 30
0.0
 11
-483.99999999999835
 21
-526.25000000000034
 31
0.0
  0
LINE
  8
0
  6
CONTINUOUS
 62
               3
  5
27C
 10
-515.99999999999886
 20
-526.25000000000034
 30
0.0
 11
-483.99999999999892
 21
-526.25000000000034
 31
0.0
  0
LINE
  8
0
  6
CONTINUOUS
 62
               3
  5
27D
 10
-515.99999999999818
 20
-593.2499999999992
 30
0.0
 11
-483.99999999999784
 21
-593.2499999999992
 31
0.0
  0
LINE
  8
0
  6
CONTINUOUS
 62
               3
  5
27E
 10
-515.99999999999818
 20
-592.24999999999943
 30
0.0
 11
-483.99999999999784
 21
-592.24999999999943
 31
0.0
  0
LINE
  8
0
  6
CONTINUOUS
 62
               3
  5
27F
 10
-515.99999999999818
 20
-594.24999999999943
 30
0.0
 11
-483.99999999999784
 21
-594.24999999999943
 31
0.0
  0
ARC
  8
0
  6
CONTINUOUS
 62
               3
  5
280
 10
-423.99999999999955
 20
-531.25000000000034
 30
0.0
 40
4.0
 50
0.0000000000344079
 51
90.000000000017366
  0
LINE
  8
0
  6
CONTINUOUS
 62
               3
  5
281
 10
-419.99999999999955
 20
-531.24999999999795
 30
0.0
 11
-419.99999999999932
 21
-550.25000000000034
 31
0.0
  0
ARC
  8
0
  6
CONTINUOUS
 62
               3
  5
282
 10
-423.99999999999983
 20
-653.24999999999943
 30
0.0
 40
4.0
 50
270.00000000004979
 51
360.0000000000328
  0
LINE
  8
0
  6
CONTINUOUS
 62
               3
  5
283
 10
-419.99999999999977
 20
-653.24999999999943
 30
0.0
 11
-419.99999999999989
 21
-634.7499999999992
 31
0.0
  0
LINE
  8
0
  6
CONTINUOUS
 62
               3
  5
284
 10
-422.99999999999932
 20
-550.25000000000034
 30
0.0
 11
-422.99999999999875
 21
-634.7499999999992
 31
0.0
  0
LINE
  8
0
  6
CONTINUOUS
 62
               3
  5
285
 10
57.00000000000108
 20
-527.24999999999989
 30
0.0
 11
57.00000000000108
 21
-492.24999999999943
 31
0.0
  0
LINE
  8
0
  6
CONTINUOUS
 62
               3
  5
286
 10
-56.99999999999892
 20
-527.24999999999989
 30
0.0
 11
-56.99999999999892
 21
-492.24999999999943
 31
0.0
  0
LINE
  8
0
  6
CONTINUOUS
 62
               3
  5
287
 10
-56.99999999999892
 20
-492.24999999999943
 30
0.0
 11
57.00000000000108
 21
-492.24999999999943
 31
0.0
  0
LINE
  8
0
  6
CONTINUOUS
 62
               3
  5
288
 10
57.00000000000108
 20
-492.24999999999943
 30
0.0
 11
58.000000000001535
 21
-491.24999999999898
 31
0.0
  0
LINE
  8
0
  6
CONTINUOUS
 62
               3
  5
289
 10
-56.99999999999892
 20
-492.24999999999943
 30
0.0
 11
-57.999999999998465
 21
-491.24999999999898
 31
0.0
  0
LINE
  8
0
  6
CONTINUOUS
 62
               3
  5
28A
 10
-61.999999999999091
 20
-672.24999999999829
 30
0.0
 11
-61.999999999999091
 21
-657.2499999999992
 31
0.0
  0
LINE
  8
0
  6
CONTINUOUS
 62
               3
  5
28B
 10
-64.99999999999892
 20
-672.24999999999829
 30
0.0
 11
65.000000000001066
 21
-672.24999999999829
 31
0.0
  0
ARC
  8
0
  6
CONTINUOUS
 62
               3
  5
28C
 10
-75.999999999998295
 20
-531.25000000000011
 30
0.0
 40
4.0
 50
89.999999999982236
 51
179.99999999996518
  0
ARC
  8
0
  6
CONTINUOUS
 62
               3
  5
28D
 10
-78.999999999998266
 20
-528.25000000000011
 30
0.0
 40
1.0000000000000004
 50
89.999999999981483
 51
179.99999999996524
  0
ARC
  8
0
  6
CONTINUOUS
 62
               3
  5
28E
 10
-78.999999999998266
 20
-528.25000000000011
 30
0.0
 40
1.9999999999999996
 50
89.999999999983004
 51
179.99999999996524
  0
LINE
  8
0
  6
CONTINUOUS
 62
               3
  5
28F
 10
-80.999999999998295
 20
-528.25000000000011
 30
0.0
 11
-80.999999999998863
 21
-591.24999999999898
 31
0.0
  0
LINE
  8
0
  6
CONTINUOUS
 62
               3
  5
290
 10
-79.999999999998494
 20
-528.25000000000011
 30
0.0
 11
-79.999999999999062
 21
-591.24999999999898
 31
0.0
  0
ARC
  8
0
  6
CONTINUOUS
 62
               3
  5
291
 10
-81.999999999998806
 20
-591.24999999999898
 30
0.0
 40
1.9999999999999996
 50
269.99999999994748
 51
359.99999999993048
  0
ARC
  8
0
  6
CONTINUOUS
 62
               3
  5
292
 10
-81.999999999998806
 20
-591.24999999999898
 30
0.0
 40
1.0000000000000004
 50
269.99999999994748
 51
359.99999999993048
  0
LINE
  8
0
  6
CONTINUOUS
 62
               3
  5
293
 10
-81.999999999998806
 20
-593.24999999999898
 30
0.0
 11
-144.99999999999892
 21
-593.24999999999943
 31
0.0
  0
LINE
  8
0
  6
CONTINUOUS
 62
               3
  5
294
 10
-81.999999999998806
 20
-592.24999999999898
 30
0.0
 11
-144.99999999999892
 21
-592.24999999999943
 31
0.0
  0
LINE
  8
0
  6
CONTINUOUS
 62
               3
  5
295
 10
-64.999999999998494
 20
-526.25000000000011
 30
0.0
 11
-78.999999999998266
 21
-526.25000000000011
 31
0.0
  0
LINE
  8
0
  6
CONTINUOUS
 62
               3
  5
296
 10
0.0000000000016517
 20
-527.24999999999943
 30
0.0
 11
-78.999999999998266
 21
-527.25000000000011
 31
0.0
  0
LINE
  8
0
  6
CONTINUOUS
 62
               3
  5
297
 10
-64.999999999998494
 20
-526.25000000000011
 30
0.0
 11
-64.999999999998494
 21
-527.25
 31
0.0
  0
LINE
  8
0
  6
CONTINUOUS
 62
               3
  5
298
 10
-64.999999999997925
 20
-658.24999999999898
 30
0.0
 11
-78.99999999999784
 21
-658.2499999999992
 31
0.0
  0
ARC
  8
0
  6
CONTINUOUS
 62
               3
  5
299
 10
-78.99999999999784
 20
-656.2499999999992
 30
0.0
 40
1.0000000000000004
 50
179.99999999996601
 51
269.99999999994748
  0
ARC
  8
0
  6
CONTINUOUS
 62
               3
  5
29A
 10
-78.99999999999784
 20
-656.2499999999992
 30
0.0
 40
1.9999999999999996
 50
179.99999999996601
 51
269.99999999994901
  0
ARC
  8
0
  6
CONTINUOUS
 62
               3
  5
29B
 10
-75.99999999999801
 20
-653.2499999999992
 30
0.0
 40
4.0
 50
179.99999999996601
 51
269.99999999994901
  0
LINE
  8
0
  6
CONTINUOUS
 62
               3
  5
29C
 10
-64.999999999997925
 20
-658.24999999999898
 30
0.0
 11
-64.999999999997925
 21
-657.2499999999992
 31
0.0
  0
LINE
  8
0
  6
CONTINUOUS
 62
               3
  5
29D
 10
-80.99999999999801
 20
-656.2499999999992
 30
0.0
 11
-80.999999999998863
 21
-595.24999999999898
 31
0.0
  0
LINE
  8
0
  6
CONTINUOUS
 62
               3
  5
29E
 10
-79.999999999997925
 20
-656.2499999999992
 30
0.0
 11
-79.99999999999892
 21
-595.24999999999898
 31
0.0
  0
LINE
  8
0
  6
CONTINUOUS
 62
               3
  5
29F
 10
0.0000000000010832
 20
-657.24999999999829
 30
0.0
 11
-78.99999999999784
 21
-657.2499999999992
 31
0.0
  0
LINE
  8
0
  6
CONTINUOUS
 62
               3
  5
2A0
 10
0.0000000000010832
 20
-634.74999999999829
 30
0.0
 11
-79.999999999998067
 21
-634.74999999999898
 31
0.0
  0
ARC
  8
0
  6
CONTINUOUS
 62
               3
  5
2A1
 10
-81.999999999998806
 20
-595.24999999999898
 30
0.0
 40
1.9999999999999996
 50
0.000000000001145
 51
89.999999999983004
  0
ARC
  8
0
  6
CONTINUOUS
 62
               3
  5
2A2
 10
-81.999999999998806
 20
-595.24999999999898
 30
0.0
 40
1.0000000000000004
 50
0.0000000000007633
 51
89.999999999984539
  0
LINE
  8
0
  6
CONTINUOUS
 62
               3
  5
2A3
 10
-81.999999999998806
 20
-594.24999999999898
 30
0.0
 11
-144.99999999999892
 21
-594.24999999999943
 31
0.0
  0
LINE
  8
0
  6
CONTINUOUS
 62
               3
  5
2A4
 10
-79.999999999998494
 20
-550.25000000000011
 30
0.0
 11
0.0000000000016517
 21
-550.25000000000011
 31
0.0
  0
LINE
  8
0
  6
CONTINUOUS
 62
               3
  5
2A5
 10
-76.999999999998522
 20
-550.25000000000011
 30
0.0
 11
-76.999999999999091
 21
-634.74999999999898
 31
0.0
  0
LINE
  8
0
  6
CONTINUOUS
 62
               3
  5
2A6
 10
-144.99999999999892
 20
-592.24999999999943
 30
0.0
 11
-144.99999999999892
 21
-593.24999999999943
 31
0.0
  0
LINE
  8
0
  6
CONTINUOUS
 62
               3
  5
2A7
 10
-144.99999999999892
 20
-594.24999999999943
 30
0.0
 11
-144.99999999999892
 21
-593.24999999999943
 31
0.0
  0
LINE
  8
0
  6
CONTINUOUS
 62
               3
  5
2A8
 10
-87.249999999998863
 20
-590.74999999999898
 30
0.0
 11
-94.749999999998863
 21
-590.74999999999898
 31
0.0
  0
LINE
  8
0
  6
CONTINUOUS
 62
               3
  5
2A9
 10
-87.249999999998863
 20
-595.74999999999898
 30
0.0
 11
-94.749999999998863
 21
-595.7499999999992
 31
0.0
  0
LINE
  8
0
  6
CONTINUOUS
 62
               3
  5
2AA
 10
-87.249999999998863
 20
-590.74999999999898
 30
0.0
 11
-87.249999999998863
 21
-592.24999999999898
 31
0.0
  0
LINE
  8
0
  6
CONTINUOUS
 62
               3
  5
2AB
 10
-87.249999999998863
 20
-594.24999999999898
 30
0.0
 11
-87.249999999998863
 21
-595.74999999999898
 31
0.0
  0
LINE
  8
0
  6
CONTINUOUS
 62
               3
  5
2AC
 10
-94.749999999998863
 20
-590.74999999999898
 30
0.0
 11
-94.749999999998863
 21
-592.24999999999898
 31
0.0
  0
LINE
  8
0
  6
CONTINUOUS
 62
               3
  5
2AD
 10
-94.749999999998863
 20
-594.2499999999992
 30
0.0
 11
-94.749999999998863
 21
-595.7499999999992
 31
0.0
  0
ARC
  8
0
  6
CONTINUOUS
 62
               3
  5
2AE
 10
76.000000000001464
 20
-531.25000000000011
 30
0.0
 40
4.0
 50
0.0000000000344079
 51
90.000000000017366
  0
ARC
  8
0
  6
CONTINUOUS
 62
               3
  5
2AF
 10
79.000000000001407
 20
-528.25000000000011
 30
0.0
 40
1.0000000000000004
 50
0.000000000034357
 51
90.000000000018133
  0
ARC
  8
0
  6
CONTINUOUS
 62
               3
  5
2B0
 10
79.000000000001407
 20
-528.25000000000011
 30
0.0
 40
1.9999999999999996
 50
0.000000000034357
 51
90.000000000016598
  0
LINE
  8
0
  6
CONTINUOUS
 62
               3
  5
2B1
 10
81.000000000001464
 20
-528.25000000000011
 30
0.0
 11
81.000000000000895
 21
-591.24999999999898
 31
0.0
  0
LINE
  8
0
  6
CONTINUOUS
 62
               3
  5
2B2
 10
80.000000000001634
 20
-528.25000000000011
 30
0.0
 11
80.000000000001066
 21
-591.24999999999898
 31
0.0
  0
ARC
  8
0
  6
CONTINUOUS
 62
               3
  5
2B3
 10
82.000000000000952
 20
-591.24999999999898
 30
0.0
 40
1.9999999999999996
 50
180.0000000000683
 51
270.00000000005133
  0
ARC
  8
0
  6
CONTINUOUS
 62
               3
  5
2B4
 10
82.000000000000952
 20
-591.24999999999898
 30
0.0
 40
1.0000000000000004
 50
180.0000000000683
 51
270.00000000005133
  0
LINE
  8
0
  6
CONTINUOUS
 62
               3
  5
2B5
 10
82.000000000000952
 20
-593.24999999999898
 30
0.0
 11
145.00000000000108
 21
-593.24999999999943
 31
0.0
  0
LINE
  8
0
  6
CONTINUOUS
 62
               3
  5
2B6
 10
82.000000000000952
 20
-592.24999999999898
 30
0.0
 11
145.00000000000108
 21
-592.24999999999943
 31
0.0
  0
LINE
  8
0
  6
CONTINUOUS
 62
               3
  5
2B7
 10
65.000000000001634
 20
-526.25000000000011
 30
0.0
 11
79.000000000001407
 21
-526.25000000000011
 31
0.0
  0
LINE
  8
0
  6
CONTINUOUS
 62
               3
  5
2B8
 10
0.0000000000016517
 20
-527.24999999999943
 30
0.0
 11
79.000000000001407
 21
-527.25000000000011
 31
0.0
  0
LINE
  8
0
  6
CONTINUOUS
 62
               3
  5
2B9
 10
65.000000000001634
 20
-526.25000000000011
 30
0.0
 11
65.000000000001634
 21
-527.25
 31
0.0
  0
LINE
  8
0
  6
CONTINUOUS
 62
               3
  5
2BA
 10
64.999999999999929
 20
-658.24999999999898
 30
0.0
 11
78.999999999999986
 21
-658.2499999999992
 31
0.0
  0
ARC
  8
0
  6
CONTINUOUS
 62
               3
  5
2BB
 10
78.999999999999986
 20
-656.2499999999992
 30
0.0
 40
1.0000000000000004
 50
270.00000000005133
 51
360.0000000000328
  0
ARC
  8
0
  6
CONTINUOUS
 62
               3
  5
2BC
 10
78.999999999999986
 20
-656.2499999999992
 30
0.0
 40
1.9999999999999996
 50
270.00000000004979
 51
360.0000000000328
  0
ARC
  8
0
  6
CONTINUOUS
 62
               3
  5
2BD
 10
76.000000000000043
 20
-653.2499999999992
 30
0.0
 40
4.0
 50
270.00000000004979
 51
360.0000000000328
  0
LINE
  8
0
  6
CONTINUOUS
 62
               3
  5
2BE
 10
64.999999999999929
 20
-658.24999999999898
 30
0.0
 11
64.999999999999929
 21
-657.2499999999992
 31
0.0
  0
LINE
  8
0
  6
CONTINUOUS
 62
               3
  5
2BF
 10
80.999999999999872
 20
-656.2499999999992
 30
0.0
 11
81.000000000000895
 21
-595.24999999999898
 31
0.0
  0
LINE
  8
0
  6
CONTINUOUS
 62
               3
  5
2C0
 10
79.999999999999929
 20
-656.2499999999992
 30
0.0
 11
80.000000000000952
 21
-595.24999999999898
 31
0.0
  0
LINE
  8
0
  6
CONTINUOUS
 62
               3
  5
2C1
 10
0.0000000000010832
 20
-657.24999999999829
 30
0.0
 11
78.999999999999986
 21
-657.2499999999992
 31
0.0
  0
LINE
  8
0
  6
CONTINUOUS
 62
               3
  5
2C2
 10
0.0000000000010832
 20
-634.74999999999829
 30
0.0
 11
80.000000000000213
 21
-634.74999999999898
 31
0.0
  0
ARC
  8
0
  6
CONTINUOUS
 62
               3
  5
2C3
 10
82.000000000000952
 20
-595.24999999999898
 30
0.0
 40
1.9999999999999996
 50
90.000000000016598
 51
179.99999999999847
  0
ARC
  8
0
  6
CONTINUOUS
 62
               3
  5
2C4
 10
82.000000000000952
 20
-595.24999999999898
 30
0.0
 40
1.0000000000000004
 50
90.000000000015078
 51
179.99999999999883
  0
LINE
  8
0
  6
CONTINUOUS
 62
               3
  5
2C5
 10
82.000000000000952
 20
-594.24999999999898
 30
0.0
 11
145.00000000000108
 21
-594.24999999999943
 31
0.0
  0
LINE
  8
0
  6
CONTINUOUS
 62
               3
  5
2C6
 10
80.000000000001634
 20
-550.25000000000011
 30
0.0
 11
0.0000000000016517
 21
-550.25000000000011
 31
0.0
  0
LINE
  8
0
  6
CONTINUOUS
 62
               3
  5
2C7
 10
77.000000000001521
 20
-550.25000000000011
 30
0.0
 11
77.000000000000952
 21
-634.74999999999898
 31
0.0
  0
LINE
  8
0
  6
CONTINUOUS
 62
               3
  5
2C8
 10
145.00000000000108
 20
-592.24999999999943
 30
0.0
 11
145.00000000000108
 21
-593.24999999999943
 31
0.0
  0
LINE
  8
0
  6
CONTINUOUS
 62
               3
  5
2C9
 10
145.00000000000108
 20
-594.24999999999943
 30
0.0
 11
145.00000000000108
 21
-593.24999999999943
 31
0.0
  0
LINE
  8
0
  6
CONTINUOUS
 62
               3
  5
2CA
 10
87.250000000000895
 20
-590.74999999999898
 30
0.0
 11
94.750000000000895
 21
-590.74999999999898
 31
0.0
  0
LINE
  8
0
  6
CONTINUOUS
 62
               3
  5
2CB
 10
87.250000000000895
 20
-595.74999999999898
 30
0.0
 11
94.750000000000895
 21
-595.7499999999992
 31
0.0
  0
LINE
  8
0
  6
CONTINUOUS
 62
               3
  5
2CC
 10
87.250000000000895
 20
-590.74999999999898
 30
0.0
 11
87.250000000000895
 21
-592.24999999999898
 31
0.0
  0
LINE
  8
0
  6
CONTINUOUS
 62
               3
  5
2CD
 10
87.250000000000895
 20
-594.24999999999898
 30
0.0
 11
87.250000000000895
 21
-595.74999999999898
 31
0.0
  0
LINE
  8
0
  6
CONTINUOUS
 62
               3
  5
2CE
 10
94.750000000000895
 20
-590.74999999999898
 30
0.0
 11
94.750000000000895
 21
-592.24999999999898
 31
0.0
  0
LINE
  8
0
  6
CONTINUOUS
 62
               3
  5
2CF
 10
94.750000000000895
 20
-594.2499999999992
 30
0.0
 11
94.750000000000895
 21
-595.7499999999992
 31
0.0
  0
LINE
  8
0
  6
CONTINUOUS
 62
               3
  5
2D0
 10
62.000000000000966
 20
-672.24999999999829
 30
0.0
 11
62.000000000000966
 21
-657.2499999999992
 31
0.0
  0
LINE
  8
0
  6
CONTINUOUS
 62
               3
  5
2D1
 10
557.00000000000114
 20
-527.25000000000068
 30
0.0
 11
557.00000000000114
 21
-492.25000000000028
 31
0.0
  0
LINE
  8
0
  6
CONTINUOUS
 62
               3
  5
2D2
 10
443.00000000000108
 20
-527.25000000000068
 30
0.0
 11
443.00000000000108
 21
-492.25000000000028
 31
0.0
  0
LINE
  8
0
  6
CONTINUOUS
 62
               3
  5
2D3
 10
443.00000000000108
 20
-492.25000000000028
 30
0.0
 11
557.00000000000114
 21
-492.25000000000028
 31
0.0
  0
LINE
  8
0
  6
CONTINUOUS
 62
               3
  5
2D4
 10
557.00000000000114
 20
-492.25000000000028
 30
0.0
 11
558.00000000000159
 21
-491.24999999999983
 31
0.0
  0
LINE
  8
0
  6
CONTINUOUS
 62
               3
  5
2D5
 10
443.00000000000108
 20
-492.25000000000028
 30
0.0
 11
442.00000000000153
 21
-491.24999999999983
 31
0.0
  0
LINE
  8
0
  6
CONTINUOUS
 62
               3
  5
2D6
 10
438.00000000000097
 20
-672.24999999999909
 30
0.0
 11
438.00000000000097
 21
-657.25
 31
0.0
  0
LINE
  8
0
  6
CONTINUOUS
 62
               3
  5
2D7
 10
435.00000000000108
 20
-672.24999999999909
 30
0.0
 11
565.00000000000114
 21
-672.24999999999909
 31
0.0
  0
ARC
  8
0
  6
CONTINUOUS
 62
               3
  5
2D8
 10
424.00000000000176
 20
-531.25000000000091
 30
0.0
 40
4.0
 50
89.999999999982236
 51
179.99999999996518
  0
LINE
  8
0
  6
CONTINUOUS
 62
               3
  5
2D9
 10
420.00000000000176
 20
-531.24999999999864
 30
0.0
 11
420.00000000000153
 21
-550.25000000000091
 31
0.0
  0
LINE
  8
0
  6
CONTINUOUS
 62
               3
  5
2DA
 10
484.00000000000176
 20
-527.25000000000045
 30
0.0
 11
424.00000000000176
 21
-527.25000000000091
 31
0.0
  0
LINE
  8
0
  6
CONTINUOUS
 62
               3
  5
2DB
 10
484.00000000000176
 20
-658.24999999999909
 30
0.0
 11
516.00000000000227
 21
-658.24999999999864
 31
0.0
  0
ARC
  8
0
  6
CONTINUOUS
 62
               3
  5
2DC
 10
424.00000000000199
 20
-653.25
 30
0.0
 40
4.0
 50
179.99999999996601
 51
269.99999999994901
  0
LINE
  8
0
  6
CONTINUOUS
 62
               3
  5
2DD
 10
420.00000000000199
 20
-653.25
 30
0.0
 11
420.0000000000021
 21
-634.74999999999977
 31
0.0
  0
LINE
  8
0
  6
CONTINUOUS
 62
               3
  5
2DE
 10
484.00000000000176
 20
-657.24999999999932
 30
0.0
 11
423.99999999999858
 21
-657.25
 31
0.0
  0
LINE
  8
0
  6
CONTINUOUS
 62
               3
  5
2DF
 10
484.00000000000176
 20
-634.74999999999932
 30
0.0
 11
420.00000000000199
 21
-634.74999999999977
 31
0.0
  0
LINE
  8
0
  6
CONTINUOUS
 62
               3
  5
2E0
 10
420.00000000000153
 20
-550.25000000000091
 30
0.0
 11
484.00000000000176
 21
-550.25000000000091
 31
0.0
  0
LINE
  8
0
  6
CONTINUOUS
 62
               3
  5
2E1
 10
423.00000000000153
 20
-550.25000000000091
 30
0.0
 11
423.00000000000097
 21
-634.74999999999977
 31
0.0
  0
LINE
  8
0
  6
CONTINUOUS
 62
               3
  5
2E2
 10
516.00000000000182
 20
-527.25000000000045
 30
0.0
 11
579.00000000000159
 21
-527.25000000000091
 31
0.0
  0
LINE
  8
0
  6
CONTINUOUS
 62
               3
  5
2E3
 10
516.00000000000227
 20
-657.24999999999932
 30
0.0
 11
576.00000000000023
 21
-657.25
 31
0.0
  0
LINE
  8
0
  6
CONTINUOUS
 62
               3
  5
2E4
 10
516.00000000000227
 20
-634.74999999999932
 30
0.0
 11
580.00000000000023
 21
-634.74999999999977
 31
0.0
  0
LINE
  8
0
  6
CONTINUOUS
 62
               3
  5
2E5
 10
580.00000000000182
 20
-550.25000000000091
 30
0.0
 11
516.00000000000182
 21
-550.25000000000091
 31
0.0
  0
LINE
  8
0
  6
CONTINUOUS
 62
               3
  5
2E6
 10
562.00000000000114
 20
-672.24999999999909
 30
0.0
 11
562.00000000000114
 21
-657.25
 31
0.0
  0
LINE
  8
0
  6
CONTINUOUS
 62
               3
  5
2E7
 10
484.00000000000176
 20
-526.25000000000091
 30
0.0
 11
484.00000000000176
 21
-658.24999999999909
 31
0.0
  0
LINE
  8
0
  6
CONTINUOUS
 62
               3
  5
2E8
 10
516.00000000000227
 20
-658.24999999999864
 30
0.0
 11
516.00000000000182
 21
-526.25000000000091
 31
0.0
  0
LINE
  8
0
  6
CONTINUOUS
 62
               3
  5
2E9
 10
484.00000000000108
 20
-526.25000000000091
 30
0.0
 11
516.00000000000114
 21
-526.25000000000091
 31
0.0
  0
LINE
  8
0
  6
CONTINUOUS
 62
               3
  5
2EA
 10
484.00000000000176
 20
-593.24999999999977
 30
0.0
 11
516.00000000000227
 21
-593.24999999999977
 31
0.0
  0
LINE
  8
0
  6
CONTINUOUS
 62
               3
  5
2EB
 10
484.00000000000176
 20
-592.25
 30
0.0
 11
516.00000000000227
 21
-592.25
 31
0.0
  0
LINE
  8
0
  6
CONTINUOUS
 62
               3
  5
2EC
 10
484.00000000000176
 20
-594.25
 30
0.0
 11
516.00000000000227
 21
-594.25
 31
0.0
  0
ARC
  8
0
  6
CONTINUOUS
 62
               3
  5
2ED
 10
576.00000000000045
 20
-531.25000000000091
 30
0.0
 40
4.0
 50
0.0000000000344079
 51
90.000000000017366
  0
LINE
  8
0
  6
CONTINUOUS
 62
               3
  5
2EE
 10
580.00000000000045
 20
-531.24999999999864
 30
0.0
 11
580.00000000000068
 21
-550.25000000000091
 31
0.0
  0
ARC
  8
0
  6
CONTINUOUS
 62
               3
  5
2EF
 10
576.00000000000023
 20
-653.25
 30
0.0
 40
4.0
 50
270.00000000004979
 51
360.0000000000328
  0
LINE
  8
0
  6
CONTINUOUS
 62
               3
  5
2F0
 10
580.00000000000023
 20
-653.25
 30
0.0
 11
580.00000000000023
 21
-634.74999999999977
 31
0.0
  0
LINE
  8
0
  6
CONTINUOUS
 62
               3
  5
2F1
 10
577.00000000000068
 20
-550.25000000000091
 30
0.0
 11
577.00000000000136
 21
-634.74999999999977
 31
0.0
  0
LINE
  8
0
  6
CONTINUOUS
 62
               3
  5
2F2
 10
-441.99999999999847
 20
-491.24999999999909
 30
0.0
 11
-441.99999999999847
 21
-380.45708506678932
 31
0.0
  0
LINE
  8
0
  6
CONTINUOUS
 62
               3
  5
2F3
 10
-557.99999999999841
 20
-380.45708506678932
 30
0.0
 11
-557.99999999999841
 21
-491.24999999999909
 31
0.0
  0
LINE
  8
0
  6
CONTINUOUS
 62
               3
  5
2F4
 10
58.000000000001535
 20
-491.24999999999898
 30
0.0
 11
58.000000000001535
 21
-380.45708506678932
 31
0.0
  0
LINE
  8
0
  6
CONTINUOUS
 62
               3
  5
2F5
 10
-57.999999999998465
 20
-380.45708506678932
 30
0.0
 11
-57.999999999998465
 21
-491.24999999999898
 31
0.0
  0
LINE
  8
0
  6
CONTINUOUS
 62
               3
  5
2F6
 10
442.00000000000114
 20
-491.24999999999972
 30
0.0
 11
442.00000000000091
 21
-380.45708506679
 31
0.0
  0
LINE
  8
0
  6
CONTINUOUS
 62
               3
  5
2F7
 10
558.00000000000114
 20
-380.45708506679
 30
0.0
 11
558.00000000000114
 21
-491.24999999999972
 31
0.0
  0
LINE
  8
0
  6
DASHDOT
 62
               4
  5
2F8
 10
0.0
 20
635.25
 30
0.0
 11
0.0
 21
422.70592704247576
 31
0.0
  0
LINE
  8
0
  6
DASHDOT
 62
               4
  5
2F9
 10
-176.39662295670917
 20
526.75
 30
0.0
 11
108.5
 21
526.75
 31
0.0
  0
LINE
  8
0
  6
DASHDOT
 62
               4
  5
2FA
 10
-79.968395543085933
 20
-61.750000000000227
 30
0.0
 11
-165.00000000000028
 21
-61.750000000000227
 31
0.0
  0
LINE
  8
0
  6
DASHDOT
 62
               4
  5
2FB
 10
-559.25535177574693
 20
-61.749999999999716
 30
0.0
 11
-439.12805223429496
 21
-61.749999999999716
 31
0.0
  0
LINE
  8
0
  6
DASHDOT
 62
               4
  5
2FC
 10
-124.99999999999892
 20
-471.25989800199409
 30
0.0
 11
-124.99999999999892
 21
-635.63825962148451
 31
0.0
  0
LINE
  8
0
  6
DASHDOT
 62
               4
  5
2FD
 10
125.00000000000107
 20
-471.25989800199409
 30
0.0
 11
125.00000000000107
 21
-635.63825962148451
 31
0.0
  0
LINE
  8
0
  6
DASHDOT
 62
               4
  5
2FE
 10
-499.99999999999955
 20
292.75000000000051
 30
0.0
 11
-499.99999999999949
 21
-812.14310860625164
 31
0.0
  0
LINE
  8
0
  6
DASHDOT
 62
               4
  5
2FF
 10
0.0000000000004547
 20
292.75000000000051
 30
0.0
 11
0.0000000000005244
 21
-812.14310860625164
 31
0.0
  0
LINE
  8
0
  6
DASHDOT
 62
               4
  5
300
 10
500.00000000000045
 20
292.75000000000051
 30
0.0
 11
500.00000000000057
 21
-812.14310860625164
 31
0.0
  0
CIRCLE
  8
0
  6
CONTINUOUS
 62
               4
  5
301
 10
-64.346717087976231
 20
462.40328291202428
 30
0.0
 40
13.0
  0
CIRCLE
  8
0
  6
CONTINUOUS
 62
               4
  5
302
 10
-64.346717087976231
 20
591.09671708797555
 30
0.0
 40
13.0
  0
CIRCLE
  8
0
  6
CONTINUOUS
 62
               4
  5
303
 10
64.346717087976344
 20
591.09671708797555
 30
0.0
 40
13.0
  0
CIRCLE
  8
0
  6
CONTINUOUS
 62
               4
  5
304
 10
64.346717087976344
 20
462.40328291202428
 30
0.0
 40
13.0
  0
ARC
  8
0
  6
CONTINUOUS
 62
               4
  5
305
 10
25.783965811966141
 20
165.75000000000051
 30
0.0
 40
17.566965811965957
 50
143.14855134074139
 51
179.99999999996521
  0
LINE
  8
0
  6
CONTINUOUS
 62
               4
  5
306
 10
-11.727000000000203
 20
181.28565375285325
 30
0.0
 11
11.727000000000203
 21
181.28565375285325
 31
0.0
  0
ARC
  8
0
  6
CONTINUOUS
 62
               4
  5
307
 10
-25.783965811965572
 20
165.75000000000051
 30
0.0
 40
17.566965811965957
 50
0.0
 51
36.851448659223813
  0
LINE
  8
0
  6
CONTINUOUS
 62
               4
  5
308
 10
11.727000000000203
 20
176.28565375285325
 30
0.0
 11
11.727000000000203
 21
181.28565375285325
 31
0.0
  0
LINE
  8
0
  6
CONTINUOUS
 62
               4
  5
309
 10
-11.727000000000203
 20
176.28565375285325
 30
0.0
 11
-11.727000000000203
 21
181.28565375285325
 31
0.0
  0
LINE
  8
0
  6
CONTINUOUS
 62
               4
  5
30A
 10
11.727000000000203
 20
181.28565375285325
 30
0.0
 11
6.0000000000002274
 21
176.28565375285325
 31
0.0
  0
LINE
  8
0
  6
CONTINUOUS
 62
               4
  5
30B
 10
-5.9999999999996589
 20
176.28565375285325
 30
0.0
 11
-11.727000000000203
 21
181.28565375285325
 31
0.0
  0
LINE
  8
0
  6
CONTINUOUS
 62
               4
  5
30C
 10
6.0000000000002274
 20
176.28565375285325
 30
0.0
 11
-5.9999999999996589
 21
176.28565375285325
 31
0.0
  0
LINE
  8
0
  6
CONTINUOUS
 62
               4
  5
30D
 10
-5.9999999999996589
 20
44.750000000000519
 30
0.0
 11
-5.9999999999996589
 21
176.28565375285325
 31
0.0
  0
LINE
  8
0
  6
CONTINUOUS
 62
               4
  5
30E
 10
6.0000000000002274
 20
176.28565375285325
 30
0.0
 11
6.0000000000002274
 21
44.75000000000059
 31
0.0
  0
LINE
  8
0
  6
CONTINUOUS
 62
               4
  5
30F
 10
8.2170000000002119
 20
165.75000000000051
 30
0.0
 11
8.2170000000002119
 21
44.750000000000611
 31
0.0
  0
LINE
  8
0
  6
CONTINUOUS
 62
               4
  5
310
 10
-8.2169999999996435
 20
165.75000000000051
 30
0.0
 11
-8.2169999999996435
 21
44.750000000000497
 31
0.0
  0
LINE
  8
0
  6
CONTINUOUS
 62
               4
  5
311
 10
-51.349999999999909
 20
47.049999999999955
 30
0.0
 11
-51.349999999999909
 21
44.750000000000057
 31
0.0
  0
LINE
  8
0
  6
CONTINUOUS
 62
               4
  5
312
 10
-51.349999999999909
 20
44.750000000000057
 30
0.0
 11
-77.349999999999909
 21
44.750000000000057
 31
0.0
  0
LINE
  8
0
  6
CONTINUOUS
 62
               4
  5
313
 10
-77.349999999999909
 20
44.750000000000057
 30
0.0
 11
-77.349999999999909
 21
47.049999999999955
 31
0.0
  0
LINE
  8
0
  6
CONTINUOUS
 62
               4
  5
314
 10
-77.349999999999909
 20
47.049999999999955
 30
0.0
 11
-51.349999999999909
 21
47.049999999999955
 31
0.0
  0
LINE
  8
0
  6
CONTINUOUS
 62
               4
  5
315
 10
-58.350000000000136
 20
57.049999999999955
 30
0.0
 11
-58.350000000000136
 21
65.750000000000142
 31
0.0
  0
LINE
  8
0
  6
CONTINUOUS
 62
               4
  5
316
 10
-70.350000000000136
 20
65.750000000000142
 30
0.0
 11
-70.350000000000136
 21
57.049999999999955
 31
0.0
  0
LINE
  8
0
  6
CONTINUOUS
 62
               4
  5
317
 10
-70.350000000000136
 20
65.750000000000142
 30
0.0
 11
-58.350000000000136
 21
65.750000000000142
 31
0.0
  0
LINE
  8
0
  6
CONTINUOUS
 62
               4
  5
318
 10
51.349999999999909
 20
47.049999999999955
 30
0.0
 11
51.349999999999909
 21
44.750000000000057
 31
0.0
  0
LINE
  8
0
  6
CONTINUOUS
 62
               4
  5
319
 10
51.349999999999909
 20
44.750000000000057
 30
0.0
 11
77.349999999999909
 21
44.750000000000064
 31
0.0
  0
LINE
  8
0
  6
CONTINUOUS
 62
               4
  5
31A
 10
77.349999999999909
 20
44.750000000000064
 30
0.0
 11
77.349999999999909
 21
47.049999999999962
 31
0.0
  0
LINE
  8
0
  6
CONTINUOUS
 62
               4
  5
31B
 10
77.349999999999909
 20
47.049999999999962
 30
0.0
 11
51.349999999999909
 21
47.049999999999955
 31
0.0
  0
LINE
  8
0
  6
CONTINUOUS
 62
               4
  5
31C
 10
58.350000000000136
 20
57.049999999999962
 30
0.0
 11
58.350000000000136
 21
65.750000000000142
 31
0.0
  0
LINE
  8
0
  6
CONTINUOUS
 62
               4
  5
31D
 10
70.350000000000136
 20
65.750000000000142
 30
0.0
 11
70.350000000000136
 21
57.049999999999962
 31
0.0
  0
LINE
  8
0
  6
CONTINUOUS
 62
               4
  5
31E
 10
70.350000000000136
 20
65.750000000000142
 30
0.0
 11
58.350000000000136
 21
65.750000000000142
 31
0.0
  0
LINE
  8
0
  6
CONTINUOUS
 62
               4
  5
31F
 10
423.0
 20
176.28565375285325
 30
0.0
 11
428.0
 21
181.28565375285325
 31
0.0
  0
ARC
  8
0
  6
CONTINUOUS
 62
               4
  5
320
 10
445.5
 20
165.75000000000051
 30
0.0
 40
19.999999999999996
 50
148.21166938291961
 51
179.99999999996524
  0
LINE
  8
0
  6
CONTINUOUS
 62
               4
  5
321
 10
428.49999999999955
 20
176.28565375285325
 30
0.0
 11
428.49999999999955
 21
181.28565375285393
 31
0.0
  0
LINE
  8
0
  6
CONTINUOUS
 62
               4
  5
322
 10
428.0
 20
181.28565375285325
 30
0.0
 11
428.49999999999955
 21
181.28565375285325
 31
0.0
  0
ARC
  8
0
  6
CONTINUOUS
 62
               4
  5
323
 10
418.0
 20
49.749999999999986
 30
0.0
 40
5.0
 50
269.99999999994793
 51
359.99999999993042
  0
LINE
  8
0
  6
CONTINUOUS
 62
               4
  5
324
 10
425.5
 20
165.75000000000051
 30
0.0
 11
425.5
 21
57.050000000000026
 31
0.0
  0
LINE
  8
0
  6
CONTINUOUS
 62
               4
  5
325
 10
423.0
 20
176.28565375285325
 30
0.0
 11
423.0
 21
49.749999999999986
 31
0.0
  0
LINE
  8
0
  6
CONTINUOUS
 62
               4
  5
326
 10
448.65000000000009
 20
47.050000000000026
 30
0.0
 11
448.65000000000009
 21
44.750000000000128
 31
0.0
  0
LINE
  8
0
  6
CONTINUOUS
 62
               4
  5
327
 10
448.65000000000009
 20
44.750000000000128
 30
0.0
 11
422.65000000000009
 21
44.750000000000128
 31
0.0
  0
LINE
  8
0
  6
CONTINUOUS
 62
               4
  5
328
 10
422.65000000000009
 20
44.750000000000128
 30
0.0
 11
422.65000000000009
 21
47.050000000000026
 31
0.0
  0
LINE
  8
0
  6
CONTINUOUS
 62
               4
  5
329
 10
422.65000000000009
 20
47.050000000000026
 30
0.0
 11
448.65000000000009
 21
47.050000000000026
 31
0.0
  0
LINE
  8
0
  6
CONTINUOUS
 62
               4
  5
32A
 10
441.64999999999986
 20
57.050000000000026
 30
0.0
 11
441.64999999999986
 21
65.750000000000213
 31
0.0
  0
LINE
  8
0
  6
CONTINUOUS
 62
               4
  5
32B
 10
429.64999999999986
 20
65.750000000000213
 30
0.0
 11
429.64999999999986
 21
57.050000000000026
 31
0.0
  0
LINE
  8
0
  6
CONTINUOUS
 62
               4
  5
32C
 10
429.64999999999986
 20
65.750000000000213
 30
0.0
 11
441.64999999999986
 21
65.750000000000213
 31
0.0
  0
LINE
  8
0
  6
CONTINUOUS
 62
               4
  5
32D
 10
577.0
 20
176.28565375285325
 30
0.0
 11
572.0
 21
181.28565375285325
 31
0.0
  0
ARC
  8
0
  6
CONTINUOUS
 62
               4
  5
32E
 10
554.5
 20
165.75000000000051
 30
0.0
 40
19.999999999999996
 50
0.0
 51
31.788330617045538
  0
LINE
  8
0
  6
CONTINUOUS
 62
               4
  5
32F
 10
571.50000000000045
 20
176.28565375285325
 30
0.0
 11
571.50000000000045
 21
181.28565375285393
 31
0.0
  0
LINE
  8
0
  6
CONTINUOUS
 62
               4
  5
330
 10
572.0
 20
181.28565375285325
 30
0.0
 11
571.50000000000045
 21
181.28565375285325
 31
0.0
  0
ARC
  8
0
  6
CONTINUOUS
 62
               4
  5
331
 10
582.0
 20
49.749999999999986
 30
0.0
 40
5.0
 50
179.99999999996518
 51
269.99999999994731
  0
LINE
  8
0
  6
CONTINUOUS
 62
               4
  5
332
 10
574.5
 20
165.75000000000051
 30
0.0
 11
574.5
 21
56.532332308330282
 31
0.0
  0
LINE
  8
0
  6
CONTINUOUS
 62
               4
  5
333
 10
577.0
 20
176.28565375285325
 30
0.0
 11
577.0
 21
49.749999999999986
 31
0.0
  0
LINE
  8
0
  6
CONTINUOUS
 62
               4
  5
334
 10
551.34999999999991
 20
47.050000000000026
 30
0.0
 11
551.34999999999991
 21
44.750000000000128
 31
0.0
  0
LINE
  8
0
  6
CONTINUOUS
 62
               4
  5
335
 10
551.34999999999991
 20
44.750000000000128
 30
0.0
 11
577.34999999999991
 21
44.750000000000128
 31
0.0
  0
LINE
  8
0
  6
CONTINUOUS
 62
               4
  5
336
 10
577.34999999999991
 20
44.750000000000128
 30
0.0
 11
577.34999999999991
 21
47.050000000000026
 31
0.0
  0
LINE
  8
0
  6
CONTINUOUS
 62
               4
  5
337
 10
577.34999999999991
 20
47.050000000000026
 30
0.0
 11
551.34999999999991
 21
47.050000000000026
 31
0.0
  0
LINE
  8
0
  6
CONTINUOUS
 62
               4
  5
338
 10
558.35000000000014
 20
57.050000000000026
 30
0.0
 11
558.35000000000014
 21
65.750000000000213
 31
0.0
  0
LINE
  8
0
  6
CONTINUOUS
 62
               4
  5
339
 10
570.35000000000014
 20
65.750000000000213
 30
0.0
 11
570.35000000000014
 21
57.050000000000026
 31
0.0
  0
LINE
  8
0
  6
CONTINUOUS
 62
               4
  5
33A
 10
570.35000000000014
 20
65.750000000000213
 30
0.0
 11
558.35000000000014
 21
65.750000000000213
 31
0.0
  0
LINE
  8
0
  6
CONTINUOUS
 62
               4
  5
33B
 10
-577.0
 20
176.28565375285325
 30
0.0
 11
-572.0
 21
181.28565375285325
 31
0.0
  0
ARC
  8
0
  6
CONTINUOUS
 62
               4
  5
33C
 10
-554.5
 20
165.75000000000051
 30
0.0
 40
19.999999999999996
 50
148.21166938291961
 51
179.99999999996524
  0
LINE
  8
0
  6
CONTINUOUS
 62
               4
  5
33D
 10
-571.50000000000045
 20
176.28565375285325
 30
0.0
 11
-571.50000000000045
 21
181.28565375285393
 31
0.0
  0
LINE
  8
0
  6
CONTINUOUS
 62
               4
  5
33E
 10
-572.0
 20
181.28565375285325
 30
0.0
 11
-571.50000000000045
 21
181.28565375285325
 31
0.0
  0
ARC
  8
0
  6
CONTINUOUS
 62
               4
  5
33F
 10
-582.0
 20
49.749999999999986
 30
0.0
 40
5.0
 50
269.99999999994731
 51
359.99999999993042
  0
LINE
  8
0
  6
CONTINUOUS
 62
               4
  5
340
 10
-574.5
 20
165.75000000000051
 30
0.0
 11
-574.5
 21
57.050000000000026
 31
0.0
  0
LINE
  8
0
  6
CONTINUOUS
 62
               4
  5
341
 10
-577.0
 20
176.28565375285325
 30
0.0
 11
-577.0
 21
49.749999999999986
 31
0.0
  0
LINE
  8
0
  6
CONTINUOUS
 62
               4
  5
342
 10
-551.34999999999991
 20
47.050000000000026
 30
0.0
 11
-551.34999999999991
 21
44.750000000000128
 31
0.0
  0
LINE
  8
0
  6
CONTINUOUS
 62
               4
  5
343
 10
-551.34999999999991
 20
44.750000000000128
 30
0.0
 11
-577.34999999999991
 21
44.750000000000128
 31
0.0
  0
LINE
  8
0
  6
CONTINUOUS
 62
               4
  5
344
 10
-577.34999999999991
 20
44.750000000000128
 30
0.0
 11
-577.34999999999991
 21
47.050000000000026
 31
0.0
  0
LINE
  8
0
  6
CONTINUOUS
 62
               4
  5
345
 10
-577.34999999999991
 20
47.050000000000026
 30
0.0
 11
-551.34999999999991
 21
47.050000000000026
 31
0.0
  0
LINE
  8
0
  6
CONTINUOUS
 62
               4
  5
346
 10
-558.35000000000014
 20
57.050000000000026
 30
0.0
 11
-558.35000000000014
 21
65.750000000000213
 31
0.0
  0
LINE
  8
0
  6
CONTINUOUS
 62
               4
  5
347
 10
-570.35000000000014
 20
65.750000000000213
 30
0.0
 11
-570.35000000000014
 21
57.050000000000026
 31
0.0
  0
LINE
  8
0
  6
CONTINUOUS
 62
               4
  5
348
 10
-570.35000000000014
 20
65.750000000000213
 30
0.0
 11
-558.35000000000014
 21
65.750000000000213
 31
0.0
  0
LINE
  8
0
  6
CONTINUOUS
 62
               4
  5
349
 10
-423.0
 20
176.28565375285325
 30
0.0
 11
-428.0
 21
181.28565375285325
 31
0.0
  0
ARC
  8
0
  6
CONTINUOUS
 62
               4
  5
34A
 10
-445.5
 20
165.75000000000051
 30
0.0
 40
19.999999999999996
 50
0.0
 51
31.788330617045627
  0
LINE
  8
0
  6
CONTINUOUS
 62
               4
  5
34B
 10
-428.49999999999955
 20
176.28565375285325
 30
0.0
 11
-428.49999999999955
 21
181.28565375285393
 31
0.0
  0
LINE
  8
0
  6
CONTINUOUS
 62
               4
  5
34C
 10
-428.0
 20
181.28565375285325
 30
0.0
 11
-428.49999999999955
 21
181.28565375285325
 31
0.0
  0
ARC
  8
0
  6
CONTINUOUS
 62
               4
  5
34D
 10
-418.0
 20
49.749999999999986
 30
0.0
 40
5.0
 50
179.99999999996518
 51
269.99999999994793
  0
LINE
  8
0
  6
CONTINUOUS
 62
               4
  5
34E
 10
-425.5
 20
165.75000000000051
 30
0.0
 11
-425.5
 21
56.532332308330282
 31
0.0
  0
LINE
  8
0
  6
CONTINUOUS
 62
               4
  5
34F
 10
-423.0
 20
176.28565375285325
 30
0.0
 11
-423.0
 21
49.749999999999986
 31
0.0
  0
LINE
  8
0
  6
CONTINUOUS
 62
               4
  5
350
 10
-448.65000000000009
 20
47.050000000000026
 30
0.0
 11
-448.65000000000009
 21
44.750000000000128
 31
0.0
  0
LINE
  8
0
  6
CONTINUOUS
 62
               4
  5
351
 10
-448.65000000000009
 20
44.750000000000128
 30
0.0
 11
-422.65000000000009
 21
44.750000000000128
 31
0.0
  0
LINE
  8
0
  6
CONTINUOUS
 62
               4
  5
352
 10
-422.65000000000009
 20
44.750000000000128
 30
0.0
 11
-422.65000000000009
 21
47.050000000000026
 31
0.0
  0
LINE
  8
0
  6
CONTINUOUS
 62
               4
  5
353
 10
-422.65000000000009
 20
47.050000000000026
 30
0.0
 11
-448.65000000000009
 21
47.050000000000026
 31
0.0
  0
LINE
  8
0
  6
CONTINUOUS
 62
               4
  5
354
 10
-441.64999999999986
 20
57.050000000000026
 30
0.0
 11
-441.64999999999986
 21
65.750000000000213
 31
0.0
  0
LINE
  8
0
  6
CONTINUOUS
 62
               4
  5
355
 10
-429.64999999999986
 20
65.750000000000213
 30
0.0
 11
-429.64999999999986
 21
57.050000000000026
 31
0.0
  0
LINE
  8
0
  6
CONTINUOUS
 62
               4
  5
356
 10
-429.64999999999986
 20
65.750000000000213
 30
0.0
 11
-441.64999999999986
 21
65.750000000000213
 31
0.0
  0
LINE
  8
0
  6
CONTINUOUS
 62
               4
  5
357
 10
-578.22647400135997
 20
-2.8499999999998948
 30
0.0
 11
-572.3499999999982
 21
-6.2499999999999858
 31
0.0
  0
LINE
  8
0
  6
CONTINUOUS
 62
               4
  5
358
 10
-555.84999999999809
 20
-6.2499999999999858
 30
0.0
 11
-555.84999999999809
 21
0.7500000000000746
 31
0.0
  0
LINE
  8
0
  6
CONTINUOUS
 62
               4
  5
359
 10
-555.84999999999809
 20
-6.2499999999999858
 30
0.0
 11
-572.3499999999982
 21
-6.2499999999999858
 31
0.0
  0
LINE
  8
0
  6
CONTINUOUS
 62
               4
  5
35A
 10
-581.17706146647583
 20
-2.8499999999998948
 30
0.0
 11
-578.22647400135997
 21
-2.8499999999998948
 31
0.0
  0
LINE
  8
0
  6
CONTINUOUS
 62
               4
  5
35B
 10
-581.17706146647583
 20
0.7500000000000711
 30
0.0
 11
-581.17706146647583
 21
-2.8499999999998948
 31
0.0
  0
LINE
  8
0
  6
CONTINUOUS
 62
               4
  5
35C
 10
-555.84999999999809
 20
0.7500000000000746
 30
0.0
 11
-581.17706146647583
 21
0.7500000000000711
 31
0.0
  0
LINE
  8
0
  6
CONTINUOUS
 62
               4
  5
35D
 10
-452.47706146647545
 20
0.7500000000000817
 30
0.0
 11
-452.47706146647545
 21
-2.8499999999998842
 31
0.0
  0
LINE
  8
0
  6
CONTINUOUS
 62
               4
  5
35E
 10
-452.47706146647545
 20
-2.8499999999998842
 30
0.0
 11
-437.5056587211883
 21
-2.8499999999998806
 31
0.0
  0
LINE
  8
0
  6
CONTINUOUS
 62
               4
  5
35F
 10
-449.52647400135959
 20
-2.8499999999998842
 30
0.0
 11
-443.64999999999782
 21
-6.2499999999999716
 31
0.0
  0
LINE
  8
0
  6
CONTINUOUS
 62
               4
  5
360
 10
-440.45624618630416
 20
0.7500000000000817
 30
0.0
 11
-440.45624618630416
 21
-2.8499999999998842
 31
0.0
  0
LINE
  8
0
  6
CONTINUOUS
 62
               4
  5
361
 10
-429.99314575050551
 20
-6.2499999999999716
 30
0.0
 11
-437.5056587211883
 21
-2.8499999999998806
 31
0.0
  0
LINE
  8
0
  6
CONTINUOUS
 62
               4
  5
362
 10
-427.14999999999782
 20
-6.2499999999999716
 30
0.0
 11
-443.64999999999782
 21
-6.2499999999999716
 31
0.0
  0
LINE
  8
0
  6
CONTINUOUS
 62
               4
  5
363
 10
-427.14999999999782
 20
-6.2499999999999716
 30
0.0
 11
-427.14999999999782
 21
0.7500000000000853
 31
0.0
  0
LINE
  8
0
  6
CONTINUOUS
 62
               4
  5
364
 10
-427.14999999999782
 20
0.7500000000000853
 30
0.0
 11
-452.47706146647545
 21
0.7500000000000817
 31
0.0
  0
LINE
  8
0
  6
CONTINUOUS
 62
               4
  5
365
 10
-78.226474001359065
 20
-2.8499999999998948
 30
0.0
 11
-72.349999999997294
 21
-6.2499999999999858
 31
0.0
  0
LINE
  8
0
  6
CONTINUOUS
 62
               4
  5
366
 10
-55.849999999997181
 20
-6.2499999999999858
 30
0.0
 11
-55.849999999997181
 21
0.7500000000000746
 31
0.0
  0
LINE
  8
0
  6
CONTINUOUS
 62
               4
  5
367
 10
-55.849999999997181
 20
-6.2499999999999858
 30
0.0
 11
-72.349999999997294
 21
-6.2499999999999858
 31
0.0
  0
LINE
  8
0
  6
CONTINUOUS
 62
               4
  5
368
 10
-81.177061466474925
 20
-2.8499999999998948
 30
0.0
 11
-78.226474001359065
 21
-2.8499999999998948
 31
0.0
  0
LINE
  8
0
  6
CONTINUOUS
 62
               4
  5
369
 10
-81.177061466474925
 20
0.7500000000000711
 30
0.0
 11
-81.177061466474925
 21
-2.8499999999998948
 31
0.0
  0
LINE
  8
0
  6
CONTINUOUS
 62
               4
  5
36A
 10
-55.849999999997181
 20
0.7500000000000746
 30
0.0
 11
-81.177061466474925
 21
0.7500000000000711
 31
0.0
  0
LINE
  8
0
  6
CONTINUOUS
 62
               4
  5
36B
 10
47.522938533525462
 20
0.7500000000000817
 30
0.0
 11
47.522938533525462
 21
-2.8499999999998842
 31
0.0
  0
LINE
  8
0
  6
CONTINUOUS
 62
               4
  5
36C
 10
47.522938533525462
 20
-2.8499999999998842
 30
0.0
 11
62.494341278812612
 21
-2.8499999999998806
 31
0.0
  0
LINE
  8
0
  6
CONTINUOUS
 62
               4
  5
36D
 10
50.473525998641321
 20
-2.8499999999998842
 30
0.0
 11
56.350000000003092
 21
-6.2499999999999716
 31
0.0
  0
LINE
  8
0
  6
CONTINUOUS
 62
               4
  5
36E
 10
59.543753813696753
 20
0.7500000000000817
 30
0.0
 11
59.543753813696753
 21
-2.8499999999998842
 31
0.0
  0
LINE
  8
0
  6
CONTINUOUS
 62
               4
  5
36F
 10
70.006854249495404
 20
-6.2499999999999716
 30
0.0
 11
62.494341278812612
 21
-2.8499999999998806
 31
0.0
  0
LINE
  8
0
  6
CONTINUOUS
 62
               4
  5
370
 10
72.850000000003092
 20
-6.2499999999999716
 30
0.0
 11
56.350000000003092
 21
-6.2499999999999716
 31
0.0
  0
LINE
  8
0
  6
CONTINUOUS
 62
               4
  5
371
 10
72.850000000003092
 20
-6.2499999999999716
 30
0.0
 11
72.850000000003092
 21
0.7500000000000853
 31
0.0
  0
LINE
  8
0
  6
CONTINUOUS
 62
               4
  5
372
 10
72.850000000003092
 20
0.7500000000000853
 30
0.0
 11
47.522938533525462
 21
0.7500000000000817
 31
0.0
  0
LINE
  8
0
  6
CONTINUOUS
 62
               4
  5
373
 10
421.77352599864003
 20
-2.8499999999998948
 30
0.0
 11
427.6500000000018
 21
-6.2499999999999858
 31
0.0
  0
LINE
  8
0
  6
CONTINUOUS
 62
               4
  5
374
 10
444.15000000000191
 20
-6.2499999999999858
 30
0.0
 11
444.15000000000191
 21
0.7500000000000746
 31
0.0
  0
LINE
  8
0
  6
CONTINUOUS
 62
               4
  5
375
 10
444.15000000000191
 20
-6.2499999999999858
 30
0.0
 11
427.6500000000018
 21
-6.2499999999999858
 31
0.0
  0
LINE
  8
0
  6
CONTINUOUS
 62
               4
  5
376
 10
418.82293853352417
 20
-2.8499999999998948
 30
0.0
 11
421.77352599864003
 21
-2.8499999999998948
 31
0.0
  0
LINE
  8
0
  6
CONTINUOUS
 62
               4
  5
377
 10
418.82293853352417
 20
0.7500000000000711
 30
0.0
 11
418.82293853352417
 21
-2.8499999999998948
 31
0.0
  0
LINE
  8
0
  6
CONTINUOUS
 62
               4
  5
378
 10
444.15000000000191
 20
0.7500000000000746
 30
0.0
 11
418.82293853352417
 21
0.7500000000000711
 31
0.0
  0
LINE
  8
0
  6
CONTINUOUS
 62
               4
  5
379
 10
547.52293853352455
 20
0.7500000000000817
 30
0.0
 11
547.52293853352455
 21
-2.8499999999998842
 31
0.0
  0
LINE
  8
0
  6
CONTINUOUS
 62
               4
  5
37A
 10
547.52293853352455
 20
-2.8499999999998842
 30
0.0
 11
562.4943412788117
 21
-2.8499999999998806
 31
0.0
  0
LINE
  8
0
  6
CONTINUOUS
 62
               4
  5
37B
 10
550.47352599864041
 20
-2.8499999999998842
 30
0.0
 11
556.35000000000218
 21
-6.2499999999999716
 31
0.0
  0
LINE
  8
0
  6
CONTINUOUS
 62
               4
  5
37C
 10
559.54375381369584
 20
0.7500000000000817
 30
0.0
 11
559.54375381369584
 21
-2.8499999999998842
 31
0.0
  0
LINE
  8
0
  6
CONTINUOUS
 62
               4
  5
37D
 10
570.00685424949449
 20
-6.2499999999999716
 30
0.0
 11
562.4943412788117
 21
-2.8499999999998806
 31
0.0
  0
LINE
  8
0
  6
CONTINUOUS
 62
               4
  5
37E
 10
572.85000000000218
 20
-6.2499999999999716
 30
0.0
 11
556.35000000000218
 21
-6.2499999999999716
 31
0.0
  0
LINE
  8
0
  6
CONTINUOUS
 62
               4
  5
37F
 10
572.85000000000218
 20
-6.2499999999999716
 30
0.0
 11
572.85000000000218
 21
0.7500000000000853
 31
0.0
  0
LINE
  8
0
  6
CONTINUOUS
 62
               4
  5
380
 10
572.85000000000218
 20
0.7500000000000853
 30
0.0
 11
547.52293853352455
 21
0.7500000000000817
 31
0.0
  0
LINE
  8
0
  6
CONTINUOUS
 62
               4
  5
381
 10
-565.49999999999977
 20
-697.24999999999852
 30
0.0
 11
-434.49999999999795
 21
-697.24999999999852
 31
0.0
  0
LINE
  8
0
  6
CONTINUOUS
 62
               4
  5
382
 10
-90.999999999998863
 20
-597.99522178732184
 30
0.0
 11
-90.999999999998863
 21
-588.12093558026606
 31
0.0
  0
LINE
  8
0
  6
CONTINUOUS
 62
               4
  5
383
 10
91.000000000000895
 20
-597.99522178732184
 30
0.0
 11
91.000000000000895
 21
-588.12093558026606
 31
0.0
  0
LINE
  8
0
  6
CONTINUOUS
 62
               4
  5
384
 10
-65.499999999999886
 20
-697.24999999999829
 30
0.0
 11
65.500000000002032
 21
-697.24999999999829
 31
0.0
  0
LINE
  8
0
  6
CONTINUOUS
 62
               4
  5
385
 10
434.50000000000017
 20
-697.24999999999909
 30
0.0
 11
565.50000000000205
 21
-697.24999999999909
 31
0.0
  0
LINE
  8
0
  6
DASHED2
 62
               4
  5
386
 10
-57.0
 20
207.75000000000051
 30
0.0
 11
57.0
 21
207.75000000000051
 31
0.0
  0
LINE
  8
0
  6
DASHED2
 62
               4
  5
387
 10
443.0
 20
207.75000000000051
 30
0.0
 11
557.0
 21
207.75000000000051
 31
0.0
  0
LINE
  8
0
  6
DASHED2
 62
               4
  5
388
 10
-557.0
 20
207.75000000000051
 30
0.0
 11
-443.0
 21
207.75000000000051
 31
0.0
  0
LINE
  8
0
  6
DASHED2
 62
               4
  5
389
 10
-556.99999999999795
 20
-527.2499999999992
 30
0.0
 11
-556.99999999999795
 21
-592.24999999999966
 31
0.0
  0
LINE
  8
0
  6
DASHED2
 62
               4
  5
38A
 10
-557.50000000000114
 20
-607.2500000000008
 30
0.0
 11
-557.50000000000114
 21
-672.24999999999852
 31
0.0
  0
LINE
  8
0
  6
DASHED2
 62
               4
  5
38B
 10
-499.99999999999835
 20
-592.24999999999966
 30
0.0
 11
-556.99999999999841
 21
-592.24999999999966
 31
0.0
  0
LINE
  8
0
  6
DASHED2
 62
               4
  5
38C
 10
-557.50000000000114
 20
-607.2500000000008
 30
0.0
 11
-499.99999999999949
 21
-607.24999999999966
 31
0.0
  0
LINE
  8
0
  6
DASHED2
 62
               4
  5
38D
 10
-442.99999999999875
 20
-527.25000000000023
 30
0.0
 11
-442.99999999999875
 21
-592.24999999999966
 31
0.0
  0
LINE
  8
0
  6
DASHED2
 62
               4
  5
38E
 10
-499.99999999999835
 20
-592.24999999999966
 30
0.0
 11
-442.99999999999847
 21
-592.24999999999966
 31
0.0
  0
LINE
  8
0
  6
DASHED2
 62
               4
  5
38F
 10
-442.49999999999665
 20
-607.2500000000008
 30
0.0
 11
-499.99999999999835
 21
-607.24999999999966
 31
0.0
  0
LINE
  8
0
  6
DASHED2
 62
               4
  5
390
 10
-442.49999999999665
 20
-607.2500000000008
 30
0.0
 11
-442.49999999999665
 21
-672.24999999999852
 31
0.0
  0
LINE
  8
0
  6
DASHED2
 62
               4
  5
391
 10
-511.75999999999914
 20
-592.24999999999966
 30
0.0
 11
-511.75999999999914
 21
-583.72387150069244
 31
0.0
  0
LINE
  8
0
  6
DASHED2
 62
               4
  5
392
 10
-505.87102725426467
 20
-583.72387150069244
 30
0.0
 11
-505.87102725426467
 21
-592.24999999999966
 31
0.0
  0
LINE
  8
0
  6
DASHED2
 62
               4
  5
393
 10
-508.81551362713179
 20
-582.64999999999952
 30
0.0
 11
-491.18448637286582
 21
-582.64999999999952
 31
0.0
  0
LINE
  8
0
  6
DASHED2
 62
               4
  5
394
 10
-488.23999999999882
 20
-592.24999999999966
 30
0.0
 11
-488.23999999999882
 21
-583.72387150069244
 31
0.0
  0
LINE
  8
0
  6
DASHED2
 62
               4
  5
395
 10
-494.12897274573351
 20
-592.24999999999966
 30
0.0
 11
-494.12897274573351
 21
-583.72387150069244
 31
0.0
  0
ARC
  8
0
  6
DASHED2
 62
               4
  5
396
 10
-508.81551362713179
 20
-587.22373158411551
 30
0.0
 40
4.5737315841157447
 50
49.925579661612304
 51
130.07442033835341
  0
ARC
  8
0
  6
DASHED2
 62
               4
  5
397
 10
-491.18448637286582
 20
-587.22373158411551
 30
0.0
 40
4.5737315841157686
 50
49.925579661612304
 51
130.07442033835341
  0
ARC
  8
0
  6
DASHED2
 62
               4
  5
398
 10
-499.99999999999892
 20
-599.23585826952001
 30
0.0
 40
16.58585826952007
 50
69.269184858547646
 51
110.73081514141818
  0
LINE
  8
0
  6
DASHED2
 62
               4
  5
399
 10
-511.7600000000005
 20
-594.25
 30
0.0
 11
-511.7600000000005
 21
-602.77612849930722
 31
0.0
  0
LINE
  8
0
  6
DASHED2
 62
               4
  5
39A
 10
-505.87102725426615
 20
-602.77612849930722
 30
0.0
 11
-505.87102725426615
 21
-594.25
 31
0.0
  0
LINE
  8
0
  6
DASHED2
 62
               4
  5
39B
 10
-508.81551362713316
 20
-603.8499999999998
 30
0.0
 11
-491.18448637286753
 21
-603.8499999999998
 31
0.0
  0
LINE
  8
0
  6
DASHED2
 62
               4
  5
39C
 10
-488.24000000000018
 20
-594.25
 30
0.0
 11
-488.24000000000018
 21
-602.77612849930722
 31
0.0
  0
LINE
  8
0
  6
DASHED2
 62
               4
  5
39D
 10
-494.12897274573464
 20
-594.25
 30
0.0
 11
-494.12897274573464
 21
-602.77612849930722
 31
0.0
  0
ARC
  8
0
  6
DASHED2
 62
               4
  5
39E
 10
-508.81551362713316
 20
-599.27626841588437
 30
0.0
 40
4.5737315841157447
 50
229.92557966157796
 51
310.07442033831961
  0
ARC
  8
0
  6
DASHED2
 62
               4
  5
39F
 10
-491.18448637286753
 20
-599.27626841588437
 30
0.0
 40
4.5737315841157686
 50
229.92557966157852
 51
310.07442033831961
  0
ARC
  8
0
  6
DASHED2
 62
               4
  5
3A0
 10
-500.0000000000004
 20
-587.26414173047988
 30
0.0
 40
16.58585826952007
 50
249.26918485851303
 51
290.73081514138352
  0
LINE
  8
0
  6
DASHED2
 62
               4
  5
3A1
 10
-505.99999999999892
 20
-603.8499999999998
 30
0.0
 11
-505.99999999999892
 21
-614.36936624232442
 31
0.0
  0
LINE
  8
0
  6
DASHED2
 62
               4
  5
3A2
 10
-493.99999999999903
 20
-603.8499999999998
 30
0.0
 11
-493.99999999999903
 21
-614.36936624232442
 31
0.0
  0
LINE
  8
0
  6
DASHED2
 62
               4
  5
3A3
 10
-504.7999999999991
 20
-615.5693662423248
 30
0.0
 11
-495.19999999999908
 21
-615.5693662423248
 31
0.0
  0
LINE
  8
0
  6
DASHED2
 62
               4
  5
3A4
 10
-505.99999999999892
 20
-614.36936624232442
 30
0.0
 11
-504.7999999999991
 21
-615.5693662423248
 31
0.0
  0
LINE
  8
0
  6
DASHED2
 62
               4
  5
3A5
 10
-493.99999999999903
 20
-614.36936624232442
 30
0.0
 11
-495.19999999999908
 21
-615.5693662423248
 31
0.0
  0
LINE
  8
0
  6
DASHED2
 62
               4
  5
3A6
 10
-511.75999999999914
 20
-592.24999999999966
 30
0.0
 11
-488.23999999999882
 21
-592.24999999999966
 31
0.0
  0
LINE
  8
0
  6
DASHED2
 62
               4
  5
3A7
 10
-488.24000000000018
 20
-594.25
 30
0.0
 11
-511.7600000000005
 21
-594.25
 31
0.0
  0
LINE
  8
0
  6
DASHED2
 62
               4
  5
3A8
 10
-505.99999999999892
 20
-477.18642052407085
 30
0.0
 11
-505.99999999999892
 21
-582.64999999999952
 31
0.0
  0
LINE
  8
0
  6
DASHED2
 62
               4
  5
3A9
 10
-493.99999999999903
 20
-477.18642052407085
 30
0.0
 11
-493.99999999999903
 21
-582.64999999999952
 31
0.0
  0
LINE
  8
0
  6
DASHED2
 62
               4
  5
3AA
 10
-493.99999999999903
 20
-477.18642052407085
 30
0.0
 11
-505.99999999999892
 21
-477.18642052407085
 31
0.0
  0
LINE
  8
0
  6
DASHED2
 62
               4
  5
3AB
 10
-56.999999999997954
 20
-527.24999999999898
 30
0.0
 11
-56.999999999997954
 21
-592.24999999999943
 31
0.0
  0
LINE
  8
0
  6
DASHED2
 62
               4
  5
3AC
 10
-57.500000000001336
 20
-607.25000000000057
 30
0.0
 11
-57.500000000001336
 21
-672.24999999999829
 31
0.0
  0
LINE
  8
0
  6
DASHED2
 62
               4
  5
3AD
 10
0.0000000000016517
 20
-592.24999999999943
 30
0.0
 11
-56.999999999998522
 21
-592.24999999999943
 31
0.0
  0
LINE
  8
0
  6
DASHED2
 62
               4
  5
3AE
 10
-57.500000000001336
 20
-607.25000000000057
 30
0.0
 11
0.0000000000005148
 21
-607.24999999999943
 31
0.0
  0
LINE
  8
0
  6
DASHED2
 62
               4
  5
3AF
 10
57.000000000001251
 20
-527.25
 30
0.0
 11
57.000000000001251
 21
-592.24999999999943
 31
0.0
  0
LINE
  8
0
  6
DASHED2
 62
               4
  5
3B0
 10
0.0000000000016517
 20
-592.24999999999943
 30
0.0
 11
57.000000000001535
 21
-592.24999999999943
 31
0.0
  0
LINE
  8
0
  6
DASHED2
 62
               4
  5
3B1
 10
57.500000000003354
 20
-607.25000000000057
 30
0.0
 11
0.0000000000016517
 21
-607.24999999999943
 31
0.0
  0
LINE
  8
0
  6
DASHED2
 62
               4
  5
3B2
 10
57.500000000003354
 20
-607.25000000000057
 30
0.0
 11
57.500000000003354
 21
-672.24999999999829
 31
0.0
  0
LINE
  8
0
  6
DASHED2
 62
               4
  5
3B3
 10
-136.75999999999908
 20
-592.24999999999898
 30
0.0
 11
-136.75999999999908
 21
-583.72387150069176
 31
0.0
  0
LINE
  8
0
  6
DASHED2
 62
               4
  5
3B4
 10
-130.87102725426467
 20
-583.72387150069176
 30
0.0
 11
-130.87102725426467
 21
-592.24999999999898
 31
0.0
  0
LINE
  8
0
  6
DASHED2
 62
               4
  5
3B5
 10
-133.81551362713174
 20
-582.64999999999884
 30
0.0
 11
-116.18448637286582
 21
-582.64999999999884
 31
0.0
  0
LINE
  8
0
  6
DASHED2
 62
               4
  5
3B6
 10
-113.23999999999876
 20
-592.24999999999898
 30
0.0
 11
-113.23999999999876
 21
-583.72387150069176
 31
0.0
  0
LINE
  8
0
  6
DASHED2
 62
               4
  5
3B7
 10
-119.12897274573345
 20
-592.24999999999898
 30
0.0
 11
-119.12897274573345
 21
-583.72387150069176
 31
0.0
  0
ARC
  8
0
  6
DASHED2
 62
               4
  5
3B8
 10
-133.81551362713174
 20
-587.22373158411483
 30
0.0
 40
4.5737315841157447
 50
49.925579661612304
 51
130.07442033835341
  0
ARC
  8
0
  6
DASHED2
 62
               4
  5
3B9
 10
-116.18448637286582
 20
-587.22373158411483
 30
0.0
 40
4.5737315841157686
 50
49.925579661612304
 51
130.07442033835341
  0
ARC
  8
0
  6
DASHED2
 62
               4
  5
3BA
 10
-124.99999999999892
 20
-599.23585826951933
 30
0.0
 40
16.58585826952007
 50
69.269184858547646
 51
110.73081514141818
  0
LINE
  8
0
  6
DASHED2
 62
               4
  5
3BB
 10
-136.7600000000005
 20
-594.24999999999932
 30
0.0
 11
-136.7600000000005
 21
-602.77612849930654
 31
0.0
  0
LINE
  8
0
  6
DASHED2
 62
               4
  5
3BC
 10
-130.8710272542661
 20
-602.77612849930654
 30
0.0
 11
-130.8710272542661
 21
-594.24999999999932
 31
0.0
  0
LINE
  8
0
  6
DASHED2
 62
               4
  5
3BD
 10
-133.81551362713316
 20
-603.84999999999911
 30
0.0
 11
-116.18448637286753
 21
-603.84999999999911
 31
0.0
  0
LINE
  8
0
  6
DASHED2
 62
               4
  5
3BE
 10
-113.24000000000018
 20
-594.24999999999932
 30
0.0
 11
-113.24000000000018
 21
-602.77612849930654
 31
0.0
  0
LINE
  8
0
  6
DASHED2
 62
               4
  5
3BF
 10
-119.12897274573459
 20
-594.24999999999932
 30
0.0
 11
-119.12897274573459
 21
-602.77612849930654
 31
0.0
  0
ARC
  8
0
  6
DASHED2
 62
               4
  5
3C0
 10
-133.81551362713316
 20
-599.27626841588369
 30
0.0
 40
4.5737315841157447
 50
229.92557966157796
 51
310.07442033831961
  0
ARC
  8
0
  6
DASHED2
 62
               4
  5
3C1
 10
-116.18448637286753
 20
-599.27626841588369
 30
0.0
 40
4.5737315841157686
 50
229.92557966157852
 51
310.07442033831961
  0
ARC
  8
0
  6
DASHED2
 62
               4
  5
3C2
 10
-125.00000000000034
 20
-587.2641417304792
 30
0.0
 40
16.58585826952007
 50
249.26918485851303
 51
290.73081514138352
  0
LINE
  8
0
  6
DASHED2
 62
               4
  5
3C3
 10
-130.99999999999886
 20
-603.84999999999911
 30
0.0
 11
-130.99999999999886
 21
-614.36936624232374
 31
0.0
  0
LINE
  8
0
  6
DASHED2
 62
               4
  5
3C4
 10
-118.99999999999898
 20
-603.84999999999911
 30
0.0
 11
-118.99999999999898
 21
-614.36936624232374
 31
0.0
  0
LINE
  8
0
  6
DASHED2
 62
               4
  5
3C5
 10
-129.7999999999991
 20
-615.56936624232412
 30
0.0
 11
-120.19999999999902
 21
-615.56936624232412
 31
0.0
  0
LINE
  8
0
  6
DASHED2
 62
               4
  5
3C6
 10
-130.99999999999886
 20
-614.36936624232374
 30
0.0
 11
-129.7999999999991
 21
-615.56936624232412
 31
0.0
  0
LINE
  8
0
  6
DASHED2
 62
               4
  5
3C7
 10
-118.99999999999898
 20
-614.36936624232374
 30
0.0
 11
-120.19999999999902
 21
-615.56936624232412
 31
0.0
  0
LINE
  8
0
  6
DASHED2
 62
               4
  5
3C8
 10
-136.75999999999908
 20
-592.24999999999898
 30
0.0
 11
-113.23999999999876
 21
-592.24999999999898
 31
0.0
  0
LINE
  8
0
  6
DASHED2
 62
               4
  5
3C9
 10
-113.24000000000018
 20
-594.24999999999932
 30
0.0
 11
-136.7600000000005
 21
-594.24999999999932
 31
0.0
  0
LINE
  8
0
  6
DASHED2
 62
               4
  5
3CA
 10
-130.99999999999886
 20
-477.18642052407017
 30
0.0
 11
-130.99999999999886
 21
-582.64999999999884
 31
0.0
  0
LINE
  8
0
  6
DASHED2
 62
               4
  5
3CB
 10
-118.99999999999898
 20
-477.18642052407017
 30
0.0
 11
-118.99999999999898
 21
-582.64999999999884
 31
0.0
  0
LINE
  8
0
  6
DASHED2
 62
               4
  5
3CC
 10
-118.99999999999898
 20
-477.18642052407017
 30
0.0
 11
-130.99999999999886
 21
-477.18642052407017
 31
0.0
  0
LINE
  8
0
  6
DASHED2
 62
               4
  5
3CD
 10
136.76000000000124
 20
-592.24999999999898
 30
0.0
 11
136.76000000000124
 21
-583.72387150069176
 31
0.0
  0
LINE
  8
0
  6
DASHED2
 62
               4
  5
3CE
 10
130.87102725426683
 20
-583.72387150069176
 30
0.0
 11
130.87102725426683
 21
-592.24999999999898
 31
0.0
  0
LINE
  8
0
  6
DASHED2
 62
               4
  5
3CF
 10
133.8155136271339
 20
-582.64999999999884
 30
0.0
 11
116.18448637286797
 21
-582.64999999999884
 31
0.0
  0
LINE
  8
0
  6
DASHED2
 62
               4
  5
3D0
 10
113.2400000000009
 20
-592.24999999999898
 30
0.0
 11
113.2400000000009
 21
-583.72387150069176
 31
0.0
  0
LINE
  8
0
  6
DASHED2
 62
               4
  5
3D1
 10
119.1289727457356
 20
-592.24999999999898
 30
0.0
 11
119.1289727457356
 21
-583.72387150069176
 31
0.0
  0
ARC
  8
0
  6
DASHED2
 62
               4
  5
3D2
 10
133.8155136271339
 20
-587.22373158411483
 30
0.0
 40
4.5737315841157447
 50
49.925579661646204
 51
130.07442033838728
  0
ARC
  8
0
  6
DASHED2
 62
               4
  5
3D3
 10
116.18448637286797
 20
-587.22373158411483
 30
0.0
 40
4.5737315841157686
 50
49.925579661646204
 51
130.07442033838728
  0
ARC
  8
0
  6
DASHED2
 62
               4
  5
3D4
 10
125.00000000000107
 20
-599.23585826951933
 30
0.0
 40
16.58585826952007
 50
69.269184858581426
 51
110.73081514145197
  0
LINE
  8
0
  6
DASHED2
 62
               4
  5
3D5
 10
136.76000000000266
 20
-594.24999999999932
 30
0.0
 11
136.76000000000266
 21
-602.77612849930654
 31
0.0
  0
LINE
  8
0
  6
DASHED2
 62
               4
  5
3D6
 10
130.87102725426826
 20
-602.77612849930654
 30
0.0
 11
130.87102725426826
 21
-594.24999999999932
 31
0.0
  0
LINE
  8
0
  6
DASHED2
 62
               4
  5
3D7
 10
133.81551362713532
 20
-603.84999999999911
 30
0.0
 11
116.18448637286967
 21
-603.84999999999911
 31
0.0
  0
LINE
  8
0
  6
DASHED2
 62
               4
  5
3D8
 10
113.24000000000233
 20
-594.24999999999932
 30
0.0
 11
113.24000000000233
 21
-602.77612849930654
 31
0.0
  0
LINE
  8
0
  6
DASHED2
 62
               4
  5
3D9
 10
119.12897274573673
 20
-594.24999999999932
 30
0.0
 11
119.12897274573673
 21
-602.77612849930654
 31
0.0
  0
ARC
  8
0
  6
DASHED2
 62
               4
  5
3DA
 10
133.81551362713532
 20
-599.27626841588369
 30
0.0
 40
4.5737315841157447
 50
229.92557966167917
 51
310.07442033842085
  0
ARC
  8
0
  6
DASHED2
 62
               4
  5
3DB
 10
116.18448637286967
 20
-599.27626841588369
 30
0.0
 40
4.5737315841157686
 50
229.92557966167917
 51
310.07442033842028
  0
ARC
  8
0
  6
DASHED2
 62
               4
  5
3DC
 10
125.00000000000249
 20
-587.2641417304792
 30
0.0
 40
16.58585826952007
 50
249.26918485861526
 51
290.73081514148578
  0
LINE
  8
0
  6
DASHED2
 62
               4
  5
3DD
 10
131.00000000000102
 20
-603.84999999999911
 30
0.0
 11
131.00000000000102
 21
-614.36936624232374
 31
0.0
  0
LINE
  8
0
  6
DASHED2
 62
               4
  5
3DE
 10
119.00000000000112
 20
-603.84999999999911
 30
0.0
 11
119.00000000000112
 21
-614.36936624232374
 31
0.0
  0
LINE
  8
0
  6
DASHED2
 62
               4
  5
3DF
 10
129.80000000000126
 20
-615.56936624232412
 30
0.0
 11
120.20000000000117
 21
-615.56936624232412
 31
0.0
  0
LINE
  8
0
  6
DASHED2
 62
               4
  5
3E0
 10
131.00000000000102
 20
-614.36936624232374
 30
0.0
 11
129.80000000000126
 21
-615.56936624232412
 31
0.0
  0
LINE
  8
0
  6
DASHED2
 62
               4
  5
3E1
 10
119.00000000000112
 20
-614.36936624232374
 30
0.0
 11
120.20000000000117
 21
-615.56936624232412
 31
0.0
  0
LINE
  8
0
  6
DASHED2
 62
               4
  5
3E2
 10
136.76000000000124
 20
-592.24999999999898
 30
0.0
 11
113.2400000000009
 21
-592.24999999999898
 31
0.0
  0
LINE
  8
0
  6
DASHED2
 62
               4
  5
3E3
 10
113.24000000000233
 20
-594.24999999999932
 30
0.0
 11
136.76000000000266
 21
-594.24999999999932
 31
0.0
  0
LINE
  8
0
  6
DASHED2
 62
               4
  5
3E4
 10
131.00000000000102
 20
-477.18642052407017
 30
0.0
 11
131.00000000000102
 21
-582.64999999999884
 31
0.0
  0
LINE
  8
0
  6
DASHED2
 62
               4
  5
3E5
 10
119.00000000000112
 20
-477.18642052407017
 30
0.0
 11
119.00000000000112
 21
-582.64999999999884
 31
0.0
  0
LINE
  8
0
  6
DASHED2
 62
               4
  5
3E6
 10
119.00000000000112
 20
-477.18642052407017
 30
0.0
 11
131.00000000000102
 21
-477.18642052407017
 31
0.0
  0
LINE
  8
0
  6
DASHED2
 62
               4
  5
3E7
 10
443.0000000000021
 20
-527.24999999999977
 30
0.0
 11
443.0000000000021
 21
-592.25000000000023
 31
0.0
  0
LINE
  8
0
  6
DASHED2
 62
               4
  5
3E8
 10
442.49999999999881
 20
-607.25000000000136
 30
0.0
 11
442.49999999999881
 21
-672.24999999999909
 31
0.0
  0
LINE
  8
0
  6
DASHED2
 62
               4
  5
3E9
 10
500.00000000000171
 20
-592.25000000000023
 30
0.0
 11
443.00000000000153
 21
-592.25000000000023
 31
0.0
  0
LINE
  8
0
  6
DASHED2
 62
               4
  5
3EA
 10
442.49999999999881
 20
-607.25000000000136
 30
0.0
 11
500.00000000000057
 21
-607.25000000000023
 31
0.0
  0
LINE
  8
0
  6
DASHED2
 62
               4
  5
3EB
 10
557.00000000000136
 20
-527.25000000000091
 30
0.0
 11
557.00000000000136
 21
-592.25000000000023
 31
0.0
  0
LINE
  8
0
  6
DASHED2
 62
               4
  5
3EC
 10
500.00000000000171
 20
-592.25000000000023
 30
0.0
 11
557.00000000000159
 21
-592.25000000000023
 31
0.0
  0
LINE
  8
0
  6
DASHED2
 62
               4
  5
3ED
 10
557.50000000000341
 20
-607.25000000000136
 30
0.0
 11
500.00000000000171
 21
-607.25000000000023
 31
0.0
  0
LINE
  8
0
  6
DASHED2
 62
               4
  5
3EE
 10
557.50000000000341
 20
-607.25000000000136
 30
0.0
 11
557.50000000000341
 21
-672.24999999999909
 31
0.0
  0
LINE
  8
0
  6
DASHED2
 62
               4
  5
3EF
 10
488.24000000000092
 20
-592.25000000000023
 30
0.0
 11
488.24000000000092
 21
-583.72387150069312
 31
0.0
  0
LINE
  8
0
  6
DASHED2
 62
               4
  5
3F0
 10
494.12897274573538
 20
-583.72387150069312
 30
0.0
 11
494.12897274573538
 21
-592.25000000000023
 31
0.0
  0
LINE
  8
0
  6
DASHED2
 62
               4
  5
3F1
 10
491.18448637286826
 20
-582.65000000000009
 30
0.0
 11
508.81551362713424
 21
-582.65000000000009
 31
0.0
  0
LINE
  8
0
  6
DASHED2
 62
               4
  5
3F2
 10
511.76000000000124
 20
-592.25000000000023
 30
0.0
 11
511.76000000000124
 21
-583.72387150069312
 31
0.0
  0
LINE
  8
0
  6
DASHED2
 62
               4
  5
3F3
 10
505.87102725426655
 20
-592.25000000000023
 30
0.0
 11
505.87102725426655
 21
-583.72387150069312
 31
0.0
  0
ARC
  8
0
  6
DASHED2
 62
               4
  5
3F4
 10
491.18448637286826
 20
-587.22373158411619
 30
0.0
 40
4.5737315841157447
 50
49.925579661612304
 51
130.07442033835341
  0
ARC
  8
0
  6
DASHED2
 62
               4
  5
3F5
 10
508.81551362713424
 20
-587.22373158411619
 30
0.0
 40
4.5737315841157686
 50
49.925579661612304
 51
130.07442033835341
  0
ARC
  8
0
  6
DASHED2
 62
               4
  5
3F6
 10
500.00000000000114
 20
-599.23585826952058
 30
0.0
 40
16.58585826952007
 50
69.269184858547646
 51
110.73081514141818
  0
LINE
  8
0
  6
DASHED2
 62
               4
  5
3F7
 10
488.23999999999955
 20
-594.25000000000068
 30
0.0
 11
488.23999999999955
 21
-602.77612849930779
 31
0.0
  0
LINE
  8
0
  6
DASHED2
 62
               4
  5
3F8
 10
494.1289727457339
 20
-602.77612849930779
 30
0.0
 11
494.1289727457339
 21
-594.25000000000068
 31
0.0
  0
LINE
  8
0
  6
DASHED2
 62
               4
  5
3F9
 10
491.1844863728669
 20
-603.85000000000036
 30
0.0
 11
508.81551362713253
 21
-603.85000000000036
 31
0.0
  0
LINE
  8
0
  6
DASHED2
 62
               4
  5
3FA
 10
511.75999999999988
 20
-594.25000000000068
 30
0.0
 11
511.75999999999988
 21
-602.77612849930779
 31
0.0
  0
LINE
  8
0
  6
DASHED2
 62
               4
  5
3FB
 10
505.87102725426541
 20
-594.25000000000068
 30
0.0
 11
505.87102725426541
 21
-602.77612849930779
 31
0.0
  0
ARC
  8
0
  6
DASHED2
 62
               4
  5
3FC
 10
491.1844863728669
 20
-599.27626841588494
 30
0.0
 40
4.5737315841157447
 50
229.92557966157796
 51
310.07442033831961
  0
ARC
  8
0
  6
DASHED2
 62
               4
  5
3FD
 10
508.81551362713253
 20
-599.27626841588494
 30
0.0
 40
4.5737315841157686
 50
229.92557966157852
 51
310.07442033831961
  0
ARC
  8
0
  6
DASHED2
 62
               4
  5
3FE
 10
499.99999999999966
 20
-587.26414173048056
 30
0.0
 40
16.58585826952007
 50
249.26918485851303
 51
290.73081514138352
  0
LINE
  8
0
  6
DASHED2
 62
               4
  5
3FF
 10
494.00000000000114
 20
-603.85000000000036
 30
0.0
 11
494.00000000000114
 21
-614.36936624232499
 31
0.0
  0
LINE
  8
0
  6
DASHED2
 62
               4
  5
400
 10
506.00000000000102
 20
-603.85000000000036
 30
0.0
 11
506.00000000000102
 21
-614.36936624232499
 31
0.0
  0
LINE
  8
0
  6
DASHED2
 62
               4
  5
401
 10
495.20000000000095
 20
-615.56936624232549
 30
0.0
 11
504.80000000000098
 21
-615.56936624232549
 31
0.0
  0
LINE
  8
0
  6
DASHED2
 62
               4
  5
402
 10
494.00000000000114
 20
-614.36936624232499
 30
0.0
 11
495.20000000000095
 21
-615.56936624232549
 31
0.0
  0
LINE
  8
0
  6
DASHED2
 62
               4
  5
403
 10
506.00000000000102
 20
-614.36936624232499
 30
0.0
 11
504.80000000000098
 21
-615.56936624232549
 31
0.0
  0
LINE
  8
0
  6
DASHED2
 62
               4
  5
404
 10
488.24000000000092
 20
-592.25000000000023
 30
0.0
 11
511.76000000000124
 21
-592.25000000000023
 31
0.0
  0
LINE
  8
0
  6
DASHED2
 62
               4
  5
405
 10
511.75999999999988
 20
-594.25000000000068
 30
0.0
 11
488.23999999999955
 21
-594.25000000000068
 31
0.0
  0
LINE
  8
0
  6
DASHED2
 62
               4
  5
406
 10
494.00000000000114
 20
-477.18642052407159
 30
0.0
 11
494.00000000000114
 21
-582.65000000000009
 31
0.0
  0
LINE
  8
0
  6
DASHED2
 62
               4
  5
407
 10
506.00000000000102
 20
-477.18642052407159
 30
0.0
 11
506.00000000000102
 21
-582.65000000000009
 31
0.0
  0
LINE
  8
0
  6
DASHED2
 62
               4
  5
408
 10
506.00000000000102
 20
-477.18642052407159
 30
0.0
 11
494.00000000000114
 21
-477.18642052407159
 31
0.0
  0
ARC
  8
0
  6
DIVIDE
 62
               4
  5
409
 10
-528.49999999999886
 20
-839.18298130416815
 30
0.0
 40
55.0
 50
58.789629707489617
 51
121.21037029250985
  0
ARC
  8
0
  6
DIVIDE
 62
               4
  5
40A
 10
-528.49999999999886
 20
-745.10322790313069
 30
0.0
 40
55.0
 50
238.78962970748935
 51
301.21037029250937
  0
ARC
  8
0
  6
DIVIDE
 62
               4
  5
40B
 10
-532.49999999999886
 20
-814.64560203944598
 30
0.0
 40
65.0
 50
59.999999999999723
 51
119.99999999999987
  0
ARC
  8
0
  6
DIVIDE
 62
               4
  5
40C
 10
-471.49999999999881
 20
-745.1032279031308
 30
0.0
 40
55.0
 50
238.78962970748941
 51
301.21037029250959
  0
ARC
  8
0
  6
DIVIDE
 62
               4
  5
40D
 10
-467.49999999999892
 20
-702.06229954746902
 30
0.0
 40
65.0
 50
239.99999999999966
 51
299.99999999999932
  0
LINE
  8
0
  6
DIVIDE
 62
               4
  5
40E
 10
-556.99999999999864
 20
-754.43970531827745
 30
0.0
 11
-556.99999999999864
 21
-792.14310460364948
 31
0.0
  0
LINE
  8
0
  6
DIVIDE
 62
               4
  5
40F
 10
-442.99999999999875
 20
-762.26819626863744
 30
0.0
 11
-442.99999999999875
 21
-792.14310460364948
 31
0.0
  0
ARC
  8
0
  6
DIVIDE
 62
               4
  5
410
 10
-532.49999999999886
 20
-702.06229954746914
 30
0.0
 40
65.0
 50
239.99999999999929
 51
247.85677929855132
  0
LINE
  8
0
  6
DIVIDE
 62
               4
  5
411
 10
-434.99999999999892
 20
-672.24999999999852
 30
0.0
 11
-434.99999999999892
 21
-758.35395079345756
 31
0.0
  0
LINE
  8
0
  6
DIVIDE
 62
               4
  5
412
 10
-564.99999999999886
 20
-672.24999999999852
 30
0.0
 11
-564.99999999999886
 21
-758.35395079345756
 31
0.0
  0
ARC
  8
0
  6
DIVIDE
 62
               4
  5
413
 10
-28.49999999999886
 20
-839.18298130416792
 30
0.0
 40
55.0
 50
58.789629707489617
 51
121.21037029250985
  0
ARC
  8
0
  6
DIVIDE
 62
               4
  5
414
 10
-28.49999999999886
 20
-745.10322790313046
 30
0.0
 40
55.0
 50
238.78962970748935
 51
301.21037029250937
  0
ARC
  8
0
  6
DIVIDE
 62
               4
  5
415
 10
-32.49999999999892
 20
-814.64560203944575
 30
0.0
 40
65.0
 50
59.999999999999723
 51
119.99999999999987
  0
ARC
  8
0
  6
DIVIDE
 62
               4
  5
416
 10
28.500000000001169
 20
-745.10322790313057
 30
0.0
 40
55.0
 50
238.78962970748941
 51
301.21037029250959
  0
ARC
  8
0
  6
DIVIDE
 62
               4
  5
417
 10
32.50000000000108
 20
-702.0622995474688
 30
0.0
 40
65.0
 50
239.99999999999966
 51
299.99999999999932
  0
LINE
  8
0
  6
DIVIDE
 62
               4
  5
418
 10
-56.999999999998806
 20
-754.43970531827722
 30
0.0
 11
-56.999999999998806
 21
-792.14310460364925
 31
0.0
  0
LINE
  8
0
  6
DIVIDE
 62
               4
  5
419
 10
57.000000000001251
 20
-762.26819626863721
 30
0.0
 11
57.000000000001251
 21
-792.14310460364925
 31
0.0
  0
ARC
  8
0
  6
DIVIDE
 62
               4
  5
41A
 10
-32.49999999999892
 20
-702.06229954746891
 30
0.0
 40
65.0
 50
239.99999999999929
 51
247.85677929855132
  0
LINE
  8
0
  6
DIVIDE
 62
               4
  5
41B
 10
65.000000000001066
 20
-672.24999999999829
 30
0.0
 11
65.000000000001066
 21
-758.35395079345733
 31
0.0
  0
LINE
  8
0
  6
DIVIDE
 62
               4
  5
41C
 10
-64.99999999999892
 20
-672.24999999999829
 30
0.0
 11
-64.99999999999892
 21
-758.35395079345733
 31
0.0
  0
ARC
  8
0
  6
DIVIDE
 62
               4
  5
41D
 10
471.50000000000119
 20
-839.18298130416883
 30
0.0
 40
55.0
 50
58.789629707489617
 51
121.21037029250985
  0
ARC
  8
0
  6
DIVIDE
 62
               4
  5
41E
 10
471.50000000000119
 20
-745.10322790313126
 30
0.0
 40
55.0
 50
238.78962970748935
 51
301.21037029250937
  0
ARC
  8
0
  6
DIVIDE
 62
               4
  5
41F
 10
467.50000000000108
 20
-814.64560203944666
 30
0.0
 40
65.0
 50
59.999999999999723
 51
119.99999999999987
  0
ARC
  8
0
  6
DIVIDE
 62
               4
  5
420
 10
528.50000000000136
 20
-745.10322790313148
 30
0.0
 40
55.0
 50
238.78962970748941
 51
301.21037029250959
  0
ARC
  8
0
  6
DIVIDE
 62
               4
  5
421
 10
532.50000000000114
 20
-702.06229954746959
 30
0.0
 40
65.0
 50
239.99999999999966
 51
299.99999999999932
  0
LINE
  8
0
  6
DIVIDE
 62
               4
  5
422
 10
443.00000000000131
 20
-754.43970531827813
 30
0.0
 11
443.00000000000131
 21
-792.14310460365004
 31
0.0
  0
LINE
  8
0
  6
DIVIDE
 62
               4
  5
423
 10
557.00000000000136
 20
-762.26819626863812
 30
0.0
 11
557.00000000000136
 21
-792.14310460365004
 31
0.0
  0
ARC
  8
0
  6
DIVIDE
 62
               4
  5
424
 10
467.50000000000108
 20
-702.06229954746982
 30
0.0
 40
65.0
 50
239.99999999999929
 51
247.85677929855132
  0
LINE
  8
0
  6
DIVIDE
 62
               4
  5
425
 10
565.00000000000114
 20
-672.24999999999909
 30
0.0
 11
565.00000000000114
 21
-758.35395079345813
 31
0.0
  0
LINE
  8
0
  6
DIVIDE
 62
               4
  5
426
 10
435.00000000000108
 20
-672.24999999999909
 30
0.0
 11
435.00000000000108
 21
-758.35395079345813
 31
0.0
  0
INSERT
  8
0
  6
CONTINUOUS
  5
427
  2
GROUP_1
 10
0.0
 20
0.0
 30
0.0
  0
INSERT
  8
0
  6
CONTINUOUS
  5
428
  2
GROUP_2
 10
0.0
 20
0.0
 30
0.0
  0
INSERT
  8
0
  6
CONTINUOUS
  5
429
  2
GROUP_3
 10
0.0
 20
0.0
 30
0.0
  0
INSERT
  8
0
  6
CONTINUOUS
  5
42A
  2
GROUP_4
 10
0.0
 20
0.0
 30
0.0
  0
INSERT
  8
0
  6
CONTINUOUS
  5
42B
  2
GROUP_5
 10
0.0
 20
0.0
 30
0.0
  0
INSERT
  8
0
  6
CONTINUOUS
  5
42C
  2
GROUP_6
 10
0.0
 20
0.0
 30
0.0
  0
INSERT
  8
0
  6
CONTINUOUS
  5
42D
  2
GROUP_7
 10
0.0
 20
0.0
 30
0.0
  0
INSERT
  8
0
  6
CONTINUOUS
  5
42E
  2
GROUP_8
 10
0.0
 20
0.0
 30
0.0
  0
INSERT
  8
0
  6
CONTINUOUS
  5
42F
  2
GROUP_9
 10
0.0
 20
0.0
 30
0.0
  0
INSERT
  8
0
  6
CONTINUOUS
  5
430
  2
GROUP_10
 10
0.0
 20
0.0
 30
0.0
  0
ENDSEC
  0
EOF
