  0
SECTION
  2
HEADER
  9
$ACADVER
  1
AC1009
  9
$INSBASE
 10
0.0
 20
0.0
 30
0.0
  9
$EXTMIN
 10
-614.15573046432667
 20
-1783.0567920257295
 30
0.0
  9
$EXTMAX
 10
641.94225368063553
 20
655.393270431877
 30
0.0
  9
$LIMMIN
 10
-653.40879246885675
 20
-1859.2583564775296
  9
$LIMMAX
 10
681.19531568516561
 20
731.59483488367721
  9
$ORTHOMODE
 70
               0
  9
$REGENMODE
 70
               1
  9
$FILLMODE
 70
               1
  9
$QTEXTMODE
 70
               0
  9
$MIRRTEXT
 70
               1
  9
$DRAGMODE
 70
               2
  9
$LTSCALE
 40
1.0
  9
$OSMODE
 70
               0
  9
$ATTMODE
 70
               1
  9
$TEXTSIZE
 40
0.2
  9
$TRACEWID
 40
0.05
  9
$TEXTSTYLE
  7
STANDARD
  9
$CLAYER
  8
0
  9
$CELTYPE
  6
CONTINUOUS
  9
$CECOLOR
 62
             256
  9
$DIMSCALE
 40
1.0
  9
$DIMASZ
 40
0.18
  9
$DIMEXO
 40
0.0625
  9
$DIMDLI
 40
0.38
  9
$DIMRND
 40
0.0
  9
$DIMDLE
 40
0.0
  9
$DIMEXE
 40
0.18
  9
$DIMTP
 40
0.0
  9
$DIMTM
 40
0.0
  9
$DIMTXT
 40
0.18
  9
$DIMCEN
 40
0.09
  9
$DIMTSZ
 40
0.0
  9
$DIMTOL
 70
               0
  9
$DIMLIM
 70
               0
  9
$DIMTIH
 70
               1
  9
$DIMTOH
 70
               1
  9
$DIMSE1
 70
               0
  9
$DIMSE2
 70
               0
  9
$DIMTAD
 70
               0
  9
$DIMZIN
 70
               0
  9
$DIMBLK
  1

  9
$DIMASO
 70
               1
  9
$DIMSHO
 70
               1
  9
$DIMPOST
  1

  9
$DIMAPOST
  1

  9
$DIMALT
 70
               0
  9
$DIMALTD
 70
               2
  9
$DIMALTF
 40
25.399999999999999
  9
$DIMLFAC
 40
1.0
  9
$DIMTOFL
 70
               0
  9
$DIMTVP
 40
0.0
  9
$DIMTIX
 70
               0
  9
$DIMSOXD
 70
               0
  9
$DIMSAH
 70
               0
  9
$DIMBLK1
  1

  9
$DIMBLK2
  1

  9
$DIMSTYLE
  2
STANDARD
  9
$DIMCLRD
 70
               0
  9
$DIMCLRE
 70
               0
  9
$DIMCLRT
 70
               0
  9
$DIMTFAC
 40
1.0
  9
$DIMGAP
 40
0.09
  9
$LUNITS
 70
               2
  9
$LUPREC
 70
               4
  9
$AXISMODE
 70
               0
  9
$AXISUNIT
 10
0.0
 20
0.0
  9
$SKETCHINC
 40
0.1
  9
$FILLETRAD
 40
0.0
  9
$AUNITS
 70
               0
  9
$AUPREC
 70
               0
  9
$MENU
  1
acad
  9
$ELEVATION
 40
0.0
  9
$PELEVATION
 40
0.0
  9
$THICKNESS
 40
0.0
  9
$LIMCHECK
 70
               0
  9
$BLIPMODE
 70
               1
  9
$CHAMFERA
 40
0.0
  9
$CHAMFERB
 40
0.0
  9
$SKPOLY
 70
               0
  9
$TDCREATE
 40
0.000000000
  9
$TDUPDATE
 40
0.000000000
  9
$TDINDWG
 40
0.0000000000
  9
$TDUSRTIMER
 40
0.0000000000
  9
$USRTIMER
 70
               1
  9
$ANGBASE
 50
0.0
  9
$ANGDIR
 70
               0
  9
$PDMODE
 70
               0
  9
$PDSIZE
 40
1.0
  9
$PLINEWID
 40
0.0
  9
$COORDS
 70
               1
  9
$SPLFRAME
 70
               0
  9
$SPLINETYPE
 70
               6
  9
$SPLINESEGS
 70
               8
  9
$ATTDIA
 70
               0
  9
$ATTREQ
 70
               1
  9
$HANDLING
 70
               1
  9
$HANDSEED
  5
544
  9
$SURFTAB1
 70
               6
  9
$SURFTAB2
 70
               6
  9
$SURFTYPE
 70
               6
  9
$SURFU
 70
               6
  9
$SURFV
 70
               6
  9
$UCSNAME
  2

  9
$UCSORG
 10
0.0
 20
0.0
 30
0.0
  9
$UCSXDIR
 10
1.0
 20
0.0
 30
0.0
  9
$UCSYDIR
 10
0.0
 20
1.0
 30
0.0
  9
$PUCSNAME
  2

  9
$PUCSORG
 10
0.0
 20
0.0
 30
0.0
  9
$PUCSXDIR
 10
1.0
 20
0.0
 30
0.0
  9
$PUCSYDIR
 10
0.0
 20
1.0
 30
0.0
  9
$USERI1
 70
               0
  9
$USERI2
 70
               0
  9
$USERI3
 70
               0
  9
$USERI4
 70
               0
  9
$USERI5
 70
               0
  9
$USERR1
 40
0.0
  9
$USERR2
 40
0.0
  9
$USERR3
 40
0.0
  9
$USERR4
 40
0.0
  9
$USERR5
 40
0.0
  9
$WORLDVIEW
 70
               1
  9
$SHADEDGE
 70
               3
  9
$SHADEDIF
 70
              70
  9
$TILEMODE
 70
               1
  9
$MAXACTVP
 70
              16
  9
$PINSBASE
 10
0.0
 20
0.0
 30
0.0
  9
$PLIMCHECK
 70
               0
  9
$PEXTMIN
 10
1.0000000000000000E+20
 20
1.0000000000000000E+20
 30
1.0000000000000000E+20
  9
$PEXTMAX
 10
-1.0000000000000000E+20
 20
-1.0000000000000000E+20
 30
-1.0000000000000000E+20
  9
$PLIMMIN
 10
0.0
 20
0.0
  9
$PLIMMAX
 10
12.0
 20
9.0
  9
$UNITMODE
 70
               0
  9
$VISRETAIN
 70
               0
  9
$PLINEGEN
 70
               1
  9
$PSLTSCALE
 70
               0
  9
$TREEDEPTH
 70
            3020
  9
$DWGCODEPAGE
  3
dos932
  0
ENDSEC
  0
SECTION
  2
TABLES
  0
TABLE
  2
VPORT
 70
               1
  0
VPORT
  2
*ACTIVE
 70
               0
 10
0.0
 20
0.0
 11
1.0
 21
1.0
 12
13.893261608154432
 22
-563.83176079692612
 13
0.0
 23
0.0
 14
1.0
 24
1.0
 15
0.0
 25
0.0
 16
0.0
 26
0.0
 36
1.0
 17
0.0
 27
0.0
 37
0.0
 40
2590.8531913612069
 41
0.5151214714149186
 42
50.0
 43
0.0
 44
0.0
 50
0.0
 51
0.0
 71
               0
 72
             100
 73
               1
 74
               1
 75
               0
 76
               0
 77
               0
 78
               0
  0
ENDTAB
  0
TABLE
  2
LTYPE
 70
              26
  0
LTYPE
  2
CONTINUOUS
 70
               0
  3
Solid line
 72
              65
 73
               0
 40
0.0
  0
LTYPE
  2
HIDDENX2
 70
               0
  3
CADPAC FUSION LINETYPE
 72
              65
 73
               2
 40
80.0
 49
60.0
 49
-20.0
  0
LTYPE
  2
HIDDEN
 70
               0
  3
CADPAC FUSION LINETYPE
 72
              65
 73
               2
 40
60.0
 49
40.0
 49
-20.0
  0
LTYPE
  2
HIDDEN2
 70
               0
  3
CADPAC FUSION LINETYPE
 72
              65
 73
               2
 40
50.0
 49
30.0
 49
-20.0
  0
LTYPE
  2
DASHED
 70
               0
  3
CADPAC FUSION LINETYPE
 72
              65
 73
               2
 40
60.0
 49
40.0
 49
-20.0
  0
LTYPE
  2
DASHED2
 70
               0
  3
CADPAC FUSION LINETYPE
 72
              65
 73
               2
 40
45.0
 49
30.0
 49
-15.0
  0
LTYPE
  2
DASHEDX2
 70
               0
  3
CADPAC FUSION LINETYPE
 72
              65
 73
               2
 40
90.0
 49
60.0
 49
-30.0
  0
LTYPE
  2
DOTX2
 70
               0
  3
CADPAC FUSION LINETYPE
 72
              65
 73
               2
 40
25.0
 49
0.0
 49
-25.0
  0
LTYPE
  2
DOT
 70
               0
  3
CADPAC FUSION LINETYPE
 72
              65
 73
               2
 40
20.0
 49
0.0
 49
-20.0
  0
LTYPE
  2
DOTS
 70
               0
  3
CADPAC FUSION LINETYPE
 72
              65
 73
               2
 40
20.0
 49
0.0
 49
-20.0
  0
LTYPE
  2
DOT2
 70
               0
  3
CADPAC FUSION LINETYPE
 72
              65
 73
               2
 40
15.0
 49
0.0
 49
-15.0
  0
LTYPE
  2
CENTERX2
 70
               0
  3
CADPAC FUSION LINETYPE
 72
              65
 73
               4
 40
120.0
 49
50.0
 49
-25.0
 49
20.0
 49
-25.0
  0
LTYPE
  2
CENTER
 70
               0
  3
CADPAC FUSION LINETYPE
 72
              65
 73
               4
 40
92.0
 49
40.0
 49
-20.0
 49
12.0
 49
-20.0
  0
LTYPE
  2
CENTER2
 70
               0
  3
CADPAC FUSION LINETYPE
 72
              65
 73
               4
 40
64.0
 49
30.0
 49
-15.0
 49
4.0
 49
-15.0
  0
LTYPE
  2
DASHDOTX2
 70
               0
  3
CADPAC FUSION LINETYPE
 72
              65
 73
               4
 40
100.0
 49
50.0
 49
-25.0
 49
0.0
 49
-25.0
  0
LTYPE
  2
DASHDOT
 70
               0
  3
CADPAC FUSION LINETYPE
 72
              65
 73
               4
 40
80.0
 49
40.0
 49
-20.0
 49
0.0
 49
-20.0
  0
LTYPE
  2
DASHDOT2
 70
               0
  3
CADPAC FUSION LINETYPE
 72
              65
 73
               4
 40
60.0
 49
30.0
 49
-15.0
 49
0.0
 49
-15.0
  0
LTYPE
  2
DIVIDEX2
 70
               0
  3
CADPAC FUSION LINETYPE
 72
              65
 73
               6
 40
125.0
 49
50.0
 49
-25.0
 49
0.0
 49
-25.0
 49
0.0
 49
-25.0
  0
LTYPE
  2
DIVIDE
 70
               0
  3
CADPAC FUSION LINETYPE
 72
              65
 73
               6
 40
100.0
 49
40.0
 49
-20.0
 49
0.0
 49
-20.0
 49
0.0
 49
-20.0
  0
LTYPE
  2
DIVIDE2
 70
               0
  3
CADPAC FUSION LINETYPE
 72
              65
 73
               6
 40
75.0
 49
30.0
 49
-15.0
 49
0.0
 49
-15.0
 49
0.0
 49
-15.0
  0
LTYPE
  2
BORDERX2
 70
               0
  3
CADPAC FUSION LINETYPE
 72
              65
 73
               6
 40
175.0
 49
50.0
 49
-25.0
 49
50.0
 49
-25.0
 49
0.0
 49
-25.0
  0
LTYPE
  2
BORDER
 70
               0
  3
CADPAC FUSION LINETYPE
 72
              65
 73
               6
 40
140.0
 49
40.0
 49
-20.0
 49
40.0
 49
-20.0
 49
0.0
 49
-20.0
  0
LTYPE
  2
BORDER2
 70
               0
  3
CADPAC FUSION LINETYPE
 72
              65
 73
               6
 40
105.0
 49
30.0
 49
-15.0
 49
30.0
 49
-15.0
 49
0.0
 49
-15.0
  0
LTYPE
  2
PHANTOMX2
 70
               0
  3
CADPAC FUSION LINETYPE
 72
              65
 73
               6
 40
150.0
 49
50.0
 49
-20.0
 49
20.0
 49
-20.0
 49
20.0
 49
-20.0
  0
LTYPE
  2
PHANTOM
 70
               0
  3
CADPAC FUSION LINETYPE
 72
              65
 73
               6
 40
124.0
 49
40.0
 49
-20.0
 49
12.0
 49
-20.0
 49
12.0
 49
-20.0
  0
LTYPE
  2
PHANTOM2
 70
               0
  3
CADPAC FUSION LINETYPE
 72
              65
 73
               6
 40
106.0
 49
30.0
 49
-20.0
 49
8.0
 49
-20.0
 49
8.0
 49
-20.0
  0
ENDTAB
  0
TABLE
  2
LAYER
 70
             256
  0
LAYER
  2
0
 70
               0
 62
               7
  6
CONTINUOUS
  0
LAYER
  2
LAYER001
 70
               0
 62
               7
  6
CONTINUOUS
  0
LAYER
  2
LAYER002
 70
               0
 62
               7
  6
CONTINUOUS
  0
LAYER
  2
LAYER003
 70
               0
 62
               7
  6
CONTINUOUS
  0
LAYER
  2
LAYER004
 70
               0
 62
               7
  6
CONTINUOUS
  0
LAYER
  2
LAYER005
 70
               0
 62
               7
  6
CONTINUOUS
  0
LAYER
  2
LAYER006
 70
               0
 62
               7
  6
CONTINUOUS
  0
LAYER
  2
LAYER007
 70
               0
 62
               7
  6
CONTINUOUS
  0
LAYER
  2
LAYER008
 70
               0
 62
               7
  6
CONTINUOUS
  0
LAYER
  2
LAYER009
 70
               0
 62
               7
  6
CONTINUOUS
  0
LAYER
  2
LAYER010
 70
               0
 62
               7
  6
CONTINUOUS
  0
LAYER
  2
LAYER011
 70
               0
 62
               7
  6
CONTINUOUS
  0
LAYER
  2
LAYER012
 70
               0
 62
               7
  6
CONTINUOUS
  0
LAYER
  2
LAYER013
 70
               0
 62
               7
  6
CONTINUOUS
  0
LAYER
  2
LAYER014
 70
               0
 62
               7
  6
CONTINUOUS
  0
LAYER
  2
LAYER015
 70
               0
 62
               7
  6
CONTINUOUS
  0
LAYER
  2
LAYER016
 70
               0
 62
               7
  6
CONTINUOUS
  0
LAYER
  2
LAYER017
 70
               0
 62
               7
  6
CONTINUOUS
  0
LAYER
  2
LAYER018
 70
               0
 62
               7
  6
CONTINUOUS
  0
LAYER
  2
LAYER019
 70
               0
 62
               7
  6
CONTINUOUS
  0
LAYER
  2
LAYER020
 70
               0
 62
               7
  6
CONTINUOUS
  0
LAYER
  2
LAYER021
 70
               0
 62
               7
  6
CONTINUOUS
  0
LAYER
  2
LAYER022
 70
               0
 62
               7
  6
CONTINUOUS
  0
LAYER
  2
LAYER023
 70
               0
 62
               7
  6
CONTINUOUS
  0
LAYER
  2
LAYER024
 70
               0
 62
               7
  6
CONTINUOUS
  0
LAYER
  2
LAYER025
 70
               0
 62
               7
  6
CONTINUOUS
  0
LAYER
  2
LAYER026
 70
               0
 62
               7
  6
CONTINUOUS
  0
LAYER
  2
LAYER027
 70
               0
 62
               7
  6
CONTINUOUS
  0
LAYER
  2
LAYER028
 70
               0
 62
               7
  6
CONTINUOUS
  0
LAYER
  2
LAYER029
 70
               0
 62
               7
  6
CONTINUOUS
  0
LAYER
  2
LAYER030
 70
               0
 62
               7
  6
CONTINUOUS
  0
LAYER
  2
LAYER031
 70
               0
 62
               7
  6
CONTINUOUS
  0
LAYER
  2
LAYER032
 70
               0
 62
               7
  6
CONTINUOUS
  0
LAYER
  2
LAYER033
 70
               0
 62
               7
  6
CONTINUOUS
  0
LAYER
  2
LAYER034
 70
               0
 62
               7
  6
CONTINUOUS
  0
LAYER
  2
LAYER035
 70
               0
 62
               7
  6
CONTINUOUS
  0
LAYER
  2
LAYER036
 70
               0
 62
               7
  6
CONTINUOUS
  0
LAYER
  2
LAYER037
 70
               0
 62
               7
  6
CONTINUOUS
  0
LAYER
  2
LAYER038
 70
               0
 62
               7
  6
CONTINUOUS
  0
LAYER
  2
LAYER039
 70
               0
 62
               7
  6
CONTINUOUS
  0
LAYER
  2
LAYER040
 70
               0
 62
               7
  6
CONTINUOUS
  0
LAYER
  2
LAYER041
 70
               0
 62
               7
  6
CONTINUOUS
  0
LAYER
  2
LAYER042
 70
               0
 62
               7
  6
CONTINUOUS
  0
LAYER
  2
LAYER043
 70
               0
 62
               7
  6
CONTINUOUS
  0
LAYER
  2
LAYER044
 70
               0
 62
               7
  6
CONTINUOUS
  0
LAYER
  2
LAYER045
 70
               0
 62
               7
  6
CONTINUOUS
  0
LAYER
  2
LAYER046
 70
               0
 62
               7
  6
CONTINUOUS
  0
LAYER
  2
LAYER047
 70
               0
 62
               7
  6
CONTINUOUS
  0
LAYER
  2
LAYER048
 70
               0
 62
               7
  6
CONTINUOUS
  0
LAYER
  2
LAYER049
 70
               0
 62
               7
  6
CONTINUOUS
  0
LAYER
  2
LAYER050
 70
               0
 62
               7
  6
CONTINUOUS
  0
LAYER
  2
LAYER051
 70
               0
 62
               7
  6
CONTINUOUS
  0
LAYER
  2
LAYER052
 70
               0
 62
               7
  6
CONTINUOUS
  0
LAYER
  2
LAYER053
 70
               0
 62
               7
  6
CONTINUOUS
  0
LAYER
  2
LAYER054
 70
               0
 62
               7
  6
CONTINUOUS
  0
LAYER
  2
LAYER055
 70
               0
 62
               7
  6
CONTINUOUS
  0
LAYER
  2
LAYER056
 70
               0
 62
               7
  6
CONTINUOUS
  0
LAYER
  2
LAYER057
 70
               0
 62
               7
  6
CONTINUOUS
  0
LAYER
  2
LAYER058
 70
               0
 62
               7
  6
CONTINUOUS
  0
LAYER
  2
LAYER059
 70
               0
 62
               7
  6
CONTINUOUS
  0
LAYER
  2
LAYER060
 70
               0
 62
               7
  6
CONTINUOUS
  0
LAYER
  2
LAYER061
 70
               0
 62
               7
  6
CONTINUOUS
  0
LAYER
  2
LAYER062
 70
               0
 62
               7
  6
CONTINUOUS
  0
LAYER
  2
LAYER063
 70
               0
 62
               7
  6
CONTINUOUS
  0
LAYER
  2
LAYER064
 70
               0
 62
               7
  6
CONTINUOUS
  0
LAYER
  2
LAYER065
 70
               0
 62
               7
  6
CONTINUOUS
  0
LAYER
  2
LAYER066
 70
               0
 62
               7
  6
CONTINUOUS
  0
LAYER
  2
LAYER067
 70
               0
 62
               7
  6
CONTINUOUS
  0
LAYER
  2
LAYER068
 70
               0
 62
               7
  6
CONTINUOUS
  0
LAYER
  2
LAYER069
 70
               0
 62
               7
  6
CONTINUOUS
  0
LAYER
  2
LAYER070
 70
               0
 62
               7
  6
CONTINUOUS
  0
LAYER
  2
LAYER071
 70
               0
 62
               7
  6
CONTINUOUS
  0
LAYER
  2
LAYER072
 70
               0
 62
               7
  6
CONTINUOUS
  0
LAYER
  2
LAYER073
 70
               0
 62
               7
  6
CONTINUOUS
  0
LAYER
  2
LAYER074
 70
               0
 62
               7
  6
CONTINUOUS
  0
LAYER
  2
LAYER075
 70
               0
 62
               7
  6
CONTINUOUS
  0
LAYER
  2
LAYER076
 70
               0
 62
               7
  6
CONTINUOUS
  0
LAYER
  2
LAYER077
 70
               0
 62
               7
  6
CONTINUOUS
  0
LAYER
  2
LAYER078
 70
               0
 62
               7
  6
CONTINUOUS
  0
LAYER
  2
LAYER079
 70
               0
 62
               7
  6
CONTINUOUS
  0
LAYER
  2
LAYER080
 70
               0
 62
               7
  6
CONTINUOUS
  0
LAYER
  2
LAYER081
 70
               0
 62
               7
  6
CONTINUOUS
  0
LAYER
  2
LAYER082
 70
               0
 62
               7
  6
CONTINUOUS
  0
LAYER
  2
LAYER083
 70
               0
 62
               7
  6
CONTINUOUS
  0
LAYER
  2
LAYER084
 70
               0
 62
               7
  6
CONTINUOUS
  0
LAYER
  2
LAYER085
 70
               0
 62
               7
  6
CONTINUOUS
  0
LAYER
  2
LAYER086
 70
               0
 62
               7
  6
CONTINUOUS
  0
LAYER
  2
LAYER087
 70
               0
 62
               7
  6
CONTINUOUS
  0
LAYER
  2
LAYER088
 70
               0
 62
               7
  6
CONTINUOUS
  0
LAYER
  2
LAYER089
 70
               0
 62
               7
  6
CONTINUOUS
  0
LAYER
  2
LAYER090
 70
               0
 62
               7
  6
CONTINUOUS
  0
LAYER
  2
LAYER091
 70
               0
 62
               7
  6
CONTINUOUS
  0
LAYER
  2
LAYER092
 70
               0
 62
               7
  6
CONTINUOUS
  0
LAYER
  2
LAYER093
 70
               0
 62
               7
  6
CONTINUOUS
  0
LAYER
  2
LAYER094
 70
               0
 62
               7
  6
CONTINUOUS
  0
LAYER
  2
LAYER095
 70
               0
 62
               7
  6
CONTINUOUS
  0
LAYER
  2
LAYER096
 70
               0
 62
               7
  6
CONTINUOUS
  0
LAYER
  2
LAYER097
 70
               0
 62
               7
  6
CONTINUOUS
  0
LAYER
  2
LAYER098
 70
               0
 62
               7
  6
CONTINUOUS
  0
LAYER
  2
LAYER099
 70
               0
 62
               7
  6
CONTINUOUS
  0
LAYER
  2
LAYER100
 70
               0
 62
               7
  6
CONTINUOUS
  0
LAYER
  2
LAYER101
 70
               0
 62
               7
  6
CONTINUOUS
  0
LAYER
  2
LAYER102
 70
               0
 62
               7
  6
CONTINUOUS
  0
LAYER
  2
LAYER103
 70
               0
 62
               7
  6
CONTINUOUS
  0
LAYER
  2
LAYER104
 70
               0
 62
               7
  6
CONTINUOUS
  0
LAYER
  2
LAYER105
 70
               0
 62
               7
  6
CONTINUOUS
  0
LAYER
  2
LAYER106
 70
               0
 62
               7
  6
CONTINUOUS
  0
LAYER
  2
LAYER107
 70
               0
 62
               7
  6
CONTINUOUS
  0
LAYER
  2
LAYER108
 70
               0
 62
               7
  6
CONTINUOUS
  0
LAYER
  2
LAYER109
 70
               0
 62
               7
  6
CONTINUOUS
  0
LAYER
  2
LAYER110
 70
               0
 62
               7
  6
CONTINUOUS
  0
LAYER
  2
LAYER111
 70
               0
 62
               7
  6
CONTINUOUS
  0
LAYER
  2
LAYER112
 70
               0
 62
               7
  6
CONTINUOUS
  0
LAYER
  2
LAYER113
 70
               0
 62
               7
  6
CONTINUOUS
  0
LAYER
  2
LAYER114
 70
               0
 62
               7
  6
CONTINUOUS
  0
LAYER
  2
LAYER115
 70
               0
 62
               7
  6
CONTINUOUS
  0
LAYER
  2
LAYER116
 70
               0
 62
               7
  6
CONTINUOUS
  0
LAYER
  2
LAYER117
 70
               0
 62
               7
  6
CONTINUOUS
  0
LAYER
  2
LAYER118
 70
               0
 62
               7
  6
CONTINUOUS
  0
LAYER
  2
LAYER119
 70
               0
 62
               7
  6
CONTINUOUS
  0
LAYER
  2
LAYER120
 70
               0
 62
               7
  6
CONTINUOUS
  0
LAYER
  2
LAYER121
 70
               0
 62
               7
  6
CONTINUOUS
  0
LAYER
  2
LAYER122
 70
               0
 62
               7
  6
CONTINUOUS
  0
LAYER
  2
LAYER123
 70
               0
 62
               7
  6
CONTINUOUS
  0
LAYER
  2
LAYER124
 70
               0
 62
               7
  6
CONTINUOUS
  0
LAYER
  2
LAYER125
 70
               0
 62
               7
  6
CONTINUOUS
  0
LAYER
  2
LAYER126
 70
               0
 62
               7
  6
CONTINUOUS
  0
LAYER
  2
LAYER127
 70
               0
 62
               7
  6
CONTINUOUS
  0
LAYER
  2
LAYER128
 70
               0
 62
               7
  6
CONTINUOUS
  0
LAYER
  2
LAYER129
 70
               0
 62
               7
  6
CONTINUOUS
  0
LAYER
  2
LAYER130
 70
               0
 62
               7
  6
CONTINUOUS
  0
LAYER
  2
LAYER131
 70
               0
 62
               7
  6
CONTINUOUS
  0
LAYER
  2
LAYER132
 70
               0
 62
               7
  6
CONTINUOUS
  0
LAYER
  2
LAYER133
 70
               0
 62
               7
  6
CONTINUOUS
  0
LAYER
  2
LAYER134
 70
               0
 62
               7
  6
CONTINUOUS
  0
LAYER
  2
LAYER135
 70
               0
 62
               7
  6
CONTINUOUS
  0
LAYER
  2
LAYER136
 70
               0
 62
               7
  6
CONTINUOUS
  0
LAYER
  2
LAYER137
 70
               0
 62
               7
  6
CONTINUOUS
  0
LAYER
  2
LAYER138
 70
               0
 62
               7
  6
CONTINUOUS
  0
LAYER
  2
LAYER139
 70
               0
 62
               7
  6
CONTINUOUS
  0
LAYER
  2
LAYER140
 70
               0
 62
               7
  6
CONTINUOUS
  0
LAYER
  2
LAYER141
 70
               0
 62
               7
  6
CONTINUOUS
  0
LAYER
  2
LAYER142
 70
               0
 62
               7
  6
CONTINUOUS
  0
LAYER
  2
LAYER143
 70
               0
 62
               7
  6
CONTINUOUS
  0
LAYER
  2
LAYER144
 70
               0
 62
               7
  6
CONTINUOUS
  0
LAYER
  2
LAYER145
 70
               0
 62
               7
  6
CONTINUOUS
  0
LAYER
  2
LAYER146
 70
               0
 62
               7
  6
CONTINUOUS
  0
LAYER
  2
LAYER147
 70
               0
 62
               7
  6
CONTINUOUS
  0
LAYER
  2
LAYER148
 70
               0
 62
               7
  6
CONTINUOUS
  0
LAYER
  2
LAYER149
 70
               0
 62
               7
  6
CONTINUOUS
  0
LAYER
  2
LAYER150
 70
               0
 62
               7
  6
CONTINUOUS
  0
LAYER
  2
LAYER151
 70
               0
 62
               7
  6
CONTINUOUS
  0
LAYER
  2
LAYER152
 70
               0
 62
               7
  6
CONTINUOUS
  0
LAYER
  2
LAYER153
 70
               0
 62
               7
  6
CONTINUOUS
  0
LAYER
  2
LAYER154
 70
               0
 62
               7
  6
CONTINUOUS
  0
LAYER
  2
LAYER155
 70
               0
 62
               7
  6
CONTINUOUS
  0
LAYER
  2
LAYER156
 70
               0
 62
               7
  6
CONTINUOUS
  0
LAYER
  2
LAYER157
 70
               0
 62
               7
  6
CONTINUOUS
  0
LAYER
  2
LAYER158
 70
               0
 62
               7
  6
CONTINUOUS
  0
LAYER
  2
LAYER159
 70
               0
 62
               7
  6
CONTINUOUS
  0
LAYER
  2
LAYER160
 70
               0
 62
               7
  6
CONTINUOUS
  0
LAYER
  2
LAYER161
 70
               0
 62
               7
  6
CONTINUOUS
  0
LAYER
  2
LAYER162
 70
               0
 62
               7
  6
CONTINUOUS
  0
LAYER
  2
LAYER163
 70
               0
 62
               7
  6
CONTINUOUS
  0
LAYER
  2
LAYER164
 70
               0
 62
               7
  6
CONTINUOUS
  0
LAYER
  2
LAYER165
 70
               0
 62
               7
  6
CONTINUOUS
  0
LAYER
  2
LAYER166
 70
               0
 62
               7
  6
CONTINUOUS
  0
LAYER
  2
LAYER167
 70
               0
 62
               7
  6
CONTINUOUS
  0
LAYER
  2
LAYER168
 70
               0
 62
               7
  6
CONTINUOUS
  0
LAYER
  2
LAYER169
 70
               0
 62
               7
  6
CONTINUOUS
  0
LAYER
  2
LAYER170
 70
               0
 62
               7
  6
CONTINUOUS
  0
LAYER
  2
LAYER171
 70
               0
 62
               7
  6
CONTINUOUS
  0
LAYER
  2
LAYER172
 70
               0
 62
               7
  6
CONTINUOUS
  0
LAYER
  2
LAYER173
 70
               0
 62
               7
  6
CONTINUOUS
  0
LAYER
  2
LAYER174
 70
               0
 62
               7
  6
CONTINUOUS
  0
LAYER
  2
LAYER175
 70
               0
 62
               7
  6
CONTINUOUS
  0
LAYER
  2
LAYER176
 70
               0
 62
               7
  6
CONTINUOUS
  0
LAYER
  2
LAYER177
 70
               0
 62
               7
  6
CONTINUOUS
  0
LAYER
  2
LAYER178
 70
               0
 62
               7
  6
CONTINUOUS
  0
LAYER
  2
LAYER179
 70
               0
 62
               7
  6
CONTINUOUS
  0
LAYER
  2
LAYER180
 70
               0
 62
               7
  6
CONTINUOUS
  0
LAYER
  2
LAYER181
 70
               0
 62
               7
  6
CONTINUOUS
  0
LAYER
  2
LAYER182
 70
               0
 62
               7
  6
CONTINUOUS
  0
LAYER
  2
LAYER183
 70
               0
 62
               7
  6
CONTINUOUS
  0
LAYER
  2
LAYER184
 70
               0
 62
               7
  6
CONTINUOUS
  0
LAYER
  2
LAYER185
 70
               0
 62
               7
  6
CONTINUOUS
  0
LAYER
  2
LAYER186
 70
               0
 62
               7
  6
CONTINUOUS
  0
LAYER
  2
LAYER187
 70
               0
 62
               7
  6
CONTINUOUS
  0
LAYER
  2
LAYER188
 70
               0
 62
               7
  6
CONTINUOUS
  0
LAYER
  2
LAYER189
 70
               0
 62
               7
  6
CONTINUOUS
  0
LAYER
  2
LAYER190
 70
               0
 62
               7
  6
CONTINUOUS
  0
LAYER
  2
LAYER191
 70
               0
 62
               7
  6
CONTINUOUS
  0
LAYER
  2
LAYER192
 70
               0
 62
               7
  6
CONTINUOUS
  0
LAYER
  2
LAYER193
 70
               0
 62
               7
  6
CONTINUOUS
  0
LAYER
  2
LAYER194
 70
               0
 62
               7
  6
CONTINUOUS
  0
LAYER
  2
LAYER195
 70
               0
 62
               7
  6
CONTINUOUS
  0
LAYER
  2
LAYER196
 70
               0
 62
               7
  6
CONTINUOUS
  0
LAYER
  2
LAYER197
 70
               0
 62
               7
  6
CONTINUOUS
  0
LAYER
  2
LAYER198
 70
               0
 62
               7
  6
CONTINUOUS
  0
LAYER
  2
LAYER199
 70
               0
 62
               7
  6
CONTINUOUS
  0
LAYER
  2
LAYER200
 70
               0
 62
               7
  6
CONTINUOUS
  0
LAYER
  2
LAYER201
 70
               0
 62
               7
  6
CONTINUOUS
  0
LAYER
  2
LAYER202
 70
               0
 62
               7
  6
CONTINUOUS
  0
LAYER
  2
LAYER203
 70
               0
 62
               7
  6
CONTINUOUS
  0
LAYER
  2
LAYER204
 70
               0
 62
               7
  6
CONTINUOUS
  0
LAYER
  2
LAYER205
 70
               0
 62
               7
  6
CONTINUOUS
  0
LAYER
  2
LAYER206
 70
               0
 62
               7
  6
CONTINUOUS
  0
LAYER
  2
LAYER207
 70
               0
 62
               7
  6
CONTINUOUS
  0
LAYER
  2
LAYER208
 70
               0
 62
               7
  6
CONTINUOUS
  0
LAYER
  2
LAYER209
 70
               0
 62
               7
  6
CONTINUOUS
  0
LAYER
  2
LAYER210
 70
               0
 62
               7
  6
CONTINUOUS
  0
LAYER
  2
LAYER211
 70
               0
 62
               7
  6
CONTINUOUS
  0
LAYER
  2
LAYER212
 70
               0
 62
               7
  6
CONTINUOUS
  0
LAYER
  2
LAYER213
 70
               0
 62
               7
  6
CONTINUOUS
  0
LAYER
  2
LAYER214
 70
               0
 62
               7
  6
CONTINUOUS
  0
LAYER
  2
LAYER215
 70
               0
 62
               7
  6
CONTINUOUS
  0
LAYER
  2
LAYER216
 70
               0
 62
               7
  6
CONTINUOUS
  0
LAYER
  2
LAYER217
 70
               0
 62
               7
  6
CONTINUOUS
  0
LAYER
  2
LAYER218
 70
               0
 62
               7
  6
CONTINUOUS
  0
LAYER
  2
LAYER219
 70
               0
 62
               7
  6
CONTINUOUS
  0
LAYER
  2
LAYER220
 70
               0
 62
               7
  6
CONTINUOUS
  0
LAYER
  2
LAYER221
 70
               0
 62
               7
  6
CONTINUOUS
  0
LAYER
  2
LAYER222
 70
               0
 62
               7
  6
CONTINUOUS
  0
LAYER
  2
LAYER223
 70
               0
 62
               7
  6
CONTINUOUS
  0
LAYER
  2
LAYER224
 70
               0
 62
               7
  6
CONTINUOUS
  0
LAYER
  2
LAYER225
 70
               0
 62
               7
  6
CONTINUOUS
  0
LAYER
  2
LAYER226
 70
               0
 62
               7
  6
CONTINUOUS
  0
LAYER
  2
LAYER227
 70
               0
 62
               7
  6
CONTINUOUS
  0
LAYER
  2
LAYER228
 70
               0
 62
               7
  6
CONTINUOUS
  0
LAYER
  2
LAYER229
 70
               0
 62
               7
  6
CONTINUOUS
  0
LAYER
  2
LAYER230
 70
               0
 62
               7
  6
CONTINUOUS
  0
LAYER
  2
LAYER231
 70
               0
 62
               7
  6
CONTINUOUS
  0
LAYER
  2
LAYER232
 70
               0
 62
               7
  6
CONTINUOUS
  0
LAYER
  2
LAYER233
 70
               0
 62
               7
  6
CONTINUOUS
  0
LAYER
  2
LAYER234
 70
               0
 62
               7
  6
CONTINUOUS
  0
LAYER
  2
LAYER235
 70
               0
 62
               7
  6
CONTINUOUS
  0
LAYER
  2
LAYER236
 70
               0
 62
               7
  6
CONTINUOUS
  0
LAYER
  2
LAYER237
 70
               0
 62
               7
  6
CONTINUOUS
  0
LAYER
  2
LAYER238
 70
               0
 62
               7
  6
CONTINUOUS
  0
LAYER
  2
LAYER239
 70
               0
 62
               7
  6
CONTINUOUS
  0
LAYER
  2
LAYER240
 70
               0
 62
               7
  6
CONTINUOUS
  0
LAYER
  2
LAYER241
 70
               0
 62
               7
  6
CONTINUOUS
  0
LAYER
  2
LAYER242
 70
               0
 62
               7
  6
CONTINUOUS
  0
LAYER
  2
LAYER243
 70
               0
 62
               7
  6
CONTINUOUS
  0
LAYER
  2
LAYER244
 70
               0
 62
               7
  6
CONTINUOUS
  0
LAYER
  2
LAYER245
 70
               0
 62
               7
  6
CONTINUOUS
  0
LAYER
  2
LAYER246
 70
               0
 62
               7
  6
CONTINUOUS
  0
LAYER
  2
LAYER247
 70
               0
 62
               7
  6
CONTINUOUS
  0
LAYER
  2
LAYER248
 70
               0
 62
               7
  6
CONTINUOUS
  0
LAYER
  2
LAYER249
 70
               0
 62
               7
  6
CONTINUOUS
  0
LAYER
  2
LAYER250
 70
               0
 62
               7
  6
CONTINUOUS
  0
LAYER
  2
LAYER251
 70
               0
 62
               7
  6
CONTINUOUS
  0
LAYER
  2
LAYER252
 70
               0
 62
               7
  6
CONTINUOUS
  0
LAYER
  2
LAYER253
 70
               0
 62
               7
  6
CONTINUOUS
  0
LAYER
  2
LAYER254
 70
               0
 62
               7
  6
CONTINUOUS
  0
LAYER
  2
LAYER255
 70
               0
 62
               7
  6
CONTINUOUS
  0
ENDTAB
  0
TABLE
  2
STYLE
 70
               1
  0
STYLE
  2
STANDARD
 70
               0
 40
0.0
 41
0.8
 50
0.0
 71
               0
 42
40.0
  3
MS PGothic.ttf
  4

  0
ENDTAB
  0
TABLE
  2
VIEW
 70
               0
  0
VIEW
  2
QQQQ
 70
               0
 40
2590.8531913612069
 10
13.893261608154432
 20
-563.83176079692612
 41
1334.6041081540225
 11
0.0
 21
0.0
 31
1.0
 12
100.0
 22
100.0
 32
0.0
 42
50.0
 43
0.0
 44
0.0
 50
0.0
 71
               0
  0
ENDTAB
  0
TABLE
  2
UCS
 70
               0
  0
ENDTAB
  0
TABLE
  2
APPID
 70
               1
  0
APPID
  2
ACAD
 70
               0
  0
ENDTAB
  0
TABLE
  2
DIMSTYLE
 70
               1
  0
DIMSTYLE
  2
STANDARD
 70
               0
  3

  4

  5

  6

  7

 40
1.0
 41
0.18
 42
0.0625
 43
0.38
 44
0.18
 45
0.0
 46
0.0
 47
0.0
 48
0.0
140
0.18
141
0.09
142
0.0
143
25.399999999999999
144
1.0
145
0.0
146
1.0
147
0.09
 71
               0
 72
               0
 73
               1
 74
               1
 75
               0
 76
               0
 77
               0
 78
               0
170
               0
171
               2
172
               0
173
               0
174
               0
175
               0
176
               0
177
               0
178
               0
  0
ENDTAB
  0
ENDSEC
  0
SECTION
  2
BLOCKS
  0
BLOCK
  8
0
  5
140
  2
GROUP_1
 70
               0
 10
0.0
 20
0.0
 30
0.0
  3
GROUP_1
  0
LINE
  8
0
  6
CONTINUOUS
 62
               4
  5
141
 10
-75.316372202579259
 20
435.65328291202434
 30
0.0
 11
-69.831544645277518
 21
426.15328291202445
 31
0.0
  0
LINE
  8
0
  6
CONTINUOUS
 62
               4
  5
142
 10
-69.831544645277518
 20
426.15328291202445
 30
0.0
 11
-58.861889530674489
 21
426.15328291202445
 31
0.0
  0
LINE
  8
0
  6
CONTINUOUS
 62
               4
  5
143
 10
-58.861889530674489
 20
426.15328291202445
 30
0.0
 11
-53.377061973373202
 21
435.65328291202434
 31
0.0
  0
LINE
  8
0
  6
CONTINUOUS
 62
               4
  5
144
 10
-53.377061973373202
 20
435.65328291202434
 30
0.0
 11
-58.861889530674489
 21
445.15328291202422
 31
0.0
  0
LINE
  8
0
  6
CONTINUOUS
 62
               4
  5
145
 10
-58.861889530674489
 20
445.15328291202422
 30
0.0
 11
-69.831544645277518
 21
445.15328291202422
 31
0.0
  0
LINE
  8
0
  6
CONTINUOUS
 62
               4
  5
146
 10
-69.831544645277518
 20
445.15328291202422
 30
0.0
 11
-75.316372202579259
 21
435.65328291202434
 31
0.0
  0
CIRCLE
  8
0
  6
CONTINUOUS
 62
               4
  5
147
 10
-64.346717087976231
 20
435.65328291202434
 30
0.0
 40
6.0000000000000009
  0
ENDBLK
  8
0
  5
148
  0
BLOCK
  8
0
  5
149
  2
GROUP_2
 70
               0
 10
0.0
 20
0.0
 30
0.0
  3
GROUP_2
  0
LINE
  8
0
  6
CONTINUOUS
 62
               4
  5
14A
 10
-75.316372202579259
 20
564.34671708797566
 30
0.0
 11
-69.831544645277518
 21
554.84671708797578
 31
0.0
  0
LINE
  8
0
  6
CONTINUOUS
 62
               4
  5
14B
 10
-69.831544645277518
 20
554.84671708797578
 30
0.0
 11
-58.861889530674489
 21
554.84671708797578
 31
0.0
  0
LINE
  8
0
  6
CONTINUOUS
 62
               4
  5
14C
 10
-58.861889530674489
 20
554.84671708797578
 30
0.0
 11
-53.377061973373202
 21
564.34671708797566
 31
0.0
  0
LINE
  8
0
  6
CONTINUOUS
 62
               4
  5
14D
 10
-53.377061973373202
 20
564.34671708797566
 30
0.0
 11
-58.861889530674489
 21
573.84671708797589
 31
0.0
  0
LINE
  8
0
  6
CONTINUOUS
 62
               4
  5
14E
 10
-58.861889530674489
 20
573.84671708797589
 30
0.0
 11
-69.831544645277518
 21
573.84671708797589
 31
0.0
  0
LINE
  8
0
  6
CONTINUOUS
 62
               4
  5
14F
 10
-69.831544645277518
 20
573.84671708797589
 30
0.0
 11
-75.316372202579259
 21
564.34671708797566
 31
0.0
  0
CIRCLE
  8
0
  6
CONTINUOUS
 62
               4
  5
150
 10
-64.346717087976231
 20
564.34671708797566
 30
0.0
 40
6.0000000000000009
  0
ENDBLK
  8
0
  5
151
  0
BLOCK
  8
0
  5
152
  2
GROUP_3
 70
               0
 10
0.0
 20
0.0
 30
0.0
  3
GROUP_3
  0
LINE
  8
0
  6
CONTINUOUS
 62
               4
  5
153
 10
75.316372202579373
 20
564.34671708797566
 30
0.0
 11
69.831544645277745
 21
554.84671708797578
 31
0.0
  0
LINE
  8
0
  6
CONTINUOUS
 62
               4
  5
154
 10
69.831544645277745
 20
554.84671708797578
 30
0.0
 11
58.861889530674603
 21
554.84671708797578
 31
0.0
  0
LINE
  8
0
  6
CONTINUOUS
 62
               4
  5
155
 10
58.861889530674603
 20
554.84671708797578
 30
0.0
 11
53.377061973373429
 21
564.34671708797566
 31
0.0
  0
LINE
  8
0
  6
CONTINUOUS
 62
               4
  5
156
 10
53.377061973373429
 20
564.34671708797566
 30
0.0
 11
58.861889530674603
 21
573.84671708797589
 31
0.0
  0
LINE
  8
0
  6
CONTINUOUS
 62
               4
  5
157
 10
58.861889530674603
 20
573.84671708797589
 30
0.0
 11
69.831544645277745
 21
573.84671708797589
 31
0.0
  0
LINE
  8
0
  6
CONTINUOUS
 62
               4
  5
158
 10
69.831544645277745
 20
573.84671708797589
 30
0.0
 11
75.316372202579373
 21
564.34671708797566
 31
0.0
  0
CIRCLE
  8
0
  6
CONTINUOUS
 62
               4
  5
159
 10
64.346717087976344
 20
564.34671708797566
 30
0.0
 40
6.0000000000000009
  0
ENDBLK
  8
0
  5
15A
  0
BLOCK
  8
0
  5
15B
  2
GROUP_4
 70
               0
 10
0.0
 20
0.0
 30
0.0
  3
GROUP_4
  0
LINE
  8
0
  6
CONTINUOUS
 62
               4
  5
15C
 10
75.316372202579373
 20
435.65328291202434
 30
0.0
 11
69.831544645277745
 21
426.15328291202445
 31
0.0
  0
LINE
  8
0
  6
CONTINUOUS
 62
               4
  5
15D
 10
69.831544645277745
 20
426.15328291202445
 30
0.0
 11
58.861889530674603
 21
426.15328291202445
 31
0.0
  0
LINE
  8
0
  6
CONTINUOUS
 62
               4
  5
15E
 10
58.861889530674603
 20
426.15328291202445
 30
0.0
 11
53.377061973373429
 21
435.65328291202434
 31
0.0
  0
LINE
  8
0
  6
CONTINUOUS
 62
               4
  5
15F
 10
53.377061973373429
 20
435.65328291202434
 30
0.0
 11
58.861889530674603
 21
445.15328291202422
 31
0.0
  0
LINE
  8
0
  6
CONTINUOUS
 62
               4
  5
160
 10
58.861889530674603
 20
445.15328291202422
 30
0.0
 11
69.831544645277745
 21
445.15328291202422
 31
0.0
  0
LINE
  8
0
  6
CONTINUOUS
 62
               4
  5
161
 10
69.831544645277745
 20
445.15328291202422
 30
0.0
 11
75.316372202579373
 21
435.65328291202434
 31
0.0
  0
CIRCLE
  8
0
  6
CONTINUOUS
 62
               4
  5
162
 10
64.346717087976344
 20
435.65328291202434
 30
0.0
 40
6.0000000000000009
  0
ENDBLK
  8
0
  5
163
  0
BLOCK
  8
0
  5
164
  2
GROUP_5
 70
               0
 10
0.0
 20
0.0
 30
0.0
  3
GROUP_5
  0
LINE
  8
0
  6
CONTINUOUS
 62
               4
  5
165
 10
-75.299999999999727
 20
20.300000000000011
 30
0.0
 11
-75.299999999999727
 21
30.300000000000011
 31
0.0
  0
LINE
  8
0
  6
CONTINUOUS
 62
               4
  5
166
 10
-69.81517244269844
 20
20.300000000000011
 30
0.0
 11
-69.81517244269844
 21
30.300000000000011
 31
0.0
  0
LINE
  8
0
  6
CONTINUOUS
 62
               4
  5
167
 10
-75.299999999999727
 20
20.300000000000011
 30
0.0
 11
-53.400000000000091
 21
20.300000000000011
 31
0.0
  0
LINE
  8
0
  6
CONTINUOUS
 62
               4
  5
168
 10
-75.299999999999727
 20
30.300000000000011
 30
0.0
 11
-53.400000000000091
 21
30.300000000000011
 31
0.0
  0
LINE
  8
0
  6
CONTINUOUS
 62
               4
  5
169
 10
-53.400000000000091
 20
20.300000000000011
 30
0.0
 11
-53.400000000000091
 21
30.300000000000011
 31
0.0
  0
LINE
  8
0
  6
CONTINUOUS
 62
               4
  5
16A
 10
-58.884827557301378
 20
20.300000000000011
 30
0.0
 11
-58.884827557301378
 21
30.300000000000011
 31
0.0
  0
ENDBLK
  8
0
  5
16B
  0
BLOCK
  8
0
  5
16C
  2
GROUP_6
 70
               0
 10
0.0
 20
0.0
 30
0.0
  3
GROUP_6
  0
LINE
  8
0
  6
CONTINUOUS
 62
               4
  5
16D
 10
75.299999999999727
 20
20.300000000000018
 30
0.0
 11
75.299999999999727
 21
30.300000000000018
 31
0.0
  0
LINE
  8
0
  6
CONTINUOUS
 62
               4
  5
16E
 10
69.81517244269844
 20
20.300000000000018
 30
0.0
 11
69.81517244269844
 21
30.300000000000018
 31
0.0
  0
LINE
  8
0
  6
CONTINUOUS
 62
               4
  5
16F
 10
75.299999999999727
 20
20.300000000000018
 30
0.0
 11
53.400000000000091
 21
20.300000000000011
 31
0.0
  0
LINE
  8
0
  6
CONTINUOUS
 62
               4
  5
170
 10
75.299999999999727
 20
30.300000000000018
 30
0.0
 11
53.400000000000091
 21
30.300000000000011
 31
0.0
  0
LINE
  8
0
  6
CONTINUOUS
 62
               4
  5
171
 10
53.400000000000091
 20
20.300000000000011
 30
0.0
 11
53.400000000000091
 21
30.300000000000011
 31
0.0
  0
LINE
  8
0
  6
CONTINUOUS
 62
               4
  5
172
 10
58.884827557301378
 20
20.300000000000018
 30
0.0
 11
58.884827557301378
 21
30.300000000000018
 31
0.0
  0
ENDBLK
  8
0
  5
173
  0
BLOCK
  8
0
  5
174
  2
GROUP_7
 70
               0
 10
0.0
 20
0.0
 30
0.0
  3
GROUP_7
  0
LINE
  8
0
  6
CONTINUOUS
 62
               4
  5
175
 10
424.70000000000027
 20
20.300000000000082
 30
0.0
 11
424.70000000000027
 21
30.300000000000082
 31
0.0
  0
LINE
  8
0
  6
CONTINUOUS
 62
               4
  5
176
 10
430.18482755730156
 20
20.300000000000082
 30
0.0
 11
430.18482755730156
 21
30.300000000000082
 31
0.0
  0
LINE
  8
0
  6
CONTINUOUS
 62
               4
  5
177
 10
424.70000000000027
 20
20.300000000000082
 30
0.0
 11
446.59999999999991
 21
20.300000000000082
 31
0.0
  0
LINE
  8
0
  6
CONTINUOUS
 62
               4
  5
178
 10
424.70000000000027
 20
30.300000000000082
 30
0.0
 11
446.59999999999991
 21
30.300000000000082
 31
0.0
  0
LINE
  8
0
  6
CONTINUOUS
 62
               4
  5
179
 10
446.59999999999991
 20
20.300000000000082
 30
0.0
 11
446.59999999999991
 21
30.300000000000082
 31
0.0
  0
LINE
  8
0
  6
CONTINUOUS
 62
               4
  5
17A
 10
441.11517244269862
 20
20.300000000000082
 30
0.0
 11
441.11517244269862
 21
30.300000000000082
 31
0.0
  0
ENDBLK
  8
0
  5
17B
  0
BLOCK
  8
0
  5
17C
  2
GROUP_8
 70
               0
 10
0.0
 20
0.0
 30
0.0
  3
GROUP_8
  0
LINE
  8
0
  6
CONTINUOUS
 62
               4
  5
17D
 10
575.29999999999973
 20
20.300000000000082
 30
0.0
 11
575.29999999999973
 21
30.300000000000082
 31
0.0
  0
LINE
  8
0
  6
CONTINUOUS
 62
               4
  5
17E
 10
569.81517244269844
 20
20.300000000000082
 30
0.0
 11
569.81517244269844
 21
30.300000000000082
 31
0.0
  0
LINE
  8
0
  6
CONTINUOUS
 62
               4
  5
17F
 10
575.29999999999973
 20
20.300000000000082
 30
0.0
 11
553.40000000000009
 21
20.300000000000082
 31
0.0
  0
LINE
  8
0
  6
CONTINUOUS
 62
               4
  5
180
 10
575.29999999999973
 20
30.300000000000082
 30
0.0
 11
553.40000000000009
 21
30.300000000000082
 31
0.0
  0
LINE
  8
0
  6
CONTINUOUS
 62
               4
  5
181
 10
553.40000000000009
 20
20.300000000000082
 30
0.0
 11
553.40000000000009
 21
30.300000000000082
 31
0.0
  0
LINE
  8
0
  6
CONTINUOUS
 62
               4
  5
182
 10
558.88482755730138
 20
20.300000000000082
 30
0.0
 11
558.88482755730138
 21
30.300000000000082
 31
0.0
  0
ENDBLK
  8
0
  5
183
  0
BLOCK
  8
0
  5
184
  2
GROUP_9
 70
               0
 10
0.0
 20
0.0
 30
0.0
  3
GROUP_9
  0
LINE
  8
0
  6
CONTINUOUS
 62
               4
  5
185
 10
-575.29999999999973
 20
20.300000000000082
 30
0.0
 11
-575.29999999999973
 21
30.300000000000082
 31
0.0
  0
LINE
  8
0
  6
CONTINUOUS
 62
               4
  5
186
 10
-569.81517244269844
 20
20.300000000000082
 30
0.0
 11
-569.81517244269844
 21
30.300000000000082
 31
0.0
  0
LINE
  8
0
  6
CONTINUOUS
 62
               4
  5
187
 10
-575.29999999999973
 20
20.300000000000082
 30
0.0
 11
-553.40000000000009
 21
20.300000000000082
 31
0.0
  0
LINE
  8
0
  6
CONTINUOUS
 62
               4
  5
188
 10
-575.29999999999973
 20
30.300000000000082
 30
0.0
 11
-553.40000000000009
 21
30.300000000000082
 31
0.0
  0
LINE
  8
0
  6
CONTINUOUS
 62
               4
  5
189
 10
-553.40000000000009
 20
20.300000000000082
 30
0.0
 11
-553.40000000000009
 21
30.300000000000082
 31
0.0
  0
LINE
  8
0
  6
CONTINUOUS
 62
               4
  5
18A
 10
-558.88482755730138
 20
20.300000000000082
 30
0.0
 11
-558.88482755730138
 21
30.300000000000082
 31
0.0
  0
ENDBLK
  8
0
  5
18B
  0
BLOCK
  8
0
  5
18C
  2
GROUP_10
 70
               0
 10
0.0
 20
0.0
 30
0.0
  3
GROUP_10
  0
LINE
  8
0
  6
CONTINUOUS
 62
               4
  5
18D
 10
-424.70000000000027
 20
20.300000000000082
 30
0.0
 11
-424.70000000000027
 21
30.300000000000082
 31
0.0
  0
LINE
  8
0
  6
CONTINUOUS
 62
               4
  5
18E
 10
-430.18482755730156
 20
20.300000000000082
 30
0.0
 11
-430.18482755730156
 21
30.300000000000082
 31
0.0
  0
LINE
  8
0
  6
CONTINUOUS
 62
               4
  5
18F
 10
-424.70000000000027
 20
20.300000000000082
 30
0.0
 11
-446.59999999999991
 21
20.300000000000082
 31
0.0
  0
LINE
  8
0
  6
CONTINUOUS
 62
               4
  5
190
 10
-424.70000000000027
 20
30.300000000000082
 30
0.0
 11
-446.59999999999991
 21
30.300000000000082
 31
0.0
  0
LINE
  8
0
  6
CONTINUOUS
 62
               4
  5
191
 10
-446.59999999999991
 20
20.300000000000082
 30
0.0
 11
-446.59999999999991
 21
30.300000000000082
 31
0.0
  0
LINE
  8
0
  6
CONTINUOUS
 62
               4
  5
192
 10
-441.11517244269862
 20
20.300000000000082
 30
0.0
 11
-441.11517244269862
 21
30.300000000000082
 31
0.0
  0
ENDBLK
  8
0
  5
193
  0
ENDSEC
  0
SECTION
  2
ENTITIES
  0
CIRCLE
  8
0
  6
CONTINUOUS
 62
               3
  5
194
 10
0.0
 20
500.0
 30
0.0
 40
75.0
  0
CIRCLE
  8
0
  6
CONTINUOUS
 62
               3
  5
195
 10
0.0
 20
500.0
 30
0.0
 40
64.0
  0
CIRCLE
  8
0
  6
CONTINUOUS
 62
               3
  5
196
 10
0.0
 20
500.0
 30
0.0
 40
52.5
  0
LINE
  8
0
  6
CONTINUOUS
 62
               3
  5
197
 10
-86.210498200625352
 20
520.0
 30
0.0
 11
-72.284161474005487
 21
520.0
 31
0.0
  0
LINE
  8
0
  6
CONTINUOUS
 62
               3
  5
198
 10
-72.284161474005487
 20
480.0
 30
0.0
 11
-86.210498200625352
 21
480.0
 31
0.0
  0
ARC
  8
0
  6
CONTINUOUS
 62
               3
  5
199
 10
0.0
 20
500.0
 30
0.0
 40
88.5
 50
166.93897588519908
 51
193.06102411480012
  0
LINE
  8
0
  6
CONTINUOUS
 62
               3
  5
19A
 10
-20.0
 20
413.7895017993751
 30
0.0
 11
-20.0
 21
427.71583852599497
 31
0.0
  0
LINE
  8
0
  6
CONTINUOUS
 62
               3
  5
19B
 10
20.0
 20
427.71583852599497
 30
0.0
 11
20.0
 21
413.7895017993751
 31
0.0
  0
ARC
  8
0
  6
CONTINUOUS
 62
               3
  5
19C
 10
0.0
 20
500.0
 30
0.0
 40
88.5
 50
256.93897588519889
 51
283.06102411479992
  0
LINE
  8
0
  6
CONTINUOUS
 62
               3
  5
19D
 10
86.210498200624443
 20
480.0
 30
0.0
 11
72.284161474004122
 21
480.0
 31
0.0
  0
LINE
  8
0
  6
CONTINUOUS
 62
               3
  5
19E
 10
72.284161474004122
 20
520.0
 30
0.0
 11
86.210498200624443
 21
520.0
 31
0.0
  0
ARC
  8
0
  6
CONTINUOUS
 62
               3
  5
19F
 10
0.0
 20
500.0
 30
0.0
 40
88.5
 50
346.93897588519866
 51
373.06102411479969
  0
LINE
  8
0
  6
CONTINUOUS
 62
               3
  5
1A0
 10
20.0
 20
586.21049820062558
 30
0.0
 11
20.0
 21
572.2841614740048
 31
0.0
  0
LINE
  8
0
  6
CONTINUOUS
 62
               3
  5
1A1
 10
-20.0
 20
572.2841614740048
 30
0.0
 11
-20.0
 21
586.21049820062558
 31
0.0
  0
ARC
  8
0
  6
CONTINUOUS
 62
               3
  5
1A2
 10
0.0
 20
500.0
 30
0.0
 40
88.5
 50
76.938975885199284
 51
103.06102411480033
  0
LINE
  8
0
  6
CONTINUOUS
 62
               3
  5
1A3
 10
-34.003676271838572
 20
540.0
 30
0.0
 11
34.003676271838685
 21
539.99999999999977
 31
0.0
  0
ARC
  8
0
  6
CONTINUOUS
 62
               3
  5
1A4
 10
-64.346717087975321
 20
564.34671708797566
 30
0.0
 40
17.5
 50
97.816433606470909
 51
172.18356639352851
  0
LINE
  8
0
  6
CONTINUOUS
 62
               3
  5
1A5
 10
-81.684122377824224
 20
566.72671242736726
 30
0.0
 11
-89.163798633507668
 21
512.23997603115652
 31
0.0
  0
ARC
  8
0
  6
CONTINUOUS
 62
               3
  5
1A6
 10
64.346717087976231
 20
564.34671708797566
 30
0.0
 40
17.5
 50
7.8164336064711222
 51
82.183566393528707
  0
ARC
  8
0
  6
CONTINUOUS
 62
               3
  5
1A7
 10
64.346717087976231
 20
435.65328291202434
 30
0.0
 40
17.5
 50
277.81643360647053
 51
352.18356639352811
  0
ARC
  8
0
  6
CONTINUOUS
 62
               3
  5
1A8
 10
-64.346717087975321
 20
435.65328291202434
 30
0.0
 40
17.5
 50
187.81643360647072
 51
262.18356639352828
  0
LINE
  8
0
  6
CONTINUOUS
 62
               3
  5
1A9
 10
-81.684122377824224
 20
433.27328757263274
 30
0.0
 11
-89.163798633507724
 21
487.7600239688436
 31
0.0
  0
LINE
  8
0
  6
CONTINUOUS
 62
               3
  5
1AA
 10
81.684122377824679
 20
433.27328757263274
 30
0.0
 11
89.163798633508122
 21
487.76002396884337
 31
0.0
  0
ARC
  8
0
  6
CONTINUOUS
 62
               3
  5
1AB
 10
0.0
 20
500.0
 30
0.0
 40
90.0
 50
352.18356639352805
 51
367.81643360647035
  0
LINE
  8
0
  6
CONTINUOUS
 62
               3
  5
1AC
 10
81.684122377824679
 20
566.72671242736726
 30
0.0
 11
89.163798633508122
 21
512.2399760311564
 31
0.0
  0
LINE
  8
0
  6
CONTINUOUS
 62
               3
  5
1AD
 10
66.726712427367602
 20
581.68412237782468
 30
0.0
 11
12.239976031156857
 21
589.16379863350755
 31
0.0
  0
ARC
  8
0
  6
CONTINUOUS
 62
               3
  5
1AE
 10
0.0
 20
500.0
 30
0.0
 40
90.0
 50
82.183566393528665
 51
97.816433606470952
  0
LINE
  8
0
  6
CONTINUOUS
 62
               3
  5
1AF
 10
-66.726712427367147
 20
581.68412237782468
 30
0.0
 11
-12.239976031156402
 21
589.16379863350755
 31
0.0
  0
LINE
  8
0
  6
CONTINUOUS
 62
               3
  5
1B0
 10
66.726712427367602
 20
418.31587762217509
 30
0.0
 11
12.239976031156516
 21
410.83620136649245
 31
0.0
  0
LINE
  8
0
  6
CONTINUOUS
 62
               3
  5
1B1
 10
-66.726712427367147
 20
418.31587762217509
 30
0.0
 11
-12.239976031156516
 21
410.83620136649245
 31
0.0
  0
ARC
  8
0
  6
CONTINUOUS
 62
               3
  5
1B2
 10
0.0
 20
500.0
 30
0.0
 40
90.0
 50
262.18356639352828
 51
277.81643360647053
  0
ARC
  8
0
  6
CONTINUOUS
 62
               3
  5
1B3
 10
0.0
 20
500.0
 30
0.0
 40
90.0
 50
172.18356639352845
 51
187.81643360647072
  0
LINE
  8
0
  6
CONTINUOUS
 62
               3
  5
1B4
 10
-22.000000000000568
 20
500.0
 30
0.0
 11
-22.000000000000568
 21
452.33187647914019
 31
0.0
  0
LINE
  8
0
  6
CONTINUOUS
 62
               3
  5
1B5
 10
-22.000000000000568
 20
500.0
 30
0.0
 11
-44.870491366486021
 21
527.25599025040401
 31
0.0
  0
LINE
  8
0
  6
CONTINUOUS
 62
               3
  5
1B6
 10
-22.000000000000568
 20
477.99999999999955
 30
0.0
 11
47.668123520859808
 21
477.99999999999955
 31
0.0
  0
ARC
  8
0
  6
CONTINUOUS
 62
               3
  5
1B7
 10
54.999999999999545
 20
139.00000000000057
 30
0.0
 40
19.999999999999996
 50
0.0
 51
31.788330617051724
  0
LINE
  8
0
  6
CONTINUOUS
 62
               3
  5
1B8
 10
71.999999999999545
 20
224.41742430504513
 30
0.0
 11
71.999999999999545
 21
149.53565375285331
 31
0.0
  0
ARC
  8
0
  6
CONTINUOUS
 62
               3
  5
1B9
 10
-55.0
 20
139.00000000000057
 30
0.0
 40
19.999999999999996
 50
148.21166938294789
 51
179.9999999999996
  0
LINE
  8
0
  6
CONTINUOUS
 62
               3
  5
1BA
 10
-72.000000000000455
 20
149.53565375285331
 30
0.0
 11
-72.000000000000455
 21
224.41742430504513
 31
0.0
  0
ARC
  8
0
  6
CONTINUOUS
 62
               3
  5
1BB
 10
-65.0
 20
-142.49999999999986
 30
0.0
 40
2.4999999999999996
 50
89.999999999999801
 51
269.99999999999937
  0
LINE
  8
0
  6
CONTINUOUS
 62
               3
  5
1BC
 10
-90.0
 20
0.0000000000000711
 30
0.0
 11
-90.0
 21
18.000000000000043
 31
0.0
  0
LINE
  8
0
  6
CONTINUOUS
 62
               3
  5
1BD
 10
90.0
 20
0.0000000000000711
 30
0.0
 11
90.0
 21
18.000000000000043
 31
0.0
  0
LINE
  8
0
  6
CONTINUOUS
 62
               3
  5
1BE
 10
89.999999999999545
 20
18.00000000000118
 30
0.0
 11
-90.000000000000455
 21
18.000000000000043
 31
0.0
  0
LINE
  8
0
  6
CONTINUOUS
 62
               3
  5
1BF
 10
-75.0
 20
30.300000000000011
 30
0.0
 11
-75.0
 21
139.00000000000057
 31
0.0
  0
LINE
  8
0
  6
CONTINUOUS
 62
               3
  5
1C0
 10
74.999999999999545
 20
139.00000000000057
 30
0.0
 11
74.999999999999545
 21
30.300000000000018
 31
0.0
  0
ARC
  8
0
  6
CONTINUOUS
 62
               3
  5
1C1
 10
-80.000000000000455
 20
23.000000000000043
 30
0.0
 40
5.0
 50
327.31636115374278
 51
340.05155641122002
  0
ARC
  8
0
  6
CONTINUOUS
 62
               3
  5
1C2
 10
-80.000000000000455
 20
23.000000000000043
 30
0.0
 40
5.0
 50
269.99999999999937
 51
302.00545482776477
  0
LINE
  8
0
  6
CONTINUOUS
 62
               3
  5
1C3
 10
90.000000000000455
 20
-25.999999999999872
 30
0.0
 11
-89.999999999999545
 21
-25.999999999999872
 31
0.0
  0
LINE
  8
0
  6
CONTINUOUS
 62
               3
  5
1C4
 10
90.000000000000455
 20
-5.0
 30
0.0
 11
90.000000000000455
 21
-25.999999999999872
 31
0.0
  0
LINE
  8
0
  6
CONTINUOUS
 62
               3
  5
1C5
 10
-90.000000000000455
 20
-5.0
 30
0.0
 11
-90.000000000000455
 21
-25.999999999999872
 31
0.0
  0
LINE
  8
0
  6
CONTINUOUS
 62
               3
  5
1C6
 10
71.999999999999545
 20
149.53565375285331
 30
0.0
 11
11.727000000000203
 21
149.53565375285336
 31
0.0
  0
LINE
  8
0
  6
CONTINUOUS
 62
               3
  5
1C7
 10
-11.726999999999521
 20
149.53565375285331
 30
0.0
 11
-72.000000000000455
 21
149.53565375285331
 31
0.0
  0
LINE
  8
0
  6
CONTINUOUS
 62
               3
  5
1C8
 10
90.000000000000455
 20
0.0
 30
0.0
 11
-89.999999999999545
 21
0.0
 31
0.0
  0
LINE
  8
0
  6
CONTINUOUS
 62
               3
  5
1C9
 10
86.000000000000455
 20
0.0
 30
0.0
 11
86.000000000000455
 21
-5.0
 31
0.0
  0
LINE
  8
0
  6
CONTINUOUS
 62
               3
  5
1CA
 10
-90.000000000000455
 20
-5.0
 30
0.0
 11
90.000000000000455
 21
-5.0
 31
0.0
  0
LINE
  8
0
  6
CONTINUOUS
 62
               3
  5
1CB
 10
-86.000000000000455
 20
0.0
 30
0.0
 11
-86.000000000000455
 21
-5.0
 31
0.0
  0
LINE
  8
0
  6
CONTINUOUS
 62
               3
  5
1CC
 10
75.0
 20
246.00000000000057
 30
0.0
 11
-75.0
 21
246.00000000000057
 31
0.0
  0
LINE
  8
0
  6
CONTINUOUS
 62
               3
  5
1CD
 10
88.500000000000455
 20
236.00000000000057
 30
0.0
 11
88.500000000000455
 21
229.00000000000085
 31
0.0
  0
LINE
  8
0
  6
CONTINUOUS
 62
               3
  5
1CE
 10
88.500000000000455
 20
236.00000000000057
 30
0.0
 11
75.0
 21
246.00000000000057
 31
0.0
  0
ARC
  8
0
  6
CONTINUOUS
 62
               3
  5
1CF
 10
77.0
 20
224.41742430504513
 30
0.0
 40
4.9999999999999991
 50
113.57817847820161
 51
179.9999999999996
  0
LINE
  8
0
  6
CONTINUOUS
 62
               3
  5
1D0
 10
88.500000000000455
 20
229.00000000000085
 30
0.0
 11
-88.499999999999545
 21
229.00000000000085
 31
0.0
  0
LINE
  8
0
  6
CONTINUOUS
 62
               3
  5
1D1
 10
20.0
 20
229.00000000000085
 30
0.0
 11
20.0
 21
246.00000000000057
 31
0.0
  0
LINE
  8
0
  6
CONTINUOUS
 62
               3
  5
1D2
 10
-20.0
 20
246.00000000000057
 30
0.0
 11
-20.0
 21
229.00000000000085
 31
0.0
  0
LINE
  8
0
  6
CONTINUOUS
 62
               3
  5
1D3
 10
20.0
 20
236.00000000000057
 30
0.0
 11
-20.0
 21
236.00000000000057
 31
0.0
  0
LINE
  8
0
  6
CONTINUOUS
 62
               3
  5
1D4
 10
72.284161474005487
 20
246.00000000000057
 30
0.0
 11
72.284161474005487
 21
229.00000000000085
 31
0.0
  0
LINE
  8
0
  6
CONTINUOUS
 62
               3
  5
1D5
 10
-88.499999999999545
 20
236.00000000000057
 30
0.0
 11
-88.499999999999545
 21
229.00000000000085
 31
0.0
  0
LINE
  8
0
  6
CONTINUOUS
 62
               3
  5
1D6
 10
-88.499999999999545
 20
236.00000000000057
 30
0.0
 11
-75.0
 21
246.00000000000057
 31
0.0
  0
ARC
  8
0
  6
CONTINUOUS
 62
               3
  5
1D7
 10
-77.0
 20
224.41742430504513
 30
0.0
 40
4.9999999999999991
 50
0.0
 51
66.421821521798009
  0
LINE
  8
0
  6
CONTINUOUS
 62
               3
  5
1D8
 10
-72.284161474004122
 20
246.00000000000057
 30
0.0
 11
-72.284161474004122
 21
229.00000000000085
 31
0.0
  0
ARC
  8
0
  6
CONTINUOUS
 62
               3
  5
1D9
 10
80.000000000000341
 20
23.00000000000005
 30
0.0
 40
5.0
 50
199.94844358877876
 51
212.683638846256
  0
ARC
  8
0
  6
CONTINUOUS
 62
               3
  5
1DA
 10
80.000000000000341
 20
23.00000000000005
 30
0.0
 40
5.0
 50
237.99454517223401
 51
269.99999999999937
  0
LINE
  8
0
  6
CONTINUOUS
 62
               3
  5
1DB
 10
-74.999999999999545
 20
-258.0
 30
0.0
 11
75.0
 21
-257.99999999999977
 31
0.0
  0
LINE
  8
0
  6
CONTINUOUS
 62
               3
  5
1DC
 10
-72.721287833966699
 20
-277.99999999999989
 30
0.0
 11
72.721287833968063
 21
-277.99999999999989
 31
0.0
  0
LINE
  8
0
  6
CONTINUOUS
 62
               3
  5
1DD
 10
-74.999999999999716
 20
-160.82877945818413
 30
0.0
 11
-74.999999999999545
 21
-258.0
 31
0.0
  0
LINE
  8
0
  6
CONTINUOUS
 62
               3
  5
1DE
 10
58.000000000000455
 20
-407.20708506678926
 30
0.0
 11
75.0
 21
-258.00000000000898
 31
0.0
  0
LINE
  8
0
  6
CONTINUOUS
 62
               3
  5
1DF
 10
-57.999999999999545
 20
-407.20708506678926
 30
0.0
 11
-74.999999999999545
 21
-258.0
 31
0.0
  0
LINE
  8
0
  6
CONTINUOUS
 62
               3
  5
1E0
 10
572.0
 20
224.41742430504513
 30
0.0
 11
572.0
 21
154.53565375285331
 31
0.0
  0
LINE
  8
0
  6
CONTINUOUS
 62
               3
  5
1E1
 10
428.0
 20
154.53565375285399
 30
0.0
 11
428.0
 21
224.41742430504513
 31
0.0
  0
LINE
  8
0
  6
CONTINUOUS
 62
               3
  5
1E2
 10
571.50000000000045
 20
149.53565375285331
 30
0.0
 11
428.49999999999955
 21
149.53565375285331
 31
0.0
  0
LINE
  8
0
  6
CONTINUOUS
 62
               3
  5
1E3
 10
410.0
 20
18.000000000001322
 30
0.0
 11
590.0
 21
18.000000000000043
 31
0.0
  0
LINE
  8
0
  6
CONTINUOUS
 62
               3
  5
1E4
 10
590.00000000000045
 20
-4.9999999999999289
 30
0.0
 11
590.00000000000045
 21
-25.999999999999872
 31
0.0
  0
LINE
  8
0
  6
CONTINUOUS
 62
               3
  5
1E5
 10
590.00000000000045
 20
0.0000000000000711
 30
0.0
 11
590.00000000000045
 21
18.000000000000043
 31
0.0
  0
LINE
  8
0
  6
CONTINUOUS
 62
               3
  5
1E6
 10
410.00000000000045
 20
0.0000000000000711
 30
0.0
 11
410.00000000000045
 21
18.000000000000043
 31
0.0
  0
LINE
  8
0
  6
CONTINUOUS
 62
               3
  5
1E7
 10
590.00000000000045
 20
0.0000000000000711
 30
0.0
 11
410.00000000000045
 21
0.0000000000000711
 31
0.0
  0
LINE
  8
0
  6
CONTINUOUS
 62
               3
  5
1E8
 10
586.00000000000045
 20
0.0000000000000711
 30
0.0
 11
586.00000000000045
 21
-4.9999999999999289
 31
0.0
  0
LINE
  8
0
  6
CONTINUOUS
 62
               3
  5
1E9
 10
409.99999999999955
 20
-4.9999999999999289
 30
0.0
 11
590.00000000000045
 21
-4.9999999999999289
 31
0.0
  0
LINE
  8
0
  6
CONTINUOUS
 62
               3
  5
1EA
 10
409.99999999999955
 20
-4.9999999999999289
 30
0.0
 11
409.99999999999955
 21
-25.999999999999872
 31
0.0
  0
LINE
  8
0
  6
CONTINUOUS
 62
               3
  5
1EB
 10
413.99999999999955
 20
0.0000000000000711
 30
0.0
 11
413.99999999999955
 21
-4.9999999999999289
 31
0.0
  0
LINE
  8
0
  6
CONTINUOUS
 62
               3
  5
1EC
 10
590.00000000000045
 20
-25.999999999999872
 30
0.0
 11
410.00000000000045
 21
-25.999999999999872
 31
0.0
  0
ARC
  8
0
  6
CONTINUOUS
 62
               3
  5
1ED
 10
574.99999999999955
 20
-142.49999999999994
 30
0.0
 40
2.4999999999999996
 50
269.99999999999937
 51
449.99999999999898
  0
LINE
  8
0
  6
CONTINUOUS
 62
               3
  5
1EE
 10
574.99999999999955
 20
-139.99999999999994
 30
0.0
 11
574.99999999999955
 21
-30.999999999999872
 31
0.0
  0
LINE
  8
0
  6
CONTINUOUS
 62
               3
  5
1EF
 10
575.0
 20
246.00000000000057
 30
0.0
 11
425.0
 21
246.00000000000057
 31
0.0
  0
LINE
  8
0
  6
CONTINUOUS
 62
               3
  5
1F0
 10
588.50000000000045
 20
236.00000000000057
 30
0.0
 11
588.50000000000045
 21
229.00000000000085
 31
0.0
  0
LINE
  8
0
  6
CONTINUOUS
 62
               3
  5
1F1
 10
588.50000000000045
 20
236.00000000000057
 30
0.0
 11
575.0
 21
246.00000000000057
 31
0.0
  0
ARC
  8
0
  6
CONTINUOUS
 62
               3
  5
1F2
 10
577.0
 20
224.41742430504513
 30
0.0
 40
4.9999999999999991
 50
113.57817847820161
 51
179.9999999999996
  0
LINE
  8
0
  6
CONTINUOUS
 62
               3
  5
1F3
 10
588.50000000000045
 20
229.00000000000085
 30
0.0
 11
411.50000000000045
 21
229.00000000000085
 31
0.0
  0
LINE
  8
0
  6
CONTINUOUS
 62
               3
  5
1F4
 10
520.0
 20
229.00000000000085
 30
0.0
 11
520.0
 21
246.00000000000057
 31
0.0
  0
LINE
  8
0
  6
CONTINUOUS
 62
               3
  5
1F5
 10
480.0
 20
246.00000000000057
 30
0.0
 11
480.0
 21
229.00000000000085
 31
0.0
  0
LINE
  8
0
  6
CONTINUOUS
 62
               3
  5
1F6
 10
520.0
 20
236.00000000000057
 30
0.0
 11
480.0
 21
236.00000000000057
 31
0.0
  0
LINE
  8
0
  6
CONTINUOUS
 62
               3
  5
1F7
 10
572.28416147400549
 20
246.00000000000057
 30
0.0
 11
572.28416147400549
 21
229.00000000000085
 31
0.0
  0
LINE
  8
0
  6
CONTINUOUS
 62
               3
  5
1F8
 10
411.50000000000045
 20
236.00000000000057
 30
0.0
 11
411.50000000000045
 21
229.00000000000085
 31
0.0
  0
LINE
  8
0
  6
CONTINUOUS
 62
               3
  5
1F9
 10
411.50000000000045
 20
236.00000000000057
 30
0.0
 11
425.0
 21
246.00000000000057
 31
0.0
  0
ARC
  8
0
  6
CONTINUOUS
 62
               3
  5
1FA
 10
423.0
 20
224.41742430504513
 30
0.0
 40
4.9999999999999991
 50
0.0
 51
66.421821521798009
  0
LINE
  8
0
  6
CONTINUOUS
 62
               3
  5
1FB
 10
427.71583852599588
 20
246.00000000000057
 30
0.0
 11
427.71583852599588
 21
229.00000000000085
 31
0.0
  0
LINE
  8
0
  6
CONTINUOUS
 62
               3
  5
1FC
 10
425.00000000000045
 20
-258.0
 30
0.0
 11
575.0
 21
-257.99999999999977
 31
0.0
  0
LINE
  8
0
  6
CONTINUOUS
 62
               3
  5
1FD
 10
427.2787121660333
 20
-277.99999999999989
 30
0.0
 11
572.72128783396806
 21
-277.99999999999989
 31
0.0
  0
LINE
  8
0
  6
CONTINUOUS
 62
               3
  5
1FE
 10
425.00000000000045
 20
-144.99999999999989
 30
0.0
 11
425.00000000000045
 21
-258.0
 31
0.0
  0
LINE
  8
0
  6
CONTINUOUS
 62
               3
  5
1FF
 10
575.0
 20
-258.00000000000898
 30
0.0
 11
574.99999999999955
 21
-144.99999999999994
 31
0.0
  0
LINE
  8
0
  6
CONTINUOUS
 62
               3
  5
200
 10
558.00000000000045
 20
-407.20708506678926
 30
0.0
 11
575.0
 21
-258.00000000000898
 31
0.0
  0
LINE
  8
0
  6
CONTINUOUS
 62
               3
  5
201
 10
442.00000000000045
 20
-407.20708506678926
 30
0.0
 11
425.00000000000045
 21
-258.0
 31
0.0
  0
LINE
  8
0
  6
CONTINUOUS
 62
               3
  5
202
 10
-557.99999999999955
 20
-407.20708506678926
 30
0.0
 11
-574.99999999999955
 21
-258.0
 31
0.0
  0
LINE
  8
0
  6
CONTINUOUS
 62
               3
  5
203
 10
-574.99999999999955
 20
-144.99999999999994
 30
0.0
 11
-574.99999999999955
 21
-258.0
 31
0.0
  0
ARC
  8
0
  6
CONTINUOUS
 62
               3
  5
204
 10
-574.99999999999955
 20
-142.49999999999994
 30
0.0
 40
2.4999999999999996
 50
89.999999999999801
 51
269.99999999999937
  0
LINE
  8
0
  6
CONTINUOUS
 62
               3
  5
205
 10
-441.99999999999955
 20
-407.20708506678926
 30
0.0
 11
-425.0
 21
-258.00000000000898
 31
0.0
  0
LINE
  8
0
  6
CONTINUOUS
 62
               3
  5
206
 10
-574.99999999999955
 20
-144.99999999999994
 30
0.0
 11
-522.49999999999955
 21
-144.99999999999994
 31
0.0
  0
LINE
  8
0
  6
CONTINUOUS
 62
               3
  5
207
 10
-477.49999999999955
 20
-144.99999999999994
 30
0.0
 11
-425.0
 21
-144.99999999999994
 31
0.0
  0
LINE
  8
0
  6
CONTINUOUS
 62
               3
  5
208
 10
-574.99999999999955
 20
-139.99999999999994
 30
0.0
 11
-522.49999999999955
 21
-139.99999999999994
 31
0.0
  0
LINE
  8
0
  6
CONTINUOUS
 62
               3
  5
209
 10
-477.49999999999955
 20
-139.99999999999994
 30
0.0
 11
-425.0
 21
-139.99999999999994
 31
0.0
  0
ARC
  8
0
  6
CONTINUOUS
 62
               3
  5
20A
 10
-522.49999999999955
 20
-142.49999999999994
 30
0.0
 40
2.4999999999999996
 50
269.99999999999937
 51
449.99999999999898
  0
ARC
  8
0
  6
CONTINUOUS
 62
               3
  5
20B
 10
-477.49999999999955
 20
-142.49999999999994
 30
0.0
 40
2.4999999999999996
 50
89.999999999999801
 51
269.99999999999937
  0
LINE
  8
0
  6
CONTINUOUS
 62
               3
  5
20C
 10
-409.99999999999955
 20
-4.9999999999999289
 30
0.0
 11
-409.99999999999955
 21
-25.999999999999872
 31
0.0
  0
LINE
  8
0
  6
CONTINUOUS
 62
               3
  5
20D
 10
-574.99999999999955
 20
-31.466767657286141
 30
0.0
 11
-574.99999999999955
 21
-139.99999999999994
 31
0.0
  0
LINE
  8
0
  6
CONTINUOUS
 62
               3
  5
20E
 10
-574.99999999999955
 20
-258.0
 30
0.0
 11
-425.0
 21
-257.99999999999977
 31
0.0
  0
LINE
  8
0
  6
CONTINUOUS
 62
               3
  5
20F
 10
-572.7212878339667
 20
-277.99999999999989
 30
0.0
 11
-427.27871216603194
 21
-277.99999999999989
 31
0.0
  0
LINE
  8
0
  6
CONTINUOUS
 62
               3
  5
210
 10
-590.00000000000045
 20
-4.9999999999999289
 30
0.0
 11
-590.00000000000045
 21
-25.999999999999872
 31
0.0
  0
LINE
  8
0
  6
CONTINUOUS
 62
               3
  5
211
 10
-425.0
 20
246.00000000000057
 30
0.0
 11
-575.0
 21
246.00000000000057
 31
0.0
  0
LINE
  8
0
  6
CONTINUOUS
 62
               3
  5
212
 10
-411.49999999999955
 20
236.00000000000057
 30
0.0
 11
-411.49999999999955
 21
229.00000000000085
 31
0.0
  0
LINE
  8
0
  6
CONTINUOUS
 62
               3
  5
213
 10
-411.49999999999955
 20
236.00000000000057
 30
0.0
 11
-425.0
 21
246.00000000000057
 31
0.0
  0
ARC
  8
0
  6
CONTINUOUS
 62
               3
  5
214
 10
-423.0
 20
224.41742430504513
 30
0.0
 40
4.9999999999999991
 50
113.57817847820161
 51
179.9999999999996
  0
LINE
  8
0
  6
CONTINUOUS
 62
               3
  5
215
 10
-411.49999999999955
 20
229.00000000000085
 30
0.0
 11
-588.49999999999955
 21
229.00000000000085
 31
0.0
  0
LINE
  8
0
  6
CONTINUOUS
 62
               3
  5
216
 10
-428.0
 20
224.41742430504513
 30
0.0
 11
-428.0
 21
154.53565375285331
 31
0.0
  0
LINE
  8
0
  6
CONTINUOUS
 62
               3
  5
217
 10
-572.0
 20
154.53565375285399
 30
0.0
 11
-572.0
 21
224.41742430504513
 31
0.0
  0
LINE
  8
0
  6
CONTINUOUS
 62
               3
  5
218
 10
-428.49999999999955
 20
149.53565375285331
 30
0.0
 11
-571.50000000000045
 21
149.53565375285331
 31
0.0
  0
LINE
  8
0
  6
CONTINUOUS
 62
               3
  5
219
 10
-480.0
 20
229.00000000000085
 30
0.0
 11
-480.0
 21
246.00000000000057
 31
0.0
  0
LINE
  8
0
  6
CONTINUOUS
 62
               3
  5
21A
 10
-520.0
 20
246.00000000000057
 30
0.0
 11
-520.0
 21
229.00000000000085
 31
0.0
  0
LINE
  8
0
  6
CONTINUOUS
 62
               3
  5
21B
 10
-480.0
 20
236.00000000000057
 30
0.0
 11
-520.0
 21
236.00000000000057
 31
0.0
  0
LINE
  8
0
  6
CONTINUOUS
 62
               3
  5
21C
 10
-427.71583852599451
 20
246.00000000000057
 30
0.0
 11
-427.71583852599451
 21
229.00000000000085
 31
0.0
  0
LINE
  8
0
  6
CONTINUOUS
 62
               3
  5
21D
 10
-588.49999999999955
 20
236.00000000000057
 30
0.0
 11
-588.49999999999955
 21
229.00000000000085
 31
0.0
  0
LINE
  8
0
  6
CONTINUOUS
 62
               3
  5
21E
 10
-588.49999999999955
 20
236.00000000000057
 30
0.0
 11
-575.0
 21
246.00000000000057
 31
0.0
  0
ARC
  8
0
  6
CONTINUOUS
 62
               3
  5
21F
 10
-577.0
 20
224.41742430504513
 30
0.0
 40
4.9999999999999991
 50
0.0
 51
66.421821521798009
  0
LINE
  8
0
  6
CONTINUOUS
 62
               3
  5
220
 10
-572.28416147400412
 20
246.00000000000057
 30
0.0
 11
-572.28416147400412
 21
229.00000000000085
 31
0.0
  0
LINE
  8
0
  6
CONTINUOUS
 62
               3
  5
221
 10
-590.0
 20
18.000000000001322
 30
0.0
 11
-410.0
 21
18.000000000000043
 31
0.0
  0
LINE
  8
0
  6
CONTINUOUS
 62
               3
  5
222
 10
-409.99999999999955
 20
0.0000000000000711
 30
0.0
 11
-409.99999999999955
 21
18.000000000000043
 31
0.0
  0
LINE
  8
0
  6
CONTINUOUS
 62
               3
  5
223
 10
-589.99999999999955
 20
0.0000000000000711
 30
0.0
 11
-589.99999999999955
 21
18.000000000000043
 31
0.0
  0
LINE
  8
0
  6
CONTINUOUS
 62
               3
  5
224
 10
-409.99999999999955
 20
0.0000000000000711
 30
0.0
 11
-589.99999999999955
 21
0.0000000000000711
 31
0.0
  0
LINE
  8
0
  6
CONTINUOUS
 62
               3
  5
225
 10
-413.99999999999955
 20
0.0000000000000711
 30
0.0
 11
-413.99999999999955
 21
-4.9999999999999289
 31
0.0
  0
LINE
  8
0
  6
CONTINUOUS
 62
               3
  5
226
 10
-590.00000000000045
 20
-4.9999999999999289
 30
0.0
 11
-409.99999999999955
 21
-4.9999999999999289
 31
0.0
  0
LINE
  8
0
  6
CONTINUOUS
 62
               3
  5
227
 10
-586.00000000000045
 20
0.0000000000000711
 30
0.0
 11
-586.00000000000045
 21
-4.9999999999999289
 31
0.0
  0
LINE
  8
0
  6
CONTINUOUS
 62
               3
  5
228
 10
-409.99999999999955
 20
-25.999999999999872
 30
0.0
 11
-589.99999999999955
 21
-25.999999999999872
 31
0.0
  0
LINE
  8
0
  6
CONTINUOUS
 62
               3
  5
229
 10
-65.0
 20
-144.99999999999986
 30
0.0
 11
65.0
 21
-144.99999999999986
 31
0.0
  0
LINE
  8
0
  6
CONTINUOUS
 62
               3
  5
22A
 10
-65.0
 20
-139.99999999999986
 30
0.0
 11
65.0
 21
-139.99999999999989
 31
0.0
  0
LINE
  8
0
  6
CONTINUOUS
 62
               3
  5
22B
 10
-136.99999999999977
 20
449.14999999999998
 30
0.0
 11
-136.99999999999977
 21
550.85000000000002
 31
0.0
  0
LINE
  8
0
  6
CONTINUOUS
 62
               3
  5
22C
 10
-136.99999999999977
 20
550.85000000000002
 30
0.0
 11
-139.99999999999989
 21
547.85000000000048
 31
0.0
  0
LINE
  8
0
  6
CONTINUOUS
 62
               3
  5
22D
 10
-136.99999999999977
 20
449.14999999999998
 30
0.0
 11
-139.99999999999989
 21
452.14999999999998
 31
0.0
  0
LINE
  8
0
  6
CONTINUOUS
 62
               3
  5
22E
 10
-144.99999999999989
 20
548.35000000000014
 30
0.0
 11
-144.99999999999989
 21
451.64999999999998
 31
0.0
  0
LINE
  8
0
  6
CONTINUOUS
 62
               3
  5
22F
 10
-139.99999999999989
 20
449.14999999999998
 30
0.0
 11
-139.99999999999989
 21
550.85000000000014
 31
0.0
  0
LINE
  8
0
  6
CONTINUOUS
 62
               3
  5
230
 10
-139.99999999999989
 20
550.85000000000014
 30
0.0
 11
-142.49999999999989
 21
550.85000000000014
 31
0.0
  0
LINE
  8
0
  6
CONTINUOUS
 62
               3
  5
231
 10
-139.99999999999989
 20
449.14999999999998
 30
0.0
 11
-142.49999999999989
 21
449.14999999999998
 31
0.0
  0
ARC
  8
0
  6
CONTINUOUS
 62
               3
  5
232
 10
-142.49999999999989
 20
451.64999999999998
 30
0.0
 40
2.5
 50
179.9999999999996
 51
269.99999999999937
  0
ARC
  8
0
  6
CONTINUOUS
 62
               3
  5
233
 10
-142.49999999999989
 20
548.35000000000014
 30
0.0
 40
2.5
 50
89.999999999999801
 51
179.9999999999996
  0
LINE
  8
0
  6
CONTINUOUS
 62
               3
  5
234
 10
-83.607651023862928
 20
552.71450191121903
 30
0.0
 11
-136.99999999999977
 21
550.85000000000002
 31
0.0
  0
LINE
  8
0
  6
CONTINUOUS
 62
               3
  5
235
 10
-83.610685146837469
 20
447.30760057731857
 30
0.0
 11
-136.99999999999977
 21
449.14999999999998
 31
0.0
  0
CIRCLE
  8
0
  6
CONTINUOUS
 62
               3
  5
236
 10
-500.0
 20
-88.499999999999659
 30
0.0
 40
50.75
  0
LINE
  8
0
  6
CONTINUOUS
 62
               3
  5
237
 10
-519.08042190309197
 20
-62.499999999999545
 30
0.0
 11
-480.91957809690757
 21
-62.499999999999545
 31
0.0
  0
CIRCLE
  8
0
  6
CONTINUOUS
 62
               3
  5
238
 10
-500.00000000000045
 20
-88.499999999999659
 30
0.0
 40
40.75
  0
CIRCLE
  8
0
  6
CONTINUOUS
 62
               3
  5
239
 10
-500.0
 20
-88.499999999999659
 30
0.0
 40
32.25
  0
LINE
  8
0
  6
CONTINUOUS
 62
               3
  5
23A
 10
-527.04683438038546
 20
-115.54683438038489
 30
0.0
 11
-528.81460133335213
 21
-117.31460133335145
 31
0.0
  0
LINE
  8
0
  6
CONTINUOUS
 62
               3
  5
23B
 10
-472.95316561962159
 20
-115.54683438039172
 30
0.0
 11
-471.18539866664946
 21
-117.31460133335213
 31
0.0
  0
ARC
  8
0
  6
CONTINUOUS
 62
               3
  5
23C
 10
-500.0
 20
-88.499999999999659
 30
0.0
 40
38.25
 50
224.99999999999045
 51
314.99999999998482
  0
LINE
  8
0
  6
CONTINUOUS
 62
               3
  5
23D
 10
-139.99999999999994
 20
-39.978443874035847
 30
0.0
 11
-139.32844387403571
 21
-39.978443874035847
 31
0.0
  0
LINE
  8
0
  6
CONTINUOUS
 62
               3
  5
23E
 10
-137.00000000000006
 20
-37.650000000000134
 30
0.0
 11
-139.32844387403571
 21
-39.978443874035847
 31
0.0
  0
LINE
  8
0
  6
CONTINUOUS
 62
               3
  5
23F
 10
-137.00000000000006
 20
-37.650000000000134
 30
0.0
 11
-79.659852060136473
 21
-35.647637911168758
 31
0.0
  0
LINE
  8
0
  6
CONTINUOUS
 62
               3
  5
240
 10
-139.99999999999994
 20
-137.02155612596502
 30
0.0
 11
-139.32844387403571
 21
-137.02155612596502
 31
0.0
  0
LINE
  8
0
  6
CONTINUOUS
 62
               3
  5
241
 10
-137.00000000000006
 20
-139.35000000000016
 30
0.0
 11
-139.32844387403571
 21
-137.02155612596502
 31
0.0
  0
LINE
  8
0
  6
CONTINUOUS
 62
               3
  5
242
 10
-139.32844387403571
 20
-39.978443874035847
 30
0.0
 11
-139.32844387403571
 21
-137.02155612596502
 31
0.0
  0
LINE
  8
0
  6
CONTINUOUS
 62
               3
  5
243
 10
-137.00000000000006
 20
-139.35000000000016
 30
0.0
 11
-137.00000000000006
 21
-37.650000000000134
 31
0.0
  0
LINE
  8
0
  6
CONTINUOUS
 62
               3
  5
244
 10
-137.00000000000006
 20
-139.35000000000016
 30
0.0
 11
-94.834889743722727
 21
-140.8224380958541
 31
0.0
  0
ARC
  8
0
  6
CONTINUOUS
 62
               3
  5
245
 10
-95.009387227234754
 20
-145.81939223094909
 30
0.0
 40
4.9999999999999991
 50
44.999999999998984
 51
88.000000000000071
  0
LINE
  8
0
  6
CONTINUOUS
 62
               3
  5
246
 10
-144.99999999999994
 20
-40.150000000000134
 30
0.0
 11
-144.99999999999994
 21
-136.85000000000016
 31
0.0
  0
LINE
  8
0
  6
CONTINUOUS
 62
               3
  5
247
 10
-139.99999999999994
 20
-37.650000000000134
 30
0.0
 11
-142.49999999999994
 21
-37.650000000000134
 31
0.0
  0
ARC
  8
0
  6
CONTINUOUS
 62
               3
  5
248
 10
-142.49999999999994
 20
-40.150000000000134
 30
0.0
 40
2.5
 50
89.999999999999815
 51
179.9999999999996
  0
ARC
  8
0
  6
CONTINUOUS
 62
               3
  5
249
 10
-142.49999999999994
 20
-136.85000000000016
 30
0.0
 40
2.5
 50
179.9999999999996
 51
269.99999999999937
  0
LINE
  8
0
  6
CONTINUOUS
 62
               3
  5
24A
 10
-139.99999999999994
 20
-139.35000000000016
 30
0.0
 11
-139.99999999999994
 21
-37.650000000000134
 31
0.0
  0
LINE
  8
0
  6
CONTINUOUS
 62
               3
  5
24B
 10
-139.99999999999994
 20
-139.35000000000016
 30
0.0
 11
-142.49999999999994
 21
-139.35000000000016
 31
0.0
  0
LINE
  8
0
  6
CONTINUOUS
 62
               3
  5
24C
 10
-76.464466094067745
 20
-157.29324555225119
 30
0.0
 11
-91.473853321302215
 21
-142.28385832501689
 31
0.0
  0
ARC
  8
0
  6
CONTINUOUS
 62
               3
  5
24D
 10
-79.999999999999716
 20
-160.82877945818413
 30
0.0
 40
4.9999999999999991
 50
0.000000000000007
 51
44.999999999998984
  0
ARC
  8
0
  6
CONTINUOUS
 62
               3
  5
24E
 10
-425.00000000000045
 20
-142.49999999999994
 30
0.0
 40
2.4999999999999996
 50
269.99999999999937
 51
449.99999999999898
  0
LINE
  8
0
  6
CONTINUOUS
 62
               3
  5
24F
 10
-425.0
 20
-258.00000000000898
 30
0.0
 11
-425.00000000000045
 21
-144.99999999999994
 31
0.0
  0
LINE
  8
0
  6
CONTINUOUS
 62
               3
  5
250
 10
-425.00000000000045
 20
-139.99999999999994
 30
0.0
 11
-425.00000000000045
 21
-30.999999999999872
 31
0.0
  0
LINE
  8
0
  6
CONTINUOUS
 62
               3
  5
251
 10
76.464466094067802
 20
-157.29324555225065
 30
0.0
 11
91.473853321302272
 21
-142.28385832501615
 31
0.0
  0
ARC
  8
0
  6
CONTINUOUS
 62
               3
  5
252
 10
95.009387227235038
 20
-145.81939223094835
 30
0.0
 40
4.9999999999999991
 50
91.999999999999545
 51
135.00000000000063
  0
ARC
  8
0
  6
CONTINUOUS
 62
               3
  5
253
 10
80.000000000000568
 20
-160.82877945818342
 30
0.0
 40
4.9999999999999991
 50
135.00000000000063
 51
179.9999999999996
  0
LINE
  8
0
  6
CONTINUOUS
 62
               3
  5
254
 10
136.99999999999989
 20
-52.899999999999814
 30
0.0
 11
79.825502516487745
 21
-50.903422552571307
 31
0.0
  0
ARC
  8
0
  6
CONTINUOUS
 62
               3
  5
255
 10
80.0
 20
-45.906468417476027
 30
0.0
 40
4.9999999999999991
 50
179.9999999999996
 51
267.99999999999835
  0
LINE
  8
0
  6
CONTINUOUS
 62
               3
  5
256
 10
136.99999999999989
 20
-52.899999999999814
 30
0.0
 11
140.0
 21
-55.899999999999352
 31
0.0
  0
LINE
  8
0
  6
CONTINUOUS
 62
               3
  5
257
 10
140.0
 20
-52.899999999999672
 30
0.0
 11
142.5
 21
-52.899999999999672
 31
0.0
  0
ARC
  8
0
  6
CONTINUOUS
 62
               3
  5
258
 10
142.5
 20
-55.399999999999672
 30
0.0
 40
2.5
 50
0.0
 51
89.999999999999801
  0
LINE
  8
0
  6
CONTINUOUS
 62
               3
  5
259
 10
136.99999999999989
 20
-139.09999999999982
 30
0.0
 11
136.99999999999989
 21
-52.899999999999814
 31
0.0
  0
LINE
  8
0
  6
CONTINUOUS
 62
               3
  5
25A
 10
136.99999999999989
 20
-139.09999999999982
 30
0.0
 11
94.826170184504463
 21
-140.57274258957094
 31
0.0
  0
LINE
  8
0
  6
CONTINUOUS
 62
               3
  5
25B
 10
136.99999999999989
 20
-139.09999999999982
 30
0.0
 11
140.0
 21
-136.09999999999971
 31
0.0
  0
LINE
  8
0
  6
CONTINUOUS
 62
               3
  5
25C
 10
145.0
 20
-55.399999999999672
 30
0.0
 11
145.0
 21
-136.59999999999982
 31
0.0
  0
LINE
  8
0
  6
CONTINUOUS
 62
               3
  5
25D
 10
140.0
 20
-139.09999999999982
 30
0.0
 11
140.0
 21
-52.899999999999672
 31
0.0
  0
LINE
  8
0
  6
CONTINUOUS
 62
               3
  5
25E
 10
140.0
 20
-139.09999999999982
 30
0.0
 11
142.5
 21
-139.09999999999982
 31
0.0
  0
ARC
  8
0
  6
CONTINUOUS
 62
               3
  5
25F
 10
142.5
 20
-136.59999999999982
 30
0.0
 40
2.5
 50
269.99999999999937
 51
359.9999999999992
  0
LINE
  8
0
  6
CONTINUOUS
 62
               3
  5
260
 10
74.999999999999773
 20
-37.999999999999758
 30
0.0
 11
75.0
 21
-45.906468417476027
 31
0.0
  0
ARC
  8
0
  6
CONTINUOUS
 62
               3
  5
261
 10
65.0
 20
-142.49999999999989
 30
0.0
 40
2.4999999999999996
 50
269.99999999999937
 51
449.99999999999898
  0
LINE
  8
0
  6
CONTINUOUS
 62
               3
  5
262
 10
75.0
 20
-258.00000000000898
 30
0.0
 11
75.000000000000568
 21
-160.82877945818342
 31
0.0
  0
LINE
  8
0
  6
CONTINUOUS
 62
               3
  5
263
 10
75.0
 20
-45.906468417476027
 30
0.0
 11
75.0
 21
-37.999999999999758
 31
0.0
  0
ARC
  8
0
  6
CONTINUOUS
 62
               3
  5
264
 10
420.00000000000045
 20
-30.999999999999872
 30
0.0
 40
5.0
 50
0.0
 51
89.999999999999801
  0
LINE
  8
0
  6
CONTINUOUS
 62
               3
  5
265
 10
425.00000000000045
 20
-31.466767657286084
 30
0.0
 11
425.00000000000045
 21
-139.99999999999994
 31
0.0
  0
ARC
  8
0
  6
CONTINUOUS
 62
               3
  5
266
 10
425.00000000000045
 20
-142.49999999999994
 30
0.0
 40
2.4999999999999996
 50
89.999999999999801
 51
269.99999999999937
  0
LINE
  8
0
  6
CONTINUOUS
 62
               3
  5
267
 10
483.37922986140484
 20
-78.0
 30
0.0
 11
516.6207701385938
 21
-78.0
 31
0.0
  0
CIRCLE
  8
0
  6
CONTINUOUS
 62
               3
  5
268
 10
499.99999999999932
 20
-96.000000000000227
 30
0.0
 40
33.0
  0
CIRCLE
  8
0
  6
CONTINUOUS
 62
               3
  5
269
 10
499.99999999999932
 20
-96.000000000000227
 30
0.0
 40
24.5
  0
LINE
  8
0
  6
CONTINUOUS
 62
               3
  5
26A
 10
478.43324317380939
 20
-117.56675682618959
 30
0.0
 11
476.66547622084408
 21
-119.33452377915671
 31
0.0
  0
LINE
  8
0
  6
CONTINUOUS
 62
               3
  5
26B
 10
521.56675682618925
 20
-117.56675682618959
 30
0.0
 11
523.33452377915523
 21
-119.33452377915626
 31
0.0
  0
ARC
  8
0
  6
CONTINUOUS
 62
               3
  5
26C
 10
499.99999999999932
 20
-96.0
 30
0.0
 40
30.5
 50
224.99999999999949
 51
314.99999999999937
  0
CIRCLE
  8
0
  6
CONTINUOUS
 62
               3
  5
26D
 10
500.0
 20
-96.0
 30
0.0
 40
43.100000000000001
  0
ARC
  8
0
  6
CONTINUOUS
 62
               3
  5
26E
 10
477.50000000000045
 20
-142.49999999999994
 30
0.0
 40
2.4999999999999996
 50
269.99999999999937
 51
449.99999999999898
  0
ARC
  8
0
  6
CONTINUOUS
 62
               3
  5
26F
 10
522.50000000000045
 20
-142.49999999999994
 30
0.0
 40
2.4999999999999996
 50
89.999999999999801
 51
269.99999999999937
  0
LINE
  8
0
  6
CONTINUOUS
 62
               3
  5
270
 10
425.00000000000045
 20
-139.99999999999994
 30
0.0
 11
477.50000000000045
 21
-139.99999999999994
 31
0.0
  0
LINE
  8
0
  6
CONTINUOUS
 62
               3
  5
271
 10
425.00000000000045
 20
-144.99999999999989
 30
0.0
 11
477.50000000000045
 21
-144.99999999999991
 31
0.0
  0
LINE
  8
0
  6
CONTINUOUS
 62
               3
  5
272
 10
522.50000000000045
 20
-144.99999999999994
 30
0.0
 11
575.0
 21
-144.99999999999994
 31
0.0
  0
LINE
  8
0
  6
CONTINUOUS
 62
               3
  5
273
 10
522.50000000000045
 20
-139.99999999999994
 30
0.0
 11
575.0
 21
-139.99999999999994
 31
0.0
  0
LINE
  8
0
  6
CONTINUOUS
 62
               3
  5
274
 10
136.99999999999972
 20
543.10000000000014
 30
0.0
 11
136.99999999999972
 21
456.89999999999998
 31
0.0
  0
LINE
  8
0
  6
CONTINUOUS
 62
               3
  5
275
 10
136.99999999999972
 20
456.89999999999998
 30
0.0
 11
139.99999999999983
 21
459.89999999999952
 31
0.0
  0
LINE
  8
0
  6
CONTINUOUS
 62
               3
  5
276
 10
136.99999999999972
 20
543.10000000000014
 30
0.0
 11
139.99999999999983
 21
540.10000000000014
 31
0.0
  0
LINE
  8
0
  6
CONTINUOUS
 62
               3
  5
277
 10
144.9999999999998
 20
459.39999999999986
 30
0.0
 11
144.99999999999983
 21
540.60000000000014
 31
0.0
  0
LINE
  8
0
  6
CONTINUOUS
 62
               3
  5
278
 10
139.99999999999983
 20
543.10000000000014
 30
0.0
 11
139.99999999999983
 21
456.89999999999986
 31
0.0
  0
LINE
  8
0
  6
CONTINUOUS
 62
               3
  5
279
 10
139.99999999999983
 20
456.89999999999986
 30
0.0
 11
142.49999999999983
 21
456.89999999999986
 31
0.0
  0
LINE
  8
0
  6
CONTINUOUS
 62
               3
  5
27A
 10
139.99999999999983
 20
543.10000000000014
 30
0.0
 11
142.49999999999983
 21
543.10000000000014
 31
0.0
  0
ARC
  8
0
  6
CONTINUOUS
 62
               3
  5
27B
 10
142.49999999999983
 20
540.60000000000014
 30
0.0
 40
2.5
 50
359.9999999999992
 51
449.99999999999898
  0
ARC
  8
0
  6
CONTINUOUS
 62
               3
  5
27C
 10
142.49999999999983
 20
459.39999999999986
 30
0.0
 40
2.5
 50
269.99999999999937
 51
359.9999999999992
  0
LINE
  8
0
  6
CONTINUOUS
 62
               3
  5
27D
 10
84.679631560237226
 20
544.90551140004368
 30
0.0
 11
136.99999999999972
 21
543.10000000000014
 31
0.0
  0
LINE
  8
0
  6
CONTINUOUS
 62
               3
  5
27E
 10
84.679631560237169
 20
455.07293247399139
 30
0.0
 11
136.99999999999972
 21
456.89999999999998
 31
0.0
  0
LINE
  8
0
  6
CONTINUOUS
 62
               3
  5
27F
 10
-557.99999999999955
 20
-407.20708506678886
 30
0.0
 11
-441.99999999999955
 21
-407.20708506678926
 31
0.0
  0
LINE
  8
0
  6
CONTINUOUS
 62
               3
  5
280
 10
-560.27871216603239
 20
-387.20708506678898
 30
0.0
 11
-439.7212878339667
 21
-387.20708506678898
 31
0.0
  0
LINE
  8
0
  6
CONTINUOUS
 62
               3
  5
281
 10
-57.999999999999545
 20
-407.20708506678886
 30
0.0
 11
58.000000000000455
 21
-407.20708506678926
 31
0.0
  0
LINE
  8
0
  6
CONTINUOUS
 62
               3
  5
282
 10
-60.278712166032392
 20
-387.20708506678898
 30
0.0
 11
60.278712166033301
 21
-387.20708506678898
 31
0.0
  0
LINE
  8
0
  6
CONTINUOUS
 62
               3
  5
283
 10
442.00000000000045
 20
-407.20708506678886
 30
0.0
 11
558.00000000000045
 21
-407.20708506678926
 31
0.0
  0
LINE
  8
0
  6
CONTINUOUS
 62
               3
  5
284
 10
439.72128783396761
 20
-387.20708506678898
 30
0.0
 11
560.2787121660333
 21
-387.20708506678898
 31
0.0
  0
LINE
  8
0
  6
CONTINUOUS
 62
               3
  5
285
 10
-442.99999999999892
 20
-554.0
 30
0.0
 11
-442.99999999999892
 21
-518.99999999999955
 31
0.0
  0
LINE
  8
0
  6
CONTINUOUS
 62
               3
  5
286
 10
-556.99999999999886
 20
-554.0
 30
0.0
 11
-556.99999999999886
 21
-518.99999999999955
 31
0.0
  0
LINE
  8
0
  6
CONTINUOUS
 62
               3
  5
287
 10
-556.99999999999886
 20
-518.99999999999955
 30
0.0
 11
-442.99999999999892
 21
-518.99999999999955
 31
0.0
  0
LINE
  8
0
  6
CONTINUOUS
 62
               3
  5
288
 10
-442.99999999999892
 20
-518.99999999999955
 30
0.0
 11
-441.99999999999847
 21
-517.99999999999909
 31
0.0
  0
LINE
  8
0
  6
CONTINUOUS
 62
               3
  5
289
 10
-556.99999999999886
 20
-518.99999999999955
 30
0.0
 11
-557.99999999999841
 21
-517.99999999999909
 31
0.0
  0
LINE
  8
0
  6
CONTINUOUS
 62
               3
  5
28A
 10
-561.99999999999909
 20
-698.99999999999841
 30
0.0
 11
-561.99999999999909
 21
-683.99999999999932
 31
0.0
  0
LINE
  8
0
  6
CONTINUOUS
 62
               3
  5
28B
 10
-564.99999999999886
 20
-698.99999999999841
 30
0.0
 11
-434.99999999999892
 21
-698.99999999999841
 31
0.0
  0
ARC
  8
0
  6
CONTINUOUS
 62
               3
  5
28C
 10
-575.99999999999818
 20
-558.00000000000023
 30
0.0
 40
4.0
 50
89.999999999982236
 51
179.99999999996518
  0
LINE
  8
0
  6
CONTINUOUS
 62
               3
  5
28D
 10
-579.99999999999818
 20
-557.99999999999795
 30
0.0
 11
-579.99999999999841
 21
-577.00000000000023
 31
0.0
  0
LINE
  8
0
  6
CONTINUOUS
 62
               3
  5
28E
 10
-515.99999999999818
 20
-553.99999999999977
 30
0.0
 11
-575.99999999999818
 21
-554.00000000000023
 31
0.0
  0
LINE
  8
0
  6
CONTINUOUS
 62
               3
  5
28F
 10
-515.99999999999818
 20
-684.99999999999841
 30
0.0
 11
-483.99999999999784
 21
-684.99999999999795
 31
0.0
  0
ARC
  8
0
  6
CONTINUOUS
 62
               3
  5
290
 10
-575.99999999999795
 20
-679.99999999999932
 30
0.0
 40
4.0
 50
179.99999999996601
 51
269.99999999994901
  0
LINE
  8
0
  6
CONTINUOUS
 62
               3
  5
291
 10
-579.99999999999795
 20
-679.99999999999932
 30
0.0
 11
-579.99999999999795
 21
-661.49999999999909
 31
0.0
  0
LINE
  8
0
  6
CONTINUOUS
 62
               3
  5
292
 10
-515.99999999999818
 20
-683.99999999999864
 30
0.0
 11
-576.00000000000136
 21
-683.99999999999932
 31
0.0
  0
LINE
  8
0
  6
CONTINUOUS
 62
               3
  5
293
 10
-515.99999999999818
 20
-661.49999999999864
 30
0.0
 11
-579.99999999999795
 21
-661.49999999999909
 31
0.0
  0
LINE
  8
0
  6
CONTINUOUS
 62
               3
  5
294
 10
-579.99999999999841
 20
-577.00000000000023
 30
0.0
 11
-515.99999999999818
 21
-577.00000000000023
 31
0.0
  0
LINE
  8
0
  6
CONTINUOUS
 62
               3
  5
295
 10
-576.99999999999841
 20
-577.00000000000023
 30
0.0
 11
-576.99999999999909
 21
-661.49999999999909
 31
0.0
  0
LINE
  8
0
  6
CONTINUOUS
 62
               3
  5
296
 10
-483.99999999999835
 20
-553.99999999999977
 30
0.0
 11
-420.99999999999858
 21
-554.00000000000023
 31
0.0
  0
LINE
  8
0
  6
CONTINUOUS
 62
               3
  5
297
 10
-483.99999999999784
 20
-683.99999999999864
 30
0.0
 11
-423.99999999999989
 21
-683.99999999999932
 31
0.0
  0
LINE
  8
0
  6
CONTINUOUS
 62
               3
  5
298
 10
-483.99999999999784
 20
-661.49999999999864
 30
0.0
 11
-419.99999999999977
 21
-661.49999999999909
 31
0.0
  0
LINE
  8
0
  6
CONTINUOUS
 62
               3
  5
299
 10
-419.99999999999835
 20
-577.00000000000023
 30
0.0
 11
-483.99999999999835
 21
-577.00000000000023
 31
0.0
  0
LINE
  8
0
  6
CONTINUOUS
 62
               3
  5
29A
 10
-437.99999999999903
 20
-698.99999999999841
 30
0.0
 11
-437.99999999999903
 21
-683.99999999999932
 31
0.0
  0
LINE
  8
0
  6
CONTINUOUS
 62
               3
  5
29B
 10
-515.99999999999818
 20
-553.00000000000023
 30
0.0
 11
-515.99999999999818
 21
-684.99999999999841
 31
0.0
  0
LINE
  8
0
  6
CONTINUOUS
 62
               3
  5
29C
 10
-483.99999999999784
 20
-684.99999999999795
 30
0.0
 11
-483.99999999999835
 21
-553.00000000000023
 31
0.0
  0
LINE
  8
0
  6
CONTINUOUS
 62
               3
  5
29D
 10
-515.99999999999886
 20
-553.00000000000023
 30
0.0
 11
-483.99999999999892
 21
-553.00000000000023
 31
0.0
  0
LINE
  8
0
  6
CONTINUOUS
 62
               3
  5
29E
 10
-515.99999999999818
 20
-619.99999999999909
 30
0.0
 11
-483.99999999999784
 21
-619.99999999999909
 31
0.0
  0
LINE
  8
0
  6
CONTINUOUS
 62
               3
  5
29F
 10
-515.99999999999818
 20
-618.99999999999932
 30
0.0
 11
-483.99999999999784
 21
-618.99999999999932
 31
0.0
  0
LINE
  8
0
  6
CONTINUOUS
 62
               3
  5
2A0
 10
-515.99999999999818
 20
-620.99999999999932
 30
0.0
 11
-483.99999999999784
 21
-620.99999999999932
 31
0.0
  0
ARC
  8
0
  6
CONTINUOUS
 62
               3
  5
2A1
 10
-423.99999999999955
 20
-558.00000000000023
 30
0.0
 40
4.0
 50
0.0000000000344079
 51
90.000000000017366
  0
LINE
  8
0
  6
CONTINUOUS
 62
               3
  5
2A2
 10
-419.99999999999955
 20
-557.99999999999795
 30
0.0
 11
-419.99999999999932
 21
-577.00000000000023
 31
0.0
  0
ARC
  8
0
  6
CONTINUOUS
 62
               3
  5
2A3
 10
-423.99999999999983
 20
-679.99999999999932
 30
0.0
 40
4.0
 50
270.00000000004979
 51
360.0000000000328
  0
LINE
  8
0
  6
CONTINUOUS
 62
               3
  5
2A4
 10
-419.99999999999977
 20
-679.99999999999932
 30
0.0
 11
-419.99999999999989
 21
-661.49999999999909
 31
0.0
  0
LINE
  8
0
  6
CONTINUOUS
 62
               3
  5
2A5
 10
-422.99999999999932
 20
-577.00000000000023
 30
0.0
 11
-422.99999999999875
 21
-661.49999999999909
 31
0.0
  0
LINE
  8
0
  6
CONTINUOUS
 62
               3
  5
2A6
 10
-441.99999999999847
 20
-517.99999999999909
 30
0.0
 11
-441.99999999999847
 21
-407.20708506678926
 31
0.0
  0
LINE
  8
0
  6
CONTINUOUS
 62
               3
  5
2A7
 10
-557.99999999999841
 20
-407.20708506678926
 30
0.0
 11
-557.99999999999841
 21
-517.99999999999909
 31
0.0
  0
LINE
  8
0
  6
CONTINUOUS
 62
               3
  5
2A8
 10
557.00000000000114
 20
-554.0
 30
0.0
 11
557.00000000000114
 21
-518.99999999999955
 31
0.0
  0
LINE
  8
0
  6
CONTINUOUS
 62
               3
  5
2A9
 10
443.00000000000114
 20
-554.0
 30
0.0
 11
443.00000000000114
 21
-518.99999999999955
 31
0.0
  0
LINE
  8
0
  6
CONTINUOUS
 62
               3
  5
2AA
 10
443.00000000000114
 20
-518.99999999999955
 30
0.0
 11
557.00000000000114
 21
-518.99999999999955
 31
0.0
  0
LINE
  8
0
  6
CONTINUOUS
 62
               3
  5
2AB
 10
557.00000000000114
 20
-518.99999999999955
 30
0.0
 11
558.00000000000159
 21
-517.99999999999909
 31
0.0
  0
LINE
  8
0
  6
CONTINUOUS
 62
               3
  5
2AC
 10
443.00000000000114
 20
-518.99999999999955
 30
0.0
 11
442.00000000000159
 21
-517.99999999999909
 31
0.0
  0
LINE
  8
0
  6
CONTINUOUS
 62
               3
  5
2AD
 10
438.00000000000091
 20
-698.99999999999841
 30
0.0
 11
438.00000000000091
 21
-683.99999999999932
 31
0.0
  0
LINE
  8
0
  6
CONTINUOUS
 62
               3
  5
2AE
 10
435.00000000000114
 20
-698.99999999999841
 30
0.0
 11
565.00000000000114
 21
-698.99999999999841
 31
0.0
  0
ARC
  8
0
  6
CONTINUOUS
 62
               3
  5
2AF
 10
424.00000000000182
 20
-558.00000000000023
 30
0.0
 40
4.0
 50
89.999999999982236
 51
179.99999999996518
  0
LINE
  8
0
  6
CONTINUOUS
 62
               3
  5
2B0
 10
420.00000000000182
 20
-557.99999999999795
 30
0.0
 11
420.00000000000159
 21
-577.00000000000023
 31
0.0
  0
LINE
  8
0
  6
CONTINUOUS
 62
               3
  5
2B1
 10
484.00000000000182
 20
-553.99999999999977
 30
0.0
 11
424.00000000000182
 21
-554.00000000000023
 31
0.0
  0
LINE
  8
0
  6
CONTINUOUS
 62
               3
  5
2B2
 10
484.00000000000182
 20
-684.99999999999841
 30
0.0
 11
516.00000000000216
 21
-684.99999999999795
 31
0.0
  0
ARC
  8
0
  6
CONTINUOUS
 62
               3
  5
2B3
 10
424.00000000000205
 20
-679.99999999999932
 30
0.0
 40
4.0
 50
179.99999999996601
 51
269.99999999994901
  0
LINE
  8
0
  6
CONTINUOUS
 62
               3
  5
2B4
 10
420.00000000000205
 20
-679.99999999999932
 30
0.0
 11
420.00000000000205
 21
-661.49999999999909
 31
0.0
  0
LINE
  8
0
  6
CONTINUOUS
 62
               3
  5
2B5
 10
484.00000000000182
 20
-683.99999999999864
 30
0.0
 11
423.99999999999864
 21
-683.99999999999932
 31
0.0
  0
LINE
  8
0
  6
CONTINUOUS
 62
               3
  5
2B6
 10
484.00000000000182
 20
-661.49999999999864
 30
0.0
 11
420.00000000000205
 21
-661.49999999999909
 31
0.0
  0
LINE
  8
0
  6
CONTINUOUS
 62
               3
  5
2B7
 10
420.00000000000159
 20
-577.00000000000023
 30
0.0
 11
484.00000000000182
 21
-577.00000000000023
 31
0.0
  0
LINE
  8
0
  6
CONTINUOUS
 62
               3
  5
2B8
 10
423.00000000000159
 20
-577.00000000000023
 30
0.0
 11
423.00000000000091
 21
-661.49999999999909
 31
0.0
  0
LINE
  8
0
  6
CONTINUOUS
 62
               3
  5
2B9
 10
516.00000000000159
 20
-553.99999999999977
 30
0.0
 11
579.00000000000136
 21
-554.00000000000023
 31
0.0
  0
LINE
  8
0
  6
CONTINUOUS
 62
               3
  5
2BA
 10
516.00000000000216
 20
-683.99999999999864
 30
0.0
 11
576.00000000000011
 21
-683.99999999999932
 31
0.0
  0
LINE
  8
0
  6
CONTINUOUS
 62
               3
  5
2BB
 10
516.00000000000216
 20
-661.49999999999864
 30
0.0
 11
580.00000000000023
 21
-661.49999999999909
 31
0.0
  0
LINE
  8
0
  6
CONTINUOUS
 62
               3
  5
2BC
 10
580.00000000000159
 20
-577.00000000000023
 30
0.0
 11
516.00000000000159
 21
-577.00000000000023
 31
0.0
  0
LINE
  8
0
  6
CONTINUOUS
 62
               3
  5
2BD
 10
562.00000000000091
 20
-698.99999999999841
 30
0.0
 11
562.00000000000091
 21
-683.99999999999932
 31
0.0
  0
LINE
  8
0
  6
CONTINUOUS
 62
               3
  5
2BE
 10
484.00000000000182
 20
-553.00000000000023
 30
0.0
 11
484.00000000000182
 21
-684.99999999999841
 31
0.0
  0
LINE
  8
0
  6
CONTINUOUS
 62
               3
  5
2BF
 10
516.00000000000216
 20
-684.99999999999795
 30
0.0
 11
516.00000000000159
 21
-553.00000000000023
 31
0.0
  0
LINE
  8
0
  6
CONTINUOUS
 62
               3
  5
2C0
 10
484.00000000000114
 20
-553.00000000000023
 30
0.0
 11
516.00000000000114
 21
-553.00000000000023
 31
0.0
  0
LINE
  8
0
  6
CONTINUOUS
 62
               3
  5
2C1
 10
484.00000000000182
 20
-619.99999999999909
 30
0.0
 11
516.00000000000216
 21
-619.99999999999909
 31
0.0
  0
LINE
  8
0
  6
CONTINUOUS
 62
               3
  5
2C2
 10
484.00000000000182
 20
-618.99999999999932
 30
0.0
 11
516.00000000000216
 21
-618.99999999999932
 31
0.0
  0
LINE
  8
0
  6
CONTINUOUS
 62
               3
  5
2C3
 10
484.00000000000182
 20
-620.99999999999932
 30
0.0
 11
516.00000000000216
 21
-620.99999999999932
 31
0.0
  0
ARC
  8
0
  6
CONTINUOUS
 62
               3
  5
2C4
 10
576.00000000000045
 20
-558.00000000000023
 30
0.0
 40
4.0
 50
0.0000000000344079
 51
90.000000000017366
  0
LINE
  8
0
  6
CONTINUOUS
 62
               3
  5
2C5
 10
580.00000000000045
 20
-557.99999999999795
 30
0.0
 11
580.00000000000068
 21
-577.00000000000023
 31
0.0
  0
ARC
  8
0
  6
CONTINUOUS
 62
               3
  5
2C6
 10
576.00000000000023
 20
-679.99999999999932
 30
0.0
 40
4.0
 50
270.00000000004979
 51
360.0000000000328
  0
LINE
  8
0
  6
CONTINUOUS
 62
               3
  5
2C7
 10
580.00000000000023
 20
-679.99999999999932
 30
0.0
 11
580.00000000000011
 21
-661.49999999999909
 31
0.0
  0
LINE
  8
0
  6
CONTINUOUS
 62
               3
  5
2C8
 10
577.00000000000068
 20
-577.00000000000023
 30
0.0
 11
577.00000000000125
 21
-661.49999999999909
 31
0.0
  0
LINE
  8
0
  6
CONTINUOUS
 62
               3
  5
2C9
 10
558.00000000000159
 20
-517.99999999999909
 30
0.0
 11
558.00000000000159
 21
-407.20708506678926
 31
0.0
  0
LINE
  8
0
  6
CONTINUOUS
 62
               3
  5
2CA
 10
442.00000000000159
 20
-407.20708506678926
 30
0.0
 11
442.00000000000159
 21
-517.99999999999909
 31
0.0
  0
LINE
  8
0
  6
CONTINUOUS
 62
               3
  5
2CB
 10
57.00000000000108
 20
-553.99999999999989
 30
0.0
 11
57.00000000000108
 21
-518.99999999999943
 31
0.0
  0
LINE
  8
0
  6
CONTINUOUS
 62
               3
  5
2CC
 10
-56.99999999999892
 20
-553.99999999999989
 30
0.0
 11
-56.99999999999892
 21
-518.99999999999943
 31
0.0
  0
LINE
  8
0
  6
CONTINUOUS
 62
               3
  5
2CD
 10
-56.99999999999892
 20
-518.99999999999943
 30
0.0
 11
57.00000000000108
 21
-518.99999999999943
 31
0.0
  0
LINE
  8
0
  6
CONTINUOUS
 62
               3
  5
2CE
 10
57.00000000000108
 20
-518.99999999999943
 30
0.0
 11
58.000000000001535
 21
-517.99999999999898
 31
0.0
  0
LINE
  8
0
  6
CONTINUOUS
 62
               3
  5
2CF
 10
-56.99999999999892
 20
-518.99999999999943
 30
0.0
 11
-57.999999999998465
 21
-517.99999999999898
 31
0.0
  0
LINE
  8
0
  6
CONTINUOUS
 62
               3
  5
2D0
 10
-61.999999999999091
 20
-698.99999999999829
 30
0.0
 11
-61.999999999999091
 21
-683.9999999999992
 31
0.0
  0
LINE
  8
0
  6
CONTINUOUS
 62
               3
  5
2D1
 10
-64.99999999999892
 20
-698.99999999999829
 30
0.0
 11
65.000000000001066
 21
-698.99999999999829
 31
0.0
  0
ARC
  8
0
  6
CONTINUOUS
 62
               3
  5
2D2
 10
-75.999999999998295
 20
-558.00000000000011
 30
0.0
 40
4.0
 50
89.999999999982236
 51
179.99999999996518
  0
ARC
  8
0
  6
CONTINUOUS
 62
               3
  5
2D3
 10
-78.999999999998266
 20
-555.00000000000011
 30
0.0
 40
1.0000000000000004
 50
89.999999999981483
 51
179.99999999996524
  0
ARC
  8
0
  6
CONTINUOUS
 62
               3
  5
2D4
 10
-78.999999999998266
 20
-555.00000000000011
 30
0.0
 40
1.9999999999999996
 50
89.999999999983004
 51
179.99999999996524
  0
LINE
  8
0
  6
CONTINUOUS
 62
               3
  5
2D5
 10
-80.999999999998295
 20
-555.00000000000011
 30
0.0
 11
-80.999999999998863
 21
-617.99999999999898
 31
0.0
  0
LINE
  8
0
  6
CONTINUOUS
 62
               3
  5
2D6
 10
-79.999999999998494
 20
-555.00000000000011
 30
0.0
 11
-79.999999999999062
 21
-617.99999999999898
 31
0.0
  0
ARC
  8
0
  6
CONTINUOUS
 62
               3
  5
2D7
 10
-81.999999999998806
 20
-617.99999999999898
 30
0.0
 40
1.9999999999999996
 50
269.99999999994748
 51
359.99999999993048
  0
ARC
  8
0
  6
CONTINUOUS
 62
               3
  5
2D8
 10
-81.999999999998806
 20
-617.99999999999898
 30
0.0
 40
1.0000000000000004
 50
269.99999999994748
 51
359.99999999993048
  0
LINE
  8
0
  6
CONTINUOUS
 62
               3
  5
2D9
 10
-81.999999999998806
 20
-619.99999999999898
 30
0.0
 11
-144.99999999999892
 21
-619.99999999999943
 31
0.0
  0
LINE
  8
0
  6
CONTINUOUS
 62
               3
  5
2DA
 10
-81.999999999998806
 20
-618.99999999999898
 30
0.0
 11
-144.99999999999892
 21
-618.99999999999943
 31
0.0
  0
LINE
  8
0
  6
CONTINUOUS
 62
               3
  5
2DB
 10
-64.999999999998494
 20
-553.00000000000011
 30
0.0
 11
-78.999999999998266
 21
-553.00000000000011
 31
0.0
  0
LINE
  8
0
  6
CONTINUOUS
 62
               3
  5
2DC
 10
0.0000000000016517
 20
-553.99999999999943
 30
0.0
 11
-78.999999999998266
 21
-554.00000000000011
 31
0.0
  0
LINE
  8
0
  6
CONTINUOUS
 62
               3
  5
2DD
 10
-64.999999999998494
 20
-553.00000000000011
 30
0.0
 11
-64.999999999998494
 21
-554.0
 31
0.0
  0
LINE
  8
0
  6
CONTINUOUS
 62
               3
  5
2DE
 10
-64.999999999997925
 20
-684.99999999999898
 30
0.0
 11
-78.99999999999784
 21
-684.9999999999992
 31
0.0
  0
ARC
  8
0
  6
CONTINUOUS
 62
               3
  5
2DF
 10
-78.99999999999784
 20
-682.9999999999992
 30
0.0
 40
1.0000000000000004
 50
179.99999999996601
 51
269.99999999994748
  0
ARC
  8
0
  6
CONTINUOUS
 62
               3
  5
2E0
 10
-78.99999999999784
 20
-682.9999999999992
 30
0.0
 40
1.9999999999999996
 50
179.99999999996601
 51
269.99999999994901
  0
ARC
  8
0
  6
CONTINUOUS
 62
               3
  5
2E1
 10
-75.99999999999801
 20
-679.9999999999992
 30
0.0
 40
4.0
 50
179.99999999996601
 51
269.99999999994901
  0
LINE
  8
0
  6
CONTINUOUS
 62
               3
  5
2E2
 10
-64.999999999997925
 20
-684.99999999999898
 30
0.0
 11
-64.999999999997925
 21
-683.9999999999992
 31
0.0
  0
LINE
  8
0
  6
CONTINUOUS
 62
               3
  5
2E3
 10
-80.99999999999801
 20
-682.9999999999992
 30
0.0
 11
-80.999999999998863
 21
-621.99999999999898
 31
0.0
  0
LINE
  8
0
  6
CONTINUOUS
 62
               3
  5
2E4
 10
-79.999999999997925
 20
-682.9999999999992
 30
0.0
 11
-79.99999999999892
 21
-621.99999999999898
 31
0.0
  0
LINE
  8
0
  6
CONTINUOUS
 62
               3
  5
2E5
 10
0.0000000000010832
 20
-683.99999999999829
 30
0.0
 11
-78.99999999999784
 21
-683.9999999999992
 31
0.0
  0
LINE
  8
0
  6
CONTINUOUS
 62
               3
  5
2E6
 10
0.0000000000010832
 20
-661.49999999999829
 30
0.0
 11
-79.999999999998067
 21
-661.49999999999898
 31
0.0
  0
ARC
  8
0
  6
CONTINUOUS
 62
               3
  5
2E7
 10
-81.999999999998806
 20
-621.99999999999898
 30
0.0
 40
1.9999999999999996
 50
0.000000000001145
 51
89.999999999983004
  0
ARC
  8
0
  6
CONTINUOUS
 62
               3
  5
2E8
 10
-81.999999999998806
 20
-621.99999999999898
 30
0.0
 40
1.0000000000000004
 50
0.0000000000007633
 51
89.999999999984539
  0
LINE
  8
0
  6
CONTINUOUS
 62
               3
  5
2E9
 10
-81.999999999998806
 20
-620.99999999999898
 30
0.0
 11
-144.99999999999892
 21
-620.99999999999943
 31
0.0
  0
LINE
  8
0
  6
CONTINUOUS
 62
               3
  5
2EA
 10
-79.999999999998494
 20
-577.00000000000011
 30
0.0
 11
0.0000000000016517
 21
-577.00000000000011
 31
0.0
  0
LINE
  8
0
  6
CONTINUOUS
 62
               3
  5
2EB
 10
-76.999999999998522
 20
-577.00000000000011
 30
0.0
 11
-76.999999999999091
 21
-661.49999999999898
 31
0.0
  0
LINE
  8
0
  6
CONTINUOUS
 62
               3
  5
2EC
 10
-144.99999999999892
 20
-618.99999999999943
 30
0.0
 11
-144.99999999999892
 21
-619.99999999999943
 31
0.0
  0
LINE
  8
0
  6
CONTINUOUS
 62
               3
  5
2ED
 10
-144.99999999999892
 20
-620.99999999999943
 30
0.0
 11
-144.99999999999892
 21
-619.99999999999943
 31
0.0
  0
LINE
  8
0
  6
CONTINUOUS
 62
               3
  5
2EE
 10
-87.249999999998863
 20
-617.49999999999898
 30
0.0
 11
-94.749999999998863
 21
-617.49999999999898
 31
0.0
  0
LINE
  8
0
  6
CONTINUOUS
 62
               3
  5
2EF
 10
-87.249999999998863
 20
-622.49999999999898
 30
0.0
 11
-94.749999999998863
 21
-622.4999999999992
 31
0.0
  0
LINE
  8
0
  6
CONTINUOUS
 62
               3
  5
2F0
 10
-87.249999999998863
 20
-617.49999999999898
 30
0.0
 11
-87.249999999998863
 21
-618.99999999999898
 31
0.0
  0
LINE
  8
0
  6
CONTINUOUS
 62
               3
  5
2F1
 10
-87.249999999998863
 20
-620.99999999999898
 30
0.0
 11
-87.249999999998863
 21
-622.49999999999898
 31
0.0
  0
LINE
  8
0
  6
CONTINUOUS
 62
               3
  5
2F2
 10
-94.749999999998863
 20
-617.49999999999898
 30
0.0
 11
-94.749999999998863
 21
-618.99999999999898
 31
0.0
  0
LINE
  8
0
  6
CONTINUOUS
 62
               3
  5
2F3
 10
-94.749999999998863
 20
-620.9999999999992
 30
0.0
 11
-94.749999999998863
 21
-622.4999999999992
 31
0.0
  0
ARC
  8
0
  6
CONTINUOUS
 62
               3
  5
2F4
 10
76.000000000001464
 20
-558.00000000000011
 30
0.0
 40
4.0
 50
0.0000000000344079
 51
90.000000000017366
  0
ARC
  8
0
  6
CONTINUOUS
 62
               3
  5
2F5
 10
79.000000000001407
 20
-555.00000000000011
 30
0.0
 40
1.0000000000000004
 50
0.000000000034357
 51
90.000000000018133
  0
ARC
  8
0
  6
CONTINUOUS
 62
               3
  5
2F6
 10
79.000000000001407
 20
-555.00000000000011
 30
0.0
 40
1.9999999999999996
 50
0.000000000034357
 51
90.000000000016598
  0
LINE
  8
0
  6
CONTINUOUS
 62
               3
  5
2F7
 10
81.000000000001464
 20
-555.00000000000011
 30
0.0
 11
81.000000000000895
 21
-617.99999999999898
 31
0.0
  0
LINE
  8
0
  6
CONTINUOUS
 62
               3
  5
2F8
 10
80.000000000001634
 20
-555.00000000000011
 30
0.0
 11
80.000000000001066
 21
-617.99999999999898
 31
0.0
  0
ARC
  8
0
  6
CONTINUOUS
 62
               3
  5
2F9
 10
82.000000000000952
 20
-617.99999999999898
 30
0.0
 40
1.9999999999999996
 50
180.0000000000683
 51
270.00000000005133
  0
ARC
  8
0
  6
CONTINUOUS
 62
               3
  5
2FA
 10
82.000000000000952
 20
-617.99999999999898
 30
0.0
 40
1.0000000000000004
 50
180.0000000000683
 51
270.00000000005133
  0
LINE
  8
0
  6
CONTINUOUS
 62
               3
  5
2FB
 10
82.000000000000952
 20
-619.99999999999898
 30
0.0
 11
145.00000000000108
 21
-619.99999999999943
 31
0.0
  0
LINE
  8
0
  6
CONTINUOUS
 62
               3
  5
2FC
 10
82.000000000000952
 20
-618.99999999999898
 30
0.0
 11
145.00000000000108
 21
-618.99999999999943
 31
0.0
  0
LINE
  8
0
  6
CONTINUOUS
 62
               3
  5
2FD
 10
65.000000000001634
 20
-553.00000000000011
 30
0.0
 11
79.000000000001407
 21
-553.00000000000011
 31
0.0
  0
LINE
  8
0
  6
CONTINUOUS
 62
               3
  5
2FE
 10
0.0000000000016517
 20
-553.99999999999943
 30
0.0
 11
79.000000000001407
 21
-554.00000000000011
 31
0.0
  0
LINE
  8
0
  6
CONTINUOUS
 62
               3
  5
2FF
 10
65.000000000001634
 20
-553.00000000000011
 30
0.0
 11
65.000000000001634
 21
-554.0
 31
0.0
  0
LINE
  8
0
  6
CONTINUOUS
 62
               3
  5
300
 10
64.999999999999929
 20
-684.99999999999898
 30
0.0
 11
78.999999999999986
 21
-684.9999999999992
 31
0.0
  0
ARC
  8
0
  6
CONTINUOUS
 62
               3
  5
301
 10
78.999999999999986
 20
-682.9999999999992
 30
0.0
 40
1.0000000000000004
 50
270.00000000005133
 51
360.0000000000328
  0
ARC
  8
0
  6
CONTINUOUS
 62
               3
  5
302
 10
78.999999999999986
 20
-682.9999999999992
 30
0.0
 40
1.9999999999999996
 50
270.00000000004979
 51
360.0000000000328
  0
ARC
  8
0
  6
CONTINUOUS
 62
               3
  5
303
 10
76.000000000000043
 20
-679.9999999999992
 30
0.0
 40
4.0
 50
270.00000000004979
 51
360.0000000000328
  0
LINE
  8
0
  6
CONTINUOUS
 62
               3
  5
304
 10
64.999999999999929
 20
-684.99999999999898
 30
0.0
 11
64.999999999999929
 21
-683.9999999999992
 31
0.0
  0
LINE
  8
0
  6
CONTINUOUS
 62
               3
  5
305
 10
80.999999999999872
 20
-682.9999999999992
 30
0.0
 11
81.000000000000895
 21
-621.99999999999898
 31
0.0
  0
LINE
  8
0
  6
CONTINUOUS
 62
               3
  5
306
 10
79.999999999999929
 20
-682.9999999999992
 30
0.0
 11
80.000000000000952
 21
-621.99999999999898
 31
0.0
  0
LINE
  8
0
  6
CONTINUOUS
 62
               3
  5
307
 10
0.0000000000010832
 20
-683.99999999999829
 30
0.0
 11
78.999999999999986
 21
-683.9999999999992
 31
0.0
  0
LINE
  8
0
  6
CONTINUOUS
 62
               3
  5
308
 10
0.0000000000010832
 20
-661.49999999999829
 30
0.0
 11
80.000000000000213
 21
-661.49999999999898
 31
0.0
  0
ARC
  8
0
  6
CONTINUOUS
 62
               3
  5
309
 10
82.000000000000952
 20
-621.99999999999898
 30
0.0
 40
1.9999999999999996
 50
90.000000000016598
 51
179.99999999999847
  0
ARC
  8
0
  6
CONTINUOUS
 62
               3
  5
30A
 10
82.000000000000952
 20
-621.99999999999898
 30
0.0
 40
1.0000000000000004
 50
90.000000000015078
 51
179.99999999999883
  0
LINE
  8
0
  6
CONTINUOUS
 62
               3
  5
30B
 10
82.000000000000952
 20
-620.99999999999898
 30
0.0
 11
145.00000000000108
 21
-620.99999999999943
 31
0.0
  0
LINE
  8
0
  6
CONTINUOUS
 62
               3
  5
30C
 10
80.000000000001634
 20
-577.00000000000011
 30
0.0
 11
0.0000000000016517
 21
-577.00000000000011
 31
0.0
  0
LINE
  8
0
  6
CONTINUOUS
 62
               3
  5
30D
 10
77.000000000001521
 20
-577.00000000000011
 30
0.0
 11
77.000000000000952
 21
-661.49999999999898
 31
0.0
  0
LINE
  8
0
  6
CONTINUOUS
 62
               3
  5
30E
 10
145.00000000000108
 20
-618.99999999999943
 30
0.0
 11
145.00000000000108
 21
-619.99999999999943
 31
0.0
  0
LINE
  8
0
  6
CONTINUOUS
 62
               3
  5
30F
 10
145.00000000000108
 20
-620.99999999999943
 30
0.0
 11
145.00000000000108
 21
-619.99999999999943
 31
0.0
  0
LINE
  8
0
  6
CONTINUOUS
 62
               3
  5
310
 10
87.250000000000895
 20
-617.49999999999898
 30
0.0
 11
94.750000000000895
 21
-617.49999999999898
 31
0.0
  0
LINE
  8
0
  6
CONTINUOUS
 62
               3
  5
311
 10
87.250000000000895
 20
-622.49999999999898
 30
0.0
 11
94.750000000000895
 21
-622.4999999999992
 31
0.0
  0
LINE
  8
0
  6
CONTINUOUS
 62
               3
  5
312
 10
87.250000000000895
 20
-617.49999999999898
 30
0.0
 11
87.250000000000895
 21
-618.99999999999898
 31
0.0
  0
LINE
  8
0
  6
CONTINUOUS
 62
               3
  5
313
 10
87.250000000000895
 20
-620.99999999999898
 30
0.0
 11
87.250000000000895
 21
-622.49999999999898
 31
0.0
  0
LINE
  8
0
  6
CONTINUOUS
 62
               3
  5
314
 10
94.750000000000895
 20
-617.49999999999898
 30
0.0
 11
94.750000000000895
 21
-618.99999999999898
 31
0.0
  0
LINE
  8
0
  6
CONTINUOUS
 62
               3
  5
315
 10
94.750000000000895
 20
-620.9999999999992
 30
0.0
 11
94.750000000000895
 21
-622.4999999999992
 31
0.0
  0
LINE
  8
0
  6
CONTINUOUS
 62
               3
  5
316
 10
62.000000000000966
 20
-698.99999999999829
 30
0.0
 11
62.000000000000966
 21
-683.9999999999992
 31
0.0
  0
LINE
  8
0
  6
CONTINUOUS
 62
               3
  5
317
 10
58.000000000001535
 20
-517.99999999999898
 30
0.0
 11
58.000000000001535
 21
-407.20708506678932
 31
0.0
  0
LINE
  8
0
  6
CONTINUOUS
 62
               3
  5
318
 10
-57.999999999998465
 20
-407.20708506678932
 30
0.0
 11
-57.999999999998465
 21
-517.99999999999898
 31
0.0
  0
CIRCLE
  8
0
  6
CONTINUOUS
 62
               3
  5
319
 10
509.28652321630909
 20
-1182.856864513049
 30
0.0
 40
75.0
  0
CIRCLE
  8
0
  6
CONTINUOUS
 62
               3
  5
31A
 10
509.28652321630909
 20
-1182.856864513049
 30
0.0
 40
52.5
  0
LINE
  8
0
  6
CONTINUOUS
 62
               3
  5
31B
 10
423.07602501568385
 20
-1162.856864513049
 30
0.0
 11
437.00236174230372
 21
-1162.856864513049
 31
0.0
  0
LINE
  8
0
  6
CONTINUOUS
 62
               3
  5
31C
 10
437.00236174230372
 20
-1202.856864513049
 30
0.0
 11
423.07602501568385
 21
-1202.856864513049
 31
0.0
  0
ARC
  8
0
  6
CONTINUOUS
 62
               3
  5
31D
 10
509.28652321630909
 20
-1182.856864513049
 30
0.0
 40
88.5
 50
166.93897588503955
 51
193.06102411461563
  0
LINE
  8
0
  6
CONTINUOUS
 62
               3
  5
31E
 10
489.28652321630909
 20
-1269.0673627136739
 30
0.0
 11
489.28652321630909
 21
-1255.141025987054
 31
0.0
  0
LINE
  8
0
  6
CONTINUOUS
 62
               3
  5
31F
 10
529.28652321630909
 20
-1255.141025987054
 30
0.0
 11
529.28652321630909
 21
-1269.0673627136739
 31
0.0
  0
ARC
  8
0
  6
CONTINUOUS
 62
               3
  5
320
 10
509.28652321630909
 20
-1182.856864513049
 30
0.0
 40
88.5
 50
256.93897588495344
 51
283.06102411452946
  0
LINE
  8
0
  6
CONTINUOUS
 62
               3
  5
321
 10
595.49702141693376
 20
-1202.856864513049
 30
0.0
 11
581.57068469031333
 21
-1202.856864513049
 31
0.0
  0
LINE
  8
0
  6
CONTINUOUS
 62
               3
  5
322
 10
581.57068469031333
 20
-1162.856864513049
 30
0.0
 11
595.49702141693376
 21
-1162.856864513049
 31
0.0
  0
ARC
  8
0
  6
CONTINUOUS
 62
               3
  5
323
 10
509.28652321630909
 20
-1182.856864513049
 30
0.0
 40
88.5
 50
346.93897588486726
 51
373.06102411444328
  0
LINE
  8
0
  6
CONTINUOUS
 62
               3
  5
324
 10
529.28652321630909
 20
-1096.6463663124234
 30
0.0
 11
529.28652321630909
 21
-1110.572703039044
 31
0.0
  0
LINE
  8
0
  6
CONTINUOUS
 62
               3
  5
325
 10
489.28652321630909
 20
-1110.572703039044
 30
0.0
 11
489.28652321630909
 21
-1096.6463663124234
 31
0.0
  0
ARC
  8
0
  6
CONTINUOUS
 62
               3
  5
326
 10
509.28652321630909
 20
-1182.856864513049
 30
0.0
 40
88.5
 50
76.938975885125799
 51
103.06102411470188
  0
LINE
  8
0
  6
CONTINUOUS
 62
               3
  5
327
 10
461.61839969544803
 20
-1204.8568645130495
 30
0.0
 11
556.95464673716901
 21
-1204.8568645130495
 31
0.0
  0
ARC
  8
0
  6
CONTINUOUS
 62
               3
  5
328
 10
521.79013486569022
 20
-1174.15046688543
 30
0.0
 40
54.763804151667173
 50
141.38591763670254
 51
145.15009542081478
  0
ARC
  8
0
  6
CONTINUOUS
 62
               3
  5
329
 10
509.28652321630909
 20
-1182.856864513049
 30
0.0
 40
51.5
 50
334.71098847313715
 51
410.95932736324704
  0
ARC
  8
0
  6
CONTINUOUS
 62
               3
  5
32A
 10
509.28652321630909
 20
-1182.856864513049
 30
0.0
 40
51.5
 50
129.04067263623631
 51
205.28901152634575
  0
ARC
  8
0
  6
CONTINUOUS
 62
               3
  5
32B
 10
509.28652321630909
 20
-1182.856864513049
 30
0.0
 40
77.5
 50
104.95524831654289
 51
128.57288309091018
  0
ARC
  8
0
  6
CONTINUOUS
 62
               3
  5
32C
 10
509.28652321630909
 20
-1182.856864513049
 30
0.0
 40
77.5
 50
14.955248316628946
 51
75.044751683284858
  0
ARC
  8
0
  6
CONTINUOUS
 62
               3
  5
32D
 10
509.28652321630909
 20
-1182.856864513049
 30
0.0
 40
77.5
 50
321.42711690865838
 51
345.04475168302622
  0
LINE
  8
0
  6
CONTINUOUS
 62
               3
  5
32E
 10
369.28652321630909
 20
-1237.856864513049
 30
0.0
 11
369.95807934227332
 21
-1237.856864513049
 31
0.0
  0
LINE
  8
0
  6
CONTINUOUS
 62
               3
  5
32F
 10
372.45807934227378
 20
-1240.356864513049
 30
0.0
 11
369.95807934227332
 21
-1237.856864513049
 31
0.0
  0
LINE
  8
0
  6
CONTINUOUS
 62
               3
  5
330
 10
369.28652321630909
 20
-1127.856864513049
 30
0.0
 11
369.95807934227332
 21
-1127.856864513049
 31
0.0
  0
LINE
  8
0
  6
CONTINUOUS
 62
               3
  5
331
 10
372.45807934227332
 20
-1125.356864513049
 30
0.0
 11
369.95807934227332
 21
-1127.856864513049
 31
0.0
  0
LINE
  8
0
  6
CONTINUOUS
 62
               3
  5
332
 10
369.95807934227332
 20
-1127.856864513049
 30
0.0
 11
369.95807934227332
 21
-1237.856864513049
 31
0.0
  0
LINE
  8
0
  6
CONTINUOUS
 62
               3
  5
333
 10
463.79618742993114
 20
-1122.1672674947074
 30
0.0
 11
372.45807934227332
 21
-1125.356864513049
 31
0.0
  0
LINE
  8
0
  6
CONTINUOUS
 62
               3
  5
334
 10
444.45005149975805
 20
-1242.8708795780167
 30
0.0
 11
372.45807934227389
 21
-1240.356864513049
 31
0.0
  0
LINE
  8
0
  6
CONTINUOUS
 62
               3
  5
335
 10
364.28652321630909
 20
-1128.0284206390131
 30
0.0
 11
364.28652321630909
 21
-1237.9568645130489
 31
0.0
  0
LINE
  8
0
  6
CONTINUOUS
 62
               3
  5
336
 10
369.28652321630909
 20
-1240.4568645130489
 30
0.0
 11
369.28652321630909
 21
-1125.2568645130489
 31
0.0
  0
LINE
  8
0
  6
CONTINUOUS
 62
               3
  5
337
 10
369.28652321630909
 20
-1125.2568645130489
 30
0.0
 11
366.78652321630909
 21
-1125.2568645130489
 31
0.0
  0
LINE
  8
0
  6
CONTINUOUS
 62
               3
  5
338
 10
369.28652321630909
 20
-1240.4568645130489
 30
0.0
 11
366.78652321630909
 21
-1240.4568645130489
 31
0.0
  0
ARC
  8
0
  6
CONTINUOUS
 62
               3
  5
339
 10
366.78652321630909
 20
-1237.9568645130489
 30
0.0
 40
2.5
 50
179.99999999982765
 51
269.99999999974079
  0
ARC
  8
0
  6
CONTINUOUS
 62
               3
  5
33A
 10
366.78652321630909
 20
-1127.7568645130489
 30
0.0
 40
2.5
 50
89.999999999915119
 51
179.99999999982765
  0
LINE
  8
0
  6
CONTINUOUS
 62
               3
  5
33B
 10
476.84812004969149
 20
-1142.8568645130492
 30
0.0
 11
509.28652321630909
 21
-1142.8568645130492
 31
0.0
  0
LINE
  8
0
  6
CONTINUOUS
 62
               3
  5
33C
 10
509.28652321630909
 20
-1142.8568645130492
 30
0.0
 11
543.29019948814778
 21
-1142.8568645130492
 31
0.0
  0
LINE
  8
0
  6
CONTINUOUS
 62
               3
  5
33D
 10
372.45807934227378
 20
-1240.356864513049
 30
0.0
 11
372.45807934227332
 21
-1125.356864513049
 31
0.0
  0
ARC
  8
0
  6
CONTINUOUS
 62
               3
  5
33E
 10
463.62168994641866
 20
-1117.1703133596118
 30
0.0
 40
5.0
 50
271.99999999973971
 51
304.80675787013507
  0
LINE
  8
0
  6
CONTINUOUS
 62
               3
  5
33F
 10
564.28652321630898
 20
-1322.856864513049
 30
0.0
 11
564.28652321630898
 21
-1322.1853083870847
 31
0.0
  0
LINE
  8
0
  6
CONTINUOUS
 62
               3
  5
340
 10
566.78652321630898
 20
-1319.6853083870842
 30
0.0
 11
564.28652321630898
 21
-1322.1853083870847
 31
0.0
  0
LINE
  8
0
  6
CONTINUOUS
 62
               3
  5
341
 10
454.28652321630898
 20
-1322.856864513049
 30
0.0
 11
454.28652321630898
 21
-1322.1853083870847
 31
0.0
  0
LINE
  8
0
  6
CONTINUOUS
 62
               3
  5
342
 10
451.78652321630898
 20
-1319.6853083870847
 30
0.0
 11
454.28652321630898
 21
-1322.1853083870847
 31
0.0
  0
LINE
  8
0
  6
CONTINUOUS
 62
               3
  5
343
 10
454.28652321630898
 20
-1322.1853083870847
 30
0.0
 11
564.28652321630898
 21
-1322.1853083870847
 31
0.0
  0
LINE
  8
0
  6
CONTINUOUS
 62
               3
  5
344
 10
454.45807934227309
 20
-1327.856864513049
 30
0.0
 11
564.386523216309
 21
-1327.856864513049
 31
0.0
  0
LINE
  8
0
  6
CONTINUOUS
 62
               3
  5
345
 10
566.886523216309
 20
-1322.856864513049
 30
0.0
 11
451.68652321630896
 21
-1322.856864513049
 31
0.0
  0
LINE
  8
0
  6
CONTINUOUS
 62
               3
  5
346
 10
451.68652321630896
 20
-1322.856864513049
 30
0.0
 11
451.68652321630896
 21
-1325.356864513049
 31
0.0
  0
LINE
  8
0
  6
CONTINUOUS
 62
               3
  5
347
 10
566.886523216309
 20
-1322.856864513049
 30
0.0
 11
566.886523216309
 21
-1325.356864513049
 31
0.0
  0
ARC
  8
0
  6
CONTINUOUS
 62
               3
  5
348
 10
564.386523216309
 20
-1325.356864513049
 30
0.0
 40
2.5
 50
269.99999999974142
 51
359.9999999996553
  0
ARC
  8
0
  6
CONTINUOUS
 62
               3
  5
349
 10
454.18652321630896
 20
-1325.356864513049
 30
0.0
 40
2.5
 50
179.99999999982765
 51
269.99999999974142
  0
LINE
  8
0
  6
CONTINUOUS
 62
               3
  5
34A
 10
566.78652321630898
 20
-1319.6853083870842
 30
0.0
 11
451.78652321630898
 21
-1319.6853083870847
 31
0.0
  0
LINE
  8
0
  6
CONTINUOUS
 62
               3
  5
34B
 10
569.97612023465012
 20
-1228.3472002994274
 30
0.0
 11
566.78652321630898
 21
-1319.6853083870842
 31
0.0
  0
ARC
  8
0
  6
CONTINUOUS
 62
               3
  5
34C
 10
574.97307436974563
 20
-1228.52169778294
 30
0.0
 40
5.0
 50
145.19324212943388
 51
177.99999999983041
  0
LINE
  8
0
  6
CONTINUOUS
 62
               3
  5
34D
 10
449.27250815134096
 20
-1247.6933362295999
 30
0.0
 11
451.78652321630898
 21
-1319.6853083870847
 31
0.0
  0
ARC
  8
0
  6
CONTINUOUS
 62
               3
  5
34E
 10
444.27555401624556
 20
-1247.8678337131121
 30
0.0
 40
5.0
 50
1.9999999999951679
 51
87.999999999915332
  0
CIRCLE
  8
0
  6
CONTINUOUS
 62
               3
  5
34F
 10
509.28652321630909
 20
-1182.856864513049
 30
0.0
 40
59.0
  0
LINE
  8
0
  6
CONTINUOUS
 62
               3
  5
350
 10
434.28652321630909
 20
-1491.3562982616334
 30
0.0
 11
584.28652321630909
 21
-1491.3562982616334
 31
0.0
  0
LINE
  8
0
  6
CONTINUOUS
 62
               3
  5
351
 10
420.78652321630886
 20
-1501.3562982616334
 30
0.0
 11
420.78652321630886
 21
-1508.3562982616329
 31
0.0
  0
LINE
  8
0
  6
CONTINUOUS
 62
               3
  5
352
 10
420.78652321630886
 20
-1501.3562982616334
 30
0.0
 11
434.28652321630909
 21
-1491.3562982616334
 31
0.0
  0
ARC
  8
0
  6
CONTINUOUS
 62
               3
  5
353
 10
432.28652321630921
 20
-1512.9388739565886
 30
0.0
 40
4.9999999999999991
 50
0.0
 51
66.421821521735268
  0
LINE
  8
0
  6
CONTINUOUS
 62
               3
  5
354
 10
420.78652321630886
 20
-1508.3562982616329
 30
0.0
 11
597.78652321630875
 21
-1508.3562982616329
 31
0.0
  0
ARC
  8
0
  6
CONTINUOUS
 62
               3
  5
355
 10
454.28652321630909
 20
-1598.3562982616334
 30
0.0
 40
19.999999999999996
 50
148.21166938280612
 51
167.26981986152714
  0
LINE
  8
0
  6
CONTINUOUS
 62
               3
  5
356
 10
437.28652321630921
 20
-1512.9388739565886
 30
0.0
 11
437.28652321630921
 21
-1587.8206445087806
 31
0.0
  0
LINE
  8
0
  6
CONTINUOUS
 62
               3
  5
357
 10
581.28652321630898
 20
-1582.8206445087801
 30
0.0
 11
581.28652321630898
 21
-1512.9388739565886
 31
0.0
  0
LINE
  8
0
  6
CONTINUOUS
 62
               3
  5
358
 10
437.28652321630921
 20
-1587.8206445087806
 30
0.0
 11
580.78652321630943
 21
-1587.8206445087806
 31
0.0
  0
LINE
  8
0
  6
CONTINUOUS
 62
               3
  5
359
 10
489.28652321630909
 20
-1508.3562982616329
 30
0.0
 11
489.28652321630909
 21
-1491.3562982616334
 31
0.0
  0
LINE
  8
0
  6
CONTINUOUS
 62
               3
  5
35A
 10
529.28652321630909
 20
-1491.3562982616334
 30
0.0
 11
529.28652321630909
 21
-1508.3562982616329
 31
0.0
  0
LINE
  8
0
  6
CONTINUOUS
 62
               3
  5
35B
 10
489.28652321630909
 20
-1501.3562982616334
 30
0.0
 11
529.28652321630909
 21
-1501.3562982616334
 31
0.0
  0
LINE
  8
0
  6
CONTINUOUS
 62
               3
  5
35C
 10
437.00236174230372
 20
-1491.3562982616334
 30
0.0
 11
437.00236174230372
 21
-1508.3562982616329
 31
0.0
  0
LINE
  8
0
  6
CONTINUOUS
 62
               3
  5
35D
 10
423.07602501568385
 20
-1501.3562982616334
 30
0.0
 11
423.07602501568385
 21
-1508.3562982616329
 31
0.0
  0
LINE
  8
0
  6
CONTINUOUS
 62
               3
  5
35E
 10
420.78652321630886
 20
-1501.3562982616334
 30
0.0
 11
423.07602501568385
 21
-1501.3562982616334
 31
0.0
  0
LINE
  8
0
  6
CONTINUOUS
 62
               3
  5
35F
 10
423.07602501568385
 20
-1501.3562982616334
 30
0.0
 11
437.00236174230372
 21
-1491.3562982616334
 31
0.0
  0
LINE
  8
0
  6
CONTINUOUS
 62
               3
  5
360
 10
597.78652321630875
 20
-1501.3562982616334
 30
0.0
 11
597.78652321630875
 21
-1508.3562982616329
 31
0.0
  0
LINE
  8
0
  6
CONTINUOUS
 62
               3
  5
361
 10
597.78652321630875
 20
-1501.3562982616334
 30
0.0
 11
584.28652321630909
 21
-1491.3562982616334
 31
0.0
  0
ARC
  8
0
  6
CONTINUOUS
 62
               3
  5
362
 10
586.28652321630898
 20
-1512.9388739565886
 30
0.0
 40
4.9999999999999991
 50
113.57817847809196
 51
179.99999999982765
  0
LINE
  8
0
  6
CONTINUOUS
 62
               3
  5
363
 10
581.57068469031333
 20
-1491.3562982616334
 30
0.0
 11
581.57068469031333
 21
-1508.3562982616329
 31
0.0
  0
LINE
  8
0
  6
CONTINUOUS
 62
               3
  5
364
 10
595.49702141693433
 20
-1501.3562982616334
 30
0.0
 11
595.49702141693433
 21
-1508.3562982616329
 31
0.0
  0
LINE
  8
0
  6
CONTINUOUS
 62
               3
  5
365
 10
597.78652321630875
 20
-1501.3562982616334
 30
0.0
 11
595.49702141693433
 21
-1501.3562982616334
 31
0.0
  0
LINE
  8
0
  6
CONTINUOUS
 62
               3
  5
366
 10
595.49702141693433
 20
-1501.3562982616334
 30
0.0
 11
581.57068469031333
 21
-1491.3562982616334
 31
0.0
  0
ARC
  8
0
  6
CONTINUOUS
 62
               3
  5
367
 10
444.28652321630909
 20
-1719.8562982616334
 30
0.0
 40
2.4999999999999996
 50
89.999999999913825
 51
269.99999999974142
  0
ARC
  8
0
  6
CONTINUOUS
 62
               3
  5
368
 10
584.28652321630909
 20
-1719.8562982616334
 30
0.0
 40
2.4999999999999996
 50
269.99999999974142
 51
449.99999999956907
  0
LINE
  8
0
  6
CONTINUOUS
 62
               3
  5
369
 10
369.28652321630909
 20
-1712.3562982616334
 30
0.0
 11
369.95807934227344
 21
-1712.3562982616334
 31
0.0
  0
LINE
  8
0
  6
CONTINUOUS
 62
               3
  5
36A
 10
372.45807934227355
 20
-1714.8562982616327
 30
0.0
 11
369.95807934227344
 21
-1712.3562982616334
 31
0.0
  0
LINE
  8
0
  6
CONTINUOUS
 62
               3
  5
36B
 10
372.45807934227435
 20
-1714.8562982616334
 30
0.0
 11
414.62318959855168
 21
-1716.3287363574875
 31
0.0
  0
LINE
  8
0
  6
CONTINUOUS
 62
               3
  5
36C
 10
432.82205712224163
 20
-1732.6279876879194
 30
0.0
 11
417.98422602097185
 21
-1717.79015658665
 31
0.0
  0
ARC
  8
0
  6
CONTINUOUS
 62
               3
  5
36D
 10
429.28652321630909
 20
-1736.1635215938525
 30
0.0
 40
4.9999999999999991
 50
0.0
 51
44.999999999956145
  0
LINE
  8
0
  6
CONTINUOUS
 62
               3
  5
36E
 10
369.28652321630909
 20
-1602.3562982616334
 30
0.0
 11
369.95807934227344
 21
-1602.3562982616334
 31
0.0
  0
LINE
  8
0
  6
CONTINUOUS
 62
               3
  5
36F
 10
372.45807934227355
 20
-1599.8562982616334
 30
0.0
 11
369.95807934227344
 21
-1602.3562982616334
 31
0.0
  0
LINE
  8
0
  6
CONTINUOUS
 62
               3
  5
370
 10
372.45807934227344
 20
-1599.8562982616334
 30
0.0
 11
430.07555554444775
 21
-1597.844251656481
 31
0.0
  0
LINE
  8
0
  6
CONTINUOUS
 62
               3
  5
371
 10
369.95807934227344
 20
-1602.3562982616334
 30
0.0
 11
369.95807934227344
 21
-1712.3562982616334
 31
0.0
  0
LINE
  8
0
  6
CONTINUOUS
 62
               3
  5
372
 10
369.28652321630909
 20
-1714.9562982616333
 30
0.0
 11
369.28652321630909
 21
-1599.7562982616334
 31
0.0
  0
LINE
  8
0
  6
CONTINUOUS
 62
               3
  5
373
 10
369.28652321630909
 20
-1599.7562982616334
 30
0.0
 11
366.78652321630909
 21
-1599.7562982616334
 31
0.0
  0
ARC
  8
0
  6
CONTINUOUS
 62
               3
  5
374
 10
366.78652321630909
 20
-1602.2562982616334
 30
0.0
 40
2.5
 50
89.999999999915119
 51
179.99999999982504
  0
LINE
  8
0
  6
CONTINUOUS
 62
               3
  5
375
 10
364.28652321630909
 20
-1602.2562982616334
 30
0.0
 11
364.28652321630909
 21
-1712.4562982616333
 31
0.0
  0
LINE
  8
0
  6
CONTINUOUS
 62
               3
  5
376
 10
369.28652321630909
 20
-1714.9562982616333
 30
0.0
 11
366.78652321630909
 21
-1714.9562982616333
 31
0.0
  0
ARC
  8
0
  6
CONTINUOUS
 62
               3
  5
377
 10
366.78652321630909
 20
-1712.4562982616333
 30
0.0
 40
2.5
 50
179.99999999982504
 51
269.99999999974079
  0
LINE
  8
0
  6
CONTINUOUS
 62
               3
  5
378
 10
372.45807934227355
 20
-1599.8562982616334
 30
0.0
 11
372.45807934227435
 21
-1714.8562982616334
 31
0.0
  0
ARC
  8
0
  6
CONTINUOUS
 62
               3
  5
379
 10
414.44869211503919
 20
-1721.3256904925829
 30
0.0
 40
5.0
 50
44.999999999959599
 51
87.999999999915318
  0
ARC
  8
0
  6
CONTINUOUS
 62
               3
  5
37A
 10
429.90105806093527
 20
-1592.8472975213856
 30
0.0
 40
5.0
 50
271.99999999974006
 51
347.26981986135314
  0
CIRCLE
  8
0
  6
CONTINUOUS
 62
               3
  5
37B
 10
509.28652321630909
 20
-1657.3562982616334
 30
0.0
 40
48.5
  0
CIRCLE
  8
0
  6
CONTINUOUS
 62
               3
  5
37C
 10
509.28652321630909
 20
-1657.3562982616334
 30
0.0
 40
47.299999999999997
  0
LINE
  8
0
  6
CONTINUOUS
 62
               3
  5
37D
 10
477.46671806291454
 20
-1689.1761034150279
 30
0.0
 11
475.84037246618539
 21
-1690.8024490117571
 31
0.0
  0
LINE
  8
0
  6
CONTINUOUS
 62
               3
  5
37E
 10
541.10632836970376
 20
-1689.1761034150279
 30
0.0
 11
542.7326739664328
 21
-1690.8024490117571
 31
0.0
  0
ARC
  8
0
  6
CONTINUOUS
 62
               3
  5
37F
 10
509.28652321630909
 20
-1657.3562982616334
 30
0.0
 40
45.0
 50
224.99999999978439
 51
314.9999999996985
  0
CIRCLE
  8
0
  6
CONTINUOUS
 62
               3
  5
380
 10
509.28652321630909
 20
-1657.3562982616334
 30
0.0
 40
57.600000000000001
  0
ARC
  8
0
  6
CONTINUOUS
 62
               3
  5
381
 10
486.78652321630966
 20
-1719.8562982616334
 30
0.0
 40
2.4999999999999996
 50
269.99999999974142
 51
449.99999999956907
  0
ARC
  8
0
  6
CONTINUOUS
 62
               3
  5
382
 10
531.78652321630966
 20
-1719.8562982616334
 30
0.0
 40
2.4999999999999996
 50
89.999999999912518
 51
269.99999999974142
  0
LINE
  8
0
  6
CONTINUOUS
 62
               3
  5
383
 10
444.28652321630909
 20
-1722.3562982616334
 30
0.0
 11
486.78652321630966
 21
-1722.3562982616334
 31
0.0
  0
LINE
  8
0
  6
CONTINUOUS
 62
               3
  5
384
 10
444.28652321630909
 20
-1717.3562982616334
 30
0.0
 11
486.78652321630966
 21
-1717.3562982616334
 31
0.0
  0
LINE
  8
0
  6
CONTINUOUS
 62
               3
  5
385
 10
531.78652321630966
 20
-1717.3562982616334
 30
0.0
 11
584.28652321630909
 21
-1717.3562982616334
 31
0.0
  0
LINE
  8
0
  6
CONTINUOUS
 62
               3
  5
386
 10
531.78652321630966
 20
-1722.3562982616334
 30
0.0
 11
584.28652321630909
 21
-1722.3562982616334
 31
0.0
  0
ARC
  8
0
  6
CONTINUOUS
 62
               3
  5
387
 10
-420.00000000000045
 20
-30.999999999999872
 30
0.0
 40
5.0
 50
89.999999999999801
 51
179.9999999999996
  0
ARC
  8
0
  6
CONTINUOUS
 62
               3
  5
388
 10
79.999999999999545
 20
-30.999999999999943
 30
0.0
 40
5.0
 50
89.999999999999801
 51
179.9999999999996
  0
ARC
  8
0
  6
CONTINUOUS
 62
               3
  5
389
 10
579.99999999999955
 20
-30.999999999999872
 30
0.0
 40
5.0
 50
89.999999999999801
 51
179.9999999999996
  0
ARC
  8
0
  6
CONTINUOUS
 62
               3
  5
38A
 10
-79.828252206279899
 20
-30.825288673326725
 30
0.0
 40
4.8252886733268916
 50
271.99999999999983
 51
352.65529582506667
  0
LINE
  8
0
  6
DASHDOT
 62
               4
  5
38B
 10
0.0
 20
608.5
 30
0.0
 11
0.0000000000000131
 21
395.05584216014478
 31
0.0
  0
LINE
  8
0
  6
DASHDOT
 62
               4
  5
38C
 10
-176.39662295670917
 20
500.0
 30
0.0
 11
162.85467317929863
 21
500.0
 31
0.0
  0
LINE
  8
0
  6
DASHDOT
 62
               4
  5
38D
 10
-559.25535177574693
 20
-88.499999999999659
 30
0.0
 11
-439.12805223429496
 21
-88.499999999999659
 31
0.0
  0
LINE
  8
0
  6
DASHDOT
 62
               4
  5
38E
 10
-79.968395543085933
 20
-88.500000000000171
 30
0.0
 11
-165.00000000000028
 21
-88.500000000000171
 31
0.0
  0
LINE
  8
0
  6
DASHDOT
 62
               4
  5
38F
 10
60.639867587056415
 20
-95.999999999999787
 30
0.0
 11
172.53650337447732
 21
-95.999999999999773
 31
0.0
  0
LINE
  8
0
  6
DASHDOT
 62
               4
  5
390
 10
564.7188509560815
 20
-96.0
 30
0.0
 11
433.30111999237988
 21
-96.0
 31
0.0
  0
LINE
  8
0
  6
DASHDOT
 62
               4
  5
391
 10
-499.99999999999955
 20
266.00000000000057
 30
0.0
 11
-499.99999999999949
 21
-838.89310860625164
 31
0.0
  0
LINE
  8
0
  6
DASHDOT
 62
               4
  5
392
 10
500.00000000000045
 20
266.00000000000057
 30
0.0
 11
500.00000000000051
 21
-838.89310860625164
 31
0.0
  0
LINE
  8
0
  6
DASHDOT
 62
               4
  5
393
 10
-124.99999999999892
 20
-498.00989800199409
 30
0.0
 11
-124.99999999999892
 21
-662.38825962148451
 31
0.0
  0
LINE
  8
0
  6
DASHDOT
 62
               4
  5
394
 10
125.00000000000107
 20
-498.00989800199409
 30
0.0
 11
125.00000000000107
 21
-662.38825962148451
 31
0.0
  0
LINE
  8
0
  6
DASHDOT
 62
               4
  5
395
 10
0.0000000000004547
 20
266.00000000000051
 30
0.0
 11
0.0000000000005244
 21
-838.89310860625164
 31
0.0
  0
LINE
  8
0
  6
DASHDOT
 62
               4
  5
396
 10
-99.999999999998778
 20
-1279.3931046036494
 30
0.0
 11
-99.999999999998721
 21
-1163.3931046036494
 31
0.0
  0
LINE
  8
0
  6
DASHDOT
 62
               4
  5
397
 10
-157.99999999999872
 20
-1221.3931046036494
 30
0.0
 11
-41.999999999998721
 21
-1221.3931046036494
 31
0.0
  0
LINE
  8
0
  6
DASHDOT
 62
               4
  5
398
 10
-149.99999999999872
 20
-1229.3931046036494
 30
0.0
 11
-49.999999999998721
 21
-1229.3931046036494
 31
0.0
  0
LINE
  8
0
  6
DASHDOT
 62
               4
  5
399
 10
-263.92622825658771
 20
-1229.3931046036494
 30
0.0
 11
-198.45693243651826
 21
-1229.3931046036494
 31
0.0
  0
LINE
  8
0
  6
DASHDOT
 62
               4
  5
39A
 10
-322.49999999999875
 20
-1221.3931046036494
 30
0.0
 11
-223.89999999999858
 21
-1221.3931046036494
 31
0.0
  0
LINE
  8
0
  6
DASHDOT
 62
               4
  5
39B
 10
63.926228256590221
 20
-1229.3931046036496
 30
0.0
 11
-1.5430675634790987
 21
-1229.3931046036494
 31
0.0
  0
LINE
  8
0
  6
DASHDOT
 62
               4
  5
39C
 10
122.50000000000129
 20
-1221.3931046036496
 30
0.0
 11
23.900000000001228
 21
-1221.3931046036494
 31
0.0
  0
LINE
  8
0
  6
DASHDOT
 62
               4
  5
39D
 10
-99.999999999998778
 20
-998.89310460364936
 30
0.0
 11
-99.999999999998778
 21
-1122.9361721671296
 31
0.0
  0
LINE
  8
0
  6
DASHDOT
 62
               4
  5
39E
 10
509.28652321630909
 20
-1074.356864513049
 30
0.0
 11
509.28652321630909
 21
-1344.9036513128754
 31
0.0
  0
LINE
  8
0
  6
DASHDOT
 62
               4
  5
39F
 10
347.28652321630921
 20
-1182.856864513049
 30
0.0
 11
617.78652321630932
 21
-1182.856864513049
 31
0.0
  0
LINE
  8
0
  6
DASHDOT
 62
               4
  5
3A0
 10
509.28652321630909
 20
-1373.4568645130491
 30
0.0
 11
509.28652321630909
 21
-1249.8568645130488
 31
0.0
  0
LINE
  8
0
  6
DASHDOT
 62
               4
  5
3A1
 10
309.28652321630932
 20
-1182.8568645130488
 30
0.0
 11
442.28652321630932
 21
-1182.8568645130488
 31
0.0
  0
LINE
  8
0
  6
DASHDOT
 62
               4
  5
3A2
 10
577.81174799153382
 20
-1657.3562982616334
 30
0.0
 11
347.55790992288087
 21
-1657.3562982616334
 31
0.0
  0
LINE
  8
0
  6
DASHDOT
 62
               4
  5
3A3
 10
509.28652321630909
 20
-1471.3562982616334
 30
0.0
 11
509.28652321630909
 21
-1722.3562982616334
 31
0.0
  0
LINE
  8
0
  6
DASHDOT
 62
               4
  5
3A4
 10
459.28652321630909
 20
-1671.8562982616334
 30
0.0
 11
559.28652321630932
 21
-1671.8562982616334
 31
0.0
  0
LINE
  8
0
  6
DASHDOT
 62
               4
  5
3A5
 10
309.28652321630909
 20
-1663.8562982616334
 30
0.0
 11
383.68652321630907
 21
-1663.8562982616334
 31
0.0
  0
CIRCLE
  8
0
  6
CONTINUOUS
 62
               4
  5
3A6
 10
-64.346717087976231
 20
435.65328291202434
 30
0.0
 40
13.0
  0
CIRCLE
  8
0
  6
CONTINUOUS
 62
               4
  5
3A7
 10
-64.346717087976231
 20
564.34671708797566
 30
0.0
 40
13.0
  0
CIRCLE
  8
0
  6
CONTINUOUS
 62
               4
  5
3A8
 10
64.346717087976344
 20
564.34671708797566
 30
0.0
 40
13.0
  0
CIRCLE
  8
0
  6
CONTINUOUS
 62
               4
  5
3A9
 10
64.346717087976344
 20
435.65328291202434
 30
0.0
 40
13.0
  0
ARC
  8
0
  6
CONTINUOUS
 62
               4
  5
3AA
 10
25.783965811966141
 20
139.00000000000057
 30
0.0
 40
17.566965811965957
 50
143.14855134076873
 51
179.9999999999996
  0
LINE
  8
0
  6
CONTINUOUS
 62
               4
  5
3AB
 10
-11.727000000000203
 20
154.53565375285331
 30
0.0
 11
11.727000000000203
 21
154.53565375285331
 31
0.0
  0
ARC
  8
0
  6
CONTINUOUS
 62
               4
  5
3AC
 10
-25.783965811965572
 20
139.00000000000057
 30
0.0
 40
17.566965811965957
 50
0.0
 51
36.851448659230869
  0
LINE
  8
0
  6
CONTINUOUS
 62
               4
  5
3AD
 10
11.727000000000203
 20
149.53565375285331
 30
0.0
 11
11.727000000000203
 21
154.53565375285331
 31
0.0
  0
LINE
  8
0
  6
CONTINUOUS
 62
               4
  5
3AE
 10
-11.727000000000203
 20
149.53565375285331
 30
0.0
 11
-11.727000000000203
 21
154.53565375285331
 31
0.0
  0
LINE
  8
0
  6
CONTINUOUS
 62
               4
  5
3AF
 10
11.727000000000203
 20
154.53565375285331
 30
0.0
 11
6.0000000000002274
 21
149.53565375285331
 31
0.0
  0
LINE
  8
0
  6
CONTINUOUS
 62
               4
  5
3B0
 10
-5.9999999999996589
 20
149.53565375285331
 30
0.0
 11
-11.727000000000203
 21
154.53565375285331
 31
0.0
  0
LINE
  8
0
  6
CONTINUOUS
 62
               4
  5
3B1
 10
6.0000000000002274
 20
149.53565375285331
 30
0.0
 11
-5.9999999999996589
 21
149.53565375285331
 31
0.0
  0
LINE
  8
0
  6
CONTINUOUS
 62
               4
  5
3B2
 10
-5.9999999999996589
 20
18.000000000000576
 30
0.0
 11
-5.9999999999996589
 21
149.53565375285331
 31
0.0
  0
LINE
  8
0
  6
CONTINUOUS
 62
               4
  5
3B3
 10
6.0000000000002274
 20
149.53565375285331
 30
0.0
 11
6.0000000000002274
 21
18.000000000000647
 31
0.0
  0
LINE
  8
0
  6
CONTINUOUS
 62
               4
  5
3B4
 10
8.2170000000002119
 20
139.00000000000057
 30
0.0
 11
8.2170000000002119
 21
18.000000000000668
 31
0.0
  0
LINE
  8
0
  6
CONTINUOUS
 62
               4
  5
3B5
 10
-8.2169999999996435
 20
139.00000000000057
 30
0.0
 11
-8.2169999999996435
 21
18.000000000000554
 31
0.0
  0
LINE
  8
0
  6
CONTINUOUS
 62
               4
  5
3B6
 10
-51.349999999999909
 20
20.300000000000011
 30
0.0
 11
-51.349999999999909
 21
18.000000000000114
 31
0.0
  0
LINE
  8
0
  6
CONTINUOUS
 62
               4
  5
3B7
 10
-51.349999999999909
 20
18.000000000000114
 30
0.0
 11
-77.349999999999909
 21
18.000000000000114
 31
0.0
  0
LINE
  8
0
  6
CONTINUOUS
 62
               4
  5
3B8
 10
-77.349999999999909
 20
18.000000000000114
 30
0.0
 11
-77.349999999999909
 21
20.300000000000011
 31
0.0
  0
LINE
  8
0
  6
CONTINUOUS
 62
               4
  5
3B9
 10
-77.349999999999909
 20
20.300000000000011
 30
0.0
 11
-51.349999999999909
 21
20.300000000000011
 31
0.0
  0
LINE
  8
0
  6
CONTINUOUS
 62
               4
  5
3BA
 10
-58.350000000000136
 20
30.300000000000011
 30
0.0
 11
-58.350000000000136
 21
39.000000000000199
 31
0.0
  0
LINE
  8
0
  6
CONTINUOUS
 62
               4
  5
3BB
 10
-70.350000000000136
 20
39.000000000000199
 30
0.0
 11
-70.350000000000136
 21
30.300000000000011
 31
0.0
  0
LINE
  8
0
  6
CONTINUOUS
 62
               4
  5
3BC
 10
-70.350000000000136
 20
39.000000000000199
 30
0.0
 11
-58.350000000000136
 21
39.000000000000199
 31
0.0
  0
LINE
  8
0
  6
CONTINUOUS
 62
               4
  5
3BD
 10
51.349999999999909
 20
20.300000000000011
 30
0.0
 11
51.349999999999909
 21
18.000000000000114
 31
0.0
  0
LINE
  8
0
  6
CONTINUOUS
 62
               4
  5
3BE
 10
51.349999999999909
 20
18.000000000000114
 30
0.0
 11
77.349999999999909
 21
18.000000000000121
 31
0.0
  0
LINE
  8
0
  6
CONTINUOUS
 62
               4
  5
3BF
 10
77.349999999999909
 20
18.000000000000121
 30
0.0
 11
77.349999999999909
 21
20.300000000000018
 31
0.0
  0
LINE
  8
0
  6
CONTINUOUS
 62
               4
  5
3C0
 10
77.349999999999909
 20
20.300000000000018
 30
0.0
 11
51.349999999999909
 21
20.300000000000011
 31
0.0
  0
LINE
  8
0
  6
CONTINUOUS
 62
               4
  5
3C1
 10
58.350000000000136
 20
30.300000000000018
 30
0.0
 11
58.350000000000136
 21
39.000000000000199
 31
0.0
  0
LINE
  8
0
  6
CONTINUOUS
 62
               4
  5
3C2
 10
70.350000000000136
 20
39.000000000000199
 30
0.0
 11
70.350000000000136
 21
30.300000000000018
 31
0.0
  0
LINE
  8
0
  6
CONTINUOUS
 62
               4
  5
3C3
 10
70.350000000000136
 20
39.000000000000199
 30
0.0
 11
58.350000000000136
 21
39.000000000000199
 31
0.0
  0
LINE
  8
0
  6
CONTINUOUS
 62
               4
  5
3C4
 10
423.0
 20
149.53565375285331
 30
0.0
 11
428.0
 21
154.53565375285331
 31
0.0
  0
ARC
  8
0
  6
CONTINUOUS
 62
               4
  5
3C5
 10
445.5
 20
139.00000000000057
 30
0.0
 40
19.999999999999996
 50
148.21166938294789
 51
179.9999999999996
  0
LINE
  8
0
  6
CONTINUOUS
 62
               4
  5
3C6
 10
428.49999999999955
 20
149.53565375285331
 30
0.0
 11
428.49999999999955
 21
154.53565375285399
 31
0.0
  0
LINE
  8
0
  6
CONTINUOUS
 62
               4
  5
3C7
 10
428.0
 20
154.53565375285331
 30
0.0
 11
428.49999999999955
 21
154.53565375285331
 31
0.0
  0
ARC
  8
0
  6
CONTINUOUS
 62
               4
  5
3C8
 10
418.0
 20
23.000000000000043
 30
0.0
 40
5.0
 50
269.99999999999937
 51
359.9999999999992
  0
LINE
  8
0
  6
CONTINUOUS
 62
               4
  5
3C9
 10
425.5
 20
139.00000000000057
 30
0.0
 11
425.5
 21
30.300000000000082
 31
0.0
  0
LINE
  8
0
  6
CONTINUOUS
 62
               4
  5
3CA
 10
423.0
 20
149.53565375285331
 30
0.0
 11
423.0
 21
23.000000000000043
 31
0.0
  0
LINE
  8
0
  6
CONTINUOUS
 62
               4
  5
3CB
 10
448.65000000000009
 20
20.300000000000082
 30
0.0
 11
448.65000000000009
 21
18.000000000000185
 31
0.0
  0
LINE
  8
0
  6
CONTINUOUS
 62
               4
  5
3CC
 10
448.65000000000009
 20
18.000000000000185
 30
0.0
 11
422.65000000000009
 21
18.000000000000185
 31
0.0
  0
LINE
  8
0
  6
CONTINUOUS
 62
               4
  5
3CD
 10
422.65000000000009
 20
18.000000000000185
 30
0.0
 11
422.65000000000009
 21
20.300000000000082
 31
0.0
  0
LINE
  8
0
  6
CONTINUOUS
 62
               4
  5
3CE
 10
422.65000000000009
 20
20.300000000000082
 30
0.0
 11
448.65000000000009
 21
20.300000000000082
 31
0.0
  0
LINE
  8
0
  6
CONTINUOUS
 62
               4
  5
3CF
 10
441.64999999999986
 20
30.300000000000082
 30
0.0
 11
441.64999999999986
 21
39.00000000000027
 31
0.0
  0
LINE
  8
0
  6
CONTINUOUS
 62
               4
  5
3D0
 10
429.64999999999986
 20
39.00000000000027
 30
0.0
 11
429.64999999999986
 21
30.300000000000082
 31
0.0
  0
LINE
  8
0
  6
CONTINUOUS
 62
               4
  5
3D1
 10
429.64999999999986
 20
39.00000000000027
 30
0.0
 11
441.64999999999986
 21
39.00000000000027
 31
0.0
  0
LINE
  8
0
  6
CONTINUOUS
 62
               4
  5
3D2
 10
577.0
 20
149.53565375285331
 30
0.0
 11
572.0
 21
154.53565375285331
 31
0.0
  0
ARC
  8
0
  6
CONTINUOUS
 62
               4
  5
3D3
 10
554.5
 20
139.00000000000057
 30
0.0
 40
19.999999999999996
 50
0.0
 51
31.788330617051724
  0
LINE
  8
0
  6
CONTINUOUS
 62
               4
  5
3D4
 10
571.50000000000045
 20
149.53565375285331
 30
0.0
 11
571.50000000000045
 21
154.53565375285399
 31
0.0
  0
LINE
  8
0
  6
CONTINUOUS
 62
               4
  5
3D5
 10
572.0
 20
154.53565375285331
 30
0.0
 11
571.50000000000045
 21
154.53565375285331
 31
0.0
  0
ARC
  8
0
  6
CONTINUOUS
 62
               4
  5
3D6
 10
582.0
 20
23.000000000000043
 30
0.0
 40
5.0
 50
179.9999999999996
 51
269.99999999999937
  0
LINE
  8
0
  6
CONTINUOUS
 62
               4
  5
3D7
 10
574.5
 20
139.00000000000057
 30
0.0
 11
574.5
 21
29.782332308330339
 31
0.0
  0
LINE
  8
0
  6
CONTINUOUS
 62
               4
  5
3D8
 10
577.0
 20
149.53565375285331
 30
0.0
 11
577.0
 21
23.000000000000043
 31
0.0
  0
LINE
  8
0
  6
CONTINUOUS
 62
               4
  5
3D9
 10
551.34999999999991
 20
20.300000000000082
 30
0.0
 11
551.34999999999991
 21
18.000000000000185
 31
0.0
  0
LINE
  8
0
  6
CONTINUOUS
 62
               4
  5
3DA
 10
551.34999999999991
 20
18.000000000000185
 30
0.0
 11
577.34999999999991
 21
18.000000000000185
 31
0.0
  0
LINE
  8
0
  6
CONTINUOUS
 62
               4
  5
3DB
 10
577.34999999999991
 20
18.000000000000185
 30
0.0
 11
577.34999999999991
 21
20.300000000000082
 31
0.0
  0
LINE
  8
0
  6
CONTINUOUS
 62
               4
  5
3DC
 10
577.34999999999991
 20
20.300000000000082
 30
0.0
 11
551.34999999999991
 21
20.300000000000082
 31
0.0
  0
LINE
  8
0
  6
CONTINUOUS
 62
               4
  5
3DD
 10
558.35000000000014
 20
30.300000000000082
 30
0.0
 11
558.35000000000014
 21
39.00000000000027
 31
0.0
  0
LINE
  8
0
  6
CONTINUOUS
 62
               4
  5
3DE
 10
570.35000000000014
 20
39.00000000000027
 30
0.0
 11
570.35000000000014
 21
30.300000000000082
 31
0.0
  0
LINE
  8
0
  6
CONTINUOUS
 62
               4
  5
3DF
 10
570.35000000000014
 20
39.00000000000027
 30
0.0
 11
558.35000000000014
 21
39.00000000000027
 31
0.0
  0
LINE
  8
0
  6
CONTINUOUS
 62
               4
  5
3E0
 10
-577.0
 20
149.53565375285331
 30
0.0
 11
-572.0
 21
154.53565375285331
 31
0.0
  0
ARC
  8
0
  6
CONTINUOUS
 62
               4
  5
3E1
 10
-554.5
 20
139.00000000000057
 30
0.0
 40
19.999999999999996
 50
148.21166938294789
 51
179.9999999999996
  0
LINE
  8
0
  6
CONTINUOUS
 62
               4
  5
3E2
 10
-571.50000000000045
 20
149.53565375285331
 30
0.0
 11
-571.50000000000045
 21
154.53565375285399
 31
0.0
  0
LINE
  8
0
  6
CONTINUOUS
 62
               4
  5
3E3
 10
-572.0
 20
154.53565375285331
 30
0.0
 11
-571.50000000000045
 21
154.53565375285331
 31
0.0
  0
ARC
  8
0
  6
CONTINUOUS
 62
               4
  5
3E4
 10
-582.0
 20
23.000000000000043
 30
0.0
 40
5.0
 50
269.99999999999937
 51
359.9999999999992
  0
LINE
  8
0
  6
CONTINUOUS
 62
               4
  5
3E5
 10
-574.5
 20
139.00000000000057
 30
0.0
 11
-574.5
 21
30.300000000000082
 31
0.0
  0
LINE
  8
0
  6
CONTINUOUS
 62
               4
  5
3E6
 10
-577.0
 20
149.53565375285331
 30
0.0
 11
-577.0
 21
23.000000000000043
 31
0.0
  0
LINE
  8
0
  6
CONTINUOUS
 62
               4
  5
3E7
 10
-551.34999999999991
 20
20.300000000000082
 30
0.0
 11
-551.34999999999991
 21
18.000000000000185
 31
0.0
  0
LINE
  8
0
  6
CONTINUOUS
 62
               4
  5
3E8
 10
-551.34999999999991
 20
18.000000000000185
 30
0.0
 11
-577.34999999999991
 21
18.000000000000185
 31
0.0
  0
LINE
  8
0
  6
CONTINUOUS
 62
               4
  5
3E9
 10
-577.34999999999991
 20
18.000000000000185
 30
0.0
 11
-577.34999999999991
 21
20.300000000000082
 31
0.0
  0
LINE
  8
0
  6
CONTINUOUS
 62
               4
  5
3EA
 10
-577.34999999999991
 20
20.300000000000082
 30
0.0
 11
-551.34999999999991
 21
20.300000000000082
 31
0.0
  0
LINE
  8
0
  6
CONTINUOUS
 62
               4
  5
3EB
 10
-558.35000000000014
 20
30.300000000000082
 30
0.0
 11
-558.35000000000014
 21
39.00000000000027
 31
0.0
  0
LINE
  8
0
  6
CONTINUOUS
 62
               4
  5
3EC
 10
-570.35000000000014
 20
39.00000000000027
 30
0.0
 11
-570.35000000000014
 21
30.300000000000082
 31
0.0
  0
LINE
  8
0
  6
CONTINUOUS
 62
               4
  5
3ED
 10
-570.35000000000014
 20
39.00000000000027
 30
0.0
 11
-558.35000000000014
 21
39.00000000000027
 31
0.0
  0
LINE
  8
0
  6
CONTINUOUS
 62
               4
  5
3EE
 10
-423.0
 20
149.53565375285331
 30
0.0
 11
-428.0
 21
154.53565375285331
 31
0.0
  0
ARC
  8
0
  6
CONTINUOUS
 62
               4
  5
3EF
 10
-445.5
 20
139.00000000000057
 30
0.0
 40
19.999999999999996
 50
0.0
 51
31.788330617051724
  0
LINE
  8
0
  6
CONTINUOUS
 62
               4
  5
3F0
 10
-428.49999999999955
 20
149.53565375285331
 30
0.0
 11
-428.49999999999955
 21
154.53565375285399
 31
0.0
  0
LINE
  8
0
  6
CONTINUOUS
 62
               4
  5
3F1
 10
-428.0
 20
154.53565375285331
 30
0.0
 11
-428.49999999999955
 21
154.53565375285331
 31
0.0
  0
ARC
  8
0
  6
CONTINUOUS
 62
               4
  5
3F2
 10
-418.0
 20
23.000000000000043
 30
0.0
 40
5.0
 50
179.9999999999996
 51
269.99999999999937
  0
LINE
  8
0
  6
CONTINUOUS
 62
               4
  5
3F3
 10
-425.5
 20
139.00000000000057
 30
0.0
 11
-425.5
 21
29.782332308330339
 31
0.0
  0
LINE
  8
0
  6
CONTINUOUS
 62
               4
  5
3F4
 10
-423.0
 20
149.53565375285331
 30
0.0
 11
-423.0
 21
23.000000000000043
 31
0.0
  0
LINE
  8
0
  6
CONTINUOUS
 62
               4
  5
3F5
 10
-448.65000000000009
 20
20.300000000000082
 30
0.0
 11
-448.65000000000009
 21
18.000000000000185
 31
0.0
  0
LINE
  8
0
  6
CONTINUOUS
 62
               4
  5
3F6
 10
-448.65000000000009
 20
18.000000000000185
 30
0.0
 11
-422.65000000000009
 21
18.000000000000185
 31
0.0
  0
LINE
  8
0
  6
CONTINUOUS
 62
               4
  5
3F7
 10
-422.65000000000009
 20
18.000000000000185
 30
0.0
 11
-422.65000000000009
 21
20.300000000000082
 31
0.0
  0
LINE
  8
0
  6
CONTINUOUS
 62
               4
  5
3F8
 10
-422.65000000000009
 20
20.300000000000082
 30
0.0
 11
-448.65000000000009
 21
20.300000000000082
 31
0.0
  0
LINE
  8
0
  6
CONTINUOUS
 62
               4
  5
3F9
 10
-441.64999999999986
 20
30.300000000000082
 30
0.0
 11
-441.64999999999986
 21
39.00000000000027
 31
0.0
  0
LINE
  8
0
  6
CONTINUOUS
 62
               4
  5
3FA
 10
-429.64999999999986
 20
39.00000000000027
 30
0.0
 11
-429.64999999999986
 21
30.300000000000082
 31
0.0
  0
LINE
  8
0
  6
CONTINUOUS
 62
               4
  5
3FB
 10
-429.64999999999986
 20
39.00000000000027
 30
0.0
 11
-441.64999999999986
 21
39.00000000000027
 31
0.0
  0
LINE
  8
0
  6
CONTINUOUS
 62
               4
  5
3FC
 10
-565.49999999999977
 20
-723.99999999999841
 30
0.0
 11
-434.49999999999795
 21
-723.99999999999841
 31
0.0
  0
LINE
  8
0
  6
CONTINUOUS
 62
               4
  5
3FD
 10
434.50000000000023
 20
-723.99999999999841
 30
0.0
 11
565.50000000000205
 21
-723.99999999999841
 31
0.0
  0
LINE
  8
0
  6
CONTINUOUS
 62
               4
  5
3FE
 10
-90.999999999998863
 20
-624.74522178732184
 30
0.0
 11
-90.999999999998863
 21
-614.87093558026606
 31
0.0
  0
LINE
  8
0
  6
CONTINUOUS
 62
               4
  5
3FF
 10
91.000000000000895
 20
-624.74522178732184
 30
0.0
 11
91.000000000000895
 21
-614.87093558026606
 31
0.0
  0
LINE
  8
0
  6
CONTINUOUS
 62
               4
  5
400
 10
-65.499999999999886
 20
-723.99999999999829
 30
0.0
 11
65.500000000002032
 21
-723.99999999999829
 31
0.0
  0
POINT
  8
0
  6
CONTINUOUS
 62
               4
  5
401
 10
-244.49999999999861
 20
-1170.3931046036491
 30
0.0
  0
POINT
  8
0
  6
CONTINUOUS
 62
               4
  5
402
 10
44.500000000001222
 20
-1170.3931046036494
 30
0.0
  0
POINT
  8
0
  6
CONTINUOUS
 62
               4
  5
403
 10
-48.999999999998607
 20
-1076.8931046036494
 30
0.0
  0
POINT
  8
0
  6
CONTINUOUS
 62
               4
  5
404
 10
553.78652321630909
 20
-1327.2568645130491
 30
0.0
  0
POINT
  8
0
  6
CONTINUOUS
 62
               4
  5
405
 10
364.88652321630923
 20
-1227.3568645130488
 30
0.0
  0
LINE
  8
0
  6
CONTINUOUS
 62
               4
  5
406
 10
586.28652321630898
 20
-1587.8206445087806
 30
0.0
 11
581.28652321630898
 21
-1582.8206445087806
 31
0.0
  0
ARC
  8
0
  6
CONTINUOUS
 62
               4
  5
407
 10
563.78652321630898
 20
-1598.3562982616334
 30
0.0
 40
19.999999999999996
 50
0.0
 51
31.788330617021131
  0
LINE
  8
0
  6
CONTINUOUS
 62
               4
  5
408
 10
580.78652321630943
 20
-1587.8206445087806
 30
0.0
 11
580.78652321630943
 21
-1582.8206445087801
 31
0.0
  0
LINE
  8
0
  6
CONTINUOUS
 62
               4
  5
409
 10
581.28652321630898
 20
-1582.8206445087806
 30
0.0
 11
580.78652321630943
 21
-1582.8206445087806
 31
0.0
  0
LINE
  8
0
  6
CONTINUOUS
 62
               4
  5
40A
 10
586.03652321630921
 20
-1588.0706445087806
 30
0.0
 11
580.78652321630943
 21
-1582.8206445087806
 31
0.0
  0
LINE
  8
0
  6
CONTINUOUS
 62
               4
  5
40B
 10
586.03652321630921
 20
-1588.0706445087806
 30
0.0
 11
586.28652321630898
 21
-1587.8206445087806
 31
0.0
  0
LINE
  8
0
  6
CONTINUOUS
 62
               4
  5
40C
 10
586.28652321630898
 20
-1587.8206445087806
 30
0.0
 11
586.28652321630898
 21
-1718.5093218587504
 31
0.0
  0
LINE
  8
0
  6
CONTINUOUS
 62
               4
  5
40D
 10
586.03652321630921
 20
-1588.0706445087806
 30
0.0
 11
586.03652321630921
 21
-1718.2239647516149
 31
0.0
  0
LINE
  8
0
  6
CONTINUOUS
 62
               4
  5
40E
 10
583.78652321630898
 20
-1598.2032746645161
 30
0.0
 11
583.78652321630898
 21
-1717.3562982616334
 31
0.0
  0
POINT
  8
0
  6
CONTINUOUS
 62
               4
  5
40F
 10
364.88652321630912
 20
-1612.8562982616334
 30
0.0
  0
LINE
  8
0
  6
CONTINUOUS
 62
               4
  5
410
 10
-578.22647400135997
 20
-29.599999999999838
 30
0.0
 11
-572.3499999999982
 21
-32.999999999999929
 31
0.0
  0
LINE
  8
0
  6
CONTINUOUS
 62
               4
  5
411
 10
-555.84999999999809
 20
-32.999999999999929
 30
0.0
 11
-555.84999999999809
 21
-25.999999999999869
 31
0.0
  0
LINE
  8
0
  6
CONTINUOUS
 62
               4
  5
412
 10
-555.84999999999809
 20
-32.999999999999929
 30
0.0
 11
-572.3499999999982
 21
-32.999999999999929
 31
0.0
  0
LINE
  8
0
  6
CONTINUOUS
 62
               4
  5
413
 10
-581.17706146647583
 20
-29.599999999999838
 30
0.0
 11
-578.22647400135997
 21
-29.599999999999838
 31
0.0
  0
LINE
  8
0
  6
CONTINUOUS
 62
               4
  5
414
 10
-581.17706146647583
 20
-25.999999999999872
 30
0.0
 11
-581.17706146647583
 21
-29.599999999999838
 31
0.0
  0
LINE
  8
0
  6
CONTINUOUS
 62
               4
  5
415
 10
-555.84999999999809
 20
-25.999999999999869
 30
0.0
 11
-581.17706146647583
 21
-25.999999999999872
 31
0.0
  0
LINE
  8
0
  6
CONTINUOUS
 62
               4
  5
416
 10
-452.47706146647545
 20
-25.999999999999861
 30
0.0
 11
-452.47706146647545
 21
-29.599999999999827
 31
0.0
  0
LINE
  8
0
  6
CONTINUOUS
 62
               4
  5
417
 10
-452.47706146647545
 20
-29.599999999999827
 30
0.0
 11
-437.5056587211883
 21
-29.599999999999824
 31
0.0
  0
LINE
  8
0
  6
CONTINUOUS
 62
               4
  5
418
 10
-449.52647400135959
 20
-29.599999999999827
 30
0.0
 11
-443.64999999999782
 21
-32.999999999999915
 31
0.0
  0
LINE
  8
0
  6
CONTINUOUS
 62
               4
  5
419
 10
-440.45624618630416
 20
-25.999999999999861
 30
0.0
 11
-440.45624618630416
 21
-29.599999999999827
 31
0.0
  0
LINE
  8
0
  6
CONTINUOUS
 62
               4
  5
41A
 10
-429.99314575050551
 20
-32.999999999999915
 30
0.0
 11
-437.5056587211883
 21
-29.599999999999824
 31
0.0
  0
LINE
  8
0
  6
CONTINUOUS
 62
               4
  5
41B
 10
-427.14999999999782
 20
-32.999999999999915
 30
0.0
 11
-443.64999999999782
 21
-32.999999999999915
 31
0.0
  0
LINE
  8
0
  6
CONTINUOUS
 62
               4
  5
41C
 10
-427.14999999999782
 20
-32.999999999999915
 30
0.0
 11
-427.14999999999782
 21
-25.999999999999858
 31
0.0
  0
LINE
  8
0
  6
CONTINUOUS
 62
               4
  5
41D
 10
-427.14999999999782
 20
-25.999999999999858
 30
0.0
 11
-452.47706146647545
 21
-25.999999999999861
 31
0.0
  0
LINE
  8
0
  6
CONTINUOUS
 62
               4
  5
41E
 10
47.522938533524552
 20
-25.999999999999932
 30
0.0
 11
47.522938533524552
 21
-29.599999999999898
 31
0.0
  0
LINE
  8
0
  6
CONTINUOUS
 62
               4
  5
41F
 10
47.522938533524552
 20
-29.599999999999898
 30
0.0
 11
62.494341278811703
 21
-29.599999999999895
 31
0.0
  0
LINE
  8
0
  6
CONTINUOUS
 62
               4
  5
420
 10
50.473525998640412
 20
-29.599999999999898
 30
0.0
 11
56.350000000002183
 21
-32.999999999999986
 31
0.0
  0
LINE
  8
0
  6
CONTINUOUS
 62
               4
  5
421
 10
59.543753813695844
 20
-25.999999999999932
 30
0.0
 11
59.543753813695844
 21
-29.599999999999898
 31
0.0
  0
LINE
  8
0
  6
CONTINUOUS
 62
               4
  5
422
 10
70.006854249494495
 20
-32.999999999999986
 30
0.0
 11
62.494341278811703
 21
-29.599999999999895
 31
0.0
  0
LINE
  8
0
  6
CONTINUOUS
 62
               4
  5
423
 10
72.850000000002183
 20
-32.999999999999986
 30
0.0
 11
56.350000000002183
 21
-32.999999999999986
 31
0.0
  0
LINE
  8
0
  6
CONTINUOUS
 62
               4
  5
424
 10
72.850000000002183
 20
-32.999999999999986
 30
0.0
 11
72.850000000002183
 21
-25.999999999999929
 31
0.0
  0
LINE
  8
0
  6
CONTINUOUS
 62
               4
  5
425
 10
72.850000000002183
 20
-25.999999999999929
 30
0.0
 11
47.522938533524552
 21
-25.999999999999932
 31
0.0
  0
LINE
  8
0
  6
CONTINUOUS
 62
               4
  5
426
 10
-78.226474001359975
 20
-29.599999999999909
 30
0.0
 11
-72.349999999998204
 21
-33.0
 31
0.0
  0
LINE
  8
0
  6
CONTINUOUS
 62
               4
  5
427
 10
-55.84999999999809
 20
-33.0
 30
0.0
 11
-55.84999999999809
 21
-25.99999999999994
 31
0.0
  0
LINE
  8
0
  6
CONTINUOUS
 62
               4
  5
428
 10
-55.84999999999809
 20
-33.0
 30
0.0
 11
-72.349999999998204
 21
-33.0
 31
0.0
  0
LINE
  8
0
  6
CONTINUOUS
 62
               4
  5
429
 10
-81.177061466475834
 20
-29.599999999999909
 30
0.0
 11
-78.226474001359975
 21
-29.599999999999909
 31
0.0
  0
LINE
  8
0
  6
CONTINUOUS
 62
               4
  5
42A
 10
-81.177061466475834
 20
-25.999999999999943
 30
0.0
 11
-81.177061466475834
 21
-29.599999999999909
 31
0.0
  0
LINE
  8
0
  6
CONTINUOUS
 62
               4
  5
42B
 10
-55.84999999999809
 20
-25.99999999999994
 30
0.0
 11
-81.177061466475834
 21
-25.999999999999943
 31
0.0
  0
LINE
  8
0
  6
CONTINUOUS
 62
               4
  5
42C
 10
547.52293853352455
 20
-25.999999999999861
 30
0.0
 11
547.52293853352455
 21
-29.599999999999827
 31
0.0
  0
LINE
  8
0
  6
CONTINUOUS
 62
               4
  5
42D
 10
547.52293853352455
 20
-29.599999999999827
 30
0.0
 11
562.4943412788117
 21
-29.599999999999824
 31
0.0
  0
LINE
  8
0
  6
CONTINUOUS
 62
               4
  5
42E
 10
550.47352599864041
 20
-29.599999999999827
 30
0.0
 11
556.35000000000218
 21
-32.999999999999915
 31
0.0
  0
LINE
  8
0
  6
CONTINUOUS
 62
               4
  5
42F
 10
559.54375381369584
 20
-25.999999999999861
 30
0.0
 11
559.54375381369584
 21
-29.599999999999827
 31
0.0
  0
LINE
  8
0
  6
CONTINUOUS
 62
               4
  5
430
 10
570.00685424949449
 20
-32.999999999999915
 30
0.0
 11
562.4943412788117
 21
-29.599999999999824
 31
0.0
  0
LINE
  8
0
  6
CONTINUOUS
 62
               4
  5
431
 10
572.85000000000218
 20
-32.999999999999915
 30
0.0
 11
556.35000000000218
 21
-32.999999999999915
 31
0.0
  0
LINE
  8
0
  6
CONTINUOUS
 62
               4
  5
432
 10
572.85000000000218
 20
-32.999999999999915
 30
0.0
 11
572.85000000000218
 21
-25.999999999999858
 31
0.0
  0
LINE
  8
0
  6
CONTINUOUS
 62
               4
  5
433
 10
572.85000000000218
 20
-25.999999999999858
 30
0.0
 11
547.52293853352455
 21
-25.999999999999861
 31
0.0
  0
LINE
  8
0
  6
CONTINUOUS
 62
               4
  5
434
 10
421.77352599864003
 20
-29.599999999999838
 30
0.0
 11
427.6500000000018
 21
-32.999999999999929
 31
0.0
  0
LINE
  8
0
  6
CONTINUOUS
 62
               4
  5
435
 10
444.15000000000191
 20
-32.999999999999929
 30
0.0
 11
444.15000000000191
 21
-25.999999999999869
 31
0.0
  0
LINE
  8
0
  6
CONTINUOUS
 62
               4
  5
436
 10
444.15000000000191
 20
-32.999999999999929
 30
0.0
 11
427.6500000000018
 21
-32.999999999999929
 31
0.0
  0
LINE
  8
0
  6
CONTINUOUS
 62
               4
  5
437
 10
418.82293853352417
 20
-29.599999999999838
 30
0.0
 11
421.77352599864003
 21
-29.599999999999838
 31
0.0
  0
LINE
  8
0
  6
CONTINUOUS
 62
               4
  5
438
 10
418.82293853352417
 20
-25.999999999999872
 30
0.0
 11
418.82293853352417
 21
-29.599999999999838
 31
0.0
  0
LINE
  8
0
  6
CONTINUOUS
 62
               4
  5
439
 10
444.15000000000191
 20
-25.999999999999869
 30
0.0
 11
418.82293853352417
 21
-25.999999999999872
 31
0.0
  0
LINE
  8
0
  6
DASHED2
 62
               4
  5
43A
 10
-57.0
 20
181.00000000000057
 30
0.0
 11
57.0
 21
181.00000000000057
 31
0.0
  0
LINE
  8
0
  6
DASHED2
 62
               4
  5
43B
 10
443.0
 20
181.00000000000057
 30
0.0
 11
557.0
 21
181.00000000000057
 31
0.0
  0
LINE
  8
0
  6
DASHED2
 62
               4
  5
43C
 10
-557.0
 20
181.00000000000057
 30
0.0
 11
-443.0
 21
181.00000000000057
 31
0.0
  0
LINE
  8
0
  6
DASHED2
 62
               4
  5
43D
 10
-556.99999999999795
 20
-553.99999999999909
 30
0.0
 11
-556.99999999999795
 21
-618.99999999999955
 31
0.0
  0
LINE
  8
0
  6
DASHED2
 62
               4
  5
43E
 10
-557.50000000000114
 20
-634.00000000000068
 30
0.0
 11
-557.50000000000114
 21
-698.99999999999841
 31
0.0
  0
LINE
  8
0
  6
DASHED2
 62
               4
  5
43F
 10
-499.99999999999835
 20
-618.99999999999955
 30
0.0
 11
-556.99999999999841
 21
-618.99999999999955
 31
0.0
  0
LINE
  8
0
  6
DASHED2
 62
               4
  5
440
 10
-557.50000000000114
 20
-634.00000000000068
 30
0.0
 11
-499.99999999999949
 21
-633.99999999999955
 31
0.0
  0
LINE
  8
0
  6
DASHED2
 62
               4
  5
441
 10
-442.99999999999875
 20
-554.00000000000023
 30
0.0
 11
-442.99999999999875
 21
-618.99999999999955
 31
0.0
  0
LINE
  8
0
  6
DASHED2
 62
               4
  5
442
 10
-499.99999999999835
 20
-618.99999999999955
 30
0.0
 11
-442.99999999999847
 21
-618.99999999999955
 31
0.0
  0
LINE
  8
0
  6
DASHED2
 62
               4
  5
443
 10
-442.49999999999665
 20
-634.00000000000068
 30
0.0
 11
-499.99999999999835
 21
-633.99999999999955
 31
0.0
  0
LINE
  8
0
  6
DASHED2
 62
               4
  5
444
 10
-442.49999999999665
 20
-634.00000000000068
 30
0.0
 11
-442.49999999999665
 21
-698.99999999999841
 31
0.0
  0
LINE
  8
0
  6
DASHED2
 62
               4
  5
445
 10
-511.75999999999914
 20
-618.99999999999955
 30
0.0
 11
-511.75999999999914
 21
-610.47387150069244
 31
0.0
  0
LINE
  8
0
  6
DASHED2
 62
               4
  5
446
 10
-505.87102725426467
 20
-610.47387150069244
 30
0.0
 11
-505.87102725426467
 21
-618.99999999999955
 31
0.0
  0
LINE
  8
0
  6
DASHED2
 62
               4
  5
447
 10
-508.81551362713179
 20
-609.39999999999941
 30
0.0
 11
-491.18448637286582
 21
-609.39999999999941
 31
0.0
  0
LINE
  8
0
  6
DASHED2
 62
               4
  5
448
 10
-488.23999999999882
 20
-618.99999999999955
 30
0.0
 11
-488.23999999999882
 21
-610.47387150069244
 31
0.0
  0
LINE
  8
0
  6
DASHED2
 62
               4
  5
449
 10
-494.12897274573351
 20
-618.99999999999955
 30
0.0
 11
-494.12897274573351
 21
-610.47387150069244
 31
0.0
  0
ARC
  8
0
  6
DASHED2
 62
               4
  5
44A
 10
-508.81551362713179
 20
-613.97373158411551
 30
0.0
 40
4.5737315841157447
 50
49.925579661612304
 51
130.07442033835341
  0
ARC
  8
0
  6
DASHED2
 62
               4
  5
44B
 10
-491.18448637286582
 20
-613.97373158411551
 30
0.0
 40
4.5737315841157686
 50
49.925579661612304
 51
130.07442033835341
  0
ARC
  8
0
  6
DASHED2
 62
               4
  5
44C
 10
-499.99999999999892
 20
-625.98585826951989
 30
0.0
 40
16.58585826952007
 50
69.269184858547646
 51
110.73081514141818
  0
LINE
  8
0
  6
DASHED2
 62
               4
  5
44D
 10
-511.7600000000005
 20
-621.0
 30
0.0
 11
-511.7600000000005
 21
-629.52612849930711
 31
0.0
  0
LINE
  8
0
  6
DASHED2
 62
               4
  5
44E
 10
-505.87102725426615
 20
-629.52612849930711
 30
0.0
 11
-505.87102725426615
 21
-621.0
 31
0.0
  0
LINE
  8
0
  6
DASHED2
 62
               4
  5
44F
 10
-508.81551362713316
 20
-630.59999999999968
 30
0.0
 11
-491.18448637286753
 21
-630.59999999999968
 31
0.0
  0
LINE
  8
0
  6
DASHED2
 62
               4
  5
450
 10
-488.24000000000018
 20
-621.0
 30
0.0
 11
-488.24000000000018
 21
-629.52612849930711
 31
0.0
  0
LINE
  8
0
  6
DASHED2
 62
               4
  5
451
 10
-494.12897274573464
 20
-621.0
 30
0.0
 11
-494.12897274573464
 21
-629.52612849930711
 31
0.0
  0
ARC
  8
0
  6
DASHED2
 62
               4
  5
452
 10
-508.81551362713316
 20
-626.02626841588426
 30
0.0
 40
4.5737315841157447
 50
229.92557966157796
 51
310.07442033831961
  0
ARC
  8
0
  6
DASHED2
 62
               4
  5
453
 10
-491.18448637286753
 20
-626.02626841588426
 30
0.0
 40
4.5737315841157686
 50
229.92557966157852
 51
310.07442033831961
  0
ARC
  8
0
  6
DASHED2
 62
               4
  5
454
 10
-500.0000000000004
 20
-614.01414173047988
 30
0.0
 40
16.58585826952007
 50
249.26918485851303
 51
290.73081514138352
  0
LINE
  8
0
  6
DASHED2
 62
               4
  5
455
 10
-505.99999999999892
 20
-630.59999999999968
 30
0.0
 11
-505.99999999999892
 21
-641.1193662423243
 31
0.0
  0
LINE
  8
0
  6
DASHED2
 62
               4
  5
456
 10
-493.99999999999903
 20
-630.59999999999968
 30
0.0
 11
-493.99999999999903
 21
-641.1193662423243
 31
0.0
  0
LINE
  8
0
  6
DASHED2
 62
               4
  5
457
 10
-504.7999999999991
 20
-642.3193662423248
 30
0.0
 11
-495.19999999999908
 21
-642.3193662423248
 31
0.0
  0
LINE
  8
0
  6
DASHED2
 62
               4
  5
458
 10
-505.99999999999892
 20
-641.1193662423243
 30
0.0
 11
-504.7999999999991
 21
-642.3193662423248
 31
0.0
  0
LINE
  8
0
  6
DASHED2
 62
               4
  5
459
 10
-493.99999999999903
 20
-641.1193662423243
 30
0.0
 11
-495.19999999999908
 21
-642.3193662423248
 31
0.0
  0
LINE
  8
0
  6
DASHED2
 62
               4
  5
45A
 10
-511.75999999999914
 20
-618.99999999999955
 30
0.0
 11
-488.23999999999882
 21
-618.99999999999955
 31
0.0
  0
LINE
  8
0
  6
DASHED2
 62
               4
  5
45B
 10
-488.24000000000018
 20
-621.0
 30
0.0
 11
-511.7600000000005
 21
-621.0
 31
0.0
  0
LINE
  8
0
  6
DASHED2
 62
               4
  5
45C
 10
-505.99999999999892
 20
-503.9364205240708
 30
0.0
 11
-505.99999999999892
 21
-609.39999999999941
 31
0.0
  0
LINE
  8
0
  6
DASHED2
 62
               4
  5
45D
 10
-493.99999999999903
 20
-503.9364205240708
 30
0.0
 11
-493.99999999999903
 21
-609.39999999999941
 31
0.0
  0
LINE
  8
0
  6
DASHED2
 62
               4
  5
45E
 10
-493.99999999999903
 20
-503.9364205240708
 30
0.0
 11
-505.99999999999892
 21
-503.9364205240708
 31
0.0
  0
LINE
  8
0
  6
DASHED2
 62
               4
  5
45F
 10
443.00000000000205
 20
-553.99999999999909
 30
0.0
 11
443.00000000000205
 21
-618.99999999999955
 31
0.0
  0
LINE
  8
0
  6
DASHED2
 62
               4
  5
460
 10
442.49999999999886
 20
-634.00000000000068
 30
0.0
 11
442.49999999999886
 21
-698.99999999999841
 31
0.0
  0
LINE
  8
0
  6
DASHED2
 62
               4
  5
461
 10
500.00000000000165
 20
-618.99999999999955
 30
0.0
 11
443.00000000000159
 21
-618.99999999999955
 31
0.0
  0
LINE
  8
0
  6
DASHED2
 62
               4
  5
462
 10
442.49999999999886
 20
-634.00000000000068
 30
0.0
 11
500.00000000000051
 21
-633.99999999999955
 31
0.0
  0
LINE
  8
0
  6
DASHED2
 62
               4
  5
463
 10
557.00000000000125
 20
-554.00000000000023
 30
0.0
 11
557.00000000000125
 21
-618.99999999999955
 31
0.0
  0
LINE
  8
0
  6
DASHED2
 62
               4
  5
464
 10
500.00000000000165
 20
-618.99999999999955
 30
0.0
 11
557.00000000000159
 21
-618.99999999999955
 31
0.0
  0
LINE
  8
0
  6
DASHED2
 62
               4
  5
465
 10
557.50000000000341
 20
-634.00000000000068
 30
0.0
 11
500.00000000000165
 21
-633.99999999999955
 31
0.0
  0
LINE
  8
0
  6
DASHED2
 62
               4
  5
466
 10
557.50000000000341
 20
-634.00000000000068
 30
0.0
 11
557.50000000000341
 21
-698.99999999999841
 31
0.0
  0
LINE
  8
0
  6
DASHED2
 62
               4
  5
467
 10
488.24000000000086
 20
-618.99999999999955
 30
0.0
 11
488.24000000000086
 21
-610.47387150069244
 31
0.0
  0
LINE
  8
0
  6
DASHED2
 62
               4
  5
468
 10
494.12897274573533
 20
-610.47387150069244
 30
0.0
 11
494.12897274573533
 21
-618.99999999999955
 31
0.0
  0
LINE
  8
0
  6
DASHED2
 62
               4
  5
469
 10
491.18448637286821
 20
-609.39999999999941
 30
0.0
 11
508.81551362713418
 21
-609.39999999999941
 31
0.0
  0
LINE
  8
0
  6
DASHED2
 62
               4
  5
46A
 10
511.76000000000118
 20
-618.99999999999955
 30
0.0
 11
511.76000000000118
 21
-610.47387150069244
 31
0.0
  0
LINE
  8
0
  6
DASHED2
 62
               4
  5
46B
 10
505.87102725426649
 20
-618.99999999999955
 30
0.0
 11
505.87102725426649
 21
-610.47387150069244
 31
0.0
  0
ARC
  8
0
  6
DASHED2
 62
               4
  5
46C
 10
491.18448637286821
 20
-613.97373158411551
 30
0.0
 40
4.5737315841157447
 50
49.925579661612304
 51
130.07442033835341
  0
ARC
  8
0
  6
DASHED2
 62
               4
  5
46D
 10
508.81551362713418
 20
-613.97373158411551
 30
0.0
 40
4.5737315841157686
 50
49.925579661612304
 51
130.07442033835341
  0
ARC
  8
0
  6
DASHED2
 62
               4
  5
46E
 10
500.00000000000108
 20
-625.98585826951989
 30
0.0
 40
16.58585826952007
 50
69.269184858547646
 51
110.73081514141818
  0
LINE
  8
0
  6
DASHED2
 62
               4
  5
46F
 10
488.2399999999995
 20
-621.0
 30
0.0
 11
488.2399999999995
 21
-629.52612849930711
 31
0.0
  0
LINE
  8
0
  6
DASHED2
 62
               4
  5
470
 10
494.12897274573385
 20
-629.52612849930711
 30
0.0
 11
494.12897274573385
 21
-621.0
 31
0.0
  0
LINE
  8
0
  6
DASHED2
 62
               4
  5
471
 10
491.18448637286684
 20
-630.59999999999968
 30
0.0
 11
508.81551362713247
 21
-630.59999999999968
 31
0.0
  0
LINE
  8
0
  6
DASHED2
 62
               4
  5
472
 10
511.75999999999982
 20
-621.0
 30
0.0
 11
511.75999999999982
 21
-629.52612849930711
 31
0.0
  0
LINE
  8
0
  6
DASHED2
 62
               4
  5
473
 10
505.87102725426536
 20
-621.0
 30
0.0
 11
505.87102725426536
 21
-629.52612849930711
 31
0.0
  0
ARC
  8
0
  6
DASHED2
 62
               4
  5
474
 10
491.18448637286684
 20
-626.02626841588426
 30
0.0
 40
4.5737315841157447
 50
229.92557966157796
 51
310.07442033831961
  0
ARC
  8
0
  6
DASHED2
 62
               4
  5
475
 10
508.81551362713247
 20
-626.02626841588426
 30
0.0
 40
4.5737315841157686
 50
229.92557966157852
 51
310.07442033831961
  0
ARC
  8
0
  6
DASHED2
 62
               4
  5
476
 10
499.9999999999996
 20
-614.01414173047988
 30
0.0
 40
16.58585826952007
 50
249.26918485851303
 51
290.73081514138352
  0
LINE
  8
0
  6
DASHED2
 62
               4
  5
477
 10
494.00000000000108
 20
-630.59999999999968
 30
0.0
 11
494.00000000000108
 21
-641.1193662423243
 31
0.0
  0
LINE
  8
0
  6
DASHED2
 62
               4
  5
478
 10
506.00000000000097
 20
-630.59999999999968
 30
0.0
 11
506.00000000000097
 21
-641.1193662423243
 31
0.0
  0
LINE
  8
0
  6
DASHED2
 62
               4
  5
479
 10
495.2000000000009
 20
-642.3193662423248
 30
0.0
 11
504.80000000000092
 21
-642.3193662423248
 31
0.0
  0
LINE
  8
0
  6
DASHED2
 62
               4
  5
47A
 10
494.00000000000108
 20
-641.1193662423243
 30
0.0
 11
495.2000000000009
 21
-642.3193662423248
 31
0.0
  0
LINE
  8
0
  6
DASHED2
 62
               4
  5
47B
 10
506.00000000000097
 20
-641.1193662423243
 30
0.0
 11
504.80000000000092
 21
-642.3193662423248
 31
0.0
  0
LINE
  8
0
  6
DASHED2
 62
               4
  5
47C
 10
488.24000000000086
 20
-618.99999999999955
 30
0.0
 11
511.76000000000118
 21
-618.99999999999955
 31
0.0
  0
LINE
  8
0
  6
DASHED2
 62
               4
  5
47D
 10
511.75999999999982
 20
-621.0
 30
0.0
 11
488.2399999999995
 21
-621.0
 31
0.0
  0
LINE
  8
0
  6
DASHED2
 62
               4
  5
47E
 10
494.00000000000108
 20
-503.9364205240708
 30
0.0
 11
494.00000000000108
 21
-609.39999999999941
 31
0.0
  0
LINE
  8
0
  6
DASHED2
 62
               4
  5
47F
 10
506.00000000000097
 20
-503.9364205240708
 30
0.0
 11
506.00000000000097
 21
-609.39999999999941
 31
0.0
  0
LINE
  8
0
  6
DASHED2
 62
               4
  5
480
 10
506.00000000000097
 20
-503.9364205240708
 30
0.0
 11
494.00000000000108
 21
-503.9364205240708
 31
0.0
  0
LINE
  8
0
  6
DASHED2
 62
               4
  5
481
 10
-56.999999999997954
 20
-553.99999999999898
 30
0.0
 11
-56.999999999997954
 21
-618.99999999999943
 31
0.0
  0
LINE
  8
0
  6
DASHED2
 62
               4
  5
482
 10
-57.500000000001336
 20
-634.00000000000057
 30
0.0
 11
-57.500000000001336
 21
-698.99999999999829
 31
0.0
  0
LINE
  8
0
  6
DASHED2
 62
               4
  5
483
 10
0.0000000000016517
 20
-618.99999999999943
 30
0.0
 11
-56.999999999998522
 21
-618.99999999999943
 31
0.0
  0
LINE
  8
0
  6
DASHED2
 62
               4
  5
484
 10
-57.500000000001336
 20
-634.00000000000057
 30
0.0
 11
0.0000000000005148
 21
-633.99999999999943
 31
0.0
  0
LINE
  8
0
  6
DASHED2
 62
               4
  5
485
 10
57.000000000001251
 20
-554.0
 30
0.0
 11
57.000000000001251
 21
-618.99999999999943
 31
0.0
  0
LINE
  8
0
  6
DASHED2
 62
               4
  5
486
 10
0.0000000000016517
 20
-618.99999999999943
 30
0.0
 11
57.000000000001535
 21
-618.99999999999943
 31
0.0
  0
LINE
  8
0
  6
DASHED2
 62
               4
  5
487
 10
57.500000000003354
 20
-634.00000000000057
 30
0.0
 11
0.0000000000016517
 21
-633.99999999999943
 31
0.0
  0
LINE
  8
0
  6
DASHED2
 62
               4
  5
488
 10
57.500000000003354
 20
-634.00000000000057
 30
0.0
 11
57.500000000003354
 21
-698.99999999999829
 31
0.0
  0
LINE
  8
0
  6
DASHED2
 62
               4
  5
489
 10
-136.75999999999908
 20
-618.99999999999898
 30
0.0
 11
-136.75999999999908
 21
-610.47387150069176
 31
0.0
  0
LINE
  8
0
  6
DASHED2
 62
               4
  5
48A
 10
-130.87102725426467
 20
-610.47387150069176
 30
0.0
 11
-130.87102725426467
 21
-618.99999999999898
 31
0.0
  0
LINE
  8
0
  6
DASHED2
 62
               4
  5
48B
 10
-133.81551362713174
 20
-609.39999999999884
 30
0.0
 11
-116.18448637286582
 21
-609.39999999999884
 31
0.0
  0
LINE
  8
0
  6
DASHED2
 62
               4
  5
48C
 10
-113.23999999999876
 20
-618.99999999999898
 30
0.0
 11
-113.23999999999876
 21
-610.47387150069176
 31
0.0
  0
LINE
  8
0
  6
DASHED2
 62
               4
  5
48D
 10
-119.12897274573345
 20
-618.99999999999898
 30
0.0
 11
-119.12897274573345
 21
-610.47387150069176
 31
0.0
  0
ARC
  8
0
  6
DASHED2
 62
               4
  5
48E
 10
-133.81551362713174
 20
-613.97373158411483
 30
0.0
 40
4.5737315841157447
 50
49.925579661612304
 51
130.07442033835341
  0
ARC
  8
0
  6
DASHED2
 62
               4
  5
48F
 10
-116.18448637286582
 20
-613.97373158411483
 30
0.0
 40
4.5737315841157686
 50
49.925579661612304
 51
130.07442033835341
  0
ARC
  8
0
  6
DASHED2
 62
               4
  5
490
 10
-124.99999999999892
 20
-625.98585826951933
 30
0.0
 40
16.58585826952007
 50
69.269184858547646
 51
110.73081514141818
  0
LINE
  8
0
  6
DASHED2
 62
               4
  5
491
 10
-136.7600000000005
 20
-620.99999999999932
 30
0.0
 11
-136.7600000000005
 21
-629.52612849930654
 31
0.0
  0
LINE
  8
0
  6
DASHED2
 62
               4
  5
492
 10
-130.8710272542661
 20
-629.52612849930654
 30
0.0
 11
-130.8710272542661
 21
-620.99999999999932
 31
0.0
  0
LINE
  8
0
  6
DASHED2
 62
               4
  5
493
 10
-133.81551362713316
 20
-630.59999999999911
 30
0.0
 11
-116.18448637286753
 21
-630.59999999999911
 31
0.0
  0
LINE
  8
0
  6
DASHED2
 62
               4
  5
494
 10
-113.24000000000018
 20
-620.99999999999932
 30
0.0
 11
-113.24000000000018
 21
-629.52612849930654
 31
0.0
  0
LINE
  8
0
  6
DASHED2
 62
               4
  5
495
 10
-119.12897274573459
 20
-620.99999999999932
 30
0.0
 11
-119.12897274573459
 21
-629.52612849930654
 31
0.0
  0
ARC
  8
0
  6
DASHED2
 62
               4
  5
496
 10
-133.81551362713316
 20
-626.02626841588369
 30
0.0
 40
4.5737315841157447
 50
229.92557966157796
 51
310.07442033831961
  0
ARC
  8
0
  6
DASHED2
 62
               4
  5
497
 10
-116.18448637286753
 20
-626.02626841588369
 30
0.0
 40
4.5737315841157686
 50
229.92557966157852
 51
310.07442033831961
  0
ARC
  8
0
  6
DASHED2
 62
               4
  5
498
 10
-125.00000000000034
 20
-614.0141417304792
 30
0.0
 40
16.58585826952007
 50
249.26918485851303
 51
290.73081514138352
  0
LINE
  8
0
  6
DASHED2
 62
               4
  5
499
 10
-130.99999999999886
 20
-630.59999999999911
 30
0.0
 11
-130.99999999999886
 21
-641.11936624232374
 31
0.0
  0
LINE
  8
0
  6
DASHED2
 62
               4
  5
49A
 10
-118.99999999999898
 20
-630.59999999999911
 30
0.0
 11
-118.99999999999898
 21
-641.11936624232374
 31
0.0
  0
LINE
  8
0
  6
DASHED2
 62
               4
  5
49B
 10
-129.7999999999991
 20
-642.31936624232412
 30
0.0
 11
-120.19999999999902
 21
-642.31936624232412
 31
0.0
  0
LINE
  8
0
  6
DASHED2
 62
               4
  5
49C
 10
-130.99999999999886
 20
-641.11936624232374
 30
0.0
 11
-129.7999999999991
 21
-642.31936624232412
 31
0.0
  0
LINE
  8
0
  6
DASHED2
 62
               4
  5
49D
 10
-118.99999999999898
 20
-641.11936624232374
 30
0.0
 11
-120.19999999999902
 21
-642.31936624232412
 31
0.0
  0
LINE
  8
0
  6
DASHED2
 62
               4
  5
49E
 10
-136.75999999999908
 20
-618.99999999999898
 30
0.0
 11
-113.23999999999876
 21
-618.99999999999898
 31
0.0
  0
LINE
  8
0
  6
DASHED2
 62
               4
  5
49F
 10
-113.24000000000018
 20
-620.99999999999932
 30
0.0
 11
-136.7600000000005
 21
-620.99999999999932
 31
0.0
  0
LINE
  8
0
  6
DASHED2
 62
               4
  5
4A0
 10
-130.99999999999886
 20
-503.93642052407017
 30
0.0
 11
-130.99999999999886
 21
-609.39999999999884
 31
0.0
  0
LINE
  8
0
  6
DASHED2
 62
               4
  5
4A1
 10
-118.99999999999898
 20
-503.93642052407017
 30
0.0
 11
-118.99999999999898
 21
-609.39999999999884
 31
0.0
  0
LINE
  8
0
  6
DASHED2
 62
               4
  5
4A2
 10
-118.99999999999898
 20
-503.93642052407017
 30
0.0
 11
-130.99999999999886
 21
-503.93642052407017
 31
0.0
  0
LINE
  8
0
  6
DASHED2
 62
               4
  5
4A3
 10
136.76000000000124
 20
-618.99999999999898
 30
0.0
 11
136.76000000000124
 21
-610.47387150069176
 31
0.0
  0
LINE
  8
0
  6
DASHED2
 62
               4
  5
4A4
 10
130.87102725426683
 20
-610.47387150069176
 30
0.0
 11
130.87102725426683
 21
-618.99999999999898
 31
0.0
  0
LINE
  8
0
  6
DASHED2
 62
               4
  5
4A5
 10
133.8155136271339
 20
-609.39999999999884
 30
0.0
 11
116.18448637286797
 21
-609.39999999999884
 31
0.0
  0
LINE
  8
0
  6
DASHED2
 62
               4
  5
4A6
 10
113.2400000000009
 20
-618.99999999999898
 30
0.0
 11
113.2400000000009
 21
-610.47387150069176
 31
0.0
  0
LINE
  8
0
  6
DASHED2
 62
               4
  5
4A7
 10
119.1289727457356
 20
-618.99999999999898
 30
0.0
 11
119.1289727457356
 21
-610.47387150069176
 31
0.0
  0
ARC
  8
0
  6
DASHED2
 62
               4
  5
4A8
 10
133.8155136271339
 20
-613.97373158411483
 30
0.0
 40
4.5737315841157447
 50
49.925579661646204
 51
130.07442033838728
  0
ARC
  8
0
  6
DASHED2
 62
               4
  5
4A9
 10
116.18448637286797
 20
-613.97373158411483
 30
0.0
 40
4.5737315841157686
 50
49.925579661646204
 51
130.07442033838728
  0
ARC
  8
0
  6
DASHED2
 62
               4
  5
4AA
 10
125.00000000000107
 20
-625.98585826951933
 30
0.0
 40
16.58585826952007
 50
69.269184858581426
 51
110.73081514145197
  0
LINE
  8
0
  6
DASHED2
 62
               4
  5
4AB
 10
136.76000000000266
 20
-620.99999999999932
 30
0.0
 11
136.76000000000266
 21
-629.52612849930654
 31
0.0
  0
LINE
  8
0
  6
DASHED2
 62
               4
  5
4AC
 10
130.87102725426826
 20
-629.52612849930654
 30
0.0
 11
130.87102725426826
 21
-620.99999999999932
 31
0.0
  0
LINE
  8
0
  6
DASHED2
 62
               4
  5
4AD
 10
133.81551362713532
 20
-630.59999999999911
 30
0.0
 11
116.18448637286967
 21
-630.59999999999911
 31
0.0
  0
LINE
  8
0
  6
DASHED2
 62
               4
  5
4AE
 10
113.24000000000233
 20
-620.99999999999932
 30
0.0
 11
113.24000000000233
 21
-629.52612849930654
 31
0.0
  0
LINE
  8
0
  6
DASHED2
 62
               4
  5
4AF
 10
119.12897274573673
 20
-620.99999999999932
 30
0.0
 11
119.12897274573673
 21
-629.52612849930654
 31
0.0
  0
ARC
  8
0
  6
DASHED2
 62
               4
  5
4B0
 10
133.81551362713532
 20
-626.02626841588369
 30
0.0
 40
4.5737315841157447
 50
229.92557966167917
 51
310.07442033842085
  0
ARC
  8
0
  6
DASHED2
 62
               4
  5
4B1
 10
116.18448637286967
 20
-626.02626841588369
 30
0.0
 40
4.5737315841157686
 50
229.92557966167917
 51
310.07442033842028
  0
ARC
  8
0
  6
DASHED2
 62
               4
  5
4B2
 10
125.00000000000249
 20
-614.0141417304792
 30
0.0
 40
16.58585826952007
 50
249.26918485861526
 51
290.73081514148578
  0
LINE
  8
0
  6
DASHED2
 62
               4
  5
4B3
 10
131.00000000000102
 20
-630.59999999999911
 30
0.0
 11
131.00000000000102
 21
-641.11936624232374
 31
0.0
  0
LINE
  8
0
  6
DASHED2
 62
               4
  5
4B4
 10
119.00000000000112
 20
-630.59999999999911
 30
0.0
 11
119.00000000000112
 21
-641.11936624232374
 31
0.0
  0
LINE
  8
0
  6
DASHED2
 62
               4
  5
4B5
 10
129.80000000000126
 20
-642.31936624232412
 30
0.0
 11
120.20000000000117
 21
-642.31936624232412
 31
0.0
  0
LINE
  8
0
  6
DASHED2
 62
               4
  5
4B6
 10
131.00000000000102
 20
-641.11936624232374
 30
0.0
 11
129.80000000000126
 21
-642.31936624232412
 31
0.0
  0
LINE
  8
0
  6
DASHED2
 62
               4
  5
4B7
 10
119.00000000000112
 20
-641.11936624232374
 30
0.0
 11
120.20000000000117
 21
-642.31936624232412
 31
0.0
  0
LINE
  8
0
  6
DASHED2
 62
               4
  5
4B8
 10
136.76000000000124
 20
-618.99999999999898
 30
0.0
 11
113.2400000000009
 21
-618.99999999999898
 31
0.0
  0
LINE
  8
0
  6
DASHED2
 62
               4
  5
4B9
 10
113.24000000000233
 20
-620.99999999999932
 30
0.0
 11
136.76000000000266
 21
-620.99999999999932
 31
0.0
  0
LINE
  8
0
  6
DASHED2
 62
               4
  5
4BA
 10
131.00000000000102
 20
-503.93642052407017
 30
0.0
 11
131.00000000000102
 21
-609.39999999999884
 31
0.0
  0
LINE
  8
0
  6
DASHED2
 62
               4
  5
4BB
 10
119.00000000000112
 20
-503.93642052407017
 30
0.0
 11
119.00000000000112
 21
-609.39999999999884
 31
0.0
  0
LINE
  8
0
  6
DASHED2
 62
               4
  5
4BC
 10
119.00000000000112
 20
-503.93642052407017
 30
0.0
 11
131.00000000000102
 21
-503.93642052407017
 31
0.0
  0
LINE
  8
0
  6
DASHED2
 62
               4
  5
4BD
 10
452.28652321630921
 20
-1556.3562982616334
 30
0.0
 11
566.28652321630898
 21
-1556.3562982616334
 31
0.0
  0
ARC
  8
0
  6
DIVIDE
 62
               4
  5
4BE
 10
-528.49999999999886
 20
-865.93298130416815
 30
0.0
 40
55.0
 50
58.789629707489617
 51
121.21037029250985
  0
ARC
  8
0
  6
DIVIDE
 62
               4
  5
4BF
 10
-528.49999999999886
 20
-771.85322790313057
 30
0.0
 40
55.0
 50
238.78962970748935
 51
301.21037029250937
  0
ARC
  8
0
  6
DIVIDE
 62
               4
  5
4C0
 10
-532.49999999999886
 20
-841.39560203944598
 30
0.0
 40
65.0
 50
59.999999999999723
 51
119.99999999999987
  0
ARC
  8
0
  6
DIVIDE
 62
               4
  5
4C1
 10
-471.49999999999881
 20
-771.8532279031308
 30
0.0
 40
55.0
 50
238.78962970748941
 51
301.21037029250959
  0
ARC
  8
0
  6
DIVIDE
 62
               4
  5
4C2
 10
-467.49999999999892
 20
-728.81229954746891
 30
0.0
 40
65.0
 50
239.99999999999966
 51
299.99999999999932
  0
LINE
  8
0
  6
DIVIDE
 62
               4
  5
4C3
 10
-556.99999999999864
 20
-781.18970531827745
 30
0.0
 11
-556.99999999999864
 21
-818.89310460364936
 31
0.0
  0
LINE
  8
0
  6
DIVIDE
 62
               4
  5
4C4
 10
-442.99999999999875
 20
-789.01819626863744
 30
0.0
 11
-442.99999999999875
 21
-818.89310460364936
 31
0.0
  0
ARC
  8
0
  6
DIVIDE
 62
               4
  5
4C5
 10
-532.49999999999886
 20
-728.81229954746914
 30
0.0
 40
65.0
 50
239.99999999999929
 51
247.85677929855132
  0
LINE
  8
0
  6
DIVIDE
 62
               4
  5
4C6
 10
-434.99999999999892
 20
-698.99999999999841
 30
0.0
 11
-434.99999999999892
 21
-785.10395079345744
 31
0.0
  0
LINE
  8
0
  6
DIVIDE
 62
               4
  5
4C7
 10
-564.99999999999886
 20
-698.99999999999841
 30
0.0
 11
-564.99999999999886
 21
-785.10395079345744
 31
0.0
  0
ARC
  8
0
  6
DIVIDE
 62
               4
  5
4C8
 10
471.50000000000114
 20
-865.93298130416815
 30
0.0
 40
55.0
 50
58.789629707489617
 51
121.21037029250985
  0
ARC
  8
0
  6
DIVIDE
 62
               4
  5
4C9
 10
471.50000000000114
 20
-771.85322790313057
 30
0.0
 40
55.0
 50
238.78962970748935
 51
301.21037029250937
  0
ARC
  8
0
  6
DIVIDE
 62
               4
  5
4CA
 10
467.50000000000114
 20
-841.39560203944598
 30
0.0
 40
65.0
 50
59.999999999999723
 51
119.99999999999987
  0
ARC
  8
0
  6
DIVIDE
 62
               4
  5
4CB
 10
528.50000000000114
 20
-771.8532279031308
 30
0.0
 40
55.0
 50
238.78962970748941
 51
301.21037029250959
  0
ARC
  8
0
  6
DIVIDE
 62
               4
  5
4CC
 10
532.50000000000114
 20
-728.81229954746891
 30
0.0
 40
65.0
 50
239.99999999999966
 51
299.99999999999932
  0
LINE
  8
0
  6
DIVIDE
 62
               4
  5
4CD
 10
443.00000000000136
 20
-781.18970531827745
 30
0.0
 11
443.00000000000136
 21
-818.89310460364936
 31
0.0
  0
LINE
  8
0
  6
DIVIDE
 62
               4
  5
4CE
 10
557.00000000000125
 20
-789.01819626863744
 30
0.0
 11
557.00000000000125
 21
-818.89310460364936
 31
0.0
  0
ARC
  8
0
  6
DIVIDE
 62
               4
  5
4CF
 10
467.50000000000114
 20
-728.81229954746914
 30
0.0
 40
65.0
 50
239.99999999999929
 51
247.85677929855132
  0
LINE
  8
0
  6
DIVIDE
 62
               4
  5
4D0
 10
565.00000000000114
 20
-698.99999999999841
 30
0.0
 11
565.00000000000114
 21
-785.10395079345744
 31
0.0
  0
LINE
  8
0
  6
DIVIDE
 62
               4
  5
4D1
 10
435.00000000000114
 20
-698.99999999999841
 30
0.0
 11
435.00000000000114
 21
-785.10395079345744
 31
0.0
  0
ARC
  8
0
  6
DIVIDE
 62
               4
  5
4D2
 10
-28.49999999999886
 20
-865.93298130416792
 30
0.0
 40
55.0
 50
58.789629707489617
 51
121.21037029250985
  0
ARC
  8
0
  6
DIVIDE
 62
               4
  5
4D3
 10
-28.49999999999886
 20
-771.85322790313046
 30
0.0
 40
55.0
 50
238.78962970748935
 51
301.21037029250937
  0
ARC
  8
0
  6
DIVIDE
 62
               4
  5
4D4
 10
-32.49999999999892
 20
-841.39560203944575
 30
0.0
 40
65.0
 50
59.999999999999723
 51
119.99999999999987
  0
ARC
  8
0
  6
DIVIDE
 62
               4
  5
4D5
 10
28.500000000001169
 20
-771.85322790313057
 30
0.0
 40
55.0
 50
238.78962970748941
 51
301.21037029250959
  0
ARC
  8
0
  6
DIVIDE
 62
               4
  5
4D6
 10
32.50000000000108
 20
-728.8122995474688
 30
0.0
 40
65.0
 50
239.99999999999966
 51
299.99999999999932
  0
LINE
  8
0
  6
DIVIDE
 62
               4
  5
4D7
 10
-56.999999999998806
 20
-781.18970531827722
 30
0.0
 11
-56.999999999998806
 21
-818.89310460364925
 31
0.0
  0
LINE
  8
0
  6
DIVIDE
 62
               4
  5
4D8
 10
57.000000000001251
 20
-789.01819626863721
 30
0.0
 11
57.000000000001251
 21
-818.89310460364925
 31
0.0
  0
ARC
  8
0
  6
DIVIDE
 62
               4
  5
4D9
 10
-32.49999999999892
 20
-728.81229954746891
 30
0.0
 40
65.0
 50
239.99999999999929
 51
247.85677929855132
  0
LINE
  8
0
  6
DIVIDE
 62
               4
  5
4DA
 10
65.000000000001066
 20
-698.99999999999829
 30
0.0
 11
65.000000000001066
 21
-785.10395079345733
 31
0.0
  0
LINE
  8
0
  6
DIVIDE
 62
               4
  5
4DB
 10
-64.99999999999892
 20
-698.99999999999829
 30
0.0
 11
-64.99999999999892
 21
-785.10395079345733
 31
0.0
  0
CIRCLE
  8
0
  6
DASHED
 62
               4
  5
4DC
 10
-99.999999999998778
 20
-1221.3931046036494
 30
0.0
 40
33.5
  0
INSERT
  8
0
  6
CONTINUOUS
  5
4DD
  2
GROUP_1
 10
0.0
 20
0.0
 30
0.0
  0
INSERT
  8
0
  6
CONTINUOUS
  5
4DE
  2
GROUP_2
 10
0.0
 20
0.0
 30
0.0
  0
INSERT
  8
0
  6
CONTINUOUS
  5
4DF
  2
GROUP_3
 10
0.0
 20
0.0
 30
0.0
  0
INSERT
  8
0
  6
CONTINUOUS
  5
4E0
  2
GROUP_4
 10
0.0
 20
0.0
 30
0.0
  0
INSERT
  8
0
  6
CONTINUOUS
  5
4E1
  2
GROUP_5
 10
0.0
 20
0.0
 30
0.0
  0
INSERT
  8
0
  6
CONTINUOUS
  5
4E2
  2
GROUP_6
 10
0.0
 20
0.0
 30
0.0
  0
INSERT
  8
0
  6
CONTINUOUS
  5
4E3
  2
GROUP_7
 10
0.0
 20
0.0
 30
0.0
  0
INSERT
  8
0
  6
CONTINUOUS
  5
4E4
  2
GROUP_8
 10
0.0
 20
0.0
 30
0.0
  0
INSERT
  8
0
  6
CONTINUOUS
  5
4E5
  2
GROUP_9
 10
0.0
 20
0.0
 30
0.0
  0
INSERT
  8
0
  6
CONTINUOUS
  5
4E6
  2
GROUP_10
 10
0.0
 20
0.0
 30
0.0
  0
POINT
  8
0
  6
CONTINUOUS
 62
               5
  5
4E7
 10
-99.999999999998721
 20
-1214.8931046036494
 30
0.0
  0
POINT
  8
0
  6
CONTINUOUS
 62
               5
  5
4E8
 10
-273.23007150995898
 20
-1216.1838986785381
 30
0.0
  0
POINT
  8
0
  6
CONTINUOUS
 62
               5
  5
4E9
 10
73.230071509961576
 20
-1216.1838986785383
 30
0.0
  0
POINT
  8
0
  6
CONTINUOUS
 62
               5
  5
4EA
 10
-94.790794074887657
 20
-1048.1630330936891
 30
0.0
  0
POINT
  8
0
  6
CONTINUOUS
 62
               5
  5
4EB
 10
393.01659472626955
 20
-1181.5660704381598
 30
0.0
  0
POINT
  8
0
  6
CONTINUOUS
 62
               5
  5
4EC
 10
393.01659472626943
 20
-1658.6470923365223
 30
0.0
  0
CIRCLE
  8
0
  6
CONTINUOUS
 62
               7
  5
4ED
 10
-99.999999999998721
 20
-1221.3931046036494
 30
0.0
 40
38.0
  0
LINE
  8
0
  6
CONTINUOUS
 62
               7
  5
4EE
 10
-244.49999999999861
 20
-1183.3931046036491
 30
0.0
 11
-244.49999999999872
 21
-1259.3878684829747
 31
0.0
  0
LINE
  8
0
  6
CONTINUOUS
 62
               7
  5
4EF
 10
-244.49999999999861
 20
-1170.3931046036491
 30
0.0
 11
-243.89999999999858
 21
-1170.3931046036491
 31
0.0
  0
LINE
  8
0
  6
CONTINUOUS
 62
               7
  5
4F0
 10
-302.49999999999875
 20
-1258.3931046036491
 30
0.0
 11
-302.49999999999875
 21
-1184.3931046036491
 31
0.0
  0
LINE
  8
0
  6
CONTINUOUS
 62
               7
  5
4F1
 10
-244.49999999999872
 20
-1259.3931046036491
 30
0.0
 11
-219.89999999999858
 21
-1259.3931046036491
 31
0.0
  0
LINE
  8
0
  6
CONTINUOUS
 62
               7
  5
4F2
 10
-302.49999999999875
 20
-1258.3931046036491
 30
0.0
 11
-301.49999999999875
 21
-1259.3931046036491
 31
0.0
  0
LINE
  8
0
  6
CONTINUOUS
 62
               7
  5
4F3
 10
-301.49999999999875
 20
-1183.3931046036491
 30
0.0
 11
-244.49999999999861
 21
-1183.3931046036491
 31
0.0
  0
LINE
  8
0
  6
CONTINUOUS
 62
               7
  5
4F4
 10
-209.49999999999872
 20
-1258.3931046036491
 30
0.0
 11
-210.49999999999872
 21
-1259.3931046036491
 31
0.0
  0
CIRCLE
  8
0
  6
CONTINUOUS
 62
               7
  5
4F5
 10
-99.999999999998778
 20
-1229.3931046036494
 30
0.0
 40
30.0
  0
CIRCLE
  8
0
  6
CONTINUOUS
 62
               7
  5
4F6
 10
-99.999999999998778
 20
-1229.3931046036494
 30
0.0
 40
0.1981604108525852
  0
CIRCLE
  8
0
  6
CONTINUOUS
 62
               7
  5
4F7
 10
-99.999999999998778
 20
-1229.3931046036494
 30
0.0
 40
25.5
  0
LINE
  8
0
  6
CONTINUOUS
 62
               7
  5
4F8
 10
-218.89999999999858
 20
-1258.3931046036491
 30
0.0
 11
-218.89999999999858
 21
-1200.3931046036494
 31
0.0
  0
LINE
  8
0
  6
CONTINUOUS
 62
               7
  5
4F9
 10
-244.49999999999861
 20
-1199.3931046036494
 30
0.0
 11
-219.89999999999858
 21
-1199.3931046036494
 31
0.0
  0
LINE
  8
0
  6
CONTINUOUS
 62
               7
  5
4FA
 10
-244.49999999999872
 20
-1259.3878684829747
 30
0.0
 11
-301.49999999999875
 21
-1259.3931046036491
 31
0.0
  0
LINE
  8
0
  6
CONTINUOUS
 62
               7
  5
4FB
 10
-301.49999999999875
 20
-1183.3931046036491
 30
0.0
 11
-302.49999999999875
 21
-1184.3931046036491
 31
0.0
  0
LINE
  8
0
  6
CONTINUOUS
 62
               7
  5
4FC
 10
-219.89999999999858
 20
-1199.3931046036494
 30
0.0
 11
-218.89999999999858
 21
-1200.3931046036494
 31
0.0
  0
LINE
  8
0
  6
CONTINUOUS
 62
               7
  5
4FD
 10
-218.89999999999858
 20
-1258.3931046036491
 30
0.0
 11
-219.89999999999858
 21
-1259.3931046036491
 31
0.0
  0
LINE
  8
0
  6
CONTINUOUS
 62
               7
  5
4FE
 10
44.500000000001222
 20
-1183.3931046036494
 30
0.0
 11
44.500000000001222
 21
-1259.3878684829749
 31
0.0
  0
LINE
  8
0
  6
CONTINUOUS
 62
               7
  5
4FF
 10
44.500000000001222
 20
-1170.3931046036494
 30
0.0
 11
43.900000000001256
 21
-1170.3931046036494
 31
0.0
  0
LINE
  8
0
  6
CONTINUOUS
 62
               7
  5
500
 10
102.50000000000124
 20
-1258.3931046036494
 30
0.0
 11
102.50000000000132
 21
-1184.3931046036494
 31
0.0
  0
LINE
  8
0
  6
CONTINUOUS
 62
               7
  5
501
 10
44.500000000001222
 20
-1259.3931046036494
 30
0.0
 11
19.900000000001171
 21
-1259.3931046036494
 31
0.0
  0
LINE
  8
0
  6
CONTINUOUS
 62
               7
  5
502
 10
102.50000000000124
 20
-1258.3931046036494
 30
0.0
 11
101.50000000000124
 21
-1259.3931046036494
 31
0.0
  0
LINE
  8
0
  6
CONTINUOUS
 62
               7
  5
503
 10
101.50000000000132
 20
-1183.3931046036494
 30
0.0
 11
44.500000000001222
 21
-1183.3931046036494
 31
0.0
  0
LINE
  8
0
  6
CONTINUOUS
 62
               7
  5
504
 10
9.5000000000012506
 20
-1258.3931046036494
 30
0.0
 11
10.500000000001251
 21
-1259.3931046036494
 31
0.0
  0
LINE
  8
0
  6
CONTINUOUS
 62
               7
  5
505
 10
18.900000000001171
 20
-1258.3931046036494
 30
0.0
 11
18.900000000001228
 21
-1200.3931046036494
 31
0.0
  0
LINE
  8
0
  6
CONTINUOUS
 62
               7
  5
506
 10
44.500000000001222
 20
-1199.3931046036494
 30
0.0
 11
19.900000000001228
 21
-1199.3931046036494
 31
0.0
  0
LINE
  8
0
  6
CONTINUOUS
 62
               7
  5
507
 10
44.500000000001222
 20
-1259.3878684829749
 30
0.0
 11
101.50000000000124
 21
-1259.3931046036494
 31
0.0
  0
LINE
  8
0
  6
CONTINUOUS
 62
               7
  5
508
 10
101.50000000000132
 20
-1183.3931046036494
 30
0.0
 11
102.50000000000132
 21
-1184.3931046036494
 31
0.0
  0
LINE
  8
0
  6
CONTINUOUS
 62
               7
  5
509
 10
19.900000000001228
 20
-1199.3931046036494
 30
0.0
 11
18.900000000001228
 21
-1200.3931046036494
 31
0.0
  0
LINE
  8
0
  6
CONTINUOUS
 62
               7
  5
50A
 10
18.900000000001171
 20
-1258.3931046036494
 30
0.0
 11
19.900000000001171
 21
-1259.3931046036494
 31
0.0
  0
LINE
  8
0
  6
CONTINUOUS
 62
               7
  5
50B
 10
-61.999999999998607
 20
-1076.8931046036494
 30
0.0
 11
-137.99476387932415
 21
-1076.8931046036494
 31
0.0
  0
LINE
  8
0
  6
CONTINUOUS
 62
               7
  5
50C
 10
-48.999999999998607
 20
-1076.2931046036495
 30
0.0
 11
-48.999999999998607
 21
-1076.8931046036494
 31
0.0
  0
LINE
  8
0
  6
CONTINUOUS
 62
               7
  5
50D
 10
-136.99999999999849
 20
-1018.8931046036494
 30
0.0
 11
-62.99999999999855
 21
-1018.8931046036494
 31
0.0
  0
LINE
  8
0
  6
CONTINUOUS
 62
               7
  5
50E
 10
-129.99999999999861
 20
-1076.8931046036494
 30
0.0
 11
-129.99999999999861
 21
-1101.4931046036495
 31
0.0
  0
LINE
  8
0
  6
CONTINUOUS
 62
               7
  5
50F
 10
-136.99999999999849
 20
-1018.8931046036494
 30
0.0
 11
-137.99999999999849
 21
-1019.8931046036494
 31
0.0
  0
LINE
  8
0
  6
CONTINUOUS
 62
               7
  5
510
 10
-61.99999999999855
 20
-1019.8931046036494
 30
0.0
 11
-61.999999999998607
 21
-1076.8931046036494
 31
0.0
  0
LINE
  8
0
  6
CONTINUOUS
 62
               7
  5
511
 10
-128.99999999999861
 20
-1111.8931046036494
 30
0.0
 11
-129.99999999999861
 21
-1110.8931046036494
 31
0.0
  0
LINE
  8
0
  6
CONTINUOUS
 62
               7
  5
512
 10
-128.99999999999861
 20
-1102.4931046036495
 30
0.0
 11
-70.999999999998778
 21
-1102.4931046036495
 31
0.0
  0
LINE
  8
0
  6
CONTINUOUS
 62
               7
  5
513
 10
-69.999999999998778
 20
-1076.8931046036494
 30
0.0
 11
-69.999999999998778
 21
-1101.4931046036495
 31
0.0
  0
LINE
  8
0
  6
CONTINUOUS
 62
               7
  5
514
 10
-137.99476387932415
 20
-1076.8931046036494
 30
0.0
 11
-137.99999999999849
 21
-1019.8931046036494
 31
0.0
  0
LINE
  8
0
  6
CONTINUOUS
 62
               7
  5
515
 10
-61.99999999999855
 20
-1019.8931046036494
 30
0.0
 11
-62.99999999999855
 21
-1018.8931046036494
 31
0.0
  0
LINE
  8
0
  6
CONTINUOUS
 62
               7
  5
516
 10
-69.999999999998778
 20
-1101.4931046036495
 30
0.0
 11
-70.999999999998778
 21
-1102.4931046036495
 31
0.0
  0
LINE
  8
0
  6
CONTINUOUS
 62
               7
  5
517
 10
-128.99999999999861
 20
-1102.4931046036495
 30
0.0
 11
-129.99999999999861
 21
-1101.4931046036495
 31
0.0
  0
LINE
  8
0
  6
CONTINUOUS
 62
               7
  5
518
 10
480.28652321630909
 20
-1353.4568645130489
 30
0.0
 11
538.28652321630909
 21
-1353.4568645130489
 31
0.0
  0
LINE
  8
0
  6
CONTINUOUS
 62
               7
  5
519
 10
553.78652321630909
 20
-1327.856864513049
 30
0.0
 11
464.78652321630909
 21
-1327.856864513049
 31
0.0
  0
LINE
  8
0
  6
CONTINUOUS
 62
               7
  5
51A
 10
553.78652321630909
 20
-1327.2568645130491
 30
0.0
 11
553.78652321630909
 21
-1327.856864513049
 31
0.0
  0
LINE
  8
0
  6
CONTINUOUS
 62
               7
  5
51B
 10
465.78652321630909
 20
-1269.8568645130488
 30
0.0
 11
552.78652321630909
 21
-1269.8568645130488
 31
0.0
  0
LINE
  8
0
  6
CONTINUOUS
 62
               7
  5
51C
 10
553.78652321630909
 20
-1327.7224127675686
 30
0.0
 11
553.78652321630909
 21
-1270.8568645130488
 31
0.0
  0
LINE
  8
0
  6
CONTINUOUS
 62
               7
  5
51D
 10
479.28652321630909
 20
-1352.4568645130489
 30
0.0
 11
479.28652321630909
 21
-1327.856864513049
 31
0.0
  0
LINE
  8
0
  6
CONTINUOUS
 62
               7
  5
51E
 10
539.28652321630909
 20
-1352.4568645130489
 30
0.0
 11
539.28652321630909
 21
-1327.856864513049
 31
0.0
  0
LINE
  8
0
  6
CONTINUOUS
 62
               7
  5
51F
 10
539.28652321630909
 20
-1352.4568645130489
 30
0.0
 11
538.28652321630909
 21
-1353.4568645130489
 31
0.0
  0
LINE
  8
0
  6
CONTINUOUS
 62
               7
  5
520
 10
553.78652321630909
 20
-1270.8568645130488
 30
0.0
 11
552.78652321630909
 21
-1269.8568645130488
 31
0.0
  0
LINE
  8
0
  6
CONTINUOUS
 62
               7
  5
521
 10
480.28652321630909
 20
-1353.4568645130489
 30
0.0
 11
479.28652321630909
 21
-1352.4568645130489
 31
0.0
  0
LINE
  8
0
  6
CONTINUOUS
 62
               7
  5
522
 10
465.78652321630909
 20
-1269.8568645130488
 30
0.0
 11
464.78652321630909
 21
-1270.8568645130488
 31
0.0
  0
LINE
  8
0
  6
CONTINUOUS
 62
               7
  5
523
 10
464.78652321630909
 20
-1327.7224127675686
 30
0.0
 11
464.78652321630909
 21
-1270.8568645130488
 31
0.0
  0
LINE
  8
0
  6
CONTINUOUS
 62
               7
  5
524
 10
364.28652321630909
 20
-1227.3568645130488
 30
0.0
 11
364.28652321630932
 21
-1138.3621006337232
 31
0.0
  0
LINE
  8
0
  6
CONTINUOUS
 62
               7
  5
525
 10
364.88652321630923
 20
-1227.3568645130488
 30
0.0
 11
364.28652321630909
 21
-1227.3568645130488
 31
0.0
  0
LINE
  8
0
  6
CONTINUOUS
 62
               7
  5
526
 10
329.28652321630932
 20
-1145.8568645130488
 30
0.0
 11
329.28652321630909
 21
-1219.8568645130488
 31
0.0
  0
LINE
  8
0
  6
CONTINUOUS
 62
               7
  5
527
 10
422.28652321630932
 20
-1139.356864513049
 30
0.0
 11
422.28652321630909
 21
-1226.3568645130488
 31
0.0
  0
LINE
  8
0
  6
CONTINUOUS
 62
               7
  5
528
 10
364.28652321630909
 20
-1227.3568645130488
 30
0.0
 11
421.28652321630909
 21
-1227.3568645130488
 31
0.0
  0
LINE
  8
0
  6
CONTINUOUS
 62
               7
  5
529
 10
330.28652321630932
 20
-1144.8568645130488
 30
0.0
 11
364.28652321630932
 21
-1144.8568645130488
 31
0.0
  0
LINE
  8
0
  6
CONTINUOUS
 62
               7
  5
52A
 10
421.28652321630909
 20
-1227.3568645130488
 30
0.0
 11
422.28652321630909
 21
-1226.3568645130488
 31
0.0
  0
LINE
  8
0
  6
CONTINUOUS
 62
               7
  5
52B
 10
422.28652321630932
 20
-1139.356864513049
 30
0.0
 11
421.28652321630932
 21
-1138.356864513049
 31
0.0
  0
LINE
  8
0
  6
CONTINUOUS
 62
               7
  5
52C
 10
330.28652321630909
 20
-1220.8568645130488
 30
0.0
 11
364.28652321630932
 21
-1220.8568645130488
 31
0.0
  0
LINE
  8
0
  6
CONTINUOUS
 62
               7
  5
52D
 10
330.28652321630909
 20
-1220.8568645130488
 30
0.0
 11
329.28652321630909
 21
-1219.8568645130488
 31
0.0
  0
LINE
  8
0
  6
CONTINUOUS
 62
               7
  5
52E
 10
329.28652321630932
 20
-1145.8568645130488
 30
0.0
 11
330.28652321630932
 21
-1144.8568645130488
 31
0.0
  0
LINE
  8
0
  6
CONTINUOUS
 62
               7
  5
52F
 10
364.28652321630932
 20
-1138.3568645130488
 30
0.0
 11
421.28652321630932
 21
-1138.3568645130488
 31
0.0
  0
CIRCLE
  8
0
  6
CONTINUOUS
 62
               7
  5
530
 10
509.28652321630909
 20
-1671.8562982616334
 30
0.0
 40
25.5
  0
CIRCLE
  8
0
  6
CONTINUOUS
 62
               7
  5
531
 10
509.28652321630909
 20
-1657.3562982616334
 30
0.0
 40
44.5
  0
CIRCLE
  8
0
  6
CONTINUOUS
 62
               7
  5
532
 10
509.28652321630909
 20
-1671.8562982616334
 30
0.0
 40
30.0
  0
LINE
  8
0
  6
CONTINUOUS
 62
               7
  5
533
 10
364.28652321630909
 20
-1612.8562982616334
 30
0.0
 11
364.28652321630909
 21
-1701.8510621409589
 31
0.0
  0
LINE
  8
0
  6
CONTINUOUS
 62
               7
  5
534
 10
364.88652321630912
 20
-1612.8562982616334
 30
0.0
 11
364.28652321630909
 21
-1612.8562982616334
 31
0.0
  0
LINE
  8
0
  6
CONTINUOUS
 62
               7
  5
535
 10
329.28652321630909
 20
-1700.8562982616334
 30
0.0
 11
329.28652321630909
 21
-1626.8562982616334
 31
0.0
  0
LINE
  8
0
  6
CONTINUOUS
 62
               7
  5
536
 10
422.28652321630909
 20
-1700.8562982616334
 30
0.0
 11
422.28652321630909
 21
-1613.8562982616334
 31
0.0
  0
LINE
  8
0
  6
CONTINUOUS
 62
               7
  5
537
 10
364.28652321630909
 20
-1612.8562982616334
 30
0.0
 11
421.28652321630909
 21
-1612.8562982616334
 31
0.0
  0
LINE
  8
0
  6
CONTINUOUS
 62
               7
  5
538
 10
330.28652321630909
 20
-1701.8562982616334
 30
0.0
 11
421.28652321630909
 21
-1701.8562982616334
 31
0.0
  0
LINE
  8
0
  6
CONTINUOUS
 62
               7
  5
539
 10
421.28652321630909
 20
-1612.8562982616334
 30
0.0
 11
422.28652321630909
 21
-1613.8562982616334
 31
0.0
  0
LINE
  8
0
  6
CONTINUOUS
 62
               7
  5
53A
 10
422.28652321630909
 20
-1700.8562982616334
 30
0.0
 11
421.28652321630909
 21
-1701.8562982616334
 31
0.0
  0
LINE
  8
0
  6
CONTINUOUS
 62
               7
  5
53B
 10
330.28652321630909
 20
-1625.8562982616334
 30
0.0
 11
364.28652321630909
 21
-1625.8562982616334
 31
0.0
  0
LINE
  8
0
  6
CONTINUOUS
 62
               7
  5
53C
 10
330.28652321630909
 20
-1625.8562982616334
 30
0.0
 11
329.28652321630909
 21
-1626.8562982616334
 31
0.0
  0
LINE
  8
0
  6
CONTINUOUS
 62
               7
  5
53D
 10
329.28652321630909
 20
-1700.8562982616334
 30
0.0
 11
330.28652321630909
 21
-1701.8562982616334
 31
0.0
  0
CIRCLE
  8
0
  6
DASHED
 62
               7
  5
53E
 10
509.28652321630909
 20
-1657.3562982616334
 30
0.0
 40
40.0
  0
TEXT
  8
0
 62
               3
  5
53F
 10
-99.999999999998778
 20
-1305.8931046036494
 30
0.0
 40
40.0
  1
EMB_65×50
 41
0.8
 72
               1
 11
-99.999999999998778
 21
-1305.8931046036494
 31
0.0
 73
               3
  0
TEXT
  8
0
 62
               3
  5
540
 10
-98.155466192096611
 20
-927.97831102793202
 30
0.0
 40
40.0
  1
横枝管を縮径するときは、EMBをご使用ください。
 41
0.8
 72
               1
 11
-98.155466192096611
 21
-927.97831102793202
 31
0.0
 73
               3
  0
TEXT
  8
0
 62
               3
  5
541
 10
505.58911923866879
 20
-1003.4104960078296
 30
0.0
 40
40.0
  1
EMB使用例
 41
0.8
 72
               1
 11
505.58911923866879
 21
-1003.4104960078296
 31
0.0
 73
               3
  0
ENDSEC
  0
EOF
