  0
SECTION
  2
HEADER
  9
$ACADVER
  1
AC1009
  9
$INSBASE
 10
0.0
 20
0.0
 30
0.0
  9
$EXTMIN
 10
-765.50437841888083
 20
-1319.2170616502192
 30
0.0
  9
$EXTMAX
 10
697.03360572607971
 20
1119.2170616502192
 30
0.0
  9
$LIMMIN
 10
-811.20869042341087
 20
-1395.4181280033579
  9
$LIMMAX
 10
742.73791773060975
 20
1195.4181280033579
  9
$ORTHOMODE
 70
               0
  9
$REGENMODE
 70
               1
  9
$FILLMODE
 70
               1
  9
$QTEXTMODE
 70
               0
  9
$MIRRTEXT
 70
               1
  9
$DRAGMODE
 70
               2
  9
$LTSCALE
 40
1.0
  9
$OSMODE
 70
               0
  9
$ATTMODE
 70
               1
  9
$TEXTSIZE
 40
0.2
  9
$TRACEWID
 40
0.05
  9
$TEXTSTYLE
  7
STANDARD
  9
$CLAYER
  8
0
  9
$CELTYPE
  6
CONTINUOUS
  9
$CECOLOR
 62
             256
  9
$DIMSCALE
 40
1.0
  9
$DIMASZ
 40
0.18
  9
$DIMEXO
 40
0.0625
  9
$DIMDLI
 40
0.38
  9
$DIMRND
 40
0.0
  9
$DIMDLE
 40
0.0
  9
$DIMEXE
 40
0.18
  9
$DIMTP
 40
0.0
  9
$DIMTM
 40
0.0
  9
$DIMTXT
 40
0.18
  9
$DIMCEN
 40
0.09
  9
$DIMTSZ
 40
0.0
  9
$DIMTOL
 70
               0
  9
$DIMLIM
 70
               0
  9
$DIMTIH
 70
               1
  9
$DIMTOH
 70
               1
  9
$DIMSE1
 70
               0
  9
$DIMSE2
 70
               0
  9
$DIMTAD
 70
               0
  9
$DIMZIN
 70
               0
  9
$DIMBLK
  1

  9
$DIMASO
 70
               1
  9
$DIMSHO
 70
               1
  9
$DIMPOST
  1

  9
$DIMAPOST
  1

  9
$DIMALT
 70
               0
  9
$DIMALTD
 70
               2
  9
$DIMALTF
 40
25.399999999999999
  9
$DIMLFAC
 40
1.0
  9
$DIMTOFL
 70
               0
  9
$DIMTVP
 40
0.0
  9
$DIMTIX
 70
               0
  9
$DIMSOXD
 70
               0
  9
$DIMSAH
 70
               0
  9
$DIMBLK1
  1

  9
$DIMBLK2
  1

  9
$DIMSTYLE
  2
STANDARD
  9
$DIMCLRD
 70
               0
  9
$DIMCLRE
 70
               0
  9
$DIMCLRT
 70
               0
  9
$DIMTFAC
 40
1.0
  9
$DIMGAP
 40
0.09
  9
$LUNITS
 70
               2
  9
$LUPREC
 70
               4
  9
$AXISMODE
 70
               0
  9
$AXISUNIT
 10
0.0
 20
0.0
  9
$SKETCHINC
 40
0.1
  9
$FILLETRAD
 40
0.0
  9
$AUNITS
 70
               0
  9
$AUPREC
 70
               0
  9
$MENU
  1
acad
  9
$ELEVATION
 40
0.0
  9
$PELEVATION
 40
0.0
  9
$THICKNESS
 40
0.0
  9
$LIMCHECK
 70
               0
  9
$BLIPMODE
 70
               1
  9
$CHAMFERA
 40
0.0
  9
$CHAMFERB
 40
0.0
  9
$SKPOLY
 70
               0
  9
$TDCREATE
 40
0.000000000
  9
$TDUPDATE
 40
0.000000000
  9
$TDINDWG
 40
0.0000000000
  9
$TDUSRTIMER
 40
0.0000000000
  9
$USRTIMER
 70
               1
  9
$ANGBASE
 50
0.0
  9
$ANGDIR
 70
               0
  9
$PDMODE
 70
               0
  9
$PDSIZE
 40
1.0
  9
$PLINEWID
 40
0.0
  9
$COORDS
 70
               1
  9
$SPLFRAME
 70
               0
  9
$SPLINETYPE
 70
               6
  9
$SPLINESEGS
 70
               8
  9
$ATTDIA
 70
               0
  9
$ATTREQ
 70
               1
  9
$HANDLING
 70
               1
  9
$HANDSEED
  5
4F6
  9
$SURFTAB1
 70
               6
  9
$SURFTAB2
 70
               6
  9
$SURFTYPE
 70
               6
  9
$SURFU
 70
               6
  9
$SURFV
 70
               6
  9
$UCSNAME
  2

  9
$UCSORG
 10
0.0
 20
0.0
 30
0.0
  9
$UCSXDIR
 10
1.0
 20
0.0
 30
0.0
  9
$UCSYDIR
 10
0.0
 20
1.0
 30
0.0
  9
$PUCSNAME
  2

  9
$PUCSORG
 10
0.0
 20
0.0
 30
0.0
  9
$PUCSXDIR
 10
1.0
 20
0.0
 30
0.0
  9
$PUCSYDIR
 10
0.0
 20
1.0
 30
0.0
  9
$USERI1
 70
               0
  9
$USERI2
 70
               0
  9
$USERI3
 70
               0
  9
$USERI4
 70
               0
  9
$USERI5
 70
               0
  9
$USERR1
 40
0.0
  9
$USERR2
 40
0.0
  9
$USERR3
 40
0.0
  9
$USERR4
 40
0.0
  9
$USERR5
 40
0.0
  9
$WORLDVIEW
 70
               1
  9
$SHADEDGE
 70
               3
  9
$SHADEDIF
 70
              70
  9
$TILEMODE
 70
               1
  9
$MAXACTVP
 70
              16
  9
$PINSBASE
 10
0.0
 20
0.0
 30
0.0
  9
$PLIMCHECK
 70
               0
  9
$PEXTMIN
 10
1.0000000000000000E+20
 20
1.0000000000000000E+20
 30
1.0000000000000000E+20
  9
$PEXTMAX
 10
-1.0000000000000000E+20
 20
-1.0000000000000000E+20
 30
-1.0000000000000000E+20
  9
$PLIMMIN
 10
0.0
 20
0.0
  9
$PLIMMAX
 10
12.0
 20
9.0
  9
$UNITMODE
 70
               0
  9
$VISRETAIN
 70
               0
  9
$PLINEGEN
 70
               1
  9
$PSLTSCALE
 70
               0
  9
$TREEDEPTH
 70
            3020
  9
$DWGCODEPAGE
  3
dos932
  0
ENDSEC
  0
SECTION
  2
TABLES
  0
TABLE
  2
VPORT
 70
               1
  0
VPORT
  2
*ACTIVE
 70
               0
 10
0.0
 20
0.0
 11
1.0
 21
1.0
 12
-34.23538634640056
 22
-100.0
 13
0.0
 23
0.0
 14
1.0
 24
1.0
 15
0.0
 25
0.0
 16
0.0
 26
0.0
 36
1.0
 17
0.0
 27
0.0
 37
0.0
 40
2590.8362560067158
 41
0.5997857273115111
 42
50.0
 43
0.0
 44
0.0
 50
0.0
 51
0.0
 71
               0
 72
             100
 73
               1
 74
               1
 75
               0
 76
               0
 77
               0
 78
               0
  0
ENDTAB
  0
TABLE
  2
LTYPE
 70
              26
  0
LTYPE
  2
CONTINUOUS
 70
               0
  3
Solid line
 72
              65
 73
               0
 40
0.0
  0
LTYPE
  2
HIDDENX2
 70
               0
  3
CADPAC FUSION LINETYPE
 72
              65
 73
               2
 40
47.560000000000002
 49
35.670000000000002
 49
-11.890000000000001
  0
LTYPE
  2
HIDDEN
 70
               0
  3
CADPAC FUSION LINETYPE
 72
              65
 73
               2
 40
35.670000000000002
 49
23.780000000000001
 49
-11.890000000000001
  0
LTYPE
  2
HIDDEN2
 70
               0
  3
CADPAC FUSION LINETYPE
 72
              65
 73
               2
 40
29.725000000000001
 49
17.835000000000001
 49
-11.890000000000001
  0
LTYPE
  2
DASHED
 70
               0
  3
CADPAC FUSION LINETYPE
 72
              65
 73
               2
 40
35.670000000000002
 49
23.780000000000001
 49
-11.890000000000001
  0
LTYPE
  2
DASHED2
 70
               0
  3
CADPAC FUSION LINETYPE
 72
              65
 73
               2
 40
26.752500000000001
 49
17.835000000000001
 49
-8.9175000000000004
  0
LTYPE
  2
DASHEDX2
 70
               0
  3
CADPAC FUSION LINETYPE
 72
              65
 73
               2
 40
53.505000000000003
 49
35.670000000000002
 49
-17.835000000000001
  0
LTYPE
  2
DOTX2
 70
               0
  3
CADPAC FUSION LINETYPE
 72
              65
 73
               2
 40
14.862500000000001
 49
0.0
 49
-14.862500000000001
  0
LTYPE
  2
DOT
 70
               0
  3
CADPAC FUSION LINETYPE
 72
              65
 73
               2
 40
11.890000000000001
 49
0.0
 49
-11.890000000000001
  0
LTYPE
  2
DOTS
 70
               0
  3
CADPAC FUSION LINETYPE
 72
              65
 73
               2
 40
11.890000000000001
 49
0.0
 49
-11.890000000000001
  0
LTYPE
  2
DOT2
 70
               0
  3
CADPAC FUSION LINETYPE
 72
              65
 73
               2
 40
8.9175000000000004
 49
0.0
 49
-8.9175000000000004
  0
LTYPE
  2
CENTERX2
 70
               0
  3
CADPAC FUSION LINETYPE
 72
              65
 73
               4
 40
71.340000000000003
 49
29.725000000000001
 49
-14.862500000000001
 49
11.890000000000001
 49
-14.862500000000001
  0
LTYPE
  2
CENTER
 70
               0
  3
CADPAC FUSION LINETYPE
 72
              65
 73
               4
 40
54.694000000000003
 49
23.780000000000001
 49
-11.890000000000001
 49
7.1340000000000003
 49
-11.890000000000001
  0
LTYPE
  2
CENTER2
 70
               0
  3
CADPAC FUSION LINETYPE
 72
              65
 73
               4
 40
38.048000000000002
 49
17.835000000000001
 49
-8.9175000000000004
 49
2.3780000000000001
 49
-8.9175000000000004
  0
LTYPE
  2
DASHDOTX2
 70
               0
  3
CADPAC FUSION LINETYPE
 72
              65
 73
               4
 40
59.450000000000003
 49
29.725000000000001
 49
-14.862500000000001
 49
0.0
 49
-14.862500000000001
  0
LTYPE
  2
DASHDOT
 70
               0
  3
CADPAC FUSION LINETYPE
 72
              65
 73
               4
 40
47.560000000000002
 49
23.780000000000001
 49
-11.890000000000001
 49
0.0
 49
-11.890000000000001
  0
LTYPE
  2
DASHDOT2
 70
               0
  3
CADPAC FUSION LINETYPE
 72
              65
 73
               4
 40
35.670000000000002
 49
17.835000000000001
 49
-8.9175000000000004
 49
0.0
 49
-8.9175000000000004
  0
LTYPE
  2
DIVIDEX2
 70
               0
  3
CADPAC FUSION LINETYPE
 72
              65
 73
               6
 40
74.3125
 49
29.725000000000001
 49
-14.862500000000001
 49
0.0
 49
-14.862500000000001
 49
0.0
 49
-14.862500000000001
  0
LTYPE
  2
DIVIDE
 70
               0
  3
CADPAC FUSION LINETYPE
 72
              65
 73
               6
 40
59.450000000000003
 49
23.780000000000001
 49
-11.890000000000001
 49
0.0
 49
-11.890000000000001
 49
0.0
 49
-11.890000000000001
  0
LTYPE
  2
DIVIDE2
 70
               0
  3
CADPAC FUSION LINETYPE
 72
              65
 73
               6
 40
44.587500000000006
 49
17.835000000000001
 49
-8.9175000000000004
 49
0.0
 49
-8.9175000000000004
 49
0.0
 49
-8.9175000000000004
  0
LTYPE
  2
BORDERX2
 70
               0
  3
CADPAC FUSION LINETYPE
 72
              65
 73
               6
 40
104.03750000000001
 49
29.725000000000001
 49
-14.862500000000001
 49
29.725000000000001
 49
-14.862500000000001
 49
0.0
 49
-14.862500000000001
  0
LTYPE
  2
BORDER
 70
               0
  3
CADPAC FUSION LINETYPE
 72
              65
 73
               6
 40
83.230000000000004
 49
23.780000000000001
 49
-11.890000000000001
 49
23.780000000000001
 49
-11.890000000000001
 49
0.0
 49
-11.890000000000001
  0
LTYPE
  2
BORDER2
 70
               0
  3
CADPAC FUSION LINETYPE
 72
              65
 73
               6
 40
62.422499999999999
 49
17.835000000000001
 49
-8.9175000000000004
 49
17.835000000000001
 49
-8.9175000000000004
 49
0.0
 49
-8.9175000000000004
  0
LTYPE
  2
PHANTOMX2
 70
               0
  3
CADPAC FUSION LINETYPE
 72
              65
 73
               6
 40
89.175000000000011
 49
29.725000000000001
 49
-11.890000000000001
 49
11.890000000000001
 49
-11.890000000000001
 49
11.890000000000001
 49
-11.890000000000001
  0
LTYPE
  2
PHANTOM
 70
               0
  3
CADPAC FUSION LINETYPE
 72
              65
 73
               6
 40
73.718000000000004
 49
23.780000000000001
 49
-11.890000000000001
 49
7.1340000000000003
 49
-11.890000000000001
 49
7.1340000000000003
 49
-11.890000000000001
  0
LTYPE
  2
PHANTOM2
 70
               0
  3
CADPAC FUSION LINETYPE
 72
              65
 73
               6
 40
63.017000000000003
 49
17.835000000000001
 49
-11.890000000000001
 49
4.7560000000000002
 49
-11.890000000000001
 49
4.7560000000000002
 49
-11.890000000000001
  0
ENDTAB
  0
TABLE
  2
LAYER
 70
             256
  0
LAYER
  2
0
 70
               0
 62
               7
  6
CONTINUOUS
  0
LAYER
  2
LAYER001
 70
               0
 62
               7
  6
CONTINUOUS
  0
LAYER
  2
LAYER002
 70
               0
 62
               7
  6
CONTINUOUS
  0
LAYER
  2
LAYER003
 70
               0
 62
               7
  6
CONTINUOUS
  0
LAYER
  2
LAYER004
 70
               0
 62
               7
  6
CONTINUOUS
  0
LAYER
  2
LAYER005
 70
               0
 62
               7
  6
CONTINUOUS
  0
LAYER
  2
LAYER006
 70
               0
 62
               7
  6
CONTINUOUS
  0
LAYER
  2
LAYER007
 70
               0
 62
               7
  6
CONTINUOUS
  0
LAYER
  2
LAYER008
 70
               0
 62
               7
  6
CONTINUOUS
  0
LAYER
  2
LAYER009
 70
               0
 62
               7
  6
CONTINUOUS
  0
LAYER
  2
LAYER010
 70
               0
 62
               7
  6
CONTINUOUS
  0
LAYER
  2
LAYER011
 70
               0
 62
               7
  6
CONTINUOUS
  0
LAYER
  2
LAYER012
 70
               0
 62
               7
  6
CONTINUOUS
  0
LAYER
  2
LAYER013
 70
               0
 62
               7
  6
CONTINUOUS
  0
LAYER
  2
LAYER014
 70
               0
 62
               7
  6
CONTINUOUS
  0
LAYER
  2
LAYER015
 70
               0
 62
               7
  6
CONTINUOUS
  0
LAYER
  2
LAYER016
 70
               0
 62
               7
  6
CONTINUOUS
  0
LAYER
  2
LAYER017
 70
               0
 62
               7
  6
CONTINUOUS
  0
LAYER
  2
LAYER018
 70
               0
 62
               7
  6
CONTINUOUS
  0
LAYER
  2
LAYER019
 70
               0
 62
               7
  6
CONTINUOUS
  0
LAYER
  2
LAYER020
 70
               0
 62
               7
  6
CONTINUOUS
  0
LAYER
  2
LAYER021
 70
               0
 62
               7
  6
CONTINUOUS
  0
LAYER
  2
LAYER022
 70
               0
 62
               7
  6
CONTINUOUS
  0
LAYER
  2
LAYER023
 70
               0
 62
               7
  6
CONTINUOUS
  0
LAYER
  2
LAYER024
 70
               0
 62
               7
  6
CONTINUOUS
  0
LAYER
  2
LAYER025
 70
               0
 62
               7
  6
CONTINUOUS
  0
LAYER
  2
LAYER026
 70
               0
 62
               7
  6
CONTINUOUS
  0
LAYER
  2
LAYER027
 70
               0
 62
               7
  6
CONTINUOUS
  0
LAYER
  2
LAYER028
 70
               0
 62
               7
  6
CONTINUOUS
  0
LAYER
  2
LAYER029
 70
               0
 62
               7
  6
CONTINUOUS
  0
LAYER
  2
LAYER030
 70
               0
 62
               7
  6
CONTINUOUS
  0
LAYER
  2
LAYER031
 70
               0
 62
               7
  6
CONTINUOUS
  0
LAYER
  2
LAYER032
 70
               0
 62
               7
  6
CONTINUOUS
  0
LAYER
  2
LAYER033
 70
               0
 62
               7
  6
CONTINUOUS
  0
LAYER
  2
LAYER034
 70
               0
 62
               7
  6
CONTINUOUS
  0
LAYER
  2
LAYER035
 70
               0
 62
               7
  6
CONTINUOUS
  0
LAYER
  2
LAYER036
 70
               0
 62
               7
  6
CONTINUOUS
  0
LAYER
  2
LAYER037
 70
               0
 62
               7
  6
CONTINUOUS
  0
LAYER
  2
LAYER038
 70
               0
 62
               7
  6
CONTINUOUS
  0
LAYER
  2
LAYER039
 70
               0
 62
               7
  6
CONTINUOUS
  0
LAYER
  2
LAYER040
 70
               0
 62
               7
  6
CONTINUOUS
  0
LAYER
  2
LAYER041
 70
               0
 62
               7
  6
CONTINUOUS
  0
LAYER
  2
LAYER042
 70
               0
 62
               7
  6
CONTINUOUS
  0
LAYER
  2
LAYER043
 70
               0
 62
               7
  6
CONTINUOUS
  0
LAYER
  2
LAYER044
 70
               0
 62
               7
  6
CONTINUOUS
  0
LAYER
  2
LAYER045
 70
               0
 62
               7
  6
CONTINUOUS
  0
LAYER
  2
LAYER046
 70
               0
 62
               7
  6
CONTINUOUS
  0
LAYER
  2
LAYER047
 70
               0
 62
               7
  6
CONTINUOUS
  0
LAYER
  2
LAYER048
 70
               0
 62
               7
  6
CONTINUOUS
  0
LAYER
  2
LAYER049
 70
               0
 62
               7
  6
CONTINUOUS
  0
LAYER
  2
LAYER050
 70
               0
 62
               7
  6
CONTINUOUS
  0
LAYER
  2
LAYER051
 70
               0
 62
               7
  6
CONTINUOUS
  0
LAYER
  2
LAYER052
 70
               0
 62
               7
  6
CONTINUOUS
  0
LAYER
  2
LAYER053
 70
               0
 62
               7
  6
CONTINUOUS
  0
LAYER
  2
LAYER054
 70
               0
 62
               7
  6
CONTINUOUS
  0
LAYER
  2
LAYER055
 70
               0
 62
               7
  6
CONTINUOUS
  0
LAYER
  2
LAYER056
 70
               0
 62
               7
  6
CONTINUOUS
  0
LAYER
  2
LAYER057
 70
               0
 62
               7
  6
CONTINUOUS
  0
LAYER
  2
LAYER058
 70
               0
 62
               7
  6
CONTINUOUS
  0
LAYER
  2
LAYER059
 70
               0
 62
               7
  6
CONTINUOUS
  0
LAYER
  2
LAYER060
 70
               0
 62
               7
  6
CONTINUOUS
  0
LAYER
  2
LAYER061
 70
               0
 62
               7
  6
CONTINUOUS
  0
LAYER
  2
LAYER062
 70
               0
 62
               7
  6
CONTINUOUS
  0
LAYER
  2
LAYER063
 70
               0
 62
               7
  6
CONTINUOUS
  0
LAYER
  2
LAYER064
 70
               0
 62
               7
  6
CONTINUOUS
  0
LAYER
  2
LAYER065
 70
               0
 62
               7
  6
CONTINUOUS
  0
LAYER
  2
LAYER066
 70
               0
 62
               7
  6
CONTINUOUS
  0
LAYER
  2
LAYER067
 70
               0
 62
               7
  6
CONTINUOUS
  0
LAYER
  2
LAYER068
 70
               0
 62
               7
  6
CONTINUOUS
  0
LAYER
  2
LAYER069
 70
               0
 62
               7
  6
CONTINUOUS
  0
LAYER
  2
LAYER070
 70
               0
 62
               7
  6
CONTINUOUS
  0
LAYER
  2
LAYER071
 70
               0
 62
               7
  6
CONTINUOUS
  0
LAYER
  2
LAYER072
 70
               0
 62
               7
  6
CONTINUOUS
  0
LAYER
  2
LAYER073
 70
               0
 62
               7
  6
CONTINUOUS
  0
LAYER
  2
LAYER074
 70
               0
 62
               7
  6
CONTINUOUS
  0
LAYER
  2
LAYER075
 70
               0
 62
               7
  6
CONTINUOUS
  0
LAYER
  2
LAYER076
 70
               0
 62
               7
  6
CONTINUOUS
  0
LAYER
  2
LAYER077
 70
               0
 62
               7
  6
CONTINUOUS
  0
LAYER
  2
LAYER078
 70
               0
 62
               7
  6
CONTINUOUS
  0
LAYER
  2
LAYER079
 70
               0
 62
               7
  6
CONTINUOUS
  0
LAYER
  2
LAYER080
 70
               0
 62
               7
  6
CONTINUOUS
  0
LAYER
  2
LAYER081
 70
               0
 62
               7
  6
CONTINUOUS
  0
LAYER
  2
LAYER082
 70
               0
 62
               7
  6
CONTINUOUS
  0
LAYER
  2
LAYER083
 70
               0
 62
               7
  6
CONTINUOUS
  0
LAYER
  2
LAYER084
 70
               0
 62
               7
  6
CONTINUOUS
  0
LAYER
  2
LAYER085
 70
               0
 62
               7
  6
CONTINUOUS
  0
LAYER
  2
LAYER086
 70
               0
 62
               7
  6
CONTINUOUS
  0
LAYER
  2
LAYER087
 70
               0
 62
               7
  6
CONTINUOUS
  0
LAYER
  2
LAYER088
 70
               0
 62
               7
  6
CONTINUOUS
  0
LAYER
  2
LAYER089
 70
               0
 62
               7
  6
CONTINUOUS
  0
LAYER
  2
LAYER090
 70
               0
 62
               7
  6
CONTINUOUS
  0
LAYER
  2
LAYER091
 70
               0
 62
               7
  6
CONTINUOUS
  0
LAYER
  2
LAYER092
 70
               0
 62
               7
  6
CONTINUOUS
  0
LAYER
  2
LAYER093
 70
               0
 62
               7
  6
CONTINUOUS
  0
LAYER
  2
LAYER094
 70
               0
 62
               7
  6
CONTINUOUS
  0
LAYER
  2
LAYER095
 70
               0
 62
               7
  6
CONTINUOUS
  0
LAYER
  2
LAYER096
 70
               0
 62
               7
  6
CONTINUOUS
  0
LAYER
  2
LAYER097
 70
               0
 62
               7
  6
CONTINUOUS
  0
LAYER
  2
LAYER098
 70
               0
 62
               7
  6
CONTINUOUS
  0
LAYER
  2
LAYER099
 70
               0
 62
               7
  6
CONTINUOUS
  0
LAYER
  2
LAYER100
 70
               0
 62
               7
  6
CONTINUOUS
  0
LAYER
  2
LAYER101
 70
               0
 62
               7
  6
CONTINUOUS
  0
LAYER
  2
LAYER102
 70
               0
 62
               7
  6
CONTINUOUS
  0
LAYER
  2
LAYER103
 70
               0
 62
               7
  6
CONTINUOUS
  0
LAYER
  2
LAYER104
 70
               0
 62
               7
  6
CONTINUOUS
  0
LAYER
  2
LAYER105
 70
               0
 62
               7
  6
CONTINUOUS
  0
LAYER
  2
LAYER106
 70
               0
 62
               7
  6
CONTINUOUS
  0
LAYER
  2
LAYER107
 70
               0
 62
               7
  6
CONTINUOUS
  0
LAYER
  2
LAYER108
 70
               0
 62
               7
  6
CONTINUOUS
  0
LAYER
  2
LAYER109
 70
               0
 62
               7
  6
CONTINUOUS
  0
LAYER
  2
LAYER110
 70
               0
 62
               7
  6
CONTINUOUS
  0
LAYER
  2
LAYER111
 70
               0
 62
               7
  6
CONTINUOUS
  0
LAYER
  2
LAYER112
 70
               0
 62
               7
  6
CONTINUOUS
  0
LAYER
  2
LAYER113
 70
               0
 62
               7
  6
CONTINUOUS
  0
LAYER
  2
LAYER114
 70
               0
 62
               7
  6
CONTINUOUS
  0
LAYER
  2
LAYER115
 70
               0
 62
               7
  6
CONTINUOUS
  0
LAYER
  2
LAYER116
 70
               0
 62
               7
  6
CONTINUOUS
  0
LAYER
  2
LAYER117
 70
               0
 62
               7
  6
CONTINUOUS
  0
LAYER
  2
LAYER118
 70
               0
 62
               7
  6
CONTINUOUS
  0
LAYER
  2
LAYER119
 70
               0
 62
               7
  6
CONTINUOUS
  0
LAYER
  2
LAYER120
 70
               0
 62
               7
  6
CONTINUOUS
  0
LAYER
  2
LAYER121
 70
               0
 62
               7
  6
CONTINUOUS
  0
LAYER
  2
LAYER122
 70
               0
 62
               7
  6
CONTINUOUS
  0
LAYER
  2
LAYER123
 70
               0
 62
               7
  6
CONTINUOUS
  0
LAYER
  2
LAYER124
 70
               0
 62
               7
  6
CONTINUOUS
  0
LAYER
  2
LAYER125
 70
               0
 62
               7
  6
CONTINUOUS
  0
LAYER
  2
LAYER126
 70
               0
 62
               7
  6
CONTINUOUS
  0
LAYER
  2
LAYER127
 70
               0
 62
               7
  6
CONTINUOUS
  0
LAYER
  2
LAYER128
 70
               0
 62
               7
  6
CONTINUOUS
  0
LAYER
  2
LAYER129
 70
               0
 62
               7
  6
CONTINUOUS
  0
LAYER
  2
LAYER130
 70
               0
 62
               7
  6
CONTINUOUS
  0
LAYER
  2
LAYER131
 70
               0
 62
               7
  6
CONTINUOUS
  0
LAYER
  2
LAYER132
 70
               0
 62
               7
  6
CONTINUOUS
  0
LAYER
  2
LAYER133
 70
               0
 62
               7
  6
CONTINUOUS
  0
LAYER
  2
LAYER134
 70
               0
 62
               7
  6
CONTINUOUS
  0
LAYER
  2
LAYER135
 70
               0
 62
               7
  6
CONTINUOUS
  0
LAYER
  2
LAYER136
 70
               0
 62
               7
  6
CONTINUOUS
  0
LAYER
  2
LAYER137
 70
               0
 62
               7
  6
CONTINUOUS
  0
LAYER
  2
LAYER138
 70
               0
 62
               7
  6
CONTINUOUS
  0
LAYER
  2
LAYER139
 70
               0
 62
               7
  6
CONTINUOUS
  0
LAYER
  2
LAYER140
 70
               0
 62
               7
  6
CONTINUOUS
  0
LAYER
  2
LAYER141
 70
               0
 62
               7
  6
CONTINUOUS
  0
LAYER
  2
LAYER142
 70
               0
 62
               7
  6
CONTINUOUS
  0
LAYER
  2
LAYER143
 70
               0
 62
               7
  6
CONTINUOUS
  0
LAYER
  2
LAYER144
 70
               0
 62
               7
  6
CONTINUOUS
  0
LAYER
  2
LAYER145
 70
               0
 62
               7
  6
CONTINUOUS
  0
LAYER
  2
LAYER146
 70
               0
 62
               7
  6
CONTINUOUS
  0
LAYER
  2
LAYER147
 70
               0
 62
               7
  6
CONTINUOUS
  0
LAYER
  2
LAYER148
 70
               0
 62
               7
  6
CONTINUOUS
  0
LAYER
  2
LAYER149
 70
               0
 62
               7
  6
CONTINUOUS
  0
LAYER
  2
LAYER150
 70
               0
 62
               7
  6
CONTINUOUS
  0
LAYER
  2
LAYER151
 70
               0
 62
               7
  6
CONTINUOUS
  0
LAYER
  2
LAYER152
 70
               0
 62
               7
  6
CONTINUOUS
  0
LAYER
  2
LAYER153
 70
               0
 62
               7
  6
CONTINUOUS
  0
LAYER
  2
LAYER154
 70
               0
 62
               7
  6
CONTINUOUS
  0
LAYER
  2
LAYER155
 70
               0
 62
               7
  6
CONTINUOUS
  0
LAYER
  2
LAYER156
 70
               0
 62
               7
  6
CONTINUOUS
  0
LAYER
  2
LAYER157
 70
               0
 62
               7
  6
CONTINUOUS
  0
LAYER
  2
LAYER158
 70
               0
 62
               7
  6
CONTINUOUS
  0
LAYER
  2
LAYER159
 70
               0
 62
               7
  6
CONTINUOUS
  0
LAYER
  2
LAYER160
 70
               0
 62
               7
  6
CONTINUOUS
  0
LAYER
  2
LAYER161
 70
               0
 62
               7
  6
CONTINUOUS
  0
LAYER
  2
LAYER162
 70
               0
 62
               7
  6
CONTINUOUS
  0
LAYER
  2
LAYER163
 70
               0
 62
               7
  6
CONTINUOUS
  0
LAYER
  2
LAYER164
 70
               0
 62
               7
  6
CONTINUOUS
  0
LAYER
  2
LAYER165
 70
               0
 62
               7
  6
CONTINUOUS
  0
LAYER
  2
LAYER166
 70
               0
 62
               7
  6
CONTINUOUS
  0
LAYER
  2
LAYER167
 70
               0
 62
               7
  6
CONTINUOUS
  0
LAYER
  2
LAYER168
 70
               0
 62
               7
  6
CONTINUOUS
  0
LAYER
  2
LAYER169
 70
               0
 62
               7
  6
CONTINUOUS
  0
LAYER
  2
LAYER170
 70
               0
 62
               7
  6
CONTINUOUS
  0
LAYER
  2
LAYER171
 70
               0
 62
               7
  6
CONTINUOUS
  0
LAYER
  2
LAYER172
 70
               0
 62
               7
  6
CONTINUOUS
  0
LAYER
  2
LAYER173
 70
               0
 62
               7
  6
CONTINUOUS
  0
LAYER
  2
LAYER174
 70
               0
 62
               7
  6
CONTINUOUS
  0
LAYER
  2
LAYER175
 70
               0
 62
               7
  6
CONTINUOUS
  0
LAYER
  2
LAYER176
 70
               0
 62
               7
  6
CONTINUOUS
  0
LAYER
  2
LAYER177
 70
               0
 62
               7
  6
CONTINUOUS
  0
LAYER
  2
LAYER178
 70
               0
 62
               7
  6
CONTINUOUS
  0
LAYER
  2
LAYER179
 70
               0
 62
               7
  6
CONTINUOUS
  0
LAYER
  2
LAYER180
 70
               0
 62
               7
  6
CONTINUOUS
  0
LAYER
  2
LAYER181
 70
               0
 62
               7
  6
CONTINUOUS
  0
LAYER
  2
LAYER182
 70
               0
 62
               7
  6
CONTINUOUS
  0
LAYER
  2
LAYER183
 70
               0
 62
               7
  6
CONTINUOUS
  0
LAYER
  2
LAYER184
 70
               0
 62
               7
  6
CONTINUOUS
  0
LAYER
  2
LAYER185
 70
               0
 62
               7
  6
CONTINUOUS
  0
LAYER
  2
LAYER186
 70
               0
 62
               7
  6
CONTINUOUS
  0
LAYER
  2
LAYER187
 70
               0
 62
               7
  6
CONTINUOUS
  0
LAYER
  2
LAYER188
 70
               0
 62
               7
  6
CONTINUOUS
  0
LAYER
  2
LAYER189
 70
               0
 62
               7
  6
CONTINUOUS
  0
LAYER
  2
LAYER190
 70
               0
 62
               7
  6
CONTINUOUS
  0
LAYER
  2
LAYER191
 70
               0
 62
               7
  6
CONTINUOUS
  0
LAYER
  2
LAYER192
 70
               0
 62
               7
  6
CONTINUOUS
  0
LAYER
  2
LAYER193
 70
               0
 62
               7
  6
CONTINUOUS
  0
LAYER
  2
LAYER194
 70
               0
 62
               7
  6
CONTINUOUS
  0
LAYER
  2
LAYER195
 70
               0
 62
               7
  6
CONTINUOUS
  0
LAYER
  2
LAYER196
 70
               0
 62
               7
  6
CONTINUOUS
  0
LAYER
  2
LAYER197
 70
               0
 62
               7
  6
CONTINUOUS
  0
LAYER
  2
LAYER198
 70
               0
 62
               7
  6
CONTINUOUS
  0
LAYER
  2
LAYER199
 70
               0
 62
               7
  6
CONTINUOUS
  0
LAYER
  2
LAYER200
 70
               0
 62
               7
  6
CONTINUOUS
  0
LAYER
  2
LAYER201
 70
               0
 62
               7
  6
CONTINUOUS
  0
LAYER
  2
LAYER202
 70
               0
 62
               7
  6
CONTINUOUS
  0
LAYER
  2
LAYER203
 70
               0
 62
               7
  6
CONTINUOUS
  0
LAYER
  2
LAYER204
 70
               0
 62
               7
  6
CONTINUOUS
  0
LAYER
  2
LAYER205
 70
               0
 62
               7
  6
CONTINUOUS
  0
LAYER
  2
LAYER206
 70
               0
 62
               7
  6
CONTINUOUS
  0
LAYER
  2
LAYER207
 70
               0
 62
               7
  6
CONTINUOUS
  0
LAYER
  2
LAYER208
 70
               0
 62
               7
  6
CONTINUOUS
  0
LAYER
  2
LAYER209
 70
               0
 62
               7
  6
CONTINUOUS
  0
LAYER
  2
LAYER210
 70
               0
 62
               7
  6
CONTINUOUS
  0
LAYER
  2
LAYER211
 70
               0
 62
               7
  6
CONTINUOUS
  0
LAYER
  2
LAYER212
 70
               0
 62
               7
  6
CONTINUOUS
  0
LAYER
  2
LAYER213
 70
               0
 62
               7
  6
CONTINUOUS
  0
LAYER
  2
LAYER214
 70
               0
 62
               7
  6
CONTINUOUS
  0
LAYER
  2
LAYER215
 70
               0
 62
               7
  6
CONTINUOUS
  0
LAYER
  2
LAYER216
 70
               0
 62
               7
  6
CONTINUOUS
  0
LAYER
  2
LAYER217
 70
               0
 62
               7
  6
CONTINUOUS
  0
LAYER
  2
LAYER218
 70
               0
 62
               7
  6
CONTINUOUS
  0
LAYER
  2
LAYER219
 70
               0
 62
               7
  6
CONTINUOUS
  0
LAYER
  2
LAYER220
 70
               0
 62
               7
  6
CONTINUOUS
  0
LAYER
  2
LAYER221
 70
               0
 62
               7
  6
CONTINUOUS
  0
LAYER
  2
LAYER222
 70
               0
 62
               7
  6
CONTINUOUS
  0
LAYER
  2
LAYER223
 70
               0
 62
               7
  6
CONTINUOUS
  0
LAYER
  2
LAYER224
 70
               0
 62
               7
  6
CONTINUOUS
  0
LAYER
  2
LAYER225
 70
               0
 62
               7
  6
CONTINUOUS
  0
LAYER
  2
LAYER226
 70
               0
 62
               7
  6
CONTINUOUS
  0
LAYER
  2
LAYER227
 70
               0
 62
               7
  6
CONTINUOUS
  0
LAYER
  2
LAYER228
 70
               0
 62
               7
  6
CONTINUOUS
  0
LAYER
  2
LAYER229
 70
               0
 62
               7
  6
CONTINUOUS
  0
LAYER
  2
LAYER230
 70
               0
 62
               7
  6
CONTINUOUS
  0
LAYER
  2
LAYER231
 70
               0
 62
               7
  6
CONTINUOUS
  0
LAYER
  2
LAYER232
 70
               0
 62
               7
  6
CONTINUOUS
  0
LAYER
  2
LAYER233
 70
               0
 62
               7
  6
CONTINUOUS
  0
LAYER
  2
LAYER234
 70
               0
 62
               7
  6
CONTINUOUS
  0
LAYER
  2
LAYER235
 70
               0
 62
               7
  6
CONTINUOUS
  0
LAYER
  2
LAYER236
 70
               0
 62
               7
  6
CONTINUOUS
  0
LAYER
  2
LAYER237
 70
               0
 62
               7
  6
CONTINUOUS
  0
LAYER
  2
LAYER238
 70
               0
 62
               7
  6
CONTINUOUS
  0
LAYER
  2
LAYER239
 70
               0
 62
               7
  6
CONTINUOUS
  0
LAYER
  2
LAYER240
 70
               0
 62
               7
  6
CONTINUOUS
  0
LAYER
  2
LAYER241
 70
               0
 62
               7
  6
CONTINUOUS
  0
LAYER
  2
LAYER242
 70
               0
 62
               7
  6
CONTINUOUS
  0
LAYER
  2
LAYER243
 70
               0
 62
               7
  6
CONTINUOUS
  0
LAYER
  2
LAYER244
 70
               0
 62
               7
  6
CONTINUOUS
  0
LAYER
  2
LAYER245
 70
               0
 62
               7
  6
CONTINUOUS
  0
LAYER
  2
LAYER246
 70
               0
 62
               7
  6
CONTINUOUS
  0
LAYER
  2
LAYER247
 70
               0
 62
               7
  6
CONTINUOUS
  0
LAYER
  2
LAYER248
 70
               0
 62
               7
  6
CONTINUOUS
  0
LAYER
  2
LAYER249
 70
               0
 62
               7
  6
CONTINUOUS
  0
LAYER
  2
LAYER250
 70
               0
 62
               7
  6
CONTINUOUS
  0
LAYER
  2
LAYER251
 70
               0
 62
               7
  6
CONTINUOUS
  0
LAYER
  2
LAYER252
 70
               0
 62
               7
  6
CONTINUOUS
  0
LAYER
  2
LAYER253
 70
               0
 62
               7
  6
CONTINUOUS
  0
LAYER
  2
LAYER254
 70
               0
 62
               7
  6
CONTINUOUS
  0
LAYER
  2
LAYER255
 70
               0
 62
               7
  6
CONTINUOUS
  0
ENDTAB
  0
TABLE
  2
STYLE
 70
               1
  0
STYLE
  2
STANDARD
 70
               0
 40
0.0
 41
0.8
 50
0.0
 71
               0
 42
40.0
  3
MS PGothic.ttf
  4

  0
ENDTAB
  0
TABLE
  2
VIEW
 70
               0
  0
VIEW
  2
QQQQ
 70
               0
 40
2590.8362560067158
 10
-34.23538634640056
 20
-100.0
 41
1553.9466081540206
 11
0.0
 21
0.0
 31
1.0
 12
100.0
 22
100.0
 32
0.0
 42
50.0
 43
0.0
 44
0.0
 50
0.0
 71
               0
  0
ENDTAB
  0
TABLE
  2
UCS
 70
               0
  0
ENDTAB
  0
TABLE
  2
APPID
 70
               1
  0
APPID
  2
ACAD
 70
               0
  0
ENDTAB
  0
TABLE
  2
DIMSTYLE
 70
               1
  0
DIMSTYLE
  2
STANDARD
 70
               0
  3

  4

  5

  6

  7

 40
1.0
 41
0.18
 42
0.0625
 43
0.38
 44
0.18
 45
0.0
 46
0.0
 47
0.0
 48
0.0
140
0.18
141
0.09
142
0.0
143
25.399999999999999
144
1.0
145
0.0
146
1.0
147
0.09
 71
               0
 72
               0
 73
               1
 74
               1
 75
               0
 76
               0
 77
               0
 78
               0
170
               0
171
               2
172
               0
173
               0
174
               0
175
               0
176
               0
177
               0
178
               0
  0
ENDTAB
  0
ENDSEC
  0
SECTION
  2
BLOCKS
  0
ENDSEC
  0
SECTION
  2
ENTITIES
  0
CIRCLE
  8
0
  6
CONTINUOUS
 62
               3
  5
136
 10
-48.878647954554481
 20
963.82409774059522
 30
0.0
 40
75.0
  0
CIRCLE
  8
0
  6
CONTINUOUS
 62
               3
  5
137
 10
-48.878647954554481
 20
963.82409774059522
 30
0.0
 40
52.5
  0
LINE
  8
0
  6
CONTINUOUS
 62
               3
  5
138
 10
-135.08914615517972
 20
983.82409774059522
 30
0.0
 11
-121.16280942855985
 21
983.82409774059522
 31
0.0
  0
LINE
  8
0
  6
CONTINUOUS
 62
               3
  5
139
 10
-121.16280942855985
 20
943.82409774059522
 30
0.0
 11
-135.08914615517972
 21
943.82409774059522
 31
0.0
  0
ARC
  8
0
  6
CONTINUOUS
 62
               3
  5
13A
 10
-48.878647954554481
 20
963.82409774059522
 30
0.0
 40
88.5
 50
166.93897588503955
 51
193.06102411461566
  0
LINE
  8
0
  6
CONTINUOUS
 62
               3
  5
13B
 10
-68.878647954554481
 20
877.61359953997032
 30
0.0
 11
-68.878647954554481
 21
891.53993626659019
 31
0.0
  0
LINE
  8
0
  6
CONTINUOUS
 62
               3
  5
13C
 10
-28.878647954554481
 20
891.53993626659019
 30
0.0
 11
-28.878647954554481
 21
877.61359953997032
 31
0.0
  0
ARC
  8
0
  6
CONTINUOUS
 62
               3
  5
13D
 10
-48.878647954554481
 20
963.82409774059522
 30
0.0
 40
88.5
 50
256.93897588495361
 51
283.06102411452952
  0
LINE
  8
0
  6
CONTINUOUS
 62
               3
  5
13E
 10
37.331850246070175
 20
943.82409774059522
 30
0.0
 11
23.405513519449755
 21
943.82409774059522
 31
0.0
  0
LINE
  8
0
  6
CONTINUOUS
 62
               3
  5
13F
 10
23.405513519449755
 20
983.82409774059522
 30
0.0
 11
37.331850246070175
 21
983.82409774059522
 31
0.0
  0
ARC
  8
0
  6
CONTINUOUS
 62
               3
  5
140
 10
-48.878647954554481
 20
963.82409774059522
 30
0.0
 40
88.5
 50
346.9389758848672
 51
373.06102411444323
  0
LINE
  8
0
  6
CONTINUOUS
 62
               3
  5
141
 10
-28.878647954554481
 20
1050.0345959412207
 30
0.0
 11
-28.878647954554481
 21
1036.1082592146004
 31
0.0
  0
LINE
  8
0
  6
CONTINUOUS
 62
               3
  5
142
 10
-68.878647954554481
 20
1036.1082592146004
 30
0.0
 11
-68.878647954554481
 21
1050.0345959412207
 31
0.0
  0
ARC
  8
0
  6
CONTINUOUS
 62
               3
  5
143
 10
-48.878647954554481
 20
963.82409774059522
 30
0.0
 40
88.5
 50
76.938975885125828
 51
103.06102411470189
  0
LINE
  8
0
  6
CONTINUOUS
 62
               3
  5
144
 10
-96.546771475415539
 20
941.82409774059477
 30
0.0
 11
-1.2105244336945589
 21
941.82409774059477
 31
0.0
  0
ARC
  8
0
  6
CONTINUOUS
 62
               3
  5
145
 10
-36.375036305173353
 20
972.53049536821425
 30
0.0
 40
54.763804151667173
 50
141.38591763670263
 51
145.15009542081495
  0
ARC
  8
0
  6
CONTINUOUS
 62
               3
  5
146
 10
-48.878647954554481
 20
963.82409774059522
 30
0.0
 40
51.5
 50
334.71098847313715
 51
410.95932736324704
  0
ARC
  8
0
  6
CONTINUOUS
 62
               3
  5
147
 10
-48.878647954554481
 20
963.82409774059522
 30
0.0
 40
51.5
 50
129.04067263623628
 51
205.28901152634569
  0
ARC
  8
0
  6
CONTINUOUS
 62
               3
  5
148
 10
-48.878647954554481
 20
963.82409774059522
 30
0.0
 40
77.5
 50
104.95524831654285
 51
128.57288309091015
  0
ARC
  8
0
  6
CONTINUOUS
 62
               3
  5
149
 10
-48.878647954554481
 20
963.82409774059522
 30
0.0
 40
77.5
 50
14.95524831662895
 51
75.044751683284829
  0
ARC
  8
0
  6
CONTINUOUS
 62
               3
  5
14A
 10
-48.878647954554481
 20
963.82409774059522
 30
0.0
 40
77.5
 50
313.99504232078232
 51
345.04475168302622
  0
LINE
  8
0
  6
CONTINUOUS
 62
               3
  5
14B
 10
-188.87864795455442
 20
908.82409774059522
 30
0.0
 11
-188.20709182859019
 21
908.82409774059522
 31
0.0
  0
LINE
  8
0
  6
CONTINUOUS
 62
               3
  5
14C
 10
-185.70709182858974
 20
906.32409774059522
 30
0.0
 11
-188.20709182859019
 21
908.82409774059522
 31
0.0
  0
LINE
  8
0
  6
CONTINUOUS
 62
               3
  5
14D
 10
-188.87864795455442
 20
1018.8240977405952
 30
0.0
 11
-188.20709182859019
 21
1018.8240977405952
 31
0.0
  0
LINE
  8
0
  6
CONTINUOUS
 62
               3
  5
14E
 10
-185.70709182859019
 20
1021.3240977405952
 30
0.0
 11
-188.20709182859019
 21
1018.8240977405952
 31
0.0
  0
LINE
  8
0
  6
CONTINUOUS
 62
               3
  5
14F
 10
-188.20709182859019
 20
1018.8240977405952
 30
0.0
 11
-188.20709182859019
 21
908.82409774059522
 31
0.0
  0
LINE
  8
0
  6
CONTINUOUS
 62
               3
  5
150
 10
-94.368983740932379
 20
1024.5136947589367
 30
0.0
 11
-185.70709182859019
 21
1021.3240977405952
 31
0.0
  0
LINE
  8
0
  6
CONTINUOUS
 62
               3
  5
151
 10
-94.368983740933061
 20
903.13450072225407
 30
0.0
 11
-185.70709182858974
 21
906.32409774059522
 31
0.0
  0
LINE
  8
0
  6
CONTINUOUS
 62
               3
  5
152
 10
-193.87864795455442
 20
1018.6525416146311
 30
0.0
 11
-193.87864795455442
 21
908.7240977405952
 31
0.0
  0
LINE
  8
0
  6
CONTINUOUS
 62
               3
  5
153
 10
-188.87864795455442
 20
906.2240977405952
 30
0.0
 11
-188.87864795455442
 21
1021.4240977405952
 31
0.0
  0
LINE
  8
0
  6
CONTINUOUS
 62
               3
  5
154
 10
-188.87864795455442
 20
1021.4240977405952
 30
0.0
 11
-191.37864795455442
 21
1021.4240977405952
 31
0.0
  0
LINE
  8
0
  6
CONTINUOUS
 62
               3
  5
155
 10
-188.87864795455442
 20
906.2240977405952
 30
0.0
 11
-191.37864795455442
 21
906.2240977405952
 31
0.0
  0
ARC
  8
0
  6
CONTINUOUS
 62
               3
  5
156
 10
-191.37864795455442
 20
908.7240977405952
 30
0.0
 40
2.5
 50
179.99999999982765
 51
269.99999999974142
  0
ARC
  8
0
  6
CONTINUOUS
 62
               3
  5
157
 10
-191.37864795455442
 20
1018.9240977405952
 30
0.0
 40
2.5
 50
89.999999999913825
 51
179.99999999982765
  0
LINE
  8
0
  6
CONTINUOUS
 62
               3
  5
158
 10
-81.317051121172085
 20
1003.824097740595
 30
0.0
 11
-48.878647954554481
 21
1003.824097740595
 31
0.0
  0
LINE
  8
0
  6
CONTINUOUS
 62
               3
  5
159
 10
-48.878647954554481
 20
1003.824097740595
 30
0.0
 11
-14.874971682715795
 21
1003.824097740595
 31
0.0
  0
LINE
  8
0
  6
CONTINUOUS
 62
               3
  5
15A
 10
-185.70709182858974
 20
906.32409774059522
 30
0.0
 11
-185.70709182859019
 21
1021.3240977405952
 31
0.0
  0
ARC
  8
0
  6
CONTINUOUS
 62
               3
  5
15B
 10
-94.543481224444918
 20
1029.5106488940323
 30
0.0
 40
5.0
 50
271.99999999973971
 51
304.8067578701357
  0
ARC
  8
0
  6
CONTINUOUS
 62
               3
  5
15C
 10
-94.543481224445543
 20
898.13754658715857
 30
0.0
 40
5.0
 50
55.193242129518801
 51
87.999999999916014
  0
LINE
  8
0
  6
CONTINUOUS
 62
               3
  5
15D
 10
-0.3786479545545944
 20
823.82409774059522
 30
0.0
 11
-0.3786479545545944
 21
824.49565386655945
 31
0.0
  0
LINE
  8
0
  6
CONTINUOUS
 62
               3
  5
15E
 10
2.1213520454454198
 20
826.99565386656025
 30
0.0
 11
-0.3786479545545944
 21
824.49565386655945
 31
0.0
  0
LINE
  8
0
  6
CONTINUOUS
 62
               3
  5
15F
 10
-97.378647954554594
 20
823.82409774059522
 30
0.0
 11
-97.378647954554594
 21
824.49565386655945
 31
0.0
  0
LINE
  8
0
  6
CONTINUOUS
 62
               3
  5
160
 10
-99.878647954554594
 20
826.99565386655945
 30
0.0
 11
-97.378647954554594
 21
824.49565386655945
 31
0.0
  0
LINE
  8
0
  6
CONTINUOUS
 62
               3
  5
161
 10
-97.378647954554822
 20
824.49565386655945
 30
0.0
 11
-0.3786479545545944
 21
824.49565386655945
 31
0.0
  0
LINE
  8
0
  6
CONTINUOUS
 62
               3
  5
162
 10
-97.228647954554589
 20
818.82409774059522
 30
0.0
 11
-0.5286479545545859
 21
818.82409774059522
 31
0.0
  0
LINE
  8
0
  6
CONTINUOUS
 62
               3
  5
163
 10
1.9713520454454141
 20
823.82409774059522
 30
0.0
 11
-99.728647954554589
 21
823.82409774059522
 31
0.0
  0
LINE
  8
0
  6
CONTINUOUS
 62
               3
  5
164
 10
-99.728647954554589
 20
823.82409774059522
 30
0.0
 11
-99.728647954554589
 21
821.32409774059522
 31
0.0
  0
LINE
  8
0
  6
CONTINUOUS
 62
               3
  5
165
 10
1.9713520454454141
 20
823.82409774059522
 30
0.0
 11
1.9713520454454141
 21
821.32409774059522
 31
0.0
  0
ARC
  8
0
  6
CONTINUOUS
 62
               3
  5
166
 10
-0.5286479545545859
 20
821.32409774059522
 30
0.0
 40
2.5
 50
269.99999999974114
 51
359.9999999996553
  0
ARC
  8
0
  6
CONTINUOUS
 62
               3
  5
167
 10
-97.228647954554589
 20
821.32409774059522
 30
0.0
 40
2.5
 50
179.99999999982765
 51
269.99999999974142
  0
LINE
  8
0
  6
CONTINUOUS
 62
               3
  5
168
 10
-99.878647954554594
 20
826.99565386655956
 30
0.0
 11
2.121352045445434
 21
826.99565386656025
 31
0.0
  0
LINE
  8
0
  6
CONTINUOUS
 62
               3
  5
169
 10
-102.54744838662731
 20
903.42009900094274
 30
0.0
 11
-99.878647954554594
 21
826.99565386655956
 31
0.0
  0
LINE
  8
0
  6
CONTINUOUS
 62
               3
  5
16A
 10
5.0147354272291693
 20
909.85131323185965
 30
0.0
 11
2.121352045445434
 21
826.99565386656025
 31
0.0
  0
ARC
  8
0
  6
CONTINUOUS
 62
               3
  5
16B
 10
10.011689562324634
 20
909.67681574834705
 30
0.0
 40
5.0
 50
137.40271994635452
 51
177.9999999998291
  0
LINE
  8
0
  6
CONTINUOUS
 62
               3
  5
16C
 10
-123.87864795455448
 20
528.82409774059522
 30
0.0
 11
26.121352045445519
 21
528.82409774059522
 31
0.0
  0
LINE
  8
0
  6
CONTINUOUS
 62
               3
  5
16D
 10
-137.37864795455471
 20
518.82409774059522
 30
0.0
 11
-137.37864795455471
 21
511.82409774059556
 31
0.0
  0
LINE
  8
0
  6
CONTINUOUS
 62
               3
  5
16E
 10
-137.37864795455471
 20
518.82409774059522
 30
0.0
 11
-123.87864795455448
 21
528.82409774059522
 31
0.0
  0
ARC
  8
0
  6
CONTINUOUS
 62
               3
  5
16F
 10
-125.87864795455437
 20
507.24152204563984
 30
0.0
 40
4.9999999999999991
 50
0.0
 51
66.421821521734401
  0
LINE
  8
0
  6
CONTINUOUS
 62
               3
  5
170
 10
-137.37864795455471
 20
511.82409774059556
 30
0.0
 11
39.621352045445178
 21
511.82409774059556
 31
0.0
  0
ARC
  8
0
  6
CONTINUOUS
 62
               3
  5
171
 10
-103.87864795455448
 20
421.82409774059522
 30
0.0
 40
19.999999999999996
 50
148.21166938280629
 51
167.26981986152731
  0
LINE
  8
0
  6
CONTINUOUS
 62
               3
  5
172
 10
-120.87864795455437
 20
507.24152204563984
 30
0.0
 11
-120.87864795455437
 21
432.35975149344802
 31
0.0
  0
LINE
  8
0
  6
CONTINUOUS
 62
               3
  5
173
 10
23.121352045445406
 20
437.35975149344858
 30
0.0
 11
23.121352045445406
 21
507.24152204563984
 31
0.0
  0
LINE
  8
0
  6
CONTINUOUS
 62
               3
  5
174
 10
-106.87864795455459
 20
-24.175902259405063
 30
0.0
 11
-123.87864795455448
 21
124.82409774059539
 31
0.0
  0
LINE
  8
0
  6
CONTINUOUS
 62
               3
  5
175
 10
-120.87864795455437
 20
432.35975149344802
 30
0.0
 11
22.62135204544586
 21
432.35975149344802
 31
0.0
  0
LINE
  8
0
  6
CONTINUOUS
 62
               3
  5
176
 10
-68.878647954554481
 20
511.82409774059556
 30
0.0
 11
-68.878647954554481
 21
528.82409774059522
 31
0.0
  0
LINE
  8
0
  6
CONTINUOUS
 62
               3
  5
177
 10
-28.878647954554481
 20
528.82409774059522
 30
0.0
 11
-28.878647954554481
 21
511.82409774059556
 31
0.0
  0
LINE
  8
0
  6
CONTINUOUS
 62
               3
  5
178
 10
-68.878647954554481
 20
518.82409774059522
 30
0.0
 11
-28.878647954554481
 21
518.82409774059522
 31
0.0
  0
LINE
  8
0
  6
CONTINUOUS
 62
               3
  5
179
 10
-121.16280942855985
 20
528.82409774059522
 30
0.0
 11
-121.16280942855985
 21
511.82409774059556
 31
0.0
  0
LINE
  8
0
  6
CONTINUOUS
 62
               3
  5
17A
 10
-135.08914615517972
 20
518.82409774059522
 30
0.0
 11
-135.08914615517972
 21
511.82409774059556
 31
0.0
  0
LINE
  8
0
  6
CONTINUOUS
 62
               3
  5
17B
 10
-137.37864795455471
 20
518.82409774059522
 30
0.0
 11
-135.08914615517972
 21
518.82409774059522
 31
0.0
  0
LINE
  8
0
  6
CONTINUOUS
 62
               3
  5
17C
 10
-135.08914615517972
 20
518.82409774059522
 30
0.0
 11
-121.16280942855985
 21
528.82409774059522
 31
0.0
  0
LINE
  8
0
  6
CONTINUOUS
 62
               3
  5
17D
 10
39.621352045445178
 20
518.82409774059522
 30
0.0
 11
39.621352045445178
 21
511.82409774059556
 31
0.0
  0
LINE
  8
0
  6
CONTINUOUS
 62
               3
  5
17E
 10
39.621352045445178
 20
518.82409774059522
 30
0.0
 11
26.121352045445519
 21
528.82409774059522
 31
0.0
  0
ARC
  8
0
  6
CONTINUOUS
 62
               3
  5
17F
 10
28.121352045445406
 20
507.24152204563984
 30
0.0
 40
4.9999999999999991
 50
113.57817847809295
 51
179.99999999982765
  0
LINE
  8
0
  6
CONTINUOUS
 62
               3
  5
180
 10
23.405513519449755
 20
528.82409774059522
 30
0.0
 11
23.405513519449755
 21
511.82409774059556
 31
0.0
  0
LINE
  8
0
  6
CONTINUOUS
 62
               3
  5
181
 10
37.331850246070758
 20
518.82409774059522
 30
0.0
 11
37.331850246070758
 21
511.82409774059556
 31
0.0
  0
LINE
  8
0
  6
CONTINUOUS
 62
               3
  5
182
 10
39.621352045445178
 20
518.82409774059522
 30
0.0
 11
37.331850246070758
 21
518.82409774059522
 31
0.0
  0
LINE
  8
0
  6
CONTINUOUS
 62
               3
  5
183
 10
37.331850246070758
 20
518.82409774059522
 30
0.0
 11
23.405513519449755
 21
528.82409774059522
 31
0.0
  0
ARC
  8
0
  6
CONTINUOUS
 62
               3
  5
184
 10
-123.87864795455448
 20
240.32409774059522
 30
0.0
 40
2.4999999999999996
 50
89.999999999913825
 51
269.99999999974142
  0
ARC
  8
0
  6
CONTINUOUS
 62
               3
  5
185
 10
26.121352045445519
 20
240.32409774059522
 30
0.0
 40
2.4999999999999996
 50
269.99999999974159
 51
449.99999999956907
  0
LINE
  8
0
  6
CONTINUOUS
 62
               3
  5
186
 10
-123.87864795455448
 20
124.82409774059539
 30
0.0
 11
-95.24675574661137
 21
124.82409774059539
 31
0.0
  0
LINE
  8
0
  6
CONTINUOUS
 62
               3
  5
187
 10
-50.851481234705375
 20
124.82409774059539
 30
0.0
 11
25.618117179095293
 21
124.82409774059539
 31
0.0
  0
LINE
  8
0
  6
CONTINUOUS
 62
               3
  5
188
 10
-188.87864795455448
 20
307.82409774059522
 30
0.0
 11
-188.20709182859008
 21
307.82409774059522
 31
0.0
  0
LINE
  8
0
  6
CONTINUOUS
 62
               3
  5
189
 10
-185.70709182859002
 20
305.32409774059596
 30
0.0
 11
-188.20709182859008
 21
307.82409774059522
 31
0.0
  0
LINE
  8
0
  6
CONTINUOUS
 62
               3
  5
18A
 10
-185.70709182858928
 20
305.32409774059522
 30
0.0
 11
-143.54198157231187
 21
303.85165964474118
 31
0.0
  0
LINE
  8
0
  6
CONTINUOUS
 62
               3
  5
18B
 10
-125.343114048622
 20
287.55240831430922
 30
0.0
 11
-140.18094514989173
 21
302.39023941557849
 31
0.0
  0
ARC
  8
0
  6
CONTINUOUS
 62
               3
  5
18C
 10
-128.87864795455448
 20
284.01687440837611
 30
0.0
 40
4.9999999999999991
 50
0.0
 51
44.999999999956145
  0
LINE
  8
0
  6
CONTINUOUS
 62
               3
  5
18D
 10
-188.87864795455448
 20
417.82409774059511
 30
0.0
 11
-188.20709182859008
 21
417.82409774059511
 31
0.0
  0
LINE
  8
0
  6
CONTINUOUS
 62
               3
  5
18E
 10
-185.70709182859002
 20
420.32409774059533
 30
0.0
 11
-188.20709182859008
 21
417.82409774059511
 31
0.0
  0
LINE
  8
0
  6
CONTINUOUS
 62
               3
  5
18F
 10
-185.70709182859008
 20
420.32409774059528
 30
0.0
 11
-128.08961562641579
 21
422.33614434574753
 31
0.0
  0
LINE
  8
0
  6
CONTINUOUS
 62
               3
  5
190
 10
-188.20709182859008
 20
417.82409774059511
 30
0.0
 11
-188.20709182859008
 21
307.82409774059522
 31
0.0
  0
LINE
  8
0
  6
CONTINUOUS
 62
               3
  5
191
 10
-188.87864795455448
 20
305.2240977405952
 30
0.0
 11
-188.87864795455448
 21
420.42409774059524
 31
0.0
  0
LINE
  8
0
  6
CONTINUOUS
 62
               3
  5
192
 10
-188.87864795455448
 20
420.42409774059524
 30
0.0
 11
-191.37864795455448
 21
420.42409774059524
 31
0.0
  0
ARC
  8
0
  6
CONTINUOUS
 62
               3
  5
193
 10
-191.37864795455448
 20
417.92409774059524
 30
0.0
 40
2.5
 50
89.999999999913825
 51
179.99999999982765
  0
LINE
  8
0
  6
CONTINUOUS
 62
               3
  5
194
 10
-193.87864795455448
 20
417.92409774059524
 30
0.0
 11
-193.87864795455448
 21
307.7240977405952
 31
0.0
  0
LINE
  8
0
  6
CONTINUOUS
 62
               3
  5
195
 10
-188.87864795455448
 20
305.2240977405952
 30
0.0
 11
-191.37864795455448
 21
305.2240977405952
 31
0.0
  0
ARC
  8
0
  6
CONTINUOUS
 62
               3
  5
196
 10
-191.37864795455448
 20
307.7240977405952
 30
0.0
 40
2.5
 50
179.99999999982765
 51
269.99999999974142
  0
LINE
  8
0
  6
CONTINUOUS
 62
               3
  5
197
 10
-185.70709182859002
 20
420.32409774059533
 30
0.0
 11
-185.70709182858928
 21
305.32409774059522
 31
0.0
  0
ARC
  8
0
  6
CONTINUOUS
 62
               3
  5
198
 10
-143.71647905582441
 20
298.85470550964573
 30
0.0
 40
5.0
 50
44.999999999957758
 51
87.999999999915332
  0
ARC
  8
0
  6
CONTINUOUS
 62
               3
  5
199
 10
-128.2641131099283
 20
427.33309848084298
 30
0.0
 40
5.0
 50
271.99999999973943
 51
347.26981986135377
  0
ARC
  8
0
  6
CONTINUOUS
 62
               3
  5
19A
 10
-71.378647954553912
 20
240.32409774059522
 30
0.0
 40
2.4999999999999996
 50
269.99999999974142
 51
449.99999999956907
  0
ARC
  8
0
  6
CONTINUOUS
 62
               3
  5
19B
 10
-26.378647954553912
 20
240.32409774059522
 30
0.0
 40
2.4999999999999996
 50
89.999999999913825
 51
269.99999999974114
  0
LINE
  8
0
  6
CONTINUOUS
 62
               3
  5
19C
 10
-123.87864795455448
 20
242.82409774059522
 30
0.0
 11
-71.378647954553912
 21
242.82409774059522
 31
0.0
  0
LINE
  8
0
  6
CONTINUOUS
 62
               3
  5
19D
 10
-26.378647954553912
 20
242.82409774059522
 30
0.0
 11
26.121352045445519
 21
242.82409774059522
 31
0.0
  0
LINE
  8
0
  6
CONTINUOUS
 62
               3
  5
19E
 10
-123.87864795455448
 20
237.82409774059522
 30
0.0
 11
-71.378647954553912
 21
237.82409774059522
 31
0.0
  0
LINE
  8
0
  6
CONTINUOUS
 62
               3
  5
19F
 10
-26.378647954553912
 20
237.82409774059522
 30
0.0
 11
26.121352045445519
 21
237.82409774059522
 31
0.0
  0
LINE
  8
0
  6
CONTINUOUS
 62
               3
  5
1A0
 10
-123.87864795455448
 20
284.01687440837611
 30
0.0
 11
-123.87864795455448
 21
242.82409774059522
 31
0.0
  0
LINE
  8
0
  6
CONTINUOUS
 62
               3
  5
1A1
 10
-123.87864795455448
 20
237.82409774059522
 30
0.0
 11
-123.87864795455448
 21
124.82409774059539
 31
0.0
  0
LINE
  8
0
  6
CONTINUOUS
 62
               3
  5
1A2
 10
-723.87864795455448
 20
528.82409774059522
 30
0.0
 11
-573.87864795455516
 21
528.82409774059522
 31
0.0
  0
LINE
  8
0
  6
CONTINUOUS
 62
               3
  5
1A3
 10
-737.37864795455471
 20
518.82409774059522
 30
0.0
 11
-737.37864795455471
 21
511.82409774059556
 31
0.0
  0
LINE
  8
0
  6
CONTINUOUS
 62
               3
  5
1A4
 10
-737.37864795455471
 20
518.82409774059522
 30
0.0
 11
-723.87864795455448
 21
528.82409774059522
 31
0.0
  0
ARC
  8
0
  6
CONTINUOUS
 62
               3
  5
1A5
 10
-725.87864795455448
 20
507.24152204563984
 30
0.0
 40
4.9999999999999991
 50
0.0
 51
66.421821521734117
  0
LINE
  8
0
  6
CONTINUOUS
 62
               3
  5
1A6
 10
-737.37864795455471
 20
511.82409774059556
 30
0.0
 11
-560.37864795455494
 21
511.82409774059556
 31
0.0
  0
ARC
  8
0
  6
CONTINUOUS
 62
               3
  5
1A7
 10
-703.87864795455448
 20
421.82409774059522
 30
0.0
 40
19.999999999999996
 50
148.21166938280601
 51
179.99999999982765
  0
LINE
  8
0
  6
CONTINUOUS
 62
               3
  5
1A8
 10
-720.87864795455448
 20
507.24152204563984
 30
0.0
 11
-720.87864795455448
 21
432.35975149344802
 31
0.0
  0
ARC
  8
0
  6
CONTINUOUS
 62
               3
  5
1A9
 10
-593.87864795455516
 20
421.82409774059522
 30
0.0
 40
19.999999999999996
 50
0.0
 51
31.788330617021266
  0
LINE
  8
0
  6
CONTINUOUS
 62
               3
  5
1AA
 10
-576.87864795455471
 20
432.35975149344802
 30
0.0
 11
-576.87864795455471
 21
507.24152204563984
 31
0.0
  0
LINE
  8
0
  6
CONTINUOUS
 62
               3
  5
1AB
 10
-706.87864795455471
 20
-24.175902259405063
 30
0.0
 11
-723.87864795455448
 21
124.82409774059539
 31
0.0
  0
LINE
  8
0
  6
CONTINUOUS
 62
               3
  5
1AC
 10
-723.87864795455448
 20
237.82409774059522
 30
0.0
 11
-723.87864795455448
 21
124.82409774059539
 31
0.0
  0
LINE
  8
0
  6
CONTINUOUS
 62
               3
  5
1AD
 10
-720.87864795455448
 20
432.35975149344802
 30
0.0
 11
-576.87864795455471
 21
432.35975149344802
 31
0.0
  0
LINE
  8
0
  6
CONTINUOUS
 62
               3
  5
1AE
 10
-668.87864795455448
 20
511.82409774059556
 30
0.0
 11
-668.87864795455448
 21
528.82409774059522
 31
0.0
  0
LINE
  8
0
  6
CONTINUOUS
 62
               3
  5
1AF
 10
-628.87864795455516
 20
528.82409774059522
 30
0.0
 11
-628.87864795455516
 21
511.82409774059556
 31
0.0
  0
LINE
  8
0
  6
CONTINUOUS
 62
               3
  5
1B0
 10
-668.87864795455448
 20
518.82409774059522
 30
0.0
 11
-628.87864795455516
 21
518.82409774059522
 31
0.0
  0
LINE
  8
0
  6
CONTINUOUS
 62
               3
  5
1B1
 10
-721.16280942855883
 20
528.82409774059522
 30
0.0
 11
-721.16280942855883
 21
511.82409774059556
 31
0.0
  0
LINE
  8
0
  6
CONTINUOUS
 62
               3
  5
1B2
 10
-735.08914615517983
 20
518.82409774059522
 30
0.0
 11
-735.08914615517983
 21
511.82409774059556
 31
0.0
  0
LINE
  8
0
  6
CONTINUOUS
 62
               3
  5
1B3
 10
-737.37864795455471
 20
518.82409774059522
 30
0.0
 11
-735.08914615517983
 21
518.82409774059522
 31
0.0
  0
LINE
  8
0
  6
CONTINUOUS
 62
               3
  5
1B4
 10
-735.08914615517983
 20
518.82409774059522
 30
0.0
 11
-721.16280942855883
 21
528.82409774059522
 31
0.0
  0
LINE
  8
0
  6
CONTINUOUS
 62
               3
  5
1B5
 10
-560.37864795455494
 20
518.82409774059522
 30
0.0
 11
-560.37864795455494
 21
511.82409774059556
 31
0.0
  0
LINE
  8
0
  6
CONTINUOUS
 62
               3
  5
1B6
 10
-560.37864795455494
 20
518.82409774059522
 30
0.0
 11
-573.87864795455516
 21
528.82409774059522
 31
0.0
  0
ARC
  8
0
  6
CONTINUOUS
 62
               3
  5
1B7
 10
-571.87864795455471
 20
507.24152204563984
 30
0.0
 40
4.9999999999999991
 50
113.57817847809341
 51
179.99999999982765
  0
LINE
  8
0
  6
CONTINUOUS
 62
               3
  5
1B8
 10
-576.59448648054968
 20
528.82409774059522
 30
0.0
 11
-576.59448648054968
 21
511.82409774059556
 31
0.0
  0
LINE
  8
0
  6
CONTINUOUS
 62
               3
  5
1B9
 10
-562.66814975392936
 20
518.82409774059522
 30
0.0
 11
-562.66814975392936
 21
511.82409774059556
 31
0.0
  0
LINE
  8
0
  6
CONTINUOUS
 62
               3
  5
1BA
 10
-560.37864795455494
 20
518.82409774059522
 30
0.0
 11
-562.66814975392936
 21
518.82409774059522
 31
0.0
  0
LINE
  8
0
  6
CONTINUOUS
 62
               3
  5
1BB
 10
-562.66814975392936
 20
518.82409774059522
 30
0.0
 11
-576.59448648054968
 21
528.82409774059522
 31
0.0
  0
ARC
  8
0
  6
CONTINUOUS
 62
               3
  5
1BC
 10
-723.87864795455448
 20
240.32409774059522
 30
0.0
 40
2.4999999999999996
 50
89.999999999911211
 51
269.99999999974142
  0
LINE
  8
0
  6
CONTINUOUS
 62
               3
  5
1BD
 10
-723.87864795455448
 20
421.82409774059522
 30
0.0
 11
-723.87864795455448
 21
242.82409774059522
 31
0.0
  0
LINE
  8
0
  6
CONTINUOUS
 62
               3
  5
1BE
 10
-723.87864795455448
 20
124.82409774059539
 30
0.0
 11
-589.92964795455441
 21
124.82409774059568
 31
0.0
  0
LINE
  8
0
  6
CONTINUOUS
 62
               3
  5
1BF
 10
-577.12228141101536
 20
124.82409774059568
 30
0.0
 11
-573.87864795455516
 21
124.82409774059568
 31
0.0
  0
LINE
  8
0
  6
CONTINUOUS
 62
               3
  5
1C0
 10
-723.87864795455448
 20
237.82409774059522
 30
0.0
 11
-583.87864795455516
 21
237.82409774059522
 31
0.0
  0
LINE
  8
0
  6
CONTINUOUS
 62
               3
  5
1C1
 10
-723.87864795455448
 20
242.82409774059522
 30
0.0
 11
-583.87864795455516
 21
242.82409774059522
 31
0.0
  0
LINE
  8
0
  6
CONTINUOUS
 62
               3
  5
1C2
 10
-622.09129086207577
 20
390.82409774059511
 30
0.0
 11
-675.66600504703456
 21
390.82409774059511
 31
0.0
  0
CIRCLE
  8
0
  6
CONTINUOUS
 62
               3
  5
1C3
 10
-648.87864795455516
 20
362.82409774059522
 30
0.0
 40
48.5
  0
CIRCLE
  8
0
  6
CONTINUOUS
 62
               3
  5
1C4
 10
-648.87864795455516
 20
362.82409774059522
 30
0.0
 40
38.75
  0
CIRCLE
  8
0
  6
CONTINUOUS
 62
               3
  5
1C5
 10
-648.87864795455516
 20
362.82409774059522
 30
0.0
 40
47.299999999999997
  0
LINE
  8
0
  6
CONTINUOUS
 62
               3
  5
1C6
 10
-680.69845310794972
 20
331.00429258720067
 30
0.0
 11
-682.32479870467887
 21
329.37794699047151
 31
0.0
  0
LINE
  8
0
  6
CONTINUOUS
 62
               3
  5
1C7
 10
-617.05884280116038
 20
331.00429258720067
 30
0.0
 11
-615.43249720443146
 21
329.37794699047163
 31
0.0
  0
ARC
  8
0
  6
CONTINUOUS
 62
               3
  5
1C8
 10
-648.87864795455516
 20
362.82409774059522
 30
0.0
 40
45.0
 50
224.99999999978448
 51
314.99999999969845
  0
CIRCLE
  8
0
  6
CONTINUOUS
 62
               3
  5
1C9
 10
-648.87864795455516
 20
362.82409774059522
 30
0.0
 40
43.0
  0
CIRCLE
  8
0
  6
CONTINUOUS
 62
               3
  5
1CA
 10
-648.87864795455516
 20
362.82409774059522
 30
0.0
 40
57.600000000000001
  0
LINE
  8
0
  6
CONTINUOUS
 62
               3
  5
1CB
 10
-590.87864795455448
 20
-24.175902259405063
 30
0.0
 11
-578.33055697385407
 21
85.80442457144494
 31
0.0
  0
LINE
  8
0
  6
CONTINUOUS
 62
               3
  5
1CC
 10
-576.27850500079353
 20
103.79005657062277
 30
0.0
 11
-573.87864795455516
 21
124.82409774059568
 31
0.0
  0
ARC
  8
0
  6
CONTINUOUS
 62
               3
  5
1CD
 10
-583.87864795455516
 20
240.32409774059522
 30
0.0
 40
2.4999999999999996
 50
269.99999999974142
 51
449.99999999956907
  0
LINE
  8
0
  6
CONTINUOUS
 62
               3
  5
1CE
 10
-573.87864795455516
 20
124.82409774059539
 30
0.0
 11
-573.87864795455448
 21
222.18843053434031
 31
0.0
  0
LINE
  8
0
  6
CONTINUOUS
 62
               3
  5
1CF
 10
-573.87864795455448
 20
352.3116384511892
 30
0.0
 11
-573.87864795455516
 21
421.82409774059522
 31
0.0
  0
LINE
  8
0
  6
CONTINUOUS
 62
               3
  5
1D0
 10
-512.05020408051882
 20
345.32409774059533
 30
0.0
 11
-569.05314543806708
 21
347.31468431609369
 31
0.0
  0
LINE
  8
0
  6
CONTINUOUS
 62
               3
  5
1D1
 10
-508.87864795455454
 20
342.82409774059522
 30
0.0
 11
-509.55020408051877
 21
342.82409774059522
 31
0.0
  0
LINE
  8
0
  6
CONTINUOUS
 62
               3
  5
1D2
 10
-512.05020408051882
 20
345.32409774059522
 30
0.0
 11
-509.55020408051877
 21
342.82409774059522
 31
0.0
  0
LINE
  8
0
  6
CONTINUOUS
 62
               3
  5
1D3
 10
-508.87864795455454
 20
345.17409774059524
 30
0.0
 11
-506.37864795455454
 21
345.17409774059524
 31
0.0
  0
ARC
  8
0
  6
CONTINUOUS
 62
               3
  5
1D4
 10
-506.37864795455454
 20
342.67409774059524
 30
0.0
 40
2.5
 50
0.0
 51
89.999999999913825
  0
ARC
  8
0
  6
CONTINUOUS
 62
               3
  5
1D5
 10
-568.87864795455448
 20
352.3116384511892
 30
0.0
 40
5.0
 50
179.99999999982765
 51
267.99999999974415
  0
LINE
  8
0
  6
CONTINUOUS
 62
               3
  5
1D6
 10
-508.87864795455454
 20
245.82409774059522
 30
0.0
 11
-509.55020408051877
 21
245.82409774059522
 31
0.0
  0
LINE
  8
0
  6
CONTINUOUS
 62
               3
  5
1D7
 10
-512.05020408051951
 20
243.32409774059522
 30
0.0
 11
-509.55020408051877
 21
245.82409774059522
 31
0.0
  0
LINE
  8
0
  6
CONTINUOUS
 62
               3
  5
1D8
 10
-509.55020408051877
 20
342.82409774059545
 30
0.0
 11
-509.55020408051877
 21
245.82409774059522
 31
0.0
  0
LINE
  8
0
  6
CONTINUOUS
 62
               3
  5
1D9
 10
-503.87864795455454
 20
342.67409774059524
 30
0.0
 11
-503.87864795455454
 21
245.97409774059523
 31
0.0
  0
LINE
  8
0
  6
CONTINUOUS
 62
               3
  5
1DA
 10
-508.87864795455454
 20
243.47409774059523
 30
0.0
 11
-508.87864795455454
 21
345.17409774059524
 31
0.0
  0
LINE
  8
0
  6
CONTINUOUS
 62
               3
  5
1DB
 10
-508.87864795455454
 20
243.47409774059523
 30
0.0
 11
-506.37864795455454
 21
243.47409774059523
 31
0.0
  0
ARC
  8
0
  6
CONTINUOUS
 62
               3
  5
1DC
 10
-506.37864795455454
 20
245.97409774059523
 30
0.0
 40
2.5
 50
269.99999999974142
 51
359.99999999965462
  0
LINE
  8
0
  6
CONTINUOUS
 62
               3
  5
1DD
 10
-512.05020408051882
 20
345.32409774059522
 30
0.0
 11
-512.05020408051951
 21
243.32409774059519
 31
0.0
  0
LINE
  8
0
  6
CONTINUOUS
 62
               3
  5
1DE
 10
-512.05020408051882
 20
243.32409774059593
 30
0.0
 11
-554.39307811052663
 21
241.84545199697567
 31
0.0
  0
ARC
  8
0
  6
CONTINUOUS
 62
               3
  5
1DF
 10
-554.21858062701403
 20
236.84849786188019
 30
0.0
 40
5.0
 50
91.999999999912205
 51
134.9999999998698
  0
LINE
  8
0
  6
CONTINUOUS
 62
               3
  5
1E0
 10
-572.41418186048736
 20
225.72396444027311
 30
0.0
 11
-557.75411453294691
 21
240.38403176781298
 31
0.0
  0
ARC
  8
0
  6
CONTINUOUS
 62
               3
  5
1E1
 10
-568.87864795455448
 20
222.18843053434031
 30
0.0
 40
5.0
 50
134.99999999986935
 51
179.99999999982731
  0
LINE
  8
0
  6
CONTINUOUS
 62
               3
  5
1E2
 10
626.12135204544552
 20
528.82409774059522
 30
0.0
 11
476.12135204544552
 21
528.82409774059522
 31
0.0
  0
LINE
  8
0
  6
CONTINUOUS
 62
               3
  5
1E3
 10
639.62135204544575
 20
518.82409774059522
 30
0.0
 11
639.62135204544575
 21
511.82409774059556
 31
0.0
  0
LINE
  8
0
  6
CONTINUOUS
 62
               3
  5
1E4
 10
639.62135204544575
 20
518.82409774059522
 30
0.0
 11
626.12135204544552
 21
528.82409774059522
 31
0.0
  0
ARC
  8
0
  6
CONTINUOUS
 62
               3
  5
1E5
 10
628.12135204544552
 20
507.24152204563984
 30
0.0
 40
4.9999999999999991
 50
113.57817847809341
 51
179.99999999982765
  0
LINE
  8
0
  6
CONTINUOUS
 62
               3
  5
1E6
 10
639.62135204544575
 20
511.82409774059556
 30
0.0
 11
462.62135204544535
 21
511.82409774059556
 31
0.0
  0
ARC
  8
0
  6
CONTINUOUS
 62
               3
  5
1E7
 10
606.12135204544552
 20
421.82409774059522
 30
0.0
 40
19.999999999999996
 50
0.0
 51
31.788330617021266
  0
LINE
  8
0
  6
CONTINUOUS
 62
               3
  5
1E8
 10
623.12135204544552
 20
507.24152204563984
 30
0.0
 11
623.12135204544552
 21
432.35975149344802
 31
0.0
  0
ARC
  8
0
  6
CONTINUOUS
 62
               3
  5
1E9
 10
496.12135204544552
 20
421.82409774059522
 30
0.0
 40
19.999999999999996
 50
148.21166938280612
 51
179.99999999982765
  0
LINE
  8
0
  6
CONTINUOUS
 62
               3
  5
1EA
 10
479.12135204544563
 20
432.35975149344802
 30
0.0
 11
479.12135204544563
 21
507.24152204563984
 31
0.0
  0
LINE
  8
0
  6
CONTINUOUS
 62
               3
  5
1EB
 10
609.12135204544575
 20
-24.175902259405007
 30
0.0
 11
626.12135204544552
 21
124.82409774059533
 31
0.0
  0
LINE
  8
0
  6
CONTINUOUS
 62
               3
  5
1EC
 10
493.12135204544541
 20
-24.175902259405007
 30
0.0
 11
476.12135204544552
 21
124.82409774059533
 31
0.0
  0
LINE
  8
0
  6
CONTINUOUS
 62
               3
  5
1ED
 10
626.12135204544552
 20
237.82409774059522
 30
0.0
 11
626.12135204544552
 21
124.82409774059533
 31
0.0
  0
LINE
  8
0
  6
CONTINUOUS
 62
               3
  5
1EE
 10
571.12135204544552
 20
511.82409774059556
 30
0.0
 11
571.12135204544552
 21
528.82409774059522
 31
0.0
  0
LINE
  8
0
  6
CONTINUOUS
 62
               3
  5
1EF
 10
531.12135204544552
 20
528.82409774059522
 30
0.0
 11
531.12135204544552
 21
511.82409774059556
 31
0.0
  0
LINE
  8
0
  6
CONTINUOUS
 62
               3
  5
1F0
 10
571.12135204544552
 20
518.82409774059522
 30
0.0
 11
531.12135204544552
 21
518.82409774059522
 31
0.0
  0
LINE
  8
0
  6
CONTINUOUS
 62
               3
  5
1F1
 10
623.40551351945032
 20
528.82409774059522
 30
0.0
 11
623.40551351945032
 21
511.82409774059556
 31
0.0
  0
LINE
  8
0
  6
CONTINUOUS
 62
               3
  5
1F2
 10
637.33185024607087
 20
518.82409774059522
 30
0.0
 11
637.33185024607087
 21
511.82409774059556
 31
0.0
  0
LINE
  8
0
  6
CONTINUOUS
 62
               3
  5
1F3
 10
639.62135204544575
 20
518.82409774059522
 30
0.0
 11
637.33185024607087
 21
518.82409774059522
 31
0.0
  0
LINE
  8
0
  6
CONTINUOUS
 62
               3
  5
1F4
 10
637.33185024607087
 20
518.82409774059522
 30
0.0
 11
623.40551351945032
 21
528.82409774059522
 31
0.0
  0
LINE
  8
0
  6
CONTINUOUS
 62
               3
  5
1F5
 10
462.62135204544535
 20
518.82409774059522
 30
0.0
 11
462.62135204544535
 21
511.82409774059556
 31
0.0
  0
LINE
  8
0
  6
CONTINUOUS
 62
               3
  5
1F6
 10
462.62135204544535
 20
518.82409774059522
 30
0.0
 11
476.12135204544552
 21
528.82409774059522
 31
0.0
  0
ARC
  8
0
  6
CONTINUOUS
 62
               3
  5
1F7
 10
474.12135204544563
 20
507.24152204563984
 30
0.0
 40
4.9999999999999991
 50
0.0
 51
66.421821521734117
  0
LINE
  8
0
  6
CONTINUOUS
 62
               3
  5
1F8
 10
478.83719057144071
 20
528.82409774059522
 30
0.0
 11
478.83719057144071
 21
511.82409774059556
 31
0.0
  0
LINE
  8
0
  6
CONTINUOUS
 62
               3
  5
1F9
 10
464.91085384482028
 20
518.82409774059522
 30
0.0
 11
464.91085384482028
 21
511.82409774059556
 31
0.0
  0
LINE
  8
0
  6
CONTINUOUS
 62
               3
  5
1FA
 10
462.62135204544535
 20
518.82409774059522
 30
0.0
 11
464.91085384482028
 21
518.82409774059522
 31
0.0
  0
LINE
  8
0
  6
CONTINUOUS
 62
               3
  5
1FB
 10
464.91085384482028
 20
518.82409774059522
 30
0.0
 11
478.83719057144071
 21
528.82409774059522
 31
0.0
  0
LINE
  8
0
  6
CONTINUOUS
 62
               3
  5
1FC
 10
623.12135204544552
 20
432.35975149344802
 30
0.0
 11
562.84835204544572
 21
432.35975149344802
 31
0.0
  0
LINE
  8
0
  6
CONTINUOUS
 62
               3
  5
1FD
 10
539.39435204544532
 20
432.35975149344802
 30
0.0
 11
479.12135204544563
 21
432.35975149344802
 31
0.0
  0
ARC
  8
0
  6
CONTINUOUS
 62
               3
  5
1FE
 10
626.12135204544552
 20
240.32409774059522
 30
0.0
 40
2.4999999999999996
 50
269.99999999974142
 51
449.99999999956907
  0
LINE
  8
0
  6
CONTINUOUS
 62
               3
  5
1FF
 10
486.12135204544552
 20
242.82409774059522
 30
0.0
 11
542.90435204544531
 21
242.82409774059522
 31
0.0
  0
LINE
  8
0
  6
CONTINUOUS
 62
               3
  5
200
 10
559.33835204544516
 20
242.82409774059522
 30
0.0
 11
626.12135204544552
 21
242.82409774059522
 31
0.0
  0
LINE
  8
0
  6
CONTINUOUS
 62
               3
  5
201
 10
486.12135204544552
 20
237.82409774059522
 30
0.0
 11
543.05970751203029
 21
237.82409774059522
 31
0.0
  0
LINE
  8
0
  6
CONTINUOUS
 62
               3
  5
202
 10
559.33835204544516
 20
237.82409774059522
 30
0.0
 11
626.12135204544552
 21
237.82409774059522
 31
0.0
  0
LINE
  8
0
  6
CONTINUOUS
 62
               3
  5
203
 10
626.12135204544552
 20
124.82409774059533
 30
0.0
 11
559.33835204544516
 21
124.82409774059533
 31
0.0
  0
LINE
  8
0
  6
CONTINUOUS
 62
               3
  5
204
 10
542.90435204544531
 20
124.82409774059533
 30
0.0
 11
476.12135204544552
 21
124.82409774059533
 31
0.0
  0
LINE
  8
0
  6
CONTINUOUS
 62
               3
  5
205
 10
626.12135204544552
 20
421.82409774059522
 30
0.0
 11
626.12135204544552
 21
242.82409774059522
 31
0.0
  0
ARC
  8
0
  6
CONTINUOUS
 62
               3
  5
206
 10
486.12135204544552
 20
240.32409774059522
 30
0.0
 40
2.4999999999999996
 50
89.999999999912518
 51
269.99999999974142
  0
LINE
  8
0
  6
CONTINUOUS
 62
               3
  5
207
 10
476.12135204544552
 20
352.3116384511892
 30
0.0
 11
476.12135204544552
 21
421.82409774059522
 31
0.0
  0
LINE
  8
0
  6
CONTINUOUS
 62
               3
  5
208
 10
476.12135204544552
 20
124.82409774059533
 30
0.0
 11
476.12135204544552
 21
222.18843053434031
 31
0.0
  0
LINE
  8
0
  6
CONTINUOUS
 62
               3
  5
209
 10
414.29290817140986
 20
243.32409774059593
 30
0.0
 11
456.63578220141767
 21
241.84545199697567
 31
0.0
  0
LINE
  8
0
  6
CONTINUOUS
 62
               3
  5
20A
 10
474.65688595137829
 20
225.72396444027311
 30
0.0
 11
459.99681862383784
 21
240.38403176781298
 31
0.0
  0
LINE
  8
0
  6
CONTINUOUS
 62
               3
  5
20B
 10
414.29290817140986
 20
345.32409774059533
 30
0.0
 11
471.295849528958
 21
347.31468431609369
 31
0.0
  0
LINE
  8
0
  6
CONTINUOUS
 62
               3
  5
20C
 10
411.12135204544558
 20
245.82409774059522
 30
0.0
 11
411.79290817140981
 21
245.82409774059522
 31
0.0
  0
LINE
  8
0
  6
CONTINUOUS
 62
               3
  5
20D
 10
414.29290817141055
 20
243.32409774059522
 30
0.0
 11
411.79290817140981
 21
245.82409774059522
 31
0.0
  0
LINE
  8
0
  6
CONTINUOUS
 62
               3
  5
20E
 10
411.12135204544558
 20
342.82409774059522
 30
0.0
 11
411.79290817140981
 21
342.82409774059522
 31
0.0
  0
LINE
  8
0
  6
CONTINUOUS
 62
               3
  5
20F
 10
414.29290817140981
 20
345.32409774059522
 30
0.0
 11
411.79290817140981
 21
342.82409774059522
 31
0.0
  0
LINE
  8
0
  6
CONTINUOUS
 62
               3
  5
210
 10
411.79290817140981
 20
342.82409774059545
 30
0.0
 11
411.79290817140981
 21
245.82409774059522
 31
0.0
  0
LINE
  8
0
  6
CONTINUOUS
 62
               3
  5
211
 10
406.12135204544558
 20
342.67409774059524
 30
0.0
 11
406.12135204544558
 21
245.97409774059523
 31
0.0
  0
LINE
  8
0
  6
CONTINUOUS
 62
               3
  5
212
 10
411.12135204544558
 20
243.47409774059523
 30
0.0
 11
411.12135204544558
 21
345.17409774059524
 31
0.0
  0
LINE
  8
0
  6
CONTINUOUS
 62
               3
  5
213
 10
411.12135204544558
 20
345.17409774059524
 30
0.0
 11
408.62135204544558
 21
345.17409774059524
 31
0.0
  0
LINE
  8
0
  6
CONTINUOUS
 62
               3
  5
214
 10
411.12135204544558
 20
243.47409774059523
 30
0.0
 11
408.62135204544558
 21
243.47409774059523
 31
0.0
  0
ARC
  8
0
  6
CONTINUOUS
 62
               3
  5
215
 10
408.62135204544558
 20
245.97409774059523
 30
0.0
 40
2.5
 50
179.99999999982697
 51
269.99999999974017
  0
ARC
  8
0
  6
CONTINUOUS
 62
               3
  5
216
 10
408.62135204544558
 20
342.67409774059524
 30
0.0
 40
2.5
 50
89.999999999915119
 51
179.99999999982765
  0
LINE
  8
0
  6
CONTINUOUS
 62
               3
  5
217
 10
414.29290817140986
 20
345.32409774059522
 30
0.0
 11
414.29290817141055
 21
243.32409774059519
 31
0.0
  0
ARC
  8
0
  6
CONTINUOUS
 62
               3
  5
218
 10
456.46128471790513
 20
236.84849786188019
 30
0.0
 40
5.0
 50
44.999999999957986
 51
87.999999999915332
  0
ARC
  8
0
  6
CONTINUOUS
 62
               3
  5
219
 10
471.12135204544552
 20
222.18843053434031
 30
0.0
 40
5.0
 50
0.0
 51
44.999999999957986
  0
ARC
  8
0
  6
CONTINUOUS
 62
               3
  5
21A
 10
471.12135204544552
 20
352.3116384511892
 30
0.0
 40
5.0
 50
271.99999999973841
 51
359.9999999996553
  0
LINE
  8
0
  6
CONTINUOUS
 62
               3
  5
21B
 10
-29.798226051462734
 20
320.32409774059511
 30
0.0
 11
-67.959069857647307
 21
320.32409774059511
 31
0.0
  0
CIRCLE
  8
0
  6
CONTINUOUS
 62
               3
  5
21C
 10
-48.878647954554481
 20
294.32409774059522
 30
0.0
 40
41.849999999999994
  0
CIRCLE
  8
0
  6
CONTINUOUS
 62
               3
  5
21D
 10
-48.878647954554481
 20
294.32409774059522
 30
0.0
 40
40.75
  0
CIRCLE
  8
0
  6
CONTINUOUS
 62
               3
  5
21E
 10
-48.878647954555049
 20
294.32409774059522
 30
0.0
 40
36.399999999999999
  0
CIRCLE
  8
0
  6
CONTINUOUS
 62
               3
  5
21F
 10
-48.878647954555049
 20
294.32409774059522
 30
0.0
 40
32.25
  0
LINE
  8
0
  6
CONTINUOUS
 62
               3
  5
220
 10
-21.83181357416953
 20
267.27726336020976
 30
0.0
 11
-20.064046621202692
 21
265.50949640724332
 31
0.0
  0
LINE
  8
0
  6
CONTINUOUS
 62
               3
  5
221
 10
-75.925482334933577
 20
267.27726336020294
 30
0.0
 11
-77.693249287905815
 21
265.50949640724275
 31
0.0
  0
ARC
  8
0
  6
CONTINUOUS
 62
               3
  5
222
 10
-48.878647954555049
 20
294.32409774059522
 30
0.0
 40
38.25
 50
224.99999999979894
 51
314.99999999970726
  0
CIRCLE
  8
0
  6
CONTINUOUS
 62
               3
  5
223
 10
-48.878647954554481
 20
294.32409774059522
 30
0.0
 40
50.850000000000001
  0
CIRCLE
  8
0
  6
CONTINUOUS
 62
               3
  5
224
 10
-48.878647954554481
 20
963.82409774059522
 30
0.0
 40
59.0
  0
CIRCLE
  8
0
  6
CONTINUOUS
 62
               3
  5
225
 10
560.40787526175336
 20
-700.13966216880431
 30
0.0
 40
75.0
  0
CIRCLE
  8
0
  6
CONTINUOUS
 62
               3
  5
226
 10
560.40787526175336
 20
-700.13966216880431
 30
0.0
 40
52.5
  0
LINE
  8
0
  6
CONTINUOUS
 62
               3
  5
227
 10
474.19737706112818
 20
-680.13966216880431
 30
0.0
 11
488.12371378774804
 21
-680.13966216880431
 31
0.0
  0
LINE
  8
0
  6
CONTINUOUS
 62
               3
  5
228
 10
488.12371378774804
 20
-720.13966216880442
 30
0.0
 11
474.19737706112818
 21
-720.13966216880442
 31
0.0
  0
ARC
  8
0
  6
CONTINUOUS
 62
               3
  5
229
 10
560.40787526175336
 20
-700.13966216880431
 30
0.0
 40
88.5
 50
166.93897588507147
 51
193.06102411465253
  0
LINE
  8
0
  6
CONTINUOUS
 62
               3
  5
22A
 10
540.40787526175336
 20
-786.35016036942932
 30
0.0
 11
540.40787526175336
 21
-772.42382364280945
 31
0.0
  0
LINE
  8
0
  6
CONTINUOUS
 62
               3
  5
22B
 10
580.40787526175336
 20
-772.42382364280945
 30
0.0
 11
580.40787526175336
 21
-786.35016036942932
 31
0.0
  0
ARC
  8
0
  6
CONTINUOUS
 62
               3
  5
22C
 10
560.40787526175336
 20
-700.13966216880431
 30
0.0
 40
88.5
 50
256.93897588500255
 51
283.06102411458357
  0
LINE
  8
0
  6
CONTINUOUS
 62
               3
  5
22D
 10
646.61837346237803
 20
-720.13966216880442
 30
0.0
 11
632.69203673575748
 21
-720.13966216880442
 31
0.0
  0
LINE
  8
0
  6
CONTINUOUS
 62
               3
  5
22E
 10
632.69203673575748
 20
-680.13966216880431
 30
0.0
 11
646.61837346237803
 21
-680.13966216880431
 31
0.0
  0
ARC
  8
0
  6
CONTINUOUS
 62
               3
  5
22F
 10
560.40787526175336
 20
-700.13966216880431
 30
0.0
 40
88.5
 50
346.93897588493354
 51
373.06102411451457
  0
LINE
  8
0
  6
CONTINUOUS
 62
               3
  5
230
 10
580.40787526175336
 20
-613.92916396817873
 30
0.0
 11
580.40787526175336
 21
-627.85550069479928
 31
0.0
  0
LINE
  8
0
  6
CONTINUOUS
 62
               3
  5
231
 10
540.40787526175336
 20
-627.85550069479928
 30
0.0
 11
540.40787526175336
 21
-613.92916396817873
 31
0.0
  0
ARC
  8
0
  6
CONTINUOUS
 62
               3
  5
232
 10
560.40787526175336
 20
-700.13966216880431
 30
0.0
 40
88.5
 50
76.938975885140522
 51
103.06102411472156
  0
LINE
  8
0
  6
CONTINUOUS
 62
               3
  5
233
 10
512.73975174089242
 20
-722.13966216880488
 30
0.0
 11
608.07599878261317
 21
-722.13966216880488
 31
0.0
  0
ARC
  8
0
  6
CONTINUOUS
 62
               3
  5
234
 10
572.91148691113449
 20
-691.43326454118528
 30
0.0
 40
54.763804151667173
 50
141.38591763672954
 51
145.15009542084258
  0
ARC
  8
0
  6
CONTINUOUS
 62
               3
  5
235
 10
560.40787526175336
 20
-700.13966216880431
 30
0.0
 40
51.5
 50
334.7109884732011
 51
410.95932736332549
  0
ARC
  8
0
  6
CONTINUOUS
 62
               3
  5
236
 10
560.40787526175336
 20
-700.13966216880431
 30
0.0
 40
51.5
 50
129.04067263626098
 51
205.289011526385
  0
ARC
  8
0
  6
CONTINUOUS
 62
               3
  5
237
 10
560.40787526175336
 20
-700.13966216880431
 30
0.0
 40
77.5
 50
104.95524831656294
 51
128.57288309093477
  0
ARC
  8
0
  6
CONTINUOUS
 62
               3
  5
238
 10
560.40787526175336
 20
-700.13966216880431
 30
0.0
 40
77.5
 50
14.95524831663182
 51
75.044751683299211
  0
ARC
  8
0
  6
CONTINUOUS
 62
               3
  5
239
 10
560.40787526175336
 20
-700.13966216880431
 30
0.0
 40
77.5
 50
321.42711690871977
 51
345.04475168309216
  0
LINE
  8
0
  6
CONTINUOUS
 62
               3
  5
23A
 10
420.40787526175336
 20
-755.13966216880442
 30
0.0
 11
421.07943138771759
 21
-755.13966216880442
 31
0.0
  0
LINE
  8
0
  6
CONTINUOUS
 62
               3
  5
23B
 10
423.57943138771805
 20
-757.63966216880442
 30
0.0
 11
421.07943138771759
 21
-755.13966216880442
 31
0.0
  0
LINE
  8
0
  6
CONTINUOUS
 62
               3
  5
23C
 10
420.40787526175336
 20
-645.13966216880431
 30
0.0
 11
421.07943138771759
 21
-645.13966216880431
 31
0.0
  0
LINE
  8
0
  6
CONTINUOUS
 62
               3
  5
23D
 10
423.57943138771759
 20
-642.63966216880431
 30
0.0
 11
421.07943138771759
 21
-645.13966216880431
 31
0.0
  0
LINE
  8
0
  6
CONTINUOUS
 62
               3
  5
23E
 10
421.07943138771759
 20
-645.13966216880431
 30
0.0
 11
421.07943138771759
 21
-755.13966216880442
 31
0.0
  0
LINE
  8
0
  6
CONTINUOUS
 62
               3
  5
23F
 10
514.91753947537541
 20
-639.45006515046271
 30
0.0
 11
423.57943138771759
 21
-642.63966216880431
 31
0.0
  0
LINE
  8
0
  6
CONTINUOUS
 62
               3
  5
240
 10
495.57140354520237
 20
-760.1536772337721
 30
0.0
 11
423.57943138771816
 21
-757.63966216880442
 31
0.0
  0
LINE
  8
0
  6
CONTINUOUS
 62
               3
  5
241
 10
415.40787526175336
 20
-645.31121829476842
 30
0.0
 11
415.40787526175336
 21
-755.23966216880433
 31
0.0
  0
LINE
  8
0
  6
CONTINUOUS
 62
               3
  5
242
 10
420.40787526175336
 20
-757.73966216880433
 30
0.0
 11
420.40787526175336
 21
-642.53966216880417
 31
0.0
  0
LINE
  8
0
  6
CONTINUOUS
 62
               3
  5
243
 10
420.40787526175336
 20
-642.53966216880417
 30
0.0
 11
417.90787526175336
 21
-642.53966216880417
 31
0.0
  0
LINE
  8
0
  6
CONTINUOUS
 62
               3
  5
244
 10
420.40787526175336
 20
-757.73966216880433
 30
0.0
 11
417.90787526175336
 21
-757.73966216880433
 31
0.0
  0
ARC
  8
0
  6
CONTINUOUS
 62
               3
  5
245
 10
417.90787526175336
 20
-755.23966216880433
 30
0.0
 40
2.5
 50
179.9999999998615
 51
269.99999999979229
  0
ARC
  8
0
  6
CONTINUOUS
 62
               3
  5
246
 10
417.90787526175336
 20
-645.03966216880417
 30
0.0
 40
2.5
 50
89.999999999932058
 51
179.9999999998615
  0
LINE
  8
0
  6
CONTINUOUS
 62
               3
  5
247
 10
527.96947209513587
 20
-660.13966216880453
 30
0.0
 11
560.40787526175336
 21
-660.13966216880453
 31
0.0
  0
LINE
  8
0
  6
CONTINUOUS
 62
               3
  5
248
 10
560.40787526175336
 20
-660.13966216880453
 30
0.0
 11
594.41155153359205
 21
-660.13966216880453
 31
0.0
  0
LINE
  8
0
  6
CONTINUOUS
 62
               3
  5
249
 10
423.57943138771805
 20
-757.63966216880442
 30
0.0
 11
423.57943138771759
 21
-642.63966216880431
 31
0.0
  0
ARC
  8
0
  6
CONTINUOUS
 62
               3
  5
24A
 10
514.74304199186304
 20
-634.45311101536709
 30
0.0
 40
5.0
 50
271.99999999979184
 51
304.80675787019396
  0
LINE
  8
0
  6
CONTINUOUS
 62
               3
  5
24B
 10
615.40787526175313
 20
-840.13966216880442
 30
0.0
 11
615.40787526175313
 21
-839.46810604284008
 31
0.0
  0
LINE
  8
0
  6
CONTINUOUS
 62
               3
  5
24C
 10
617.90787526175313
 20
-836.96810604283962
 30
0.0
 11
615.40787526175313
 21
-839.46810604284008
 31
0.0
  0
LINE
  8
0
  6
CONTINUOUS
 62
               3
  5
24D
 10
505.4078752617533
 20
-840.13966216880442
 30
0.0
 11
505.4078752617533
 21
-839.46810604284008
 31
0.0
  0
LINE
  8
0
  6
CONTINUOUS
 62
               3
  5
24E
 10
502.9078752617533
 20
-836.96810604284008
 30
0.0
 11
505.4078752617533
 21
-839.46810604284008
 31
0.0
  0
LINE
  8
0
  6
CONTINUOUS
 62
               3
  5
24F
 10
505.4078752617533
 20
-839.46810604284008
 30
0.0
 11
615.40787526175313
 21
-839.46810604284008
 31
0.0
  0
LINE
  8
0
  6
CONTINUOUS
 62
               3
  5
250
 10
505.57943138771742
 20
-845.13966216880442
 30
0.0
 11
615.50787526175327
 21
-845.13966216880442
 31
0.0
  0
LINE
  8
0
  6
CONTINUOUS
 62
               3
  5
251
 10
618.00787526175327
 20
-840.13966216880442
 30
0.0
 11
502.80787526175328
 21
-840.13966216880442
 31
0.0
  0
LINE
  8
0
  6
CONTINUOUS
 62
               3
  5
252
 10
502.80787526175328
 20
-840.13966216880442
 30
0.0
 11
502.80787526175328
 21
-842.63966216880442
 31
0.0
  0
LINE
  8
0
  6
CONTINUOUS
 62
               3
  5
253
 10
618.00787526175327
 20
-840.13966216880442
 30
0.0
 11
618.00787526175327
 21
-842.63966216880442
 31
0.0
  0
ARC
  8
0
  6
CONTINUOUS
 62
               3
  5
254
 10
615.50787526175327
 20
-842.63966216880442
 30
0.0
 40
2.5
 50
269.99999999979354
 51
359.99999999972562
  0
ARC
  8
0
  6
CONTINUOUS
 62
               3
  5
255
 10
505.30787526175328
 20
-842.63966216880442
 30
0.0
 40
2.5
 50
179.9999999998615
 51
269.99999999979354
  0
LINE
  8
0
  6
CONTINUOUS
 62
               3
  5
256
 10
617.90787526175313
 20
-836.96810604283962
 30
0.0
 11
502.9078752617533
 21
-836.96810604284008
 31
0.0
  0
LINE
  8
0
  6
CONTINUOUS
 62
               3
  5
257
 10
621.09747228009428
 20
-745.6299979551826
 30
0.0
 11
617.90787526175313
 21
-836.96810604283962
 31
0.0
  0
ARC
  8
0
  6
CONTINUOUS
 62
               3
  5
258
 10
626.0944264151899
 20
-745.80449543869543
 30
0.0
 40
5.0
 50
145.19324212946151
 51
177.99999999986429
  0
LINE
  8
0
  6
CONTINUOUS
 62
               3
  5
259
 10
500.39386019678528
 20
-764.97613388535535
 30
0.0
 11
502.9078752617533
 21
-836.96810604284008
 31
0.0
  0
ARC
  8
0
  6
CONTINUOUS
 62
               3
  5
25A
 10
495.39690606168989
 20
-765.15063136886727
 30
0.0
 40
5.0
 50
1.9999999999958187
 51
87.999999999932285
  0
LINE
  8
0
  6
CONTINUOUS
 62
               3
  5
25B
 10
485.40787526175342
 20
-1008.6390959173885
 30
0.0
 11
635.40787526175336
 21
-1008.6390959173885
 31
0.0
  0
LINE
  8
0
  6
CONTINUOUS
 62
               3
  5
25C
 10
471.90787526175319
 20
-1018.6390959173885
 30
0.0
 11
471.90787526175319
 21
-1025.6390959173882
 31
0.0
  0
LINE
  8
0
  6
CONTINUOUS
 62
               3
  5
25D
 10
471.90787526175319
 20
-1018.6390959173885
 30
0.0
 11
485.40787526175342
 21
-1008.6390959173885
 31
0.0
  0
ARC
  8
0
  6
CONTINUOUS
 62
               3
  5
25E
 10
483.40787526175353
 20
-1030.2216716123439
 30
0.0
 40
4.9999999999999991
 50
0.0
 51
66.421821521747276
  0
LINE
  8
0
  6
CONTINUOUS
 62
               3
  5
25F
 10
471.90787526175319
 20
-1025.6390959173882
 30
0.0
 11
648.90787526175291
 21
-1025.6390959173882
 31
0.0
  0
ARC
  8
0
  6
CONTINUOUS
 62
               3
  5
260
 10
505.40787526175342
 20
-1115.6390959173887
 30
0.0
 40
19.999999999999996
 50
148.21166938283449
 51
167.2698198615592
  0
LINE
  8
0
  6
CONTINUOUS
 62
               3
  5
261
 10
488.40787526175353
 20
-1030.2216716123439
 30
0.0
 11
488.40787526175353
 21
-1105.1034421645359
 31
0.0
  0
LINE
  8
0
  6
CONTINUOUS
 62
               3
  5
262
 10
632.40787526175313
 20
-1100.1034421645354
 30
0.0
 11
632.40787526175313
 21
-1030.2216716123439
 31
0.0
  0
LINE
  8
0
  6
CONTINUOUS
 62
               3
  5
263
 10
488.40787526175353
 20
-1105.1034421645359
 30
0.0
 11
631.90787526175359
 21
-1105.1034421645359
 31
0.0
  0
LINE
  8
0
  6
CONTINUOUS
 62
               3
  5
264
 10
540.40787526175336
 20
-1025.6390959173882
 30
0.0
 11
540.40787526175336
 21
-1008.6390959173885
 31
0.0
  0
LINE
  8
0
  6
CONTINUOUS
 62
               3
  5
265
 10
580.40787526175336
 20
-1008.6390959173885
 30
0.0
 11
580.40787526175336
 21
-1025.6390959173882
 31
0.0
  0
LINE
  8
0
  6
CONTINUOUS
 62
               3
  5
266
 10
540.40787526175336
 20
-1018.6390959173885
 30
0.0
 11
580.40787526175336
 21
-1018.6390959173885
 31
0.0
  0
LINE
  8
0
  6
CONTINUOUS
 62
               3
  5
267
 10
488.12371378774804
 20
-1008.6390959173885
 30
0.0
 11
488.12371378774804
 21
-1025.6390959173882
 31
0.0
  0
LINE
  8
0
  6
CONTINUOUS
 62
               3
  5
268
 10
474.19737706112818
 20
-1018.6390959173885
 30
0.0
 11
474.19737706112818
 21
-1025.6390959173882
 31
0.0
  0
LINE
  8
0
  6
CONTINUOUS
 62
               3
  5
269
 10
471.90787526175319
 20
-1018.6390959173885
 30
0.0
 11
474.19737706112818
 21
-1018.6390959173885
 31
0.0
  0
LINE
  8
0
  6
CONTINUOUS
 62
               3
  5
26A
 10
474.19737706112818
 20
-1018.6390959173885
 30
0.0
 11
488.12371378774804
 21
-1008.6390959173885
 31
0.0
  0
LINE
  8
0
  6
CONTINUOUS
 62
               3
  5
26B
 10
648.90787526175291
 20
-1018.6390959173885
 30
0.0
 11
648.90787526175291
 21
-1025.6390959173882
 31
0.0
  0
LINE
  8
0
  6
CONTINUOUS
 62
               3
  5
26C
 10
648.90787526175291
 20
-1018.6390959173885
 30
0.0
 11
635.40787526175336
 21
-1008.6390959173885
 31
0.0
  0
ARC
  8
0
  6
CONTINUOUS
 62
               3
  5
26D
 10
637.40787526175313
 20
-1030.2216716123439
 30
0.0
 40
4.9999999999999991
 50
113.5781784781135
 51
179.9999999998615
  0
LINE
  8
0
  6
CONTINUOUS
 62
               3
  5
26E
 10
632.69203673575748
 20
-1008.6390959173885
 30
0.0
 11
632.69203673575748
 21
-1025.6390959173882
 31
0.0
  0
LINE
  8
0
  6
CONTINUOUS
 62
               3
  5
26F
 10
646.61837346237849
 20
-1018.6390959173885
 30
0.0
 11
646.61837346237849
 21
-1025.6390959173882
 31
0.0
  0
LINE
  8
0
  6
CONTINUOUS
 62
               3
  5
270
 10
648.90787526175291
 20
-1018.6390959173885
 30
0.0
 11
646.61837346237849
 21
-1018.6390959173885
 31
0.0
  0
LINE
  8
0
  6
CONTINUOUS
 62
               3
  5
271
 10
646.61837346237849
 20
-1018.6390959173885
 30
0.0
 11
632.69203673575748
 21
-1008.6390959173885
 31
0.0
  0
ARC
  8
0
  6
CONTINUOUS
 62
               3
  5
272
 10
495.40787526175342
 20
-1237.1390959173887
 30
0.0
 40
2.4999999999999996
 50
89.999999999930751
 51
269.99999999979354
  0
ARC
  8
0
  6
CONTINUOUS
 62
               3
  5
273
 10
635.40787526175336
 20
-1237.1390959173887
 30
0.0
 40
2.4999999999999996
 50
269.99999999979354
 51
449.99999999965507
  0
LINE
  8
0
  6
CONTINUOUS
 62
               3
  5
274
 10
420.40787526175336
 20
-1229.6390959173887
 30
0.0
 11
421.0794313877177
 21
-1229.6390959173887
 31
0.0
  0
LINE
  8
0
  6
CONTINUOUS
 62
               3
  5
275
 10
423.57943138771782
 20
-1232.1390959173882
 30
0.0
 11
421.0794313877177
 21
-1229.6390959173887
 31
0.0
  0
LINE
  8
0
  6
CONTINUOUS
 62
               3
  5
276
 10
423.57943138771861
 20
-1232.1390959173887
 30
0.0
 11
465.744541643996
 21
-1233.6115340132428
 31
0.0
  0
LINE
  8
0
  6
CONTINUOUS
 62
               3
  5
277
 10
483.94340916768596
 20
-1249.9107853436749
 30
0.0
 11
469.10557806641617
 21
-1235.0729542424056
 31
0.0
  0
ARC
  8
0
  6
CONTINUOUS
 62
               3
  5
278
 10
480.40787526175342
 20
-1253.4463192496078
 30
0.0
 40
4.9999999999999991
 50
0.0
 51
44.999999999964892
  0
LINE
  8
0
  6
CONTINUOUS
 62
               3
  5
279
 10
420.40787526175336
 20
-1119.6390959173887
 30
0.0
 11
421.0794313877177
 21
-1119.6390959173887
 31
0.0
  0
LINE
  8
0
  6
CONTINUOUS
 62
               3
  5
27A
 10
423.57943138771782
 20
-1117.1390959173887
 30
0.0
 11
421.0794313877177
 21
-1119.6390959173887
 31
0.0
  0
LINE
  8
0
  6
CONTINUOUS
 62
               3
  5
27B
 10
423.5794313877177
 20
-1117.1390959173887
 30
0.0
 11
481.19690758989208
 21
-1115.1270493122365
 31
0.0
  0
LINE
  8
0
  6
CONTINUOUS
 62
               3
  5
27C
 10
421.0794313877177
 20
-1119.6390959173887
 30
0.0
 11
421.0794313877177
 21
-1229.6390959173887
 31
0.0
  0
LINE
  8
0
  6
CONTINUOUS
 62
               3
  5
27D
 10
420.40787526175336
 20
-1232.2390959173886
 30
0.0
 11
420.40787526175336
 21
-1117.0390959173887
 31
0.0
  0
LINE
  8
0
  6
CONTINUOUS
 62
               3
  5
27E
 10
420.40787526175336
 20
-1117.0390959173887
 30
0.0
 11
417.90787526175336
 21
-1117.0390959173887
 31
0.0
  0
ARC
  8
0
  6
CONTINUOUS
 62
               3
  5
27F
 10
417.90787526175336
 20
-1119.5390959173887
 30
0.0
 40
2.5
 50
89.999999999932058
 51
179.9999999998615
  0
LINE
  8
0
  6
CONTINUOUS
 62
               3
  5
280
 10
415.40787526175336
 20
-1119.5390959173887
 30
0.0
 11
415.40787526175336
 21
-1229.7390959173886
 31
0.0
  0
LINE
  8
0
  6
CONTINUOUS
 62
               3
  5
281
 10
420.40787526175336
 20
-1232.2390959173886
 30
0.0
 11
417.90787526175336
 21
-1232.2390959173886
 31
0.0
  0
ARC
  8
0
  6
CONTINUOUS
 62
               3
  5
282
 10
417.90787526175336
 20
-1229.7390959173886
 30
0.0
 40
2.5
 50
179.99999999985891
 51
269.99999999979229
  0
LINE
  8
0
  6
CONTINUOUS
 62
               3
  5
283
 10
423.57943138771782
 20
-1117.1390959173887
 30
0.0
 11
423.57943138771861
 21
-1232.1390959173887
 31
0.0
  0
ARC
  8
0
  6
CONTINUOUS
 62
               3
  5
284
 10
465.57004416048352
 20
-1238.6084881483384
 30
0.0
 40
5.0
 50
44.999999999968125
 51
87.999999999932243
  0
ARC
  8
0
  6
CONTINUOUS
 62
               3
  5
285
 10
481.0224101063796
 20
-1110.1300951771409
 30
0.0
 40
5.0
 50
271.9999999997919
 51
347.26981986141988
  0
CIRCLE
  8
0
  6
CONTINUOUS
 62
               3
  5
286
 10
560.40787526175336
 20
-1174.6390959173887
 30
0.0
 40
48.5
  0
CIRCLE
  8
0
  6
CONTINUOUS
 62
               3
  5
287
 10
560.40787526175336
 20
-1174.6390959173887
 30
0.0
 40
47.299999999999997
  0
LINE
  8
0
  6
CONTINUOUS
 62
               3
  5
288
 10
528.58807010835881
 20
-1206.4589010707832
 30
0.0
 11
526.96172451162965
 21
-1208.0852466675124
 31
0.0
  0
LINE
  8
0
  6
CONTINUOUS
 62
               3
  5
289
 10
592.22768041514792
 20
-1206.4589010707832
 30
0.0
 11
593.85402601187707
 21
-1208.0852466675124
 31
0.0
  0
ARC
  8
0
  6
CONTINUOUS
 62
               3
  5
28A
 10
560.40787526175336
 20
-1174.6390959173887
 30
0.0
 40
45.0
 50
224.99999999982739
 51
314.99999999975864
  0
CIRCLE
  8
0
  6
CONTINUOUS
 62
               3
  5
28B
 10
560.40787526175336
 20
-1174.6390959173887
 30
0.0
 40
57.600000000000001
  0
ARC
  8
0
  6
CONTINUOUS
 62
               3
  5
28C
 10
537.90787526175404
 20
-1237.1390959173887
 30
0.0
 40
2.4999999999999996
 50
269.99999999979354
 51
449.99999999965507
  0
ARC
  8
0
  6
CONTINUOUS
 62
               3
  5
28D
 10
582.90787526175382
 20
-1237.1390959173887
 30
0.0
 40
2.4999999999999996
 50
89.999999999930751
 51
269.99999999979354
  0
LINE
  8
0
  6
CONTINUOUS
 62
               3
  5
28E
 10
495.40787526175342
 20
-1239.6390959173887
 30
0.0
 11
537.90787526175404
 21
-1239.6390959173887
 31
0.0
  0
LINE
  8
0
  6
CONTINUOUS
 62
               3
  5
28F
 10
495.40787526175342
 20
-1234.6390959173887
 30
0.0
 11
537.90787526175404
 21
-1234.6390959173887
 31
0.0
  0
LINE
  8
0
  6
CONTINUOUS
 62
               3
  5
290
 10
582.90787526175382
 20
-1234.6390959173887
 30
0.0
 11
635.40787526175336
 21
-1234.6390959173887
 31
0.0
  0
LINE
  8
0
  6
CONTINUOUS
 62
               3
  5
291
 10
582.90787526175382
 20
-1239.6390959173887
 30
0.0
 11
635.40787526175336
 21
-1239.6390959173887
 31
0.0
  0
CIRCLE
  8
0
  6
CONTINUOUS
 62
               3
  5
292
 10
560.40787526175336
 20
-700.13966216880431
 30
0.0
 40
59.0
  0
LINE
  8
0
  6
CONTINUOUS
 62
               3
  5
293
 10
-706.01149350868604
 20
-36.175902259405007
 30
0.0
 11
-591.87864795455516
 21
-36.175902259405007
 31
0.0
  0
LINE
  8
0
  6
CONTINUOUS
 62
               3
  5
294
 10
-591.87864795455516
 20
-36.175902259405007
 30
0.0
 11
-590.87864795455494
 21
-35.175902259404779
 31
0.0
  0
LINE
  8
0
  6
CONTINUOUS
 62
               3
  5
295
 10
-706.01149350868604
 20
-36.175902259405007
 30
0.0
 11
-706.87864795455516
 21
-35.308747813535888
 31
0.0
  0
LINE
  8
0
  6
CONTINUOUS
 62
               3
  5
296
 10
-706.87864795455516
 20
-35.308747813535888
 30
0.0
 11
-706.87864795455516
 21
-23.763926627479236
 31
0.0
  0
LINE
  8
0
  6
CONTINUOUS
 62
               3
  5
297
 10
-590.87864795455494
 20
-35.175902259404779
 30
0.0
 11
-590.87864795455494
 21
-24.175902259405234
 31
0.0
  0
LINE
  8
0
  6
CONTINUOUS
 62
               3
  5
298
 10
-706.01149350868604
 20
-36.175902259405007
 30
0.0
 11
-706.01149350868604
 21
-87.175902259405007
 31
0.0
  0
LINE
  8
0
  6
CONTINUOUS
 62
               3
  5
299
 10
-591.87864795455516
 20
-36.175902259405007
 30
0.0
 11
-591.87864795455516
 21
-87.175902259405007
 31
0.0
  0
LINE
  8
0
  6
CONTINUOUS
 62
               3
  5
29A
 10
-710.87864795455516
 20
-216.17590225940387
 30
0.0
 11
-710.87864795455516
 21
-201.17590225940478
 31
0.0
  0
LINE
  8
0
  6
CONTINUOUS
 62
               3
  5
29B
 10
-713.87864795455494
 20
-216.17590225940387
 30
0.0
 11
-583.87864795455505
 21
-216.17590225940387
 31
0.0
  0
ARC
  8
0
  6
CONTINUOUS
 62
               3
  5
29C
 10
-724.87864795455448
 20
-75.175902259405689
 30
0.0
 40
4.0
 50
89.99999999994769
 51
179.9999999998962
  0
LINE
  8
0
  6
CONTINUOUS
 62
               3
  5
29D
 10
-728.87864795455448
 20
-75.175902259403301
 30
0.0
 11
-728.87864795455471
 21
-94.175902259405689
 31
0.0
  0
LINE
  8
0
  6
CONTINUOUS
 62
               3
  5
29E
 10
-664.87864795455448
 20
-71.17590225940512
 30
0.0
 11
-724.87864795455448
 21
-71.175902259405689
 31
0.0
  0
LINE
  8
0
  6
CONTINUOUS
 62
               3
  5
29F
 10
-664.87864795455448
 20
-202.17590225940376
 30
0.0
 11
-632.87864795455403
 21
-202.1759022594033
 31
0.0
  0
ARC
  8
0
  6
CONTINUOUS
 62
               3
  5
2A0
 10
-724.87864795455403
 20
-197.17590225940478
 30
0.0
 40
4.0
 50
179.999999999897
 51
269.9999999998463
  0
LINE
  8
0
  6
CONTINUOUS
 62
               3
  5
2A1
 10
-728.87864795455425
 20
-197.17590225940478
 30
0.0
 11
-728.87864795455403
 21
-178.67590225940455
 31
0.0
  0
LINE
  8
0
  6
CONTINUOUS
 62
               3
  5
2A2
 10
-664.87864795455448
 20
-201.1759022594041
 30
0.0
 11
-724.87864795455766
 21
-201.17590225940478
 31
0.0
  0
LINE
  8
0
  6
CONTINUOUS
 62
               3
  5
2A3
 10
-664.87864795455448
 20
-178.67590225940398
 30
0.0
 11
-728.87864795455425
 21
-178.67590225940455
 31
0.0
  0
LINE
  8
0
  6
CONTINUOUS
 62
               3
  5
2A4
 10
-728.87864795455471
 20
-94.175902259405689
 30
0.0
 11
-664.87864795455448
 21
-94.175902259405689
 31
0.0
  0
LINE
  8
0
  6
CONTINUOUS
 62
               3
  5
2A5
 10
-725.87864795455471
 20
-94.175902259405689
 30
0.0
 11
-725.87864795455516
 21
-178.67590225940455
 31
0.0
  0
LINE
  8
0
  6
CONTINUOUS
 62
               3
  5
2A6
 10
-632.87864795455448
 20
-71.17590225940512
 30
0.0
 11
-569.87864795455471
 21
-71.175902259405689
 31
0.0
  0
LINE
  8
0
  6
CONTINUOUS
 62
               3
  5
2A7
 10
-632.87864795455403
 20
-201.1759022594041
 30
0.0
 11
-572.87864795455607
 21
-201.17590225940478
 31
0.0
  0
LINE
  8
0
  6
CONTINUOUS
 62
               3
  5
2A8
 10
-632.87864795455403
 20
-178.6759022594041
 30
0.0
 11
-568.87864795455584
 21
-178.67590225940455
 31
0.0
  0
LINE
  8
0
  6
CONTINUOUS
 62
               3
  5
2A9
 10
-568.87864795455448
 20
-94.175902259405689
 30
0.0
 11
-632.87864795455448
 21
-94.175902259405689
 31
0.0
  0
LINE
  8
0
  6
CONTINUOUS
 62
               3
  5
2AA
 10
-586.87864795455516
 20
-216.17590225940387
 30
0.0
 11
-586.87864795455516
 21
-201.17590225940478
 31
0.0
  0
LINE
  8
0
  6
CONTINUOUS
 62
               3
  5
2AB
 10
-664.87864795455448
 20
-137.17590225940455
 30
0.0
 11
-632.87864795455403
 21
-137.17590225940455
 31
0.0
  0
LINE
  8
0
  6
CONTINUOUS
 62
               3
  5
2AC
 10
-664.87864795455448
 20
-136.17590225940478
 30
0.0
 11
-632.87864795455403
 21
-136.17590225940478
 31
0.0
  0
LINE
  8
0
  6
CONTINUOUS
 62
               3
  5
2AD
 10
-664.87864795455448
 20
-138.17590225940478
 30
0.0
 11
-632.87864795455403
 21
-138.17590225940478
 31
0.0
  0
ARC
  8
0
  6
CONTINUOUS
 62
               3
  5
2AE
 10
-572.87864795455562
 20
-75.175902259405689
 30
0.0
 40
4.0
 50
0.0000000000341973
 51
89.999999999982705
  0
LINE
  8
0
  6
CONTINUOUS
 62
               3
  5
2AF
 10
-568.87864795455562
 20
-75.175902259403301
 30
0.0
 11
-568.87864795455539
 21
-94.175902259405689
 31
0.0
  0
ARC
  8
0
  6
CONTINUOUS
 62
               3
  5
2B0
 10
-572.87864795455596
 20
-197.17590225940478
 30
0.0
 40
4.0
 50
269.99999999994731
 51
359.99999999989581
  0
LINE
  8
0
  6
CONTINUOUS
 62
               3
  5
2B1
 10
-568.87864795455584
 20
-197.17590225940478
 30
0.0
 11
-568.87864795455607
 21
-178.67590225940455
 31
0.0
  0
LINE
  8
0
  6
CONTINUOUS
 62
               3
  5
2B2
 10
-571.87864795455539
 20
-94.175902259405689
 30
0.0
 11
-571.87864795455494
 21
-178.67590225940455
 31
0.0
  0
LINE
  8
0
  6
CONTINUOUS
 62
               3
  5
2B3
 10
-664.87864795455448
 20
-70.175902259405689
 30
0.0
 11
-664.87864795455448
 21
-202.17590225940376
 31
0.0
  0
LINE
  8
0
  6
CONTINUOUS
 62
               3
  5
2B4
 10
-664.87864795455494
 20
-70.175902259405689
 30
0.0
 11
-632.87864795455505
 21
-70.175902259405689
 31
0.0
  0
LINE
  8
0
  6
CONTINUOUS
 62
               3
  5
2B5
 10
-632.87864795455403
 20
-202.1759022594033
 30
0.0
 11
-632.87864795455448
 21
-70.175902259405689
 31
0.0
  0
LINE
  8
0
  6
CONTINUOUS
 62
               3
  5
2B6
 10
-664.87864795455448
 20
-202.17590225940376
 30
0.0
 11
-632.87864795455403
 21
-202.1759022594033
 31
0.0
  0
LINE
  8
0
  6
CONTINUOUS
 62
               3
  5
2B7
 10
493.98850649131396
 20
-36.175902259404779
 30
0.0
 11
608.12135204544484
 21
-36.175902259404779
 31
0.0
  0
LINE
  8
0
  6
CONTINUOUS
 62
               3
  5
2B8
 10
608.12135204544484
 20
-36.175902259404779
 30
0.0
 11
609.12135204544506
 21
-35.175902259404552
 31
0.0
  0
LINE
  8
0
  6
CONTINUOUS
 62
               3
  5
2B9
 10
493.98850649131396
 20
-36.175902259404779
 30
0.0
 11
493.12135204544484
 21
-35.30874781353566
 31
0.0
  0
LINE
  8
0
  6
CONTINUOUS
 62
               3
  5
2BA
 10
493.12135204544484
 20
-35.30874781353566
 30
0.0
 11
493.12135204544484
 21
-24.175902259405007
 31
0.0
  0
LINE
  8
0
  6
CONTINUOUS
 62
               3
  5
2BB
 10
609.12135204544506
 20
-35.175902259404552
 30
0.0
 11
609.12135204544506
 21
-23.763926627479918
 31
0.0
  0
LINE
  8
0
  6
CONTINUOUS
 62
               3
  5
2BC
 10
493.98850649131396
 20
-36.175902259404779
 30
0.0
 11
493.98850649131396
 21
-87.175902259404779
 31
0.0
  0
LINE
  8
0
  6
CONTINUOUS
 62
               3
  5
2BD
 10
608.12135204544484
 20
-36.175902259404779
 30
0.0
 11
608.12135204544484
 21
-87.175902259404779
 31
0.0
  0
LINE
  8
0
  6
CONTINUOUS
 62
               3
  5
2BE
 10
489.12135204544484
 20
-216.17590225940364
 30
0.0
 11
489.12135204544484
 21
-201.17590225940455
 31
0.0
  0
LINE
  8
0
  6
CONTINUOUS
 62
               3
  5
2BF
 10
486.12135204544506
 20
-216.17590225940364
 30
0.0
 11
616.12135204544506
 21
-216.17590225940364
 31
0.0
  0
ARC
  8
0
  6
CONTINUOUS
 62
               3
  5
2C0
 10
475.12135204544563
 20
-75.175902259405461
 30
0.0
 40
4.0
 50
89.99999999994769
 51
179.9999999998962
  0
LINE
  8
0
  6
CONTINUOUS
 62
               3
  5
2C1
 10
471.12135204544563
 20
-75.175902259403074
 30
0.0
 11
471.12135204544541
 21
-94.175902259405461
 31
0.0
  0
LINE
  8
0
  6
CONTINUOUS
 62
               3
  5
2C2
 10
535.12135204544552
 20
-71.175902259404893
 30
0.0
 11
475.12135204544552
 21
-71.175902259405461
 31
0.0
  0
LINE
  8
0
  6
CONTINUOUS
 62
               3
  5
2C3
 10
535.12135204544552
 20
-202.17590225940353
 30
0.0
 11
567.12135204544609
 21
-202.17590225940307
 31
0.0
  0
ARC
  8
0
  6
CONTINUOUS
 62
               3
  5
2C4
 10
475.12135204544597
 20
-197.17590225940455
 30
0.0
 40
4.0
 50
179.999999999897
 51
269.9999999998463
  0
LINE
  8
0
  6
CONTINUOUS
 62
               3
  5
2C5
 10
471.12135204544586
 20
-197.17590225940455
 30
0.0
 11
471.12135204544597
 21
-178.67590225940432
 31
0.0
  0
LINE
  8
0
  6
CONTINUOUS
 62
               3
  5
2C6
 10
535.12135204544552
 20
-201.17590225940387
 30
0.0
 11
475.12135204544234
 21
-201.17590225940455
 31
0.0
  0
LINE
  8
0
  6
CONTINUOUS
 62
               3
  5
2C7
 10
535.12135204544552
 20
-178.67590225940376
 30
0.0
 11
471.12135204544586
 21
-178.67590225940432
 31
0.0
  0
LINE
  8
0
  6
CONTINUOUS
 62
               3
  5
2C8
 10
471.12135204544541
 20
-94.175902259405461
 30
0.0
 11
535.12135204544552
 21
-94.175902259405461
 31
0.0
  0
LINE
  8
0
  6
CONTINUOUS
 62
               3
  5
2C9
 10
474.12135204544541
 20
-94.175902259405461
 30
0.0
 11
474.12135204544484
 21
-178.67590225940432
 31
0.0
  0
LINE
  8
0
  6
CONTINUOUS
 62
               3
  5
2CA
 10
567.12135204544552
 20
-71.175902259404893
 30
0.0
 11
630.12135204544529
 21
-71.175902259405461
 31
0.0
  0
LINE
  8
0
  6
CONTINUOUS
 62
               3
  5
2CB
 10
567.12135204544609
 20
-201.17590225940387
 30
0.0
 11
627.12135204544404
 21
-201.17590225940455
 31
0.0
  0
LINE
  8
0
  6
CONTINUOUS
 62
               3
  5
2CC
 10
567.12135204544609
 20
-178.67590225940387
 30
0.0
 11
631.12135204544416
 21
-178.67590225940432
 31
0.0
  0
LINE
  8
0
  6
CONTINUOUS
 62
               3
  5
2CD
 10
631.12135204544552
 20
-94.175902259405461
 30
0.0
 11
567.12135204544552
 21
-94.175902259405461
 31
0.0
  0
LINE
  8
0
  6
CONTINUOUS
 62
               3
  5
2CE
 10
613.12135204544484
 20
-216.17590225940364
 30
0.0
 11
613.12135204544484
 21
-201.17590225940455
 31
0.0
  0
LINE
  8
0
  6
CONTINUOUS
 62
               3
  5
2CF
 10
535.12135204544552
 20
-137.17590225940432
 30
0.0
 11
567.12135204544609
 21
-137.17590225940432
 31
0.0
  0
LINE
  8
0
  6
CONTINUOUS
 62
               3
  5
2D0
 10
535.12135204544552
 20
-136.17590225940455
 30
0.0
 11
567.12135204544609
 21
-136.17590225940455
 31
0.0
  0
LINE
  8
0
  6
CONTINUOUS
 62
               3
  5
2D1
 10
535.12135204544552
 20
-138.17590225940455
 30
0.0
 11
567.12135204544609
 21
-138.17590225940455
 31
0.0
  0
ARC
  8
0
  6
CONTINUOUS
 62
               3
  5
2D2
 10
627.12135204544438
 20
-75.175902259405461
 30
0.0
 40
4.0
 50
0.0000000000341973
 51
89.999999999982705
  0
LINE
  8
0
  6
CONTINUOUS
 62
               3
  5
2D3
 10
631.12135204544438
 20
-75.175902259403074
 30
0.0
 11
631.12135204544461
 21
-94.175902259405461
 31
0.0
  0
ARC
  8
0
  6
CONTINUOUS
 62
               3
  5
2D4
 10
627.12135204544416
 20
-197.17590225940455
 30
0.0
 40
4.0
 50
269.99999999994731
 51
359.99999999989581
  0
LINE
  8
0
  6
CONTINUOUS
 62
               3
  5
2D5
 10
631.12135204544416
 20
-197.17590225940455
 30
0.0
 11
631.12135204544404
 21
-178.67590225940432
 31
0.0
  0
LINE
  8
0
  6
CONTINUOUS
 62
               3
  5
2D6
 10
628.12135204544461
 20
-94.175902259405461
 30
0.0
 11
628.12135204544518
 21
-178.67590225940432
 31
0.0
  0
LINE
  8
0
  6
CONTINUOUS
 62
               3
  5
2D7
 10
535.12135204544552
 20
-70.175902259405461
 30
0.0
 11
535.12135204544552
 21
-202.17590225940353
 31
0.0
  0
LINE
  8
0
  6
CONTINUOUS
 62
               3
  5
2D8
 10
535.12135204544506
 20
-70.175902259405461
 30
0.0
 11
567.12135204544506
 21
-70.175902259405461
 31
0.0
  0
LINE
  8
0
  6
CONTINUOUS
 62
               3
  5
2D9
 10
567.12135204544609
 20
-202.17590225940307
 30
0.0
 11
567.12135204544552
 21
-70.175902259405461
 31
0.0
  0
LINE
  8
0
  6
CONTINUOUS
 62
               3
  5
2DA
 10
535.12135204544552
 20
-202.17590225940353
 30
0.0
 11
567.12135204544609
 21
-202.17590225940307
 31
0.0
  0
LINE
  8
0
  6
CONTINUOUS
 62
               3
  5
2DB
 10
9.1213520454456187
 20
-24.175902259404495
 30
0.0
 11
11.393127645794365
 21
-21.904126659056033
 31
0.0
  0
LINE
  8
0
  6
CONTINUOUS
 62
               3
  5
2DC
 10
8.618117179095961
 20
-24.175902259405063
 30
0.0
 11
11.393127645794365
 21
-21.904126659056033
 31
0.0
  0
LINE
  8
0
  6
CONTINUOUS
 62
               3
  5
2DD
 10
-106.01149350868546
 20
-36.175902259404779
 30
0.0
 11
8.1213520454453914
 21
-36.175902259404779
 31
0.0
  0
LINE
  8
0
  6
CONTINUOUS
 62
               3
  5
2DE
 10
8.1213520454453914
 20
-36.175902259404779
 30
0.0
 11
9.1213520454456187
 21
-35.175902259404552
 31
0.0
  0
LINE
  8
0
  6
CONTINUOUS
 62
               3
  5
2DF
 10
-106.01149350868546
 20
-36.175902259404779
 30
0.0
 11
-106.87864795455461
 21
-35.308747813535604
 31
0.0
  0
LINE
  8
0
  6
CONTINUOUS
 62
               3
  5
2E0
 10
9.1213520454456187
 20
-35.175902259404552
 30
0.0
 11
9.1213520454456187
 21
-24.175902259405007
 31
0.0
  0
LINE
  8
0
  6
CONTINUOUS
 62
               3
  5
2E1
 10
-106.87864795455461
 20
-35.308747813535604
 30
0.0
 11
-106.87864795455461
 21
-24.175902259405063
 31
0.0
  0
LINE
  8
0
  6
CONTINUOUS
 62
               3
  5
2E2
 10
8.1213520454453914
 20
-36.175902259404779
 30
0.0
 11
8.1213520454453914
 21
-87.175902259404779
 31
0.0
  0
LINE
  8
0
  6
CONTINUOUS
 62
               3
  5
2E3
 10
-106.01149350868546
 20
-36.175902259404779
 30
0.0
 11
-106.01149350868546
 21
-87.175902259404779
 31
0.0
  0
LINE
  8
0
  6
CONTINUOUS
 62
               3
  5
2E4
 10
8.618117179095961
 20
-24.175902259405063
 30
0.0
 11
9.1213520454456187
 21
-24.175902259405007
 31
0.0
  0
LINE
  8
0
  6
CONTINUOUS
 62
               3
  5
2E5
 10
-110.87864795455522
 20
-216.17590225940364
 30
0.0
 11
-110.87864795455522
 21
-201.17590225940455
 31
0.0
  0
LINE
  8
0
  6
CONTINUOUS
 62
               3
  5
2E6
 10
-113.87864795455505
 20
-216.17590225940364
 30
0.0
 11
16.121352045444922
 21
-216.17590225940364
 31
0.0
  0
ARC
  8
0
  6
CONTINUOUS
 62
               3
  5
2E7
 10
-124.87864795455442
 20
-75.175902259405461
 30
0.0
 40
4.0
 50
89.999999999947889
 51
179.9999999998962
  0
ARC
  8
0
  6
CONTINUOUS
 62
               3
  5
2E8
 10
-127.8786479545544
 20
-72.175902259405461
 30
0.0
 40
1.0000000000000004
 50
89.99999999994688
 51
179.99999999989538
  0
LINE
  8
0
  6
CONTINUOUS
 62
               3
  5
2E9
 10
-129.87864795455442
 20
-72.175902259405461
 30
0.0
 11
-129.87864795455499
 21
-135.17590225940432
 31
0.0
  0
LINE
  8
0
  6
CONTINUOUS
 62
               3
  5
2EA
 10
-128.87864795455462
 20
-72.175902259405461
 30
0.0
 11
-128.87864795455519
 21
-135.17590225940432
 31
0.0
  0
ARC
  8
0
  6
CONTINUOUS
 62
               3
  5
2EB
 10
-130.87864795455494
 20
-135.17590225940432
 30
0.0
 40
1.9999999999999996
 50
269.99999999984431
 51
359.999999999794
  0
ARC
  8
0
  6
CONTINUOUS
 62
               3
  5
2EC
 10
-130.87864795455494
 20
-135.17590225940432
 30
0.0
 40
1.0000000000000004
 50
269.99999999984391
 51
359.999999999794
  0
LINE
  8
0
  6
CONTINUOUS
 62
               3
  5
2ED
 10
-130.87864795455494
 20
-137.17590225940432
 30
0.0
 11
-193.87864795455505
 21
-137.17590225940478
 31
0.0
  0
LINE
  8
0
  6
CONTINUOUS
 62
               3
  5
2EE
 10
-130.87864795455494
 20
-136.17590225940432
 30
0.0
 11
-193.87864795455505
 21
-136.17590225940478
 31
0.0
  0
LINE
  8
0
  6
CONTINUOUS
 62
               3
  5
2EF
 10
-48.878647954554481
 20
-71.175902259404779
 30
0.0
 11
-127.8786479545544
 21
-71.175902259405461
 31
0.0
  0
LINE
  8
0
  6
CONTINUOUS
 62
               3
  5
2F0
 10
-113.87864795455405
 20
-202.17590225940432
 30
0.0
 11
-127.87864795455397
 21
-202.17590225940455
 31
0.0
  0
ARC
  8
0
  6
CONTINUOUS
 62
               3
  5
2F1
 10
-127.87864795455397
 20
-200.17590225940455
 30
0.0
 40
1.0000000000000004
 50
179.99999999989538
 51
269.99999999984391
  0
ARC
  8
0
  6
CONTINUOUS
 62
               3
  5
2F2
 10
-127.87864795455397
 20
-200.17590225940455
 30
0.0
 40
1.9999999999999996
 50
179.999999999897
 51
269.9999999998459
  0
ARC
  8
0
  6
CONTINUOUS
 62
               3
  5
2F3
 10
-124.87864795455414
 20
-197.17590225940455
 30
0.0
 40
4.0
 50
179.999999999897
 51
269.99999999984573
  0
LINE
  8
0
  6
CONTINUOUS
 62
               3
  5
2F4
 10
-113.87864795455405
 20
-202.17590225940432
 30
0.0
 11
-113.87864795455405
 21
-201.17590225940455
 31
0.0
  0
LINE
  8
0
  6
CONTINUOUS
 62
               3
  5
2F5
 10
-129.87864795455414
 20
-200.17590225940455
 30
0.0
 11
-129.87864795455499
 21
-139.17590225940432
 31
0.0
  0
LINE
  8
0
  6
CONTINUOUS
 62
               3
  5
2F6
 10
-128.87864795455405
 20
-200.17590225940455
 30
0.0
 11
-128.87864795455505
 21
-139.17590225940432
 31
0.0
  0
LINE
  8
0
  6
CONTINUOUS
 62
               3
  5
2F7
 10
-48.878647954555049
 20
-201.17590225940364
 30
0.0
 11
-127.87864795455397
 21
-201.17590225940455
 31
0.0
  0
LINE
  8
0
  6
CONTINUOUS
 62
               3
  5
2F8
 10
-48.878647954555049
 20
-178.67590225940364
 30
0.0
 11
-128.8786479545542
 21
-178.67590225940432
 31
0.0
  0
ARC
  8
0
  6
CONTINUOUS
 62
               3
  5
2F9
 10
-130.87864795455494
 20
-139.17590225940432
 30
0.0
 40
1.9999999999999996
 50
0.0000000000016284
 51
89.9999999999485
  0
ARC
  8
0
  6
CONTINUOUS
 62
               3
  5
2FA
 10
-130.87864795455494
 20
-139.17590225940432
 30
0.0
 40
1.0000000000000004
 50
0.0
 51
89.999999999950134
  0
LINE
  8
0
  6
CONTINUOUS
 62
               3
  5
2FB
 10
-130.87864795455494
 20
-138.17590225940432
 30
0.0
 11
-193.87864795455505
 21
-138.17590225940478
 31
0.0
  0
LINE
  8
0
  6
CONTINUOUS
 62
               3
  5
2FC
 10
-128.87864795455462
 20
-94.175902259405461
 30
0.0
 11
-48.878647954554481
 21
-94.175902259405461
 31
0.0
  0
LINE
  8
0
  6
CONTINUOUS
 62
               3
  5
2FD
 10
-125.87864795455465
 20
-94.175902259405461
 30
0.0
 11
-125.87864795455522
 21
-178.67590225940432
 31
0.0
  0
LINE
  8
0
  6
CONTINUOUS
 62
               3
  5
2FE
 10
-193.87864795455505
 20
-136.17590225940478
 30
0.0
 11
-193.87864795455505
 21
-137.17590225940478
 31
0.0
  0
LINE
  8
0
  6
CONTINUOUS
 62
               3
  5
2FF
 10
-193.87864795455505
 20
-138.17590225940478
 30
0.0
 11
-193.87864795455505
 21
-137.17590225940478
 31
0.0
  0
LINE
  8
0
  6
CONTINUOUS
 62
               3
  5
300
 10
-136.12864795455499
 20
-134.67590225940432
 30
0.0
 11
-143.62864795455499
 21
-134.67590225940432
 31
0.0
  0
LINE
  8
0
  6
CONTINUOUS
 62
               3
  5
301
 10
-136.12864795455499
 20
-139.67590225940432
 30
0.0
 11
-143.62864795455499
 21
-139.67590225940455
 31
0.0
  0
LINE
  8
0
  6
CONTINUOUS
 62
               3
  5
302
 10
-136.12864795455499
 20
-134.67590225940432
 30
0.0
 11
-136.12864795455499
 21
-136.17590225940432
 31
0.0
  0
LINE
  8
0
  6
CONTINUOUS
 62
               3
  5
303
 10
-136.12864795455499
 20
-138.17590225940432
 30
0.0
 11
-136.12864795455499
 21
-139.67590225940432
 31
0.0
  0
LINE
  8
0
  6
CONTINUOUS
 62
               3
  5
304
 10
-143.62864795455499
 20
-134.67590225940432
 30
0.0
 11
-143.62864795455499
 21
-136.17590225940432
 31
0.0
  0
LINE
  8
0
  6
CONTINUOUS
 62
               3
  5
305
 10
-143.62864795455499
 20
-138.17590225940455
 30
0.0
 11
-143.62864795455499
 21
-139.67590225940455
 31
0.0
  0
ARC
  8
0
  6
CONTINUOUS
 62
               3
  5
306
 10
27.12135204544532
 20
-75.175902259405461
 30
0.0
 40
4.0
 50
0.0000000000341973
 51
89.999999999982904
  0
ARC
  8
0
  6
CONTINUOUS
 62
               3
  5
307
 10
30.121352045445263
 20
-72.175902259405461
 30
0.0
 40
1.0000000000000004
 50
0.0000000000358258
 51
89.999999999984325
  0
LINE
  8
0
  6
CONTINUOUS
 62
               3
  5
308
 10
32.12135204544532
 20
-72.175902259405461
 30
0.0
 11
32.121352045444752
 21
-135.17590225940432
 31
0.0
  0
LINE
  8
0
  6
CONTINUOUS
 62
               3
  5
309
 10
31.121352045445491
 20
-72.175902259405461
 30
0.0
 11
31.121352045444922
 21
-135.17590225940432
 31
0.0
  0
ARC
  8
0
  6
CONTINUOUS
 62
               3
  5
30A
 10
33.121352045444809
 20
-135.17590225940432
 30
0.0
 40
1.9999999999999996
 50
179.9999999999996
 51
269.9999999999477
  0
ARC
  8
0
  6
CONTINUOUS
 62
               3
  5
30B
 10
33.121352045444809
 20
-135.17590225940432
 30
0.0
 40
1.0000000000000004
 50
179.9999999999996
 51
269.9999999999481
  0
LINE
  8
0
  6
CONTINUOUS
 62
               3
  5
30C
 10
33.121352045444809
 20
-137.17590225940432
 30
0.0
 11
96.121352045444922
 21
-137.17590225940478
 31
0.0
  0
LINE
  8
0
  6
CONTINUOUS
 62
               3
  5
30D
 10
33.121352045444809
 20
-136.17590225940432
 30
0.0
 11
96.121352045444922
 21
-136.17590225940478
 31
0.0
  0
LINE
  8
0
  6
CONTINUOUS
 62
               3
  5
30E
 10
-48.878647954554481
 20
-71.175902259404779
 30
0.0
 11
30.121352045445263
 21
-71.175902259405461
 31
0.0
  0
LINE
  8
0
  6
CONTINUOUS
 62
               3
  5
30F
 10
16.121352045443786
 20
-202.17590225940432
 30
0.0
 11
30.121352045443842
 21
-202.17590225940455
 31
0.0
  0
ARC
  8
0
  6
CONTINUOUS
 62
               3
  5
310
 10
30.121352045443842
 20
-200.17590225940455
 30
0.0
 40
1.0000000000000004
 50
269.9999999999481
 51
359.99999999989495
  0
ARC
  8
0
  6
CONTINUOUS
 62
               3
  5
311
 10
30.121352045443842
 20
-200.17590225940455
 30
0.0
 40
1.9999999999999996
 50
269.99999999994685
 51
359.99999999989495
  0
ARC
  8
0
  6
CONTINUOUS
 62
               3
  5
312
 10
27.121352045443899
 20
-197.17590225940455
 30
0.0
 40
4.0
 50
269.99999999994645
 51
359.99999999989581
  0
LINE
  8
0
  6
CONTINUOUS
 62
               3
  5
313
 10
16.121352045443786
 20
-202.17590225940432
 30
0.0
 11
16.121352045443786
 21
-201.17590225940455
 31
0.0
  0
LINE
  8
0
  6
CONTINUOUS
 62
               3
  5
314
 10
32.121352045443729
 20
-200.17590225940455
 30
0.0
 11
32.121352045444752
 21
-139.17590225940432
 31
0.0
  0
LINE
  8
0
  6
CONTINUOUS
 62
               3
  5
315
 10
31.121352045443786
 20
-200.17590225940455
 30
0.0
 11
31.121352045444809
 21
-139.17590225940432
 31
0.0
  0
LINE
  8
0
  6
CONTINUOUS
 62
               3
  5
316
 10
-48.878647954555049
 20
-201.17590225940364
 30
0.0
 11
30.121352045443842
 21
-201.17590225940455
 31
0.0
  0
LINE
  8
0
  6
CONTINUOUS
 62
               3
  5
317
 10
-48.878647954555049
 20
-178.67590225940364
 30
0.0
 11
31.12135204544407
 21
-178.67590225940432
 31
0.0
  0
ARC
  8
0
  6
CONTINUOUS
 62
               3
  5
318
 10
33.121352045444809
 20
-139.17590225940432
 30
0.0
 40
1.9999999999999996
 50
89.999999999982705
 51
179.99999999992957
  0
ARC
  8
0
  6
CONTINUOUS
 62
               3
  5
319
 10
33.121352045444809
 20
-139.17590225940432
 30
0.0
 40
1.0000000000000004
 50
89.999999999981071
 51
179.99999999992795
  0
LINE
  8
0
  6
CONTINUOUS
 62
               3
  5
31A
 10
33.121352045444809
 20
-138.17590225940432
 30
0.0
 11
96.121352045444922
 21
-138.17590225940478
 31
0.0
  0
LINE
  8
0
  6
CONTINUOUS
 62
               3
  5
31B
 10
31.121352045445491
 20
-94.175902259405461
 30
0.0
 11
-48.878647954554481
 21
-94.175902259405461
 31
0.0
  0
LINE
  8
0
  6
CONTINUOUS
 62
               3
  5
31C
 10
28.121352045445377
 20
-94.175902259405461
 30
0.0
 11
28.121352045444809
 21
-178.67590225940432
 31
0.0
  0
LINE
  8
0
  6
CONTINUOUS
 62
               3
  5
31D
 10
96.121352045444922
 20
-136.17590225940478
 30
0.0
 11
96.121352045444922
 21
-137.17590225940478
 31
0.0
  0
LINE
  8
0
  6
CONTINUOUS
 62
               3
  5
31E
 10
96.121352045444922
 20
-138.17590225940478
 30
0.0
 11
96.121352045444922
 21
-137.17590225940478
 31
0.0
  0
LINE
  8
0
  6
CONTINUOUS
 62
               3
  5
31F
 10
38.371352045444752
 20
-134.67590225940432
 30
0.0
 11
45.871352045444752
 21
-134.67590225940432
 31
0.0
  0
LINE
  8
0
  6
CONTINUOUS
 62
               3
  5
320
 10
38.371352045444752
 20
-139.67590225940432
 30
0.0
 11
45.871352045444752
 21
-139.67590225940455
 31
0.0
  0
LINE
  8
0
  6
CONTINUOUS
 62
               3
  5
321
 10
38.371352045444752
 20
-134.67590225940432
 30
0.0
 11
38.371352045444752
 21
-136.17590225940432
 31
0.0
  0
LINE
  8
0
  6
CONTINUOUS
 62
               3
  5
322
 10
38.371352045444752
 20
-138.17590225940432
 30
0.0
 11
38.371352045444752
 21
-139.67590225940432
 31
0.0
  0
LINE
  8
0
  6
CONTINUOUS
 62
               3
  5
323
 10
45.871352045444752
 20
-134.67590225940432
 30
0.0
 11
45.871352045444752
 21
-136.17590225940432
 31
0.0
  0
LINE
  8
0
  6
CONTINUOUS
 62
               3
  5
324
 10
45.871352045444752
 20
-138.17590225940455
 30
0.0
 11
45.871352045444752
 21
-139.67590225940455
 31
0.0
  0
LINE
  8
0
  6
CONTINUOUS
 62
               3
  5
325
 10
13.121352045444837
 20
-216.17590225940364
 30
0.0
 11
13.121352045444837
 21
-201.17590225940455
 31
0.0
  0
LINE
  8
0
  6
DASHDOT
 62
               4
  5
326
 10
-48.878647954554481
 20
1072.3240977405953
 30
0.0
 11
-48.878647954554594
 21
777.80136532391441
 31
0.0
  0
LINE
  8
0
  6
DASHDOT
 62
               4
  5
327
 10
-210.87864795455437
 20
963.82409774059522
 30
0.0
 11
59.621352045445747
 21
963.82409774059522
 31
0.0
  0
LINE
  8
0
  6
DASHDOT
 62
               4
  5
328
 10
-210.87864795455437
 20
362.82409774059522
 30
0.0
 11
-110.87864795455437
 21
362.82409774059522
 31
0.0
  0
LINE
  8
0
  6
DASHDOT
 62
               4
  5
329
 10
-48.878647954554481
 20
548.82409774059522
 30
0.0
 11
-48.878647954554481
 21
-156.17590225940478
 31
0.0
  0
LINE
  8
0
  6
DASHDOT
 62
               4
  5
32A
 10
-580.35342317933032
 20
362.82409774059522
 30
0.0
 11
-717.05422238012966
 21
362.82409774059522
 31
0.0
  0
LINE
  8
0
  6
DASHDOT
 62
               4
  5
32B
 10
-648.87864795455448
 20
548.82409774059522
 30
0.0
 11
-648.87864795455448
 21
-156.17590225940478
 31
0.0
  0
LINE
  8
0
  6
DASHDOT
 62
               4
  5
32C
 10
551.12135204544552
 20
548.82409774059522
 30
0.0
 11
551.12135204544552
 21
-156.17590225940478
 31
0.0
  0
LINE
  8
0
  6
DASHDOT
 62
               4
  5
32D
 10
-479.77781692722937
 20
294.32409774059522
 30
0.0
 11
-585.7639483284313
 21
294.32409774059522
 31
0.0
  0
LINE
  8
0
  6
DASHDOT
 62
               4
  5
32E
 10
14.391474156789968
 20
294.32409774059522
 30
0.0
 11
-111.50914488222048
 21
294.32409774059522
 31
0.0
  0
LINE
  8
0
  6
DASHDOT
 62
               4
  5
32F
 10
494.77420787426365
 20
294.32409774059522
 30
0.0
 11
359.3219146843428
 21
294.32409774059522
 31
0.0
  0
LINE
  8
0
  6
DASHDOT
 62
               4
  5
330
 10
-441.01641700502324
 20
-822.32409774059522
 30
0.0
 11
-441.01641700502313
 21
-693.32409774059533
 31
0.0
  0
LINE
  8
0
  6
DASHDOT
 62
               4
  5
331
 10
-499.01641700502313
 20
-764.32409774059522
 30
0.0
 11
-383.01641700502319
 21
-764.32409774059522
 31
0.0
  0
LINE
  8
0
  6
DASHDOT
 62
               4
  5
332
 10
-510.81959548913068
 20
-757.82409774059522
 30
0.0
 11
-376.51641700502319
 21
-757.82409774059522
 31
0.0
  0
LINE
  8
0
  6
DASHDOT
 62
               4
  5
333
 10
-317.1164170050231
 20
-757.82409774059522
 30
0.0
 11
-218.51641700502319
 21
-757.82409774059522
 31
0.0
  0
LINE
  8
0
  6
DASHDOT
 62
               4
  5
334
 10
-351.51641700502319
 20
-764.32409774059522
 30
0.0
 11
-277.11641700502321
 21
-764.32409774059522
 31
0.0
  0
LINE
  8
0
  6
DASHDOT
 62
               4
  5
335
 10
-564.91641700502305
 20
-757.82409774059522
 30
0.0
 11
-663.51641700502319
 21
-757.82409774059477
 31
0.0
  0
LINE
  8
0
  6
DASHDOT
 62
               4
  5
336
 10
-530.51641700502319
 20
-764.32409774059522
 30
0.0
 11
-604.91641700502305
 21
-764.32409774059522
 31
0.0
  0
LINE
  8
0
  6
DASHDOT
 62
               4
  5
337
 10
-442.96237440078977
 20
-660.85621367156023
 30
0.0
 11
-442.96237440078977
 21
-527.85621367156023
 31
0.0
  0
LINE
  8
0
  6
DASHDOT
 62
               4
  5
338
 10
172.75527573132649
 20
-757.82409774059522
 30
0.0
 11
271.35527573132663
 21
-757.82409774059522
 31
0.0
  0
LINE
  8
0
  6
DASHDOT
 62
               4
  5
339
 10
147.75527573132649
 20
-772.32409774059522
 30
0.0
 11
212.75527573132649
 21
-772.32409774059522
 31
0.0
  0
LINE
  8
0
  6
DASHDOT
 62
               4
  5
33A
 10
21.99925950608349
 20
-772.32409774059522
 30
0.0
 11
121.9992595060837
 21
-772.32409774059522
 31
0.0
  0
LINE
  8
0
  6
DASHDOT
 62
               4
  5
33B
 10
71.99925950608349
 20
-822.32409774059522
 30
0.0
 11
71.999259506083717
 21
-693.32409774059533
 31
0.0
  0
LINE
  8
0
  6
DASHDOT
 62
               4
  5
33C
 10
7.4992595060834901
 20
-757.82409774059522
 30
0.0
 11
142.04326928603473
 21
-757.82409774059522
 31
0.0
  0
LINE
  8
0
  6
DASHDOT
 62
               4
  5
33D
 10
-28.756756719159284
 20
-757.82409774059522
 30
0.0
 11
-127.35675671915931
 21
-757.82409774059522
 31
0.0
  0
LINE
  8
0
  6
DASHDOT
 62
               4
  5
33E
 10
-3.7567567191592843
 20
-772.32409774059522
 30
0.0
 11
-68.756756719159284
 21
-772.32409774059522
 31
0.0
  0
LINE
  8
0
  6
DASHDOT
 62
               4
  5
33F
 10
71.999259506083717
 20
-671.56808151535256
 30
0.0
 11
71.999259506083717
 21
-547.96808151535242
 31
0.0
  0
LINE
  8
0
  6
DASHDOT
 62
               4
  5
340
 10
560.40787526175336
 20
-591.63966216880431
 30
0.0
 11
560.40787526175336
 21
-862.18644896863077
 31
0.0
  0
LINE
  8
0
  6
DASHDOT
 62
               4
  5
341
 10
398.40787526175347
 20
-700.13966216880431
 30
0.0
 11
668.90787526175359
 21
-700.13966216880431
 31
0.0
  0
LINE
  8
0
  6
DASHDOT
 62
               4
  5
342
 10
628.93310003697798
 20
-1174.6390959173887
 30
0.0
 11
398.67926196832514
 21
-1174.6390959173887
 31
0.0
  0
LINE
  8
0
  6
DASHDOT
 62
               4
  5
343
 10
560.40787526175336
 20
-988.63909591738854
 30
0.0
 11
560.40787526175336
 21
-1239.6390959173887
 31
0.0
  0
LINE
  8
0
  6
DASHDOT
 62
               4
  5
344
 10
510.40787526175342
 20
-1189.1390959173887
 30
0.0
 11
610.40787526175359
 21
-1189.1390959173887
 31
0.0
  0
LINE
  8
0
  6
DASHDOT
 62
               4
  5
345
 10
560.40787526175336
 20
-890.73966216880433
 30
0.0
 11
560.40787526175336
 21
-767.13966216880397
 31
0.0
  0
LINE
  8
0
  6
DASHDOT
 62
               4
  5
346
 10
360.40787526175336
 20
-1181.1390959173887
 30
0.0
 11
434.80787526175334
 21
-1181.1390959173887
 31
0.0
  0
LINE
  8
0
  6
DASHDOT
 62
               4
  5
347
 10
360.40787526175359
 20
-700.13966216880408
 30
0.0
 11
493.40787526175365
 21
-700.13966216880408
 31
0.0
  0
LINE
  8
0
  6
DASHDOT
 62
               4
  5
348
 10
71.999259506083476
 20
-1245.8240977405953
 30
0.0
 11
71.999259506083533
 21
-1129.8240977405953
 31
0.0
  0
LINE
  8
0
  6
DASHDOT
 62
               4
  5
349
 10
13.999259506083533
 20
-1187.8240977405953
 30
0.0
 11
129.99925950608355
 21
-1187.8240977405953
 31
0.0
  0
LINE
  8
0
  6
DASHDOT
 62
               4
  5
34A
 10
21.999259506083533
 20
-1195.8240977405953
 30
0.0
 11
121.99925950608353
 21
-1195.8240977405953
 31
0.0
  0
LINE
  8
0
  6
DASHDOT
 62
               4
  5
34B
 10
-91.926968750505409
 20
-1195.8240977405953
 30
0.0
 11
-26.457672930436061
 21
-1195.8240977405953
 31
0.0
  0
LINE
  8
0
  6
DASHDOT
 62
               4
  5
34C
 10
-150.50074049391645
 20
-1187.8240977405953
 30
0.0
 11
-51.900740493916373
 21
-1187.8240977405953
 31
0.0
  0
LINE
  8
0
  6
DASHDOT
 62
               4
  5
34D
 10
235.9254877626725
 20
-1195.8240977405953
 30
0.0
 11
170.45619194260314
 21
-1195.8240977405953
 31
0.0
  0
LINE
  8
0
  6
DASHDOT
 62
               4
  5
34E
 10
294.49925950608355
 20
-1187.8240977405953
 30
0.0
 11
195.89925950608347
 21
-1187.8240977405953
 31
0.0
  0
LINE
  8
0
  6
DASHDOT
 62
               4
  5
34F
 10
71.999259506083476
 20
-965.32409774059522
 30
0.0
 11
71.999259506083476
 21
-1089.3671653040756
 31
0.0
  0
LINE
  8
0
  6
DASHDOT
 62
               4
  5
350
 10
-648.87864795455562
 20
-376.39708768964965
 30
0.0
 11
-648.87864795455653
 21
-131.19004398988523
 31
0.0
  0
LINE
  8
0
  6
DASHDOT
 62
               4
  5
351
 10
551.12135204544438
 20
-376.39708768964942
 30
0.0
 11
551.12135204544347
 21
-131.190043989885
 31
0.0
  0
LINE
  8
0
  6
DASHDOT
 62
               4
  5
352
 10
-48.878647954554495
 20
-376.39708768964942
 30
0.0
 11
-48.878647954554495
 21
-87.175902259404779
 31
0.0
  0
LINE
  8
0
  6
DASHDOT
 62
               4
  5
353
 10
76.121352045444922
 20
-15.185800261399436
 30
0.0
 11
76.121352045444922
 21
-179.56416188088986
 31
0.0
  0
LINE
  8
0
  6
DASHDOT
 62
               4
  5
354
 10
-173.87864795455505
 20
-15.185800261399436
 30
0.0
 11
-173.87864795455505
 21
-179.56416188088986
 31
0.0
  0
LINE
  8
0
  6
CONTINUOUS
 62
               4
  5
355
 10
28.121352045445406
 20
432.35975149344802
 30
0.0
 11
23.121352045445406
 21
437.35975149344802
 31
0.0
  0
LINE
  8
0
  6
CONTINUOUS
 62
               4
  5
356
 10
28.121352045445406
 20
238.67107414347834
 30
0.0
 11
28.121352045445406
 21
124.71052951034017
 31
0.0
  0
LINE
  8
0
  6
CONTINUOUS
 62
               4
  5
357
 10
28.121352045445406
 20
124.71052951034017
 30
0.0
 11
11.39312764579438
 21
-21.904126659056033
 31
0.0
  0
ARC
  8
0
  6
CONTINUOUS
 62
               4
  5
358
 10
5.6213520454454056
 20
421.82409774059522
 30
0.0
 40
19.999999999999996
 50
0.0
 51
31.788330617021291
  0
LINE
  8
0
  6
CONTINUOUS
 62
               4
  5
359
 10
22.62135204544586
 20
432.35975149344802
 30
0.0
 11
22.62135204544586
 21
437.35975149344858
 31
0.0
  0
LINE
  8
0
  6
CONTINUOUS
 62
               4
  5
35A
 10
23.121352045445406
 20
437.35975149344802
 30
0.0
 11
22.62135204544586
 21
437.35975149344802
 31
0.0
  0
LINE
  8
0
  6
CONTINUOUS
 62
               4
  5
35B
 10
27.871352045445633
 20
432.10975149344802
 30
0.0
 11
22.62135204544586
 21
437.35975149344802
 31
0.0
  0
LINE
  8
0
  6
CONTINUOUS
 62
               4
  5
35C
 10
27.871352045445633
 20
432.10975149344802
 30
0.0
 11
28.121352045445406
 21
432.35975149344802
 31
0.0
  0
LINE
  8
0
  6
CONTINUOUS
 62
               4
  5
35D
 10
25.621352045445406
 20
237.67107414347811
 30
0.0
 11
25.621352045445406
 21
124.8524897981597
 31
0.0
  0
LINE
  8
0
  6
CONTINUOUS
 62
               4
  5
35E
 10
27.871352045445633
 20
238.38571703634227
 30
0.0
 11
27.871352045445633
 21
124.72472553912218
 31
0.0
  0
LINE
  8
0
  6
CONTINUOUS
 62
               4
  5
35F
 10
25.621352045445406
 20
124.8524897981597
 30
0.0
 11
8.6181171790959752
 21
-24.175902259405063
 31
0.0
  0
LINE
  8
0
  6
CONTINUOUS
 62
               4
  5
360
 10
25.618117179095293
 20
124.82409774059539
 30
0.0
 11
28.121352045445406
 21
124.71052951034017
 31
0.0
  0
LINE
  8
0
  6
CONTINUOUS
 62
               4
  5
361
 10
27.871352045445633
 20
124.72472553912218
 30
0.0
 11
11.115626599124312
 21
-22.131304219090907
 31
0.0
  0
LINE
  8
0
  6
CONTINUOUS
 62
               4
  5
362
 10
28.121352045445406
 20
432.35975149344802
 30
0.0
 11
28.121352045445406
 21
241.67107414347822
 31
0.0
  0
LINE
  8
0
  6
CONTINUOUS
 62
               4
  5
363
 10
27.871352045445633
 20
432.10975149344802
 30
0.0
 11
27.871352045445633
 21
241.95643125061372
 31
0.0
  0
LINE
  8
0
  6
CONTINUOUS
 62
               4
  5
364
 10
25.621352045445406
 20
421.97712133771233
 30
0.0
 11
25.621352045445406
 21
242.82409774059522
 31
0.0
  0
LINE
  8
0
  6
CONTINUOUS
 62
               4
  5
365
 10
9.2624846319514518
 20
71.03958868439554
 30
0.0
 11
-114.39064795455499
 21
174.79688663164842
 31
0.0
  0
ARC
  8
0
  6
CONTINUOUS
 62
               4
  5
366
 10
-963.15096805509415
 20
-969.76153049530024
 30
0.0
 40
1424.9238755783815
 50
50.189956146218464
 51
53.44079605068071
  0
ARC
  8
0
  6
CONTINUOUS
 62
               4
  5
367
 10
14.700740882478492
 20
195.59675665544148
 30
0.0
 40
130.75634311527989
 50
189.15312334012282
 51
212.76918311254923
  0
ARC
  8
0
  6
CONTINUOUS
 62
               4
  5
368
 10
12.485377544996595
 20
205.7307774066818
 30
0.0
 40
134.72974192119386
 50
216.90649751112986
 51
268.62928723384999
  0
ARC
  8
0
  6
CONTINUOUS
 62
               4
  5
369
 10
-782.5089960530629
 20
-753.42257317041356
 30
0.0
 40
1143.0835201141012
 50
46.1587326533813
 51
50.202696616608264
  0
ARC
  8
0
  6
CONTINUOUS
 62
               4
  5
36A
 10
-927.80787680367939
 20
3.151699329132839
 30
0.0
 40
359.11818398045398
 50
13.306177675717487
 51
28.552443501591164
  0
ARC
  8
0
  6
CONTINUOUS
 62
               4
  5
36B
 10
-649.20983442454872
 20
111.39837523170206
 30
0.0
 40
73.327111796148202
 50
342.62945642097981
 51
419.83689160521766
  0
ARC
  8
0
  6
CONTINUOUS
 62
               4
  5
36C
 10
525.33738623347938
 20
421.82409774059522
 30
0.0
 40
17.566965811965957
 50
0.0
 51
36.851448659195938
  0
LINE
  8
0
  6
CONTINUOUS
 62
               4
  5
36D
 10
562.84835204544572
 20
437.35975149344802
 30
0.0
 11
539.39435204544532
 21
437.35975149344802
 31
0.0
  0
ARC
  8
0
  6
CONTINUOUS
 62
               4
  5
36E
 10
576.90531785741109
 20
421.82409774059522
 30
0.0
 40
17.566965811965957
 50
143.14855134063185
 51
179.99999999982774
  0
LINE
  8
0
  6
CONTINUOUS
 62
               4
  5
36F
 10
539.39435204544532
 20
432.35975149344802
 30
0.0
 11
539.39435204544532
 21
437.35975149344802
 31
0.0
  0
LINE
  8
0
  6
CONTINUOUS
 62
               4
  5
370
 10
562.84835204544572
 20
432.35975149344802
 30
0.0
 11
562.84835204544572
 21
437.35975149344802
 31
0.0
  0
LINE
  8
0
  6
CONTINUOUS
 62
               4
  5
371
 10
539.39435204544532
 20
437.35975149344802
 30
0.0
 11
545.12135204544529
 21
432.35975149344802
 31
0.0
  0
LINE
  8
0
  6
CONTINUOUS
 62
               4
  5
372
 10
557.12135204544518
 20
432.35975149344802
 30
0.0
 11
562.84835204544572
 21
437.35975149344802
 31
0.0
  0
LINE
  8
0
  6
CONTINUOUS
 62
               4
  5
373
 10
545.12135204544529
 20
432.35975149344802
 30
0.0
 11
557.12135204544518
 21
432.35975149344802
 31
0.0
  0
LINE
  8
0
  6
CONTINUOUS
 62
               4
  5
374
 10
557.12135204544518
 20
241.82409774059533
 30
0.0
 11
545.12135204544529
 21
241.82409774059533
 31
0.0
  0
ARC
  8
0
  6
CONTINUOUS
 62
               4
  5
375
 10
543.05970751203029
 20
240.41001789212862
 30
0.0
 40
2.4999999999999996
 50
34.446185822111133
 51
93.562780573704416
  0
ARC
  8
0
  6
CONTINUOUS
 62
               4
  5
376
 10
559.18299657886075
 20
240.41001789212862
 30
0.0
 40
2.4999999999999996
 50
86.437219426121587
 51
145.55381417771557
  0
LINE
  8
0
  6
CONTINUOUS
 62
               4
  5
377
 10
557.12135204544518
 20
238.82409774059545
 30
0.0
 11
545.12135204544529
 21
238.82409774059545
 31
0.0
  0
ARC
  8
0
  6
CONTINUOUS
 62
               4
  5
378
 10
543.05970751203029
 20
240.23817758906182
 30
0.0
 40
2.4999999999999996
 50
266.43721942594891
 51
325.55381417754353
  0
ARC
  8
0
  6
CONTINUOUS
 62
               4
  5
379
 10
559.18299657886075
 20
240.23817758906182
 30
0.0
 40
2.4999999999999996
 50
214.44618582193888
 51
273.56278057353427
  0
LINE
  8
0
  6
CONTINUOUS
 62
               4
  5
37A
 10
542.90435204544531
 20
237.82409774059522
 30
0.0
 11
542.90435204544531
 21
-24.175902259405007
 31
0.0
  0
LINE
  8
0
  6
CONTINUOUS
 62
               4
  5
37B
 10
559.33835204544516
 20
237.73817758906182
 30
0.0
 11
559.33835204544516
 21
-24.175902259405007
 31
0.0
  0
LINE
  8
0
  6
CONTINUOUS
 62
               4
  5
37C
 10
545.12135204544529
 20
238.82409774059545
 30
0.0
 11
545.12135204544529
 21
-21.904126659056033
 31
0.0
  0
LINE
  8
0
  6
CONTINUOUS
 62
               4
  5
37D
 10
557.12135204544518
 20
-21.904126659056033
 30
0.0
 11
557.12135204544518
 21
238.82409774059545
 31
0.0
  0
LINE
  8
0
  6
CONTINUOUS
 62
               4
  5
37E
 10
559.33835204544516
 20
124.82409774059533
 30
0.0
 11
542.90435204544531
 21
124.82409774059533
 31
0.0
  0
LINE
  8
0
  6
CONTINUOUS
 62
               4
  5
37F
 10
542.90435204544531
 20
421.82409774059522
 30
0.0
 11
542.90435204544531
 21
242.82409774059522
 31
0.0
  0
LINE
  8
0
  6
CONTINUOUS
 62
               4
  5
380
 10
559.33835204544516
 20
421.82409774059522
 30
0.0
 11
559.33835204544516
 21
242.82409774059522
 31
0.0
  0
LINE
  8
0
  6
CONTINUOUS
 62
               4
  5
381
 10
557.12135204544518
 20
241.82409774059533
 30
0.0
 11
557.12135204544518
 21
432.35975149344802
 31
0.0
  0
LINE
  8
0
  6
CONTINUOUS
 62
               4
  5
382
 10
545.12135204544529
 20
432.35975149344802
 30
0.0
 11
545.12135204544529
 21
241.82409774059533
 31
0.0
  0
ARC
  8
0
  6
CONTINUOUS
 62
               4
  5
383
 10
536.14327909891779
 20
120.52684808701372
 30
0.0
 40
59.149634972654262
 50
186.49999999982126
 51
236.78754046646117
  0
ARC
  8
0
  6
CONTINUOUS
 62
               4
  5
384
 10
557.04827157613943
 20
132.37586518576541
 30
0.0
 40
81.261593956721953
 50
186.49999999982126
 51
229.00792456432274
  0
ARC
  8
0
  6
CONTINUOUS
 62
               4
  5
385
 10
411.80264322195029
 20
48.038346361070694
 30
0.0
 40
204.24864340422488
 50
353.4999999996615
 51
373.43680216711999
  0
ARC
  8
0
  6
CONTINUOUS
 62
               4
  5
386
 10
449.4936529900113
 20
50.322763430478403
 30
0.0
 40
167.18634723772169
 50
351.25933879859855
 51
375.67746336818345
  0
POINT
  8
0
  6
CONTINUOUS
 62
               4
  5
387
 10
-295.91641700502316
 20
-713.32409774059522
 30
0.0
  0
POINT
  8
0
  6
CONTINUOUS
 62
               4
  5
388
 10
-586.1164170050231
 20
-713.32409774059522
 30
0.0
  0
POINT
  8
0
  6
CONTINUOUS
 62
               4
  5
389
 10
-398.46237440078971
 20
-605.25621367156032
 30
0.0
  0
POINT
  8
0
  6
CONTINUOUS
 62
               4
  5
38A
 10
193.95527573132654
 20
-713.32409774059522
 30
0.0
  0
POINT
  8
0
  6
CONTINUOUS
 62
               4
  5
38B
 10
-49.95675671915933
 20
-713.32409774059522
 30
0.0
  0
POINT
  8
0
  6
CONTINUOUS
 62
               4
  5
38C
 10
116.4992595060837
 20
-625.36808151535251
 30
0.0
  0
LINE
  8
0
  6
CONTINUOUS
 62
               4
  5
38D
 10
637.40787526175313
 20
-1105.1034421645359
 30
0.0
 11
632.40787526175313
 21
-1100.1034421645359
 31
0.0
  0
ARC
  8
0
  6
CONTINUOUS
 62
               4
  5
38E
 10
614.90787526175313
 20
-1115.6390959173887
 30
0.0
 40
19.999999999999996
 50
0.0
 51
31.788330617027277
  0
LINE
  8
0
  6
CONTINUOUS
 62
               4
  5
38F
 10
631.90787526175359
 20
-1105.1034421645359
 30
0.0
 11
631.90787526175359
 21
-1100.1034421645354
 31
0.0
  0
LINE
  8
0
  6
CONTINUOUS
 62
               4
  5
390
 10
632.40787526175313
 20
-1100.1034421645359
 30
0.0
 11
631.90787526175359
 21
-1100.1034421645359
 31
0.0
  0
LINE
  8
0
  6
CONTINUOUS
 62
               4
  5
391
 10
637.15787526175336
 20
-1105.3534421645359
 30
0.0
 11
631.90787526175359
 21
-1100.1034421645359
 31
0.0
  0
LINE
  8
0
  6
CONTINUOUS
 62
               4
  5
392
 10
637.15787526175336
 20
-1105.3534421645359
 30
0.0
 11
637.40787526175313
 21
-1105.1034421645359
 31
0.0
  0
LINE
  8
0
  6
CONTINUOUS
 62
               4
  5
393
 10
637.40787526175313
 20
-1105.1034421645359
 30
0.0
 11
637.40787526175313
 21
-1235.7921195145059
 31
0.0
  0
LINE
  8
0
  6
CONTINUOUS
 62
               4
  5
394
 10
637.15787526175336
 20
-1105.3534421645359
 30
0.0
 11
637.15787526175336
 21
-1235.5067624073704
 31
0.0
  0
LINE
  8
0
  6
CONTINUOUS
 62
               4
  5
395
 10
634.90787526175313
 20
-1115.4860723202714
 30
0.0
 11
634.90787526175313
 21
-1234.6390959173887
 31
0.0
  0
POINT
  8
0
  6
CONTINUOUS
 62
               4
  5
396
 10
604.90787526175336
 20
-844.53966216880451
 30
0.0
  0
POINT
  8
0
  6
CONTINUOUS
 62
               4
  5
397
 10
416.00787526175338
 20
-1130.1390959173887
 30
0.0
  0
POINT
  8
0
  6
CONTINUOUS
 62
               4
  5
398
 10
416.0078752617535
 20
-744.63966216880397
 30
0.0
  0
POINT
  8
0
  6
CONTINUOUS
 62
               4
  5
399
 10
-72.500740493916339
 20
-1136.8240977405949
 30
0.0
  0
POINT
  8
0
  6
CONTINUOUS
 62
               4
  5
39A
 10
216.49925950608349
 20
-1136.8240977405953
 30
0.0
  0
POINT
  8
0
  6
CONTINUOUS
 62
               4
  5
39B
 10
122.99925950608365
 20
-1043.3240977405953
 30
0.0
  0
LINE
  8
0
  6
CONTINUOUS
 62
               4
  5
39C
 10
-714.37864795455607
 20
-241.17590225940376
 30
0.0
 11
-583.37864795455403
 21
-241.17590225940376
 31
0.0
  0
LINE
  8
0
  6
CONTINUOUS
 62
               4
  5
39D
 10
485.62135204544404
 20
-241.17590225940353
 30
0.0
 11
616.62135204544597
 21
-241.17590225940353
 31
0.0
  0
LINE
  8
0
  6
CONTINUOUS
 62
               4
  5
39E
 10
-139.87864795455499
 20
-141.92112404672719
 30
0.0
 11
-139.87864795455499
 21
-132.04683783967141
 31
0.0
  0
LINE
  8
0
  6
CONTINUOUS
 62
               4
  5
39F
 10
42.121352045444752
 20
-141.92112404672719
 30
0.0
 11
42.121352045444752
 21
-132.04683783967141
 31
0.0
  0
LINE
  8
0
  6
CONTINUOUS
 62
               4
  5
3A0
 10
-114.37864795455602
 20
-241.17590225940353
 30
0.0
 11
16.621352045445889
 21
-241.17590225940353
 31
0.0
  0
LINE
  8
0
  6
CONTINUOUS
 62
               4
  5
3A1
 10
608.61811717909598
 20
-24.175902259405007
 30
0.0
 11
611.39312764579438
 21
-21.904126659056033
 31
0.0
  0
LINE
  8
0
  6
CONTINUOUS
 62
               4
  5
3A2
 10
-709.15042355490334
 20
-21.90412665905626
 30
0.0
 11
-706.37541308820494
 21
-24.175902259405234
 31
0.0
  0
LINE
  8
0
  6
DASHED2
 62
               4
  5
3A3
 10
-105.87864795455437
 20
463.82409774059522
 30
0.0
 11
8.1213520454454056
 21
463.82409774059522
 31
0.0
  0
LINE
  8
0
  6
DASHED2
 62
               4
  5
3A4
 10
-705.87864795455494
 20
463.82409774059522
 30
0.0
 11
-591.87864795455516
 21
463.82409774059522
 31
0.0
  0
LINE
  8
0
  6
DASHED2
 62
               4
  5
3A5
 10
494.12135204544563
 20
463.82409774059522
 30
0.0
 11
608.12135204544552
 21
463.82409774059522
 31
0.0
  0
LINE
  8
0
  6
DASHED2
 62
               4
  5
3A6
 10
503.40787526175353
 20
-1073.6390959173887
 30
0.0
 11
617.40787526175313
 21
-1073.6390959173887
 31
0.0
  0
LINE
  8
0
  6
DASHED2
 62
               4
  5
3A7
 10
-591.87864795455516
 20
-36.175902259405007
 30
0.0
 11
-591.87864795455516
 21
-136.17590225940501
 31
0.0
  0
LINE
  8
0
  6
DASHED2
 62
               4
  5
3A8
 10
-706.01149350868604
 20
-36.175902259405007
 30
0.0
 11
-706.01149350868604
 21
-136.27433000485621
 31
0.0
  0
LINE
  8
0
  6
DASHED2
 62
               4
  5
3A9
 10
-706.37864795455744
 20
-151.17590225940614
 30
0.0
 11
-706.37864795455744
 21
-216.17590225940387
 31
0.0
  0
LINE
  8
0
  6
DASHED2
 62
               4
  5
3AA
 10
-648.87864795455448
 20
-136.17590225940501
 30
0.0
 11
-705.87864795455471
 21
-136.17590225940501
 31
0.0
  0
LINE
  8
0
  6
DASHED2
 62
               4
  5
3AB
 10
-706.37864795455744
 20
-151.17590225940614
 30
0.0
 11
-648.87864795455562
 21
-151.17590225940501
 31
0.0
  0
LINE
  8
0
  6
DASHED2
 62
               4
  5
3AC
 10
-648.87864795455448
 20
-136.17590225940501
 30
0.0
 11
-591.87864795455459
 21
-136.17590225940501
 31
0.0
  0
LINE
  8
0
  6
DASHED2
 62
               4
  5
3AD
 10
-591.37864795455278
 20
-151.17590225940614
 30
0.0
 11
-648.87864795455448
 21
-151.17590225940501
 31
0.0
  0
LINE
  8
0
  6
DASHED2
 62
               4
  5
3AE
 10
-591.37864795455278
 20
-151.17590225940614
 30
0.0
 11
-591.37864795455278
 21
-216.17590225940387
 31
0.0
  0
LINE
  8
0
  6
DASHED2
 62
               4
  5
3AF
 10
-660.63864795455527
 20
-136.17590225940501
 30
0.0
 11
-660.63864795455527
 21
-127.64977376009779
 31
0.0
  0
LINE
  8
0
  6
DASHED2
 62
               4
  5
3B0
 10
-654.7496752088208
 20
-127.64977376009779
 30
0.0
 11
-654.7496752088208
 21
-136.17590225940501
 31
0.0
  0
LINE
  8
0
  6
DASHED2
 62
               4
  5
3B1
 10
-657.69416158168792
 20
-126.57590225940487
 30
0.0
 11
-640.06313432742195
 21
-126.57590225940487
 31
0.0
  0
LINE
  8
0
  6
DASHED2
 62
               4
  5
3B2
 10
-637.11864795455494
 20
-136.17590225940501
 30
0.0
 11
-637.11864795455494
 21
-127.64977376009779
 31
0.0
  0
LINE
  8
0
  6
DASHED2
 62
               4
  5
3B3
 10
-643.00762070028964
 20
-136.17590225940501
 30
0.0
 11
-643.00762070028964
 21
-127.64977376009779
 31
0.0
  0
ARC
  8
0
  6
DASHED2
 62
               4
  5
3B4
 10
-657.69416158168792
 20
-131.14963384352086
 30
0.0
 40
4.5737315841157447
 50
49.925579661593176
 51
130.07442033830333
  0
ARC
  8
0
  6
DASHED2
 62
               4
  5
3B5
 10
-640.06313432742195
 20
-131.14963384352086
 30
0.0
 40
4.5737315841157686
 50
49.925579661593176
 51
130.07442033830387
  0
ARC
  8
0
  6
DASHED2
 62
               4
  5
3B6
 10
-648.87864795455505
 20
-143.16176052892536
 30
0.0
 40
16.58585826952007
 50
69.269184858521257
 51
110.73081514137587
  0
LINE
  8
0
  6
DASHED2
 62
               4
  5
3B7
 10
-660.63864795455663
 20
-138.17590225940535
 30
0.0
 11
-660.63864795455663
 21
-146.70203075871257
 31
0.0
  0
LINE
  8
0
  6
DASHED2
 62
               4
  5
3B8
 10
-654.74967520882228
 20
-146.70203075871257
 30
0.0
 11
-654.74967520882228
 21
-138.17590225940535
 31
0.0
  0
LINE
  8
0
  6
DASHED2
 62
               4
  5
3B9
 10
-657.69416158168929
 20
-147.77590225940514
 30
0.0
 11
-640.06313432742365
 21
-147.77590225940514
 31
0.0
  0
LINE
  8
0
  6
DASHED2
 62
               4
  5
3BA
 10
-637.11864795455631
 20
-138.17590225940535
 30
0.0
 11
-637.11864795455631
 21
-146.70203075871257
 31
0.0
  0
LINE
  8
0
  6
DASHED2
 62
               4
  5
3BB
 10
-643.00762070029077
 20
-138.17590225940535
 30
0.0
 11
-643.00762070029077
 21
-146.70203075871257
 31
0.0
  0
ARC
  8
0
  6
DASHED2
 62
               4
  5
3BC
 10
-657.69416158168929
 20
-143.20217067528972
 30
0.0
 40
4.5737315841157447
 50
229.92557966149019
 51
310.07442033820132
  0
ARC
  8
0
  6
DASHED2
 62
               4
  5
3BD
 10
-640.06313432742365
 20
-143.20217067528972
 30
0.0
 40
4.5737315841157686
 50
229.92557966149019
 51
310.07442033820035
  0
ARC
  8
0
  6
DASHED2
 62
               4
  5
3BE
 10
-648.87864795455653
 20
-131.19004398988523
 30
0.0
 40
16.58585826952007
 50
249.26918485841776
 51
290.73081514127233
  0
LINE
  8
0
  6
DASHED2
 62
               4
  5
3BF
 10
-654.87864795455505
 20
-147.77590225940514
 30
0.0
 11
-654.87864795455505
 21
-158.29526850172977
 31
0.0
  0
LINE
  8
0
  6
DASHED2
 62
               4
  5
3C0
 10
-642.87864795455516
 20
-147.77590225940514
 30
0.0
 11
-642.87864795455516
 21
-158.29526850172977
 31
0.0
  0
LINE
  8
0
  6
DASHED2
 62
               4
  5
3C1
 10
-653.67864795455523
 20
-159.49526850173015
 30
0.0
 11
-644.07864795455521
 21
-159.49526850173015
 31
0.0
  0
LINE
  8
0
  6
DASHED2
 62
               4
  5
3C2
 10
-654.87864795455505
 20
-158.29526850172977
 30
0.0
 11
-653.67864795455523
 21
-159.49526850173015
 31
0.0
  0
LINE
  8
0
  6
DASHED2
 62
               4
  5
3C3
 10
-642.87864795455516
 20
-158.29526850172977
 30
0.0
 11
-644.07864795455521
 21
-159.49526850173015
 31
0.0
  0
LINE
  8
0
  6
DASHED2
 62
               4
  5
3C4
 10
-660.63864795455527
 20
-136.17590225940501
 30
0.0
 11
-637.11864795455494
 21
-136.17590225940501
 31
0.0
  0
LINE
  8
0
  6
DASHED2
 62
               4
  5
3C5
 10
-637.11864795455631
 20
-138.17590225940535
 30
0.0
 11
-660.63864795455663
 21
-138.17590225940535
 31
0.0
  0
LINE
  8
0
  6
DASHED2
 62
               4
  5
3C6
 10
-654.87864795455505
 20
-21.1123227834766
 30
0.0
 11
-654.87864795455505
 21
-126.57590225940527
 31
0.0
  0
LINE
  8
0
  6
DASHED2
 62
               4
  5
3C7
 10
-642.87864795455516
 20
-21.1123227834766
 30
0.0
 11
-642.87864795455516
 21
-126.57590225940527
 31
0.0
  0
LINE
  8
0
  6
DASHED2
 62
               4
  5
3C8
 10
-642.87864795455516
 20
-21.1123227834766
 30
0.0
 11
-654.87864795455505
 21
-21.1123227834766
 31
0.0
  0
LINE
  8
0
  6
DASHED2
 62
               4
  5
3C9
 10
608.12135204544484
 20
-36.175902259404779
 30
0.0
 11
608.12135204544484
 21
-136.17590225940478
 31
0.0
  0
LINE
  8
0
  6
DASHED2
 62
               4
  5
3CA
 10
493.98850649131396
 20
-36.175902259404779
 30
0.0
 11
493.98850649131396
 21
-136.27433000485598
 31
0.0
  0
LINE
  8
0
  6
DASHED2
 62
               4
  5
3CB
 10
493.62135204544256
 20
-151.17590225940592
 30
0.0
 11
493.62135204544256
 21
-216.17590225940364
 31
0.0
  0
LINE
  8
0
  6
DASHED2
 62
               4
  5
3CC
 10
551.12135204544552
 20
-136.17590225940478
 30
0.0
 11
494.12135204544541
 21
-136.17590225940478
 31
0.0
  0
LINE
  8
0
  6
DASHED2
 62
               4
  5
3CD
 10
493.62135204544256
 20
-151.17590225940592
 30
0.0
 11
551.12135204544438
 21
-151.17590225940478
 31
0.0
  0
LINE
  8
0
  6
DASHED2
 62
               4
  5
3CE
 10
551.12135204544552
 20
-136.17590225940478
 30
0.0
 11
608.12135204544552
 21
-136.17590225940478
 31
0.0
  0
LINE
  8
0
  6
DASHED2
 62
               4
  5
3CF
 10
608.62135204544734
 20
-151.17590225940592
 30
0.0
 11
551.12135204544552
 21
-151.17590225940478
 31
0.0
  0
LINE
  8
0
  6
DASHED2
 62
               4
  5
3D0
 10
608.62135204544734
 20
-151.17590225940592
 30
0.0
 11
608.62135204544734
 21
-216.17590225940364
 31
0.0
  0
LINE
  8
0
  6
DASHED2
 62
               4
  5
3D1
 10
539.36135204544485
 20
-136.17590225940478
 30
0.0
 11
539.36135204544485
 21
-127.64977376009756
 31
0.0
  0
LINE
  8
0
  6
DASHED2
 62
               4
  5
3D2
 10
545.25032479117931
 20
-127.64977376009756
 30
0.0
 11
545.25032479117931
 21
-136.17590225940478
 31
0.0
  0
LINE
  8
0
  6
DASHED2
 62
               4
  5
3D3
 10
542.30583841831208
 20
-126.57590225940464
 30
0.0
 11
559.93686567257805
 21
-126.57590225940464
 31
0.0
  0
LINE
  8
0
  6
DASHED2
 62
               4
  5
3D4
 10
562.88135204544506
 20
-136.17590225940478
 30
0.0
 11
562.88135204544506
 21
-127.64977376009756
 31
0.0
  0
LINE
  8
0
  6
DASHED2
 62
               4
  5
3D5
 10
556.99237929971036
 20
-136.17590225940478
 30
0.0
 11
556.99237929971036
 21
-127.64977376009756
 31
0.0
  0
ARC
  8
0
  6
DASHED2
 62
               4
  5
3D6
 10
542.30583841831208
 20
-131.14963384352063
 30
0.0
 40
4.5737315841157447
 50
49.925579661593176
 51
130.07442033830333
  0
ARC
  8
0
  6
DASHED2
 62
               4
  5
3D7
 10
559.93686567257805
 20
-131.14963384352063
 30
0.0
 40
4.5737315841157686
 50
49.925579661593176
 51
130.07442033830387
  0
ARC
  8
0
  6
DASHED2
 62
               4
  5
3D8
 10
551.12135204544506
 20
-143.16176052892513
 30
0.0
 40
16.58585826952007
 50
69.269184858521257
 51
110.73081514137587
  0
LINE
  8
0
  6
DASHED2
 62
               4
  5
3D9
 10
539.36135204544348
 20
-138.17590225940512
 30
0.0
 11
539.36135204544348
 21
-146.70203075871234
 31
0.0
  0
LINE
  8
0
  6
DASHED2
 62
               4
  5
3DA
 10
545.25032479117772
 20
-146.70203075871234
 30
0.0
 11
545.25032479117772
 21
-138.17590225940512
 31
0.0
  0
LINE
  8
0
  6
DASHED2
 62
               4
  5
3DB
 10
542.30583841831071
 20
-147.77590225940492
 30
0.0
 11
559.93686567257646
 21
-147.77590225940492
 31
0.0
  0
LINE
  8
0
  6
DASHED2
 62
               4
  5
3DC
 10
562.88135204544369
 20
-138.17590225940512
 30
0.0
 11
562.88135204544369
 21
-146.70203075871234
 31
0.0
  0
LINE
  8
0
  6
DASHED2
 62
               4
  5
3DD
 10
556.99237929970923
 20
-138.17590225940512
 30
0.0
 11
556.99237929970923
 21
-146.70203075871234
 31
0.0
  0
ARC
  8
0
  6
DASHED2
 62
               4
  5
3DE
 10
542.30583841831071
 20
-143.20217067528949
 30
0.0
 40
4.5737315841157447
 50
229.92557966149019
 51
310.07442033820132
  0
ARC
  8
0
  6
DASHED2
 62
               4
  5
3DF
 10
559.93686567257646
 20
-143.20217067528949
 30
0.0
 40
4.5737315841157686
 50
229.92557966149019
 51
310.07442033820035
  0
ARC
  8
0
  6
DASHED2
 62
               4
  5
3E0
 10
551.12135204544347
 20
-131.190043989885
 30
0.0
 40
16.58585826952007
 50
249.26918485841776
 51
290.73081514127233
  0
LINE
  8
0
  6
DASHED2
 62
               4
  5
3E1
 10
545.12135204544506
 20
-147.77590225940492
 30
0.0
 11
545.12135204544506
 21
-158.29526850172954
 31
0.0
  0
LINE
  8
0
  6
DASHED2
 62
               4
  5
3E2
 10
557.12135204544484
 20
-147.77590225940492
 30
0.0
 11
557.12135204544484
 21
-158.29526850172954
 31
0.0
  0
LINE
  8
0
  6
DASHED2
 62
               4
  5
3E3
 10
546.32135204544488
 20
-159.49526850172992
 30
0.0
 11
555.92135204544479
 21
-159.49526850172992
 31
0.0
  0
LINE
  8
0
  6
DASHED2
 62
               4
  5
3E4
 10
545.12135204544506
 20
-158.29526850172954
 30
0.0
 11
546.32135204544488
 21
-159.49526850172992
 31
0.0
  0
LINE
  8
0
  6
DASHED2
 62
               4
  5
3E5
 10
557.12135204544484
 20
-158.29526850172954
 30
0.0
 11
555.92135204544479
 21
-159.49526850172992
 31
0.0
  0
LINE
  8
0
  6
DASHED2
 62
               4
  5
3E6
 10
539.36135204544485
 20
-136.17590225940478
 30
0.0
 11
562.88135204544506
 21
-136.17590225940478
 31
0.0
  0
LINE
  8
0
  6
DASHED2
 62
               4
  5
3E7
 10
562.88135204544369
 20
-138.17590225940512
 30
0.0
 11
539.36135204544348
 21
-138.17590225940512
 31
0.0
  0
LINE
  8
0
  6
DASHED2
 62
               4
  5
3E8
 10
545.12135204544506
 20
-21.112322783476372
 30
0.0
 11
545.12135204544506
 21
-126.57590225940504
 31
0.0
  0
LINE
  8
0
  6
DASHED2
 62
               4
  5
3E9
 10
557.12135204544484
 20
-21.112322783476372
 30
0.0
 11
557.12135204544484
 21
-126.57590225940504
 31
0.0
  0
LINE
  8
0
  6
DASHED2
 62
               4
  5
3EA
 10
557.12135204544484
 20
-21.112322783476372
 30
0.0
 11
545.12135204544506
 21
-21.112322783476372
 31
0.0
  0
LINE
  8
0
  6
DASHED2
 62
               4
  5
3EB
 10
8.1213520454453914
 20
-36.175902259404779
 30
0.0
 11
8.1213520454453914
 21
-136.17590225940478
 31
0.0
  0
LINE
  8
0
  6
DASHED2
 62
               4
  5
3EC
 10
-106.01149350868546
 20
-36.175902259404779
 30
0.0
 11
-106.01149350868546
 21
-136.27433000485598
 31
0.0
  0
LINE
  8
0
  6
DASHED2
 62
               4
  5
3ED
 10
-106.37864795455747
 20
-151.17590225940592
 30
0.0
 11
-106.37864795455747
 21
-216.17590225940364
 31
0.0
  0
LINE
  8
0
  6
DASHED2
 62
               4
  5
3EE
 10
-48.878647954554481
 20
-136.17590225940478
 30
0.0
 11
-105.87864795455465
 21
-136.17590225940478
 31
0.0
  0
LINE
  8
0
  6
DASHED2
 62
               4
  5
3EF
 10
-106.37864795455747
 20
-151.17590225940592
 30
0.0
 11
-48.878647954555618
 21
-151.17590225940478
 31
0.0
  0
LINE
  8
0
  6
DASHED2
 62
               4
  5
3F0
 10
-48.878647954554481
 20
-136.17590225940478
 30
0.0
 11
8.1213520454454056
 21
-136.17590225940478
 31
0.0
  0
LINE
  8
0
  6
DASHED2
 62
               4
  5
3F1
 10
8.6213520454472246
 20
-151.17590225940592
 30
0.0
 11
-48.878647954554481
 21
-151.17590225940478
 31
0.0
  0
LINE
  8
0
  6
DASHED2
 62
               4
  5
3F2
 10
8.6213520454472246
 20
-151.17590225940592
 30
0.0
 11
8.6213520454472246
 21
-216.17590225940364
 31
0.0
  0
LINE
  8
0
  6
DASHED2
 62
               4
  5
3F3
 10
-185.63864795455521
 20
-136.17590225940432
 30
0.0
 11
-185.63864795455521
 21
-127.6497737600971
 31
0.0
  0
LINE
  8
0
  6
DASHED2
 62
               4
  5
3F4
 10
-179.7496752088208
 20
-127.6497737600971
 30
0.0
 11
-179.7496752088208
 21
-136.17590225940432
 31
0.0
  0
LINE
  8
0
  6
DASHED2
 62
               4
  5
3F5
 10
-182.69416158168787
 20
-126.57590225940419
 30
0.0
 11
-165.06313432742195
 21
-126.57590225940419
 31
0.0
  0
LINE
  8
0
  6
DASHED2
 62
               4
  5
3F6
 10
-162.11864795455489
 20
-136.17590225940432
 30
0.0
 11
-162.11864795455489
 21
-127.6497737600971
 31
0.0
  0
LINE
  8
0
  6
DASHED2
 62
               4
  5
3F7
 10
-168.00762070028958
 20
-136.17590225940432
 30
0.0
 11
-168.00762070028958
 21
-127.6497737600971
 31
0.0
  0
ARC
  8
0
  6
DASHED2
 62
               4
  5
3F8
 10
-182.69416158168787
 20
-131.14963384352018
 30
0.0
 40
4.5737315841157447
 50
49.925579661593176
 51
130.07442033830358
  0
ARC
  8
0
  6
DASHED2
 62
               4
  5
3F9
 10
-165.06313432742195
 20
-131.14963384352018
 30
0.0
 40
4.5737315841157686
 50
49.925579661593304
 51
130.07442033830372
  0
ARC
  8
0
  6
DASHED2
 62
               4
  5
3FA
 10
-173.87864795455505
 20
-143.16176052892467
 30
0.0
 40
16.58585826952007
 50
69.269184858521172
 51
110.73081514137587
  0
LINE
  8
0
  6
DASHED2
 62
               4
  5
3FB
 10
-185.63864795455663
 20
-138.17590225940467
 30
0.0
 11
-185.63864795455663
 21
-146.70203075871189
 31
0.0
  0
LINE
  8
0
  6
DASHED2
 62
               4
  5
3FC
 10
-179.74967520882223
 20
-146.70203075871189
 30
0.0
 11
-179.74967520882223
 21
-138.17590225940467
 31
0.0
  0
LINE
  8
0
  6
DASHED2
 62
               4
  5
3FD
 10
-182.69416158168929
 20
-147.77590225940446
 30
0.0
 11
-165.06313432742365
 21
-147.77590225940446
 31
0.0
  0
LINE
  8
0
  6
DASHED2
 62
               4
  5
3FE
 10
-162.11864795455631
 20
-138.17590225940467
 30
0.0
 11
-162.11864795455631
 21
-146.70203075871189
 31
0.0
  0
LINE
  8
0
  6
DASHED2
 62
               4
  5
3FF
 10
-168.00762070029072
 20
-138.17590225940467
 30
0.0
 11
-168.00762070029072
 21
-146.70203075871189
 31
0.0
  0
ARC
  8
0
  6
DASHED2
 62
               4
  5
400
 10
-182.69416158168929
 20
-143.20217067528904
 30
0.0
 40
4.5737315841157447
 50
229.92557966149019
 51
310.07442033820132
  0
ARC
  8
0
  6
DASHED2
 62
               4
  5
401
 10
-165.06313432742365
 20
-143.20217067528904
 30
0.0
 40
4.5737315841157686
 50
229.92557966149064
 51
310.07442033820121
  0
ARC
  8
0
  6
DASHED2
 62
               4
  5
402
 10
-173.87864795455647
 20
-131.19004398988454
 30
0.0
 40
16.58585826952007
 50
249.26918485841776
 51
290.73081514127233
  0
LINE
  8
0
  6
DASHED2
 62
               4
  5
403
 10
-179.87864795455499
 20
-147.77590225940446
 30
0.0
 11
-179.87864795455499
 21
-158.29526850172908
 31
0.0
  0
LINE
  8
0
  6
DASHED2
 62
               4
  5
404
 10
-167.87864795455511
 20
-147.77590225940446
 30
0.0
 11
-167.87864795455511
 21
-158.29526850172908
 31
0.0
  0
LINE
  8
0
  6
DASHED2
 62
               4
  5
405
 10
-178.67864795455523
 20
-159.49526850172947
 30
0.0
 11
-169.07864795455515
 21
-159.49526850172947
 31
0.0
  0
LINE
  8
0
  6
DASHED2
 62
               4
  5
406
 10
-179.87864795455499
 20
-158.29526850172908
 30
0.0
 11
-178.67864795455523
 21
-159.49526850172947
 31
0.0
  0
LINE
  8
0
  6
DASHED2
 62
               4
  5
407
 10
-167.87864795455511
 20
-158.29526850172908
 30
0.0
 11
-169.07864795455515
 21
-159.49526850172947
 31
0.0
  0
LINE
  8
0
  6
DASHED2
 62
               4
  5
408
 10
-185.63864795455521
 20
-136.17590225940432
 30
0.0
 11
-162.11864795455489
 21
-136.17590225940432
 31
0.0
  0
LINE
  8
0
  6
DASHED2
 62
               4
  5
409
 10
-162.11864795455631
 20
-138.17590225940467
 30
0.0
 11
-185.63864795455663
 21
-138.17590225940467
 31
0.0
  0
LINE
  8
0
  6
DASHED2
 62
               4
  5
40A
 10
87.881352045445084
 20
-136.17590225940432
 30
0.0
 11
87.881352045445084
 21
-127.6497737600971
 31
0.0
  0
LINE
  8
0
  6
DASHED2
 62
               4
  5
40B
 10
81.992379299710677
 20
-127.6497737600971
 30
0.0
 11
81.992379299710677
 21
-136.17590225940432
 31
0.0
  0
LINE
  8
0
  6
DASHED2
 62
               4
  5
40C
 10
84.936865672577738
 20
-126.57590225940419
 30
0.0
 11
67.305838418311822
 21
-126.57590225940419
 31
0.0
  0
LINE
  8
0
  6
DASHED2
 62
               4
  5
40D
 10
64.361352045444761
 20
-136.17590225940432
 30
0.0
 11
64.361352045444761
 21
-127.6497737600971
 31
0.0
  0
LINE
  8
0
  6
DASHED2
 62
               4
  5
40E
 10
70.250324791179452
 20
-136.17590225940432
 30
0.0
 11
70.250324791179452
 21
-127.6497737600971
 31
0.0
  0
ARC
  8
0
  6
DASHED2
 62
               4
  5
40F
 10
84.936865672577738
 20
-131.14963384352018
 30
0.0
 40
4.5737315841157447
 50
49.925579661626813
 51
130.07442033833769
  0
ARC
  8
0
  6
DASHED2
 62
               4
  5
410
 10
67.305838418311822
 20
-131.14963384352018
 30
0.0
 40
4.5737315841157686
 50
49.925579661626678
 51
130.07442033833755
  0
ARC
  8
0
  6
DASHED2
 62
               4
  5
411
 10
76.121352045444922
 20
-143.16176052892467
 30
0.0
 40
16.58585826952007
 50
69.269184858554965
 51
110.73081514140964
  0
LINE
  8
0
  6
DASHED2
 62
               4
  5
412
 10
87.881352045446505
 20
-138.17590225940467
 30
0.0
 11
87.881352045446505
 21
-146.70203075871189
 31
0.0
  0
LINE
  8
0
  6
DASHED2
 62
               4
  5
413
 10
81.992379299712098
 20
-146.70203075871189
 30
0.0
 11
81.992379299712098
 21
-138.17590225940467
 31
0.0
  0
LINE
  8
0
  6
DASHED2
 62
               4
  5
414
 10
84.93686567257916
 20
-147.77590225940446
 30
0.0
 11
67.305838418313527
 21
-147.77590225940446
 31
0.0
  0
LINE
  8
0
  6
DASHED2
 62
               4
  5
415
 10
64.361352045446182
 20
-138.17590225940467
 30
0.0
 11
64.361352045446182
 21
-146.70203075871189
 31
0.0
  0
LINE
  8
0
  6
DASHED2
 62
               4
  5
416
 10
70.250324791180589
 20
-138.17590225940467
 30
0.0
 11
70.250324791180589
 21
-146.70203075871189
 31
0.0
  0
ARC
  8
0
  6
DASHED2
 62
               4
  5
417
 10
84.93686567257916
 20
-143.20217067528904
 30
0.0
 40
4.5737315841157447
 50
229.92557966159103
 51
310.07442033830262
  0
ARC
  8
0
  6
DASHED2
 62
               4
  5
418
 10
67.305838418313527
 20
-143.20217067528904
 30
0.0
 40
4.5737315841157686
 50
229.92557966159134
 51
310.07442033830176
  0
ARC
  8
0
  6
DASHED2
 62
               4
  5
419
 10
76.121352045446343
 20
-131.19004398988454
 30
0.0
 40
16.58585826952007
 50
249.26918485851999
 51
290.73081514137471
  0
LINE
  8
0
  6
DASHED2
 62
               4
  5
41A
 10
82.121352045444866
 20
-147.77590225940446
 30
0.0
 11
82.121352045444866
 21
-158.29526850172908
 31
0.0
  0
LINE
  8
0
  6
DASHED2
 62
               4
  5
41B
 10
70.121352045444979
 20
-147.77590225940446
 30
0.0
 11
70.121352045444979
 21
-158.29526850172908
 31
0.0
  0
LINE
  8
0
  6
DASHED2
 62
               4
  5
41C
 10
80.921352045445104
 20
-159.49526850172947
 30
0.0
 11
71.321352045445025
 21
-159.49526850172947
 31
0.0
  0
LINE
  8
0
  6
DASHED2
 62
               4
  5
41D
 10
82.121352045444866
 20
-158.29526850172908
 30
0.0
 11
80.921352045445104
 21
-159.49526850172947
 31
0.0
  0
LINE
  8
0
  6
DASHED2
 62
               4
  5
41E
 10
70.121352045444979
 20
-158.29526850172908
 30
0.0
 11
71.321352045445025
 21
-159.49526850172947
 31
0.0
  0
LINE
  8
0
  6
DASHED2
 62
               4
  5
41F
 10
87.881352045445084
 20
-136.17590225940432
 30
0.0
 11
64.361352045444761
 21
-136.17590225940432
 31
0.0
  0
LINE
  8
0
  6
DASHED2
 62
               4
  5
420
 10
64.361352045446182
 20
-138.17590225940467
 30
0.0
 11
87.881352045446505
 21
-138.17590225940467
 31
0.0
  0
LINE
  8
0
  6
DASHED2
 62
               4
  5
421
 10
70.121352045444979
 20
-21.11232278347552
 30
0.0
 11
70.121352045444979
 21
-126.57590225940419
 31
0.0
  0
LINE
  8
0
  6
DASHED2
 62
               4
  5
422
 10
82.121352045444866
 20
-21.11232278347552
 30
0.0
 11
82.121352045444866
 21
-126.57590225940419
 31
0.0
  0
LINE
  8
0
  6
DASHED2
 62
               4
  5
423
 10
70.121352045444979
 20
-21.11232278347552
 30
0.0
 11
82.121352045444866
 21
-21.11232278347552
 31
0.0
  0
LINE
  8
0
  6
DASHED2
 62
               4
  5
424
 10
-167.87864795455511
 20
-21.11232278347552
 30
0.0
 11
-179.87864795455499
 21
-21.11232278347552
 31
0.0
  0
LINE
  8
0
  6
DASHED2
 62
               4
  5
425
 10
-167.87864795455511
 20
-21.11232278347552
 30
0.0
 11
-167.87864795455511
 21
-126.57590225940419
 31
0.0
  0
LINE
  8
0
  6
DASHED2
 62
               4
  5
426
 10
-179.87864795455499
 20
-21.11232278347552
 30
0.0
 11
-179.87864795455499
 21
-126.57590225940419
 31
0.0
  0
CIRCLE
  8
0
  6
DASHED
 62
               4
  5
427
 10
71.999259506083476
 20
-1187.8240977405953
 30
0.0
 40
33.5
  0
ARC
  8
0
  6
DIVIDE
 62
               4
  5
428
 10
-677.37864795455494
 20
-383.1088835635735
 30
0.0
 40
55.0
 50
58.789629707467164
 51
121.21037029246362
  0
ARC
  8
0
  6
DIVIDE
 62
               4
  5
429
 10
-677.37864795455494
 20
-289.02913016253592
 30
0.0
 40
55.0
 50
238.78962970739806
 51
301.21037029239432
  0
ARC
  8
0
  6
DIVIDE
 62
               4
  5
42A
 10
-681.37864795455494
 20
-358.57150429885132
 30
0.0
 40
65.0
 50
59.999999999976794
 51
119.99999999995403
  0
ARC
  8
0
  6
DIVIDE
 62
               4
  5
42B
 10
-620.37864795455494
 20
-289.02913016253615
 30
0.0
 40
55.0
 50
238.78962970739806
 51
301.21037029239449
  0
ARC
  8
0
  6
DIVIDE
 62
               4
  5
42C
 10
-616.37864795455505
 20
-245.98820180687426
 30
0.0
 40
65.0
 50
239.99999999990789
 51
299.99999999988472
  0
LINE
  8
0
  6
DIVIDE
 62
               4
  5
42D
 10
-705.87864795455494
 20
-298.36560757768279
 30
0.0
 11
-705.87864795455494
 21
-336.06900686305471
 31
0.0
  0
LINE
  8
0
  6
DIVIDE
 62
               4
  5
42E
 10
-591.87864795455494
 20
-306.19409852804279
 30
0.0
 11
-591.87864795455494
 21
-336.06900686305471
 31
0.0
  0
ARC
  8
0
  6
DIVIDE
 62
               4
  5
42F
 10
-681.37864795455494
 20
-245.98820180687449
 30
0.0
 40
65.0
 50
239.9999999999076
 51
247.85677929845662
  0
LINE
  8
0
  6
DIVIDE
 62
               4
  5
430
 10
-583.87864795455505
 20
-216.17590225940387
 30
0.0
 11
-583.87864795455505
 21
-302.27985305286279
 31
0.0
  0
LINE
  8
0
  6
DIVIDE
 62
               4
  5
431
 10
-713.87864795455494
 20
-216.17590225940387
 30
0.0
 11
-713.87864795455494
 21
-302.27985305286279
 31
0.0
  0
ARC
  8
0
  6
DIVIDE
 62
               4
  5
432
 10
522.62135204544506
 20
-383.10888356357327
 30
0.0
 40
55.0
 50
58.789629707467164
 51
121.21037029246362
  0
ARC
  8
0
  6
DIVIDE
 62
               4
  5
433
 10
522.62135204544506
 20
-289.02913016253569
 30
0.0
 40
55.0
 50
238.78962970739806
 51
301.21037029239432
  0
ARC
  8
0
  6
DIVIDE
 62
               4
  5
434
 10
518.62135204544506
 20
-358.5715042988511
 30
0.0
 40
65.0
 50
59.999999999976794
 51
119.99999999995403
  0
ARC
  8
0
  6
DIVIDE
 62
               4
  5
435
 10
579.62135204544506
 20
-289.02913016253592
 30
0.0
 40
55.0
 50
238.78962970739806
 51
301.21037029239449
  0
ARC
  8
0
  6
DIVIDE
 62
               4
  5
436
 10
583.62135204544506
 20
-245.98820180687403
 30
0.0
 40
65.0
 50
239.99999999990789
 51
299.99999999988472
  0
LINE
  8
0
  6
DIVIDE
 62
               4
  5
437
 10
494.12135204544506
 20
-298.36560757768257
 30
0.0
 11
494.12135204544506
 21
-336.06900686305448
 31
0.0
  0
LINE
  8
0
  6
DIVIDE
 62
               4
  5
438
 10
608.12135204544518
 20
-306.19409852804256
 30
0.0
 11
608.12135204544518
 21
-336.06900686305448
 31
0.0
  0
ARC
  8
0
  6
DIVIDE
 62
               4
  5
439
 10
518.62135204544506
 20
-245.98820180687426
 30
0.0
 40
65.0
 50
239.9999999999076
 51
247.85677929845662
  0
LINE
  8
0
  6
DIVIDE
 62
               4
  5
43A
 10
616.12135204544506
 20
-216.17590225940364
 30
0.0
 11
616.12135204544506
 21
-302.27985305286256
 31
0.0
  0
LINE
  8
0
  6
DIVIDE
 62
               4
  5
43B
 10
486.12135204544506
 20
-216.17590225940364
 30
0.0
 11
486.12135204544506
 21
-302.27985305286256
 31
0.0
  0
ARC
  8
0
  6
DIVIDE
 62
               4
  5
43C
 10
-77.378647954554992
 20
-383.10888356357327
 30
0.0
 40
55.0
 50
58.789629707467135
 51
121.21037029246354
  0
ARC
  8
0
  6
DIVIDE
 62
               4
  5
43D
 10
-77.378647954554992
 20
-289.02913016253569
 30
0.0
 40
55.0
 50
238.78962970739806
 51
301.21037029239432
  0
ARC
  8
0
  6
DIVIDE
 62
               4
  5
43E
 10
-81.378647954555049
 20
-358.5715042988511
 30
0.0
 40
65.0
 50
59.999999999976822
 51
119.999999999954
  0
ARC
  8
0
  6
DIVIDE
 62
               4
  5
43F
 10
-20.378647954554964
 20
-289.02913016253592
 30
0.0
 40
55.0
 50
238.78962970739812
 51
301.21037029239449
  0
ARC
  8
0
  6
DIVIDE
 62
               4
  5
440
 10
-16.378647954555049
 20
-245.98820180687403
 30
0.0
 40
65.0
 50
239.99999999990789
 51
299.99999999988472
  0
LINE
  8
0
  6
DIVIDE
 62
               4
  5
441
 10
-105.87864795455494
 20
-298.36560757768257
 30
0.0
 11
-105.87864795455494
 21
-336.06900686305448
 31
0.0
  0
LINE
  8
0
  6
DIVIDE
 62
               4
  5
442
 10
8.1213520454451213
 20
-306.19409852804256
 30
0.0
 11
8.1213520454451213
 21
-336.06900686305448
 31
0.0
  0
ARC
  8
0
  6
DIVIDE
 62
               4
  5
443
 10
-81.378647954555049
 20
-245.98820180687426
 30
0.0
 40
65.0
 50
239.99999999990749
 51
247.85677929845664
  0
LINE
  8
0
  6
DIVIDE
 62
               4
  5
444
 10
16.121352045444922
 20
-216.17590225940364
 30
0.0
 11
16.121352045444922
 21
-302.27985305286256
 31
0.0
  0
LINE
  8
0
  6
DIVIDE
 62
               4
  5
445
 10
-113.87864795455505
 20
-216.17590225940364
 30
0.0
 11
-113.87864795455505
 21
-302.27985305286256
 31
0.0
  0
POINT
  8
0
  6
DASHDOT
 62
               5
  5
446
 10
-48.878647954554481
 20
163.82409774059522
 30
0.0
  0
POINT
  8
0
  6
CONTINUOUS
 62
               5
  5
447
 10
-441.01641700502324
 20
-757.82409774059522
 30
0.0
  0
POINT
  8
0
  6
CONTINUOUS
 62
               5
  5
448
 10
-267.78634549506285
 20
-759.11489181548438
 30
0.0
  0
POINT
  8
0
  6
CONTINUOUS
 62
               5
  5
449
 10
-614.24648851498341
 20
-759.11489181548393
 30
0.0
  0
POINT
  8
0
  6
CONTINUOUS
 62
               5
  5
44A
 10
-444.25316847567882
 20
-577.1261421616
 30
0.0
  0
POINT
  8
0
  6
CONTINUOUS
 62
               5
  5
44B
 10
444.1379467717137
 20
-1175.9298899922778
 30
0.0
  0
POINT
  8
0
  6
CONTINUOUS
 62
               5
  5
44C
 10
444.13794677171381
 20
-698.84886809391514
 30
0.0
  0
POINT
  8
0
  6
CONTINUOUS
 62
               5
  5
44D
 10
71.999259506083533
 20
-1181.3240977405953
 30
0.0
  0
POINT
  8
0
  6
CONTINUOUS
 62
               5
  5
44E
 10
-101.23081200387668
 20
-1182.614891815484
 30
0.0
  0
POINT
  8
0
  6
CONTINUOUS
 62
               5
  5
44F
 10
245.22933101604383
 20
-1182.614891815484
 30
0.0
  0
POINT
  8
0
  6
CONTINUOUS
 62
               5
  5
450
 10
77.208465431194597
 20
-1014.594026230635
 30
0.0
  0
CIRCLE
  8
0
  6
CONTINUOUS
 62
               7
  5
451
 10
-441.01641700502324
 20
-764.32409774059522
 30
0.0
 40
38.0
  0
CIRCLE
  8
0
  6
CONTINUOUS
 62
               7
  5
452
 10
-441.01641700502324
 20
-764.32409774059522
 30
0.0
 40
33.5
  0
LINE
  8
0
  6
CONTINUOUS
 62
               7
  5
453
 10
-296.51641700502319
 20
-713.32409774059522
 30
0.0
 11
-296.51641700502319
 21
-802.31886161992077
 31
0.0
  0
LINE
  8
0
  6
CONTINUOUS
 62
               7
  5
454
 10
-295.91641700502316
 20
-713.32409774059522
 30
0.0
 11
-296.51641700502319
 21
-713.32409774059522
 31
0.0
  0
LINE
  8
0
  6
CONTINUOUS
 62
               7
  5
455
 10
-331.51641700502319
 20
-801.32409774059522
 30
0.0
 11
-331.51641700502319
 21
-727.32409774059522
 31
0.0
  0
LINE
  8
0
  6
CONTINUOUS
 62
               7
  5
456
 10
-238.51641700502319
 20
-801.32409774059522
 30
0.0
 11
-238.51641700502319
 21
-714.32409774059522
 31
0.0
  0
LINE
  8
0
  6
CONTINUOUS
 62
               7
  5
457
 10
-296.51641700502319
 20
-713.32409774059522
 30
0.0
 11
-239.51641700502319
 21
-713.32409774059522
 31
0.0
  0
LINE
  8
0
  6
CONTINUOUS
 62
               7
  5
458
 10
-330.51641700502319
 20
-802.32409774059522
 30
0.0
 11
-239.51641700502319
 21
-802.32409774059522
 31
0.0
  0
LINE
  8
0
  6
CONTINUOUS
 62
               7
  5
459
 10
-239.51641700502319
 20
-713.32409774059522
 30
0.0
 11
-238.51641700502319
 21
-714.32409774059522
 31
0.0
  0
LINE
  8
0
  6
CONTINUOUS
 62
               7
  5
45A
 10
-238.51641700502319
 20
-801.32409774059522
 30
0.0
 11
-239.51641700502319
 21
-802.32409774059522
 31
0.0
  0
LINE
  8
0
  6
CONTINUOUS
 62
               7
  5
45B
 10
-330.51641700502319
 20
-726.32409774059522
 30
0.0
 11
-296.51641700502319
 21
-726.32409774059522
 31
0.0
  0
CIRCLE
  8
0
  6
CONTINUOUS
 62
               7
  5
45C
 10
-441.01641700502324
 20
-757.82409774059522
 30
0.0
 40
44.5
  0
LINE
  8
0
  6
CONTINUOUS
 62
               7
  5
45D
 10
-330.51641700502319
 20
-726.32409774059522
 30
0.0
 11
-331.51641700502319
 21
-727.32409774059522
 31
0.0
  0
LINE
  8
0
  6
CONTINUOUS
 62
               7
  5
45E
 10
-331.51641700502319
 20
-801.32409774059522
 30
0.0
 11
-330.51641700502319
 21
-802.32409774059522
 31
0.0
  0
LINE
  8
0
  6
CONTINUOUS
 62
               7
  5
45F
 10
-585.51641700502319
 20
-713.32409774059522
 30
0.0
 11
-585.51641700502319
 21
-802.31886161992077
 31
0.0
  0
LINE
  8
0
  6
CONTINUOUS
 62
               7
  5
460
 10
-586.1164170050231
 20
-713.32409774059522
 30
0.0
 11
-585.51641700502319
 21
-713.32409774059522
 31
0.0
  0
LINE
  8
0
  6
CONTINUOUS
 62
               7
  5
461
 10
-550.51641700502319
 20
-801.32409774059522
 30
0.0
 11
-550.51641700502319
 21
-727.32409774059522
 31
0.0
  0
LINE
  8
0
  6
CONTINUOUS
 62
               7
  5
462
 10
-643.51641700502319
 20
-801.32409774059522
 30
0.0
 11
-643.51641700502319
 21
-714.32409774059522
 31
0.0
  0
LINE
  8
0
  6
CONTINUOUS
 62
               7
  5
463
 10
-585.51641700502319
 20
-713.32409774059522
 30
0.0
 11
-642.51641700502319
 21
-713.32409774059522
 31
0.0
  0
LINE
  8
0
  6
CONTINUOUS
 62
               7
  5
464
 10
-551.51641700502319
 20
-802.32409774059522
 30
0.0
 11
-642.51641700502319
 21
-802.32409774059522
 31
0.0
  0
LINE
  8
0
  6
CONTINUOUS
 62
               7
  5
465
 10
-642.51641700502319
 20
-713.32409774059522
 30
0.0
 11
-643.51641700502319
 21
-714.32409774059522
 31
0.0
  0
LINE
  8
0
  6
CONTINUOUS
 62
               7
  5
466
 10
-643.51641700502319
 20
-801.32409774059522
 30
0.0
 11
-642.51641700502319
 21
-802.32409774059522
 31
0.0
  0
LINE
  8
0
  6
CONTINUOUS
 62
               7
  5
467
 10
-551.51641700502319
 20
-726.32409774059522
 30
0.0
 11
-585.51641700502319
 21
-726.32409774059522
 31
0.0
  0
LINE
  8
0
  6
CONTINUOUS
 62
               7
  5
468
 10
-551.51641700502319
 20
-726.32409774059522
 30
0.0
 11
-550.51641700502319
 21
-727.32409774059522
 31
0.0
  0
LINE
  8
0
  6
CONTINUOUS
 62
               7
  5
469
 10
-550.51641700502319
 20
-801.32409774059522
 30
0.0
 11
-551.51641700502319
 21
-802.32409774059522
 31
0.0
  0
LINE
  8
0
  6
CONTINUOUS
 62
               7
  5
46A
 10
-398.46237440078971
 20
-605.85621367156045
 30
0.0
 11
-487.4571382801152
 21
-605.85621367156023
 31
0.0
  0
LINE
  8
0
  6
CONTINUOUS
 62
               7
  5
46B
 10
-398.46237440078971
 20
-605.25621367156032
 30
0.0
 11
-398.46237440078971
 21
-605.85621367156045
 31
0.0
  0
LINE
  8
0
  6
CONTINUOUS
 62
               7
  5
46C
 10
-479.96237440078966
 20
-640.85621367156023
 30
0.0
 11
-405.96237440078971
 21
-640.85621367156045
 31
0.0
  0
LINE
  8
0
  6
CONTINUOUS
 62
               7
  5
46D
 10
-486.46237440078966
 20
-547.85621367156023
 30
0.0
 11
-399.46237440078971
 21
-547.85621367156045
 31
0.0
  0
LINE
  8
0
  6
CONTINUOUS
 62
               7
  5
46E
 10
-398.46237440078971
 20
-605.85621367156045
 30
0.0
 11
-398.46237440078971
 21
-548.85621367156045
 31
0.0
  0
LINE
  8
0
  6
CONTINUOUS
 62
               7
  5
46F
 10
-480.96237440078966
 20
-639.85621367156023
 30
0.0
 11
-480.96237440078966
 21
-605.85621367156023
 31
0.0
  0
LINE
  8
0
  6
CONTINUOUS
 62
               7
  5
470
 10
-398.46237440078971
 20
-548.85621367156045
 30
0.0
 11
-399.46237440078971
 21
-547.85621367156045
 31
0.0
  0
LINE
  8
0
  6
CONTINUOUS
 62
               7
  5
471
 10
-486.46237440078966
 20
-547.85621367156023
 30
0.0
 11
-487.46237440078966
 21
-548.85621367156023
 31
0.0
  0
LINE
  8
0
  6
CONTINUOUS
 62
               7
  5
472
 10
-404.96237440078971
 20
-639.85621367156045
 30
0.0
 11
-404.96237440078971
 21
-605.85621367156023
 31
0.0
  0
LINE
  8
0
  6
CONTINUOUS
 62
               7
  5
473
 10
-404.96237440078971
 20
-639.85621367156045
 30
0.0
 11
-405.96237440078971
 21
-640.85621367156045
 31
0.0
  0
LINE
  8
0
  6
CONTINUOUS
 62
               7
  5
474
 10
-479.96237440078966
 20
-640.85621367156023
 30
0.0
 11
-480.96237440078966
 21
-639.85621367156023
 31
0.0
  0
LINE
  8
0
  6
CONTINUOUS
 62
               7
  5
475
 10
-487.46237440078966
 20
-605.85621367156023
 30
0.0
 11
-487.46237440078966
 21
-548.85621367156023
 31
0.0
  0
LINE
  8
0
  6
CONTINUOUS
 62
               7
  5
476
 10
167.75527573132649
 20
-801.32409774059522
 30
0.0
 11
167.75527573132649
 21
-743.32409774059522
 31
0.0
  0
LINE
  8
0
  6
CONTINUOUS
 62
               7
  5
477
 10
193.3552757313264
 20
-713.32409774059522
 30
0.0
 11
193.3552757313264
 21
-802.32409774059522
 31
0.0
  0
LINE
  8
0
  6
CONTINUOUS
 62
               7
  5
478
 10
193.95527573132654
 20
-713.32409774059522
 30
0.0
 11
193.3552757313264
 21
-713.32409774059522
 31
0.0
  0
LINE
  8
0
  6
CONTINUOUS
 62
               7
  5
479
 10
251.35527573132663
 20
-801.32409774059522
 30
0.0
 11
251.35527573132663
 21
-714.32409774059522
 31
0.0
  0
CIRCLE
  8
0
  6
CONTINUOUS
 62
               7
  5
47A
 10
71.99925950608349
 20
-772.32409774059522
 30
0.0
 40
30.0
  0
CIRCLE
  8
0
  6
CONTINUOUS
 62
               7
  5
47B
 10
71.99925950608349
 20
-772.32409774059522
 30
0.0
 40
25.5
  0
CIRCLE
  8
0
  6
CONTINUOUS
 62
               7
  5
47C
 10
71.99925950608349
 20
-757.82409774059522
 30
0.0
 40
44.5
  0
LINE
  8
0
  6
CONTINUOUS
 62
               7
  5
47D
 10
193.48972747680682
 20
-713.32409774059522
 30
0.0
 11
250.35527573132663
 21
-713.32409774059522
 31
0.0
  0
LINE
  8
0
  6
CONTINUOUS
 62
               7
  5
47E
 10
168.75527573132649
 20
-802.32409774059522
 30
0.0
 11
250.35527573132663
 21
-802.32409774059522
 31
0.0
  0
LINE
  8
0
  6
CONTINUOUS
 62
               7
  5
47F
 10
168.75527573132649
 20
-742.32409774059522
 30
0.0
 11
193.3552757313264
 21
-742.32409774059522
 31
0.0
  0
LINE
  8
0
  6
CONTINUOUS
 62
               7
  5
480
 10
168.75527573132649
 20
-742.32409774059522
 30
0.0
 11
167.75527573132649
 21
-743.32409774059522
 31
0.0
  0
LINE
  8
0
  6
CONTINUOUS
 62
               7
  5
481
 10
250.35527573132663
 20
-713.32409774059522
 30
0.0
 11
251.35527573132663
 21
-714.32409774059522
 31
0.0
  0
LINE
  8
0
  6
CONTINUOUS
 62
               7
  5
482
 10
167.75527573132649
 20
-801.32409774059522
 30
0.0
 11
168.75527573132649
 21
-802.32409774059522
 31
0.0
  0
LINE
  8
0
  6
CONTINUOUS
 62
               7
  5
483
 10
251.35527573132663
 20
-801.32409774059522
 30
0.0
 11
250.35527573132663
 21
-802.32409774059522
 31
0.0
  0
LINE
  8
0
  6
CONTINUOUS
 62
               7
  5
484
 10
-23.756756719159284
 20
-801.32409774059522
 30
0.0
 11
-23.756756719159284
 21
-743.32409774059522
 31
0.0
  0
LINE
  8
0
  6
CONTINUOUS
 62
               7
  5
485
 10
-49.356756719159307
 20
-713.32409774059522
 30
0.0
 11
-49.356756719159307
 21
-802.32409774059522
 31
0.0
  0
LINE
  8
0
  6
CONTINUOUS
 62
               7
  5
486
 10
-49.95675671915933
 20
-713.32409774059522
 30
0.0
 11
-49.356756719159307
 21
-713.32409774059522
 31
0.0
  0
LINE
  8
0
  6
CONTINUOUS
 62
               7
  5
487
 10
-107.35675671915931
 20
-801.32409774059522
 30
0.0
 11
-107.35675671915931
 21
-714.32409774059522
 31
0.0
  0
LINE
  8
0
  6
CONTINUOUS
 62
               7
  5
488
 10
-49.491208464639612
 20
-713.32409774059522
 30
0.0
 11
-106.35675671915931
 21
-713.32409774059522
 31
0.0
  0
LINE
  8
0
  6
CONTINUOUS
 62
               7
  5
489
 10
-24.756756719159284
 20
-802.32409774059522
 30
0.0
 11
-106.35675671915931
 21
-802.32409774059522
 31
0.0
  0
LINE
  8
0
  6
CONTINUOUS
 62
               7
  5
48A
 10
-24.756756719159284
 20
-742.32409774059522
 30
0.0
 11
-49.356756719159307
 21
-742.32409774059522
 31
0.0
  0
LINE
  8
0
  6
CONTINUOUS
 62
               7
  5
48B
 10
-24.756756719159284
 20
-742.32409774059522
 30
0.0
 11
-23.756756719159284
 21
-743.32409774059522
 31
0.0
  0
LINE
  8
0
  6
CONTINUOUS
 62
               7
  5
48C
 10
-106.35675671915931
 20
-713.32409774059522
 30
0.0
 11
-107.35675671915931
 21
-714.32409774059522
 31
0.0
  0
LINE
  8
0
  6
CONTINUOUS
 62
               7
  5
48D
 10
-23.756756719159284
 20
-801.32409774059522
 30
0.0
 11
-24.756756719159284
 21
-802.32409774059522
 31
0.0
  0
LINE
  8
0
  6
CONTINUOUS
 62
               7
  5
48E
 10
-107.35675671915931
 20
-801.32409774059522
 30
0.0
 11
-106.35675671915931
 21
-802.32409774059522
 31
0.0
  0
LINE
  8
0
  6
CONTINUOUS
 62
               7
  5
48F
 10
42.999259506083717
 20
-651.56808151535256
 30
0.0
 11
100.9992595060837
 21
-651.56808151535256
 31
0.0
  0
LINE
  8
0
  6
CONTINUOUS
 62
               7
  5
490
 10
116.4992595060837
 20
-625.96808151535242
 30
0.0
 11
27.499259506083717
 21
-625.96808151535242
 31
0.0
  0
LINE
  8
0
  6
CONTINUOUS
 62
               7
  5
491
 10
116.4992595060837
 20
-625.36808151535251
 30
0.0
 11
116.4992595060837
 21
-625.96808151535242
 31
0.0
  0
LINE
  8
0
  6
CONTINUOUS
 62
               7
  5
492
 10
28.499259506083717
 20
-567.96808151535242
 30
0.0
 11
115.4992595060837
 21
-567.96808151535242
 31
0.0
  0
LINE
  8
0
  6
CONTINUOUS
 62
               7
  5
493
 10
116.4992595060837
 20
-625.83362976987223
 30
0.0
 11
116.4992595060837
 21
-568.96808151535242
 31
0.0
  0
LINE
  8
0
  6
CONTINUOUS
 62
               7
  5
494
 10
41.999259506083717
 20
-650.56808151535256
 30
0.0
 11
41.999259506083717
 21
-625.96808151535242
 31
0.0
  0
LINE
  8
0
  6
CONTINUOUS
 62
               7
  5
495
 10
101.9992595060837
 20
-650.56808151535256
 30
0.0
 11
101.9992595060837
 21
-625.96808151535242
 31
0.0
  0
LINE
  8
0
  6
CONTINUOUS
 62
               7
  5
496
 10
101.9992595060837
 20
-650.56808151535256
 30
0.0
 11
100.9992595060837
 21
-651.56808151535256
 31
0.0
  0
LINE
  8
0
  6
CONTINUOUS
 62
               7
  5
497
 10
116.4992595060837
 20
-568.96808151535242
 30
0.0
 11
115.4992595060837
 21
-567.96808151535242
 31
0.0
  0
LINE
  8
0
  6
CONTINUOUS
 62
               7
  5
498
 10
42.999259506083717
 20
-651.56808151535256
 30
0.0
 11
41.999259506083717
 21
-650.56808151535256
 31
0.0
  0
LINE
  8
0
  6
CONTINUOUS
 62
               7
  5
499
 10
28.499259506083717
 20
-567.96808151535242
 30
0.0
 11
27.499259506083717
 21
-568.96808151535242
 31
0.0
  0
LINE
  8
0
  6
CONTINUOUS
 62
               7
  5
49A
 10
27.499259506083717
 20
-625.833629769872
 30
0.0
 11
27.499259506083717
 21
-568.96808151535242
 31
0.0
  0
CIRCLE
  8
0
  6
CONTINUOUS
 62
               7
  5
49B
 10
560.40787526175336
 20
-1189.1390959173887
 30
0.0
 40
25.5
  0
CIRCLE
  8
0
  6
CONTINUOUS
 62
               7
  5
49C
 10
560.40787526175336
 20
-1174.6390959173887
 30
0.0
 40
44.5
  0
CIRCLE
  8
0
  6
CONTINUOUS
 62
               7
  5
49D
 10
560.40787526175336
 20
-1189.1390959173887
 30
0.0
 40
30.0
  0
LINE
  8
0
  6
CONTINUOUS
 62
               7
  5
49E
 10
531.40787526175336
 20
-870.73966216880433
 30
0.0
 11
589.40787526175336
 21
-870.73966216880433
 31
0.0
  0
LINE
  8
0
  6
CONTINUOUS
 62
               7
  5
49F
 10
604.90787526175336
 20
-845.13966216880442
 30
0.0
 11
515.90787526175336
 21
-845.13966216880442
 31
0.0
  0
LINE
  8
0
  6
CONTINUOUS
 62
               7
  5
4A0
 10
604.90787526175336
 20
-844.53966216880451
 30
0.0
 11
604.90787526175336
 21
-845.13966216880442
 31
0.0
  0
LINE
  8
0
  6
CONTINUOUS
 62
               7
  5
4A1
 10
516.90787526175336
 20
-787.13966216880397
 30
0.0
 11
603.90787526175336
 21
-787.13966216880397
 31
0.0
  0
LINE
  8
0
  6
CONTINUOUS
 62
               7
  5
4A2
 10
604.90787526175336
 20
-845.005210423324
 30
0.0
 11
604.90787526175336
 21
-788.13966216880397
 31
0.0
  0
LINE
  8
0
  6
CONTINUOUS
 62
               7
  5
4A3
 10
530.40787526175336
 20
-869.73966216880433
 30
0.0
 11
530.40787526175336
 21
-845.13966216880442
 31
0.0
  0
LINE
  8
0
  6
CONTINUOUS
 62
               7
  5
4A4
 10
590.40787526175336
 20
-869.73966216880433
 30
0.0
 11
590.40787526175336
 21
-845.13966216880442
 31
0.0
  0
LINE
  8
0
  6
CONTINUOUS
 62
               7
  5
4A5
 10
590.40787526175336
 20
-869.73966216880433
 30
0.0
 11
589.40787526175336
 21
-870.73966216880433
 31
0.0
  0
LINE
  8
0
  6
CONTINUOUS
 62
               7
  5
4A6
 10
604.90787526175336
 20
-788.13966216880397
 30
0.0
 11
603.90787526175336
 21
-787.13966216880397
 31
0.0
  0
LINE
  8
0
  6
CONTINUOUS
 62
               7
  5
4A7
 10
531.40787526175336
 20
-870.73966216880433
 30
0.0
 11
530.40787526175336
 21
-869.73966216880433
 31
0.0
  0
LINE
  8
0
  6
CONTINUOUS
 62
               7
  5
4A8
 10
516.90787526175336
 20
-787.13966216880397
 30
0.0
 11
515.90787526175336
 21
-788.13966216880397
 31
0.0
  0
LINE
  8
0
  6
CONTINUOUS
 62
               7
  5
4A9
 10
515.90787526175336
 20
-845.005210423324
 30
0.0
 11
515.90787526175336
 21
-788.13966216880397
 31
0.0
  0
LINE
  8
0
  6
CONTINUOUS
 62
               7
  5
4AA
 10
415.40787526175336
 20
-1130.1390959173887
 30
0.0
 11
415.40787526175336
 21
-1219.1338597967142
 31
0.0
  0
LINE
  8
0
  6
CONTINUOUS
 62
               7
  5
4AB
 10
416.00787526175338
 20
-1130.1390959173887
 30
0.0
 11
415.40787526175336
 21
-1130.1390959173887
 31
0.0
  0
LINE
  8
0
  6
CONTINUOUS
 62
               7
  5
4AC
 10
380.40787526175336
 20
-1218.1390959173887
 30
0.0
 11
380.40787526175336
 21
-1144.1390959173887
 31
0.0
  0
LINE
  8
0
  6
CONTINUOUS
 62
               7
  5
4AD
 10
473.40787526175342
 20
-1218.1390959173887
 30
0.0
 11
473.40787526175342
 21
-1131.1390959173887
 31
0.0
  0
LINE
  8
0
  6
CONTINUOUS
 62
               7
  5
4AE
 10
415.40787526175336
 20
-1130.1390959173887
 30
0.0
 11
472.40787526175342
 21
-1130.1390959173887
 31
0.0
  0
LINE
  8
0
  6
CONTINUOUS
 62
               7
  5
4AF
 10
381.40787526175336
 20
-1219.1390959173887
 30
0.0
 11
472.40787526175342
 21
-1219.1390959173887
 31
0.0
  0
LINE
  8
0
  6
CONTINUOUS
 62
               7
  5
4B0
 10
472.40787526175342
 20
-1130.1390959173887
 30
0.0
 11
473.40787526175342
 21
-1131.1390959173887
 31
0.0
  0
LINE
  8
0
  6
CONTINUOUS
 62
               7
  5
4B1
 10
473.40787526175342
 20
-1218.1390959173887
 30
0.0
 11
472.40787526175342
 21
-1219.1390959173887
 31
0.0
  0
LINE
  8
0
  6
CONTINUOUS
 62
               7
  5
4B2
 10
381.40787526175336
 20
-1143.1390959173887
 30
0.0
 11
415.40787526175336
 21
-1143.1390959173887
 31
0.0
  0
LINE
  8
0
  6
CONTINUOUS
 62
               7
  5
4B3
 10
381.40787526175336
 20
-1143.1390959173887
 30
0.0
 11
380.40787526175336
 21
-1144.1390959173887
 31
0.0
  0
LINE
  8
0
  6
CONTINUOUS
 62
               7
  5
4B4
 10
380.40787526175336
 20
-1218.1390959173887
 30
0.0
 11
381.40787526175336
 21
-1219.1390959173887
 31
0.0
  0
LINE
  8
0
  6
CONTINUOUS
 62
               7
  5
4B5
 10
415.40787526175336
 20
-744.63966216880397
 30
0.0
 11
415.40787526175359
 21
-655.64489828947853
 31
0.0
  0
LINE
  8
0
  6
CONTINUOUS
 62
               7
  5
4B6
 10
416.0078752617535
 20
-744.63966216880397
 30
0.0
 11
415.40787526175336
 21
-744.63966216880397
 31
0.0
  0
LINE
  8
0
  6
CONTINUOUS
 62
               7
  5
4B7
 10
380.40787526175359
 20
-663.13966216880408
 30
0.0
 11
380.40787526175336
 21
-737.13966216880397
 31
0.0
  0
LINE
  8
0
  6
CONTINUOUS
 62
               7
  5
4B8
 10
473.40787526175365
 20
-656.63966216880431
 30
0.0
 11
473.40787526175342
 21
-743.63966216880397
 31
0.0
  0
LINE
  8
0
  6
CONTINUOUS
 62
               7
  5
4B9
 10
415.40787526175336
 20
-744.63966216880397
 30
0.0
 11
472.40787526175342
 21
-744.63966216880397
 31
0.0
  0
LINE
  8
0
  6
CONTINUOUS
 62
               7
  5
4BA
 10
381.40787526175359
 20
-662.13966216880408
 30
0.0
 11
415.40787526175359
 21
-662.13966216880408
 31
0.0
  0
LINE
  8
0
  6
CONTINUOUS
 62
               7
  5
4BB
 10
472.40787526175342
 20
-744.63966216880397
 30
0.0
 11
473.40787526175342
 21
-743.63966216880397
 31
0.0
  0
LINE
  8
0
  6
CONTINUOUS
 62
               7
  5
4BC
 10
473.40787526175365
 20
-656.63966216880431
 30
0.0
 11
472.40787526175365
 21
-655.63966216880431
 31
0.0
  0
LINE
  8
0
  6
CONTINUOUS
 62
               7
  5
4BD
 10
381.40787526175336
 20
-738.13966216880397
 30
0.0
 11
415.40787526175359
 21
-738.13966216880397
 31
0.0
  0
LINE
  8
0
  6
CONTINUOUS
 62
               7
  5
4BE
 10
381.40787526175336
 20
-738.13966216880397
 30
0.0
 11
380.40787526175336
 21
-737.13966216880397
 31
0.0
  0
LINE
  8
0
  6
CONTINUOUS
 62
               7
  5
4BF
 10
380.40787526175359
 20
-663.13966216880408
 30
0.0
 11
381.40787526175359
 21
-662.13966216880408
 31
0.0
  0
LINE
  8
0
  6
CONTINUOUS
 62
               7
  5
4C0
 10
415.40787526175359
 20
-655.63966216880408
 30
0.0
 11
472.40787526175365
 21
-655.63966216880408
 31
0.0
  0
CIRCLE
  8
0
  6
CONTINUOUS
 62
               7
  5
4C1
 10
71.999259506083533
 20
-1187.8240977405953
 30
0.0
 40
38.0
  0
LINE
  8
0
  6
CONTINUOUS
 62
               7
  5
4C2
 10
-72.500740493916339
 20
-1149.8240977405949
 30
0.0
 11
-72.500740493916453
 21
-1225.8188616199204
 31
0.0
  0
LINE
  8
0
  6
CONTINUOUS
 62
               7
  5
4C3
 10
-72.500740493916339
 20
-1136.8240977405949
 30
0.0
 11
-71.900740493916373
 21
-1136.8240977405949
 31
0.0
  0
LINE
  8
0
  6
CONTINUOUS
 62
               7
  5
4C4
 10
-130.50074049391645
 20
-1224.8240977405949
 30
0.0
 11
-130.50074049391645
 21
-1150.8240977405949
 31
0.0
  0
LINE
  8
0
  6
CONTINUOUS
 62
               7
  5
4C5
 10
-72.500740493916453
 20
-1225.8240977405949
 30
0.0
 11
-47.900740493916388
 21
-1225.8240977405949
 31
0.0
  0
LINE
  8
0
  6
CONTINUOUS
 62
               7
  5
4C6
 10
-130.50074049391645
 20
-1224.8240977405949
 30
0.0
 11
-129.50074049391645
 21
-1225.8240977405949
 31
0.0
  0
LINE
  8
0
  6
CONTINUOUS
 62
               7
  5
4C7
 10
-129.50074049391645
 20
-1149.8240977405949
 30
0.0
 11
-72.500740493916339
 21
-1149.8240977405949
 31
0.0
  0
LINE
  8
0
  6
CONTINUOUS
 62
               7
  5
4C8
 10
-37.500740493916467
 20
-1224.8240977405949
 30
0.0
 11
-38.500740493916467
 21
-1225.8240977405949
 31
0.0
  0
CIRCLE
  8
0
  6
CONTINUOUS
 62
               7
  5
4C9
 10
71.999259506083476
 20
-1195.8240977405953
 30
0.0
 40
30.0
  0
CIRCLE
  8
0
  6
CONTINUOUS
 62
               7
  5
4CA
 10
71.999259506083476
 20
-1195.8240977405953
 30
0.0
 40
0.1981604108525852
  0
CIRCLE
  8
0
  6
CONTINUOUS
 62
               7
  5
4CB
 10
71.999259506083476
 20
-1195.8240977405953
 30
0.0
 40
25.5
  0
LINE
  8
0
  6
CONTINUOUS
 62
               7
  5
4CC
 10
-46.900740493916388
 20
-1224.8240977405949
 30
0.0
 11
-46.900740493916388
 21
-1166.8240977405953
 31
0.0
  0
LINE
  8
0
  6
CONTINUOUS
 62
               7
  5
4CD
 10
-72.500740493916339
 20
-1165.8240977405953
 30
0.0
 11
-47.900740493916388
 21
-1165.8240977405953
 31
0.0
  0
LINE
  8
0
  6
CONTINUOUS
 62
               7
  5
4CE
 10
-72.500740493916453
 20
-1225.8188616199204
 30
0.0
 11
-129.50074049391645
 21
-1225.8240977405949
 31
0.0
  0
LINE
  8
0
  6
CONTINUOUS
 62
               7
  5
4CF
 10
-129.50074049391645
 20
-1149.8240977405949
 30
0.0
 11
-130.50074049391645
 21
-1150.8240977405949
 31
0.0
  0
LINE
  8
0
  6
CONTINUOUS
 62
               7
  5
4D0
 10
-47.900740493916388
 20
-1165.8240977405953
 30
0.0
 11
-46.900740493916388
 21
-1166.8240977405953
 31
0.0
  0
LINE
  8
0
  6
CONTINUOUS
 62
               7
  5
4D1
 10
-46.900740493916388
 20
-1224.8240977405949
 30
0.0
 11
-47.900740493916388
 21
-1225.8240977405949
 31
0.0
  0
LINE
  8
0
  6
CONTINUOUS
 62
               7
  5
4D2
 10
216.49925950608349
 20
-1149.8240977405953
 30
0.0
 11
216.49925950608343
 21
-1225.8188616199209
 31
0.0
  0
LINE
  8
0
  6
CONTINUOUS
 62
               7
  5
4D3
 10
216.49925950608349
 20
-1136.8240977405953
 30
0.0
 11
215.89925950608352
 21
-1136.8240977405953
 31
0.0
  0
LINE
  8
0
  6
CONTINUOUS
 62
               7
  5
4D4
 10
274.49925950608349
 20
-1224.8240977405953
 30
0.0
 11
274.49925950608355
 21
-1150.8240977405953
 31
0.0
  0
LINE
  8
0
  6
CONTINUOUS
 62
               7
  5
4D5
 10
216.49925950608343
 20
-1225.8240977405953
 30
0.0
 11
191.89925950608341
 21
-1225.8240977405953
 31
0.0
  0
LINE
  8
0
  6
CONTINUOUS
 62
               7
  5
4D6
 10
274.49925950608349
 20
-1224.8240977405953
 30
0.0
 11
273.49925950608349
 21
-1225.8240977405953
 31
0.0
  0
LINE
  8
0
  6
CONTINUOUS
 62
               7
  5
4D7
 10
273.49925950608355
 20
-1149.8240977405953
 30
0.0
 11
216.49925950608349
 21
-1149.8240977405953
 31
0.0
  0
LINE
  8
0
  6
CONTINUOUS
 62
               7
  5
4D8
 10
181.49925950608349
 20
-1224.8240977405953
 30
0.0
 11
182.49925950608349
 21
-1225.8240977405953
 31
0.0
  0
LINE
  8
0
  6
CONTINUOUS
 62
               7
  5
4D9
 10
190.89925950608341
 20
-1224.8240977405953
 30
0.0
 11
190.89925950608347
 21
-1166.8240977405953
 31
0.0
  0
LINE
  8
0
  6
CONTINUOUS
 62
               7
  5
4DA
 10
216.49925950608343
 20
-1165.8240977405953
 30
0.0
 11
191.89925950608347
 21
-1165.8240977405953
 31
0.0
  0
LINE
  8
0
  6
CONTINUOUS
 62
               7
  5
4DB
 10
216.49925950608343
 20
-1225.8188616199209
 30
0.0
 11
273.49925950608349
 21
-1225.8240977405953
 31
0.0
  0
LINE
  8
0
  6
CONTINUOUS
 62
               7
  5
4DC
 10
273.49925950608355
 20
-1149.8240977405953
 30
0.0
 11
274.49925950608355
 21
-1150.8240977405953
 31
0.0
  0
LINE
  8
0
  6
CONTINUOUS
 62
               7
  5
4DD
 10
191.89925950608347
 20
-1165.8240977405953
 30
0.0
 11
190.89925950608347
 21
-1166.8240977405953
 31
0.0
  0
LINE
  8
0
  6
CONTINUOUS
 62
               7
  5
4DE
 10
190.89925950608341
 20
-1224.8240977405953
 30
0.0
 11
191.89925950608341
 21
-1225.8240977405953
 31
0.0
  0
LINE
  8
0
  6
CONTINUOUS
 62
               7
  5
4DF
 10
109.99925950608365
 20
-1043.3240977405953
 30
0.0
 11
34.0044956267581
 21
-1043.3240977405953
 31
0.0
  0
LINE
  8
0
  6
CONTINUOUS
 62
               7
  5
4E0
 10
122.99925950608365
 20
-1042.7240977405954
 30
0.0
 11
122.99925950608365
 21
-1043.3240977405953
 31
0.0
  0
LINE
  8
0
  6
CONTINUOUS
 62
               7
  5
4E1
 10
34.999259506083703
 20
-985.32409774059522
 30
0.0
 11
108.9992595060837
 21
-985.32409774059522
 31
0.0
  0
LINE
  8
0
  6
CONTINUOUS
 62
               7
  5
4E2
 10
41.999259506083646
 20
-1043.3240977405953
 30
0.0
 11
41.999259506083646
 21
-1067.9240977405952
 31
0.0
  0
LINE
  8
0
  6
CONTINUOUS
 62
               7
  5
4E3
 10
34.999259506083703
 20
-985.32409774059522
 30
0.0
 11
33.999259506083703
 21
-986.32409774059522
 31
0.0
  0
LINE
  8
0
  6
CONTINUOUS
 62
               7
  5
4E4
 10
109.9992595060837
 20
-986.32409774059522
 30
0.0
 11
109.99925950608365
 21
-1043.3240977405953
 31
0.0
  0
LINE
  8
0
  6
CONTINUOUS
 62
               7
  5
4E5
 10
42.99925950608359
 20
-1078.3240977405953
 30
0.0
 11
41.99925950608359
 21
-1077.3240977405953
 31
0.0
  0
LINE
  8
0
  6
CONTINUOUS
 62
               7
  5
4E6
 10
42.999259506083646
 20
-1068.9240977405952
 30
0.0
 11
100.99925950608348
 21
-1068.9240977405952
 31
0.0
  0
LINE
  8
0
  6
CONTINUOUS
 62
               7
  5
4E7
 10
101.99925950608348
 20
-1043.3240977405953
 30
0.0
 11
101.99925950608348
 21
-1067.9240977405952
 31
0.0
  0
LINE
  8
0
  6
CONTINUOUS
 62
               7
  5
4E8
 10
34.0044956267581
 20
-1043.3240977405953
 30
0.0
 11
33.999259506083703
 21
-986.32409774059522
 31
0.0
  0
LINE
  8
0
  6
CONTINUOUS
 62
               7
  5
4E9
 10
109.9992595060837
 20
-986.32409774059522
 30
0.0
 11
108.9992595060837
 21
-985.32409774059522
 31
0.0
  0
LINE
  8
0
  6
CONTINUOUS
 62
               7
  5
4EA
 10
101.99925950608348
 20
-1067.9240977405952
 30
0.0
 11
100.99925950608348
 21
-1068.9240977405952
 31
0.0
  0
LINE
  8
0
  6
CONTINUOUS
 62
               7
  5
4EB
 10
42.999259506083646
 20
-1068.9240977405952
 30
0.0
 11
41.999259506083646
 21
-1067.9240977405952
 31
0.0
  0
CIRCLE
  8
0
  6
DASHED
 62
               7
  5
4EC
 10
-441.01641700502324
 20
-757.82409774059522
 30
0.0
 40
40.0
  0
CIRCLE
  8
0
  6
DASHED
 62
               7
  5
4ED
 10
71.99925950608349
 20
-757.82409774059522
 30
0.0
 40
40.0
  0
CIRCLE
  8
0
  6
DASHED
 62
               7
  5
4EE
 10
560.40787526175336
 20
-1174.6390959173887
 30
0.0
 40
40.0
  0
TEXT
  8
0
 62
               3
  5
4EF
 10
-441.01641700502324
 20
-842.32409774059522
 30
0.0
 40
40.0
  1
EMB_80×65
 41
0.8
 72
               1
 11
-441.01641700502324
 21
-842.32409774059522
 31
0.0
 73
               3
  0
TEXT
  8
0
 62
               3
  5
4F0
 10
71.99925950608349
 20
-842.32409774059522
 30
0.0
 40
40.0
  1
EMB_80×50
 41
0.8
 72
               1
 11
71.99925950608349
 21
-842.32409774059522
 31
0.0
 73
               3
  0
TEXT
  8
0
 62
               3
  5
4F1
 10
556.71047128411305
 20
-520.69329366358488
 30
0.0
 40
40.0
  1
EMB使用例
 41
0.8
 72
               1
 11
556.71047128411305
 21
-520.69329366358488
 31
0.0
 73
               3
  0
TEXT
  8
0
 62
               3
  5
4F2
 10
-172.62135204544538
 20
-466.33315776324548
 30
0.0
 40
35.0
  1
横枝管に呼び６５、５０の管を接続するときは、EMBをご使用ください。
 41
0.8
 72
               1
 11
-172.62135204544538
 21
-466.33315776324548
 31
0.0
 73
               3
  0
TEXT
  8
0
 62
               3
  5
4F3
 10
71.999259506083476
 20
-1272.3240977405953
 30
0.0
 40
40.0
  1
EMB_65×50
 41
0.8
 72
               1
 11
71.999259506083476
 21
-1272.3240977405953
 31
0.0
 73
               3
  0
ENDSEC
  0
EOF
