  0
SECTION
  2
HEADER
  9
$ACADVER
  1
AC1009
  9
$INSBASE
 10
0.0
 20
0.0
 30
0.0
  9
$EXTMIN
 10
-765.50437841888049
 20
-1319.2170616502192
 30
0.0
  9
$EXTMAX
 10
697.0336057260796
 20
1119.2170616502192
 30
0.0
  9
$LIMMIN
 10
-811.20869042341053
 20
-1395.4181280033579
  9
$LIMMAX
 10
742.73791773060964
 20
1195.4181280033579
  9
$ORTHOMODE
 70
               0
  9
$REGENMODE
 70
               1
  9
$FILLMODE
 70
               1
  9
$QTEXTMODE
 70
               0
  9
$MIRRTEXT
 70
               1
  9
$DRAGMODE
 70
               2
  9
$LTSCALE
 40
1.0
  9
$OSMODE
 70
               0
  9
$ATTMODE
 70
               1
  9
$TEXTSIZE
 40
0.2
  9
$TRACEWID
 40
0.05
  9
$TEXTSTYLE
  7
STANDARD
  9
$CLAYER
  8
0
  9
$CELTYPE
  6
CONTINUOUS
  9
$CECOLOR
 62
             256
  9
$DIMSCALE
 40
1.0
  9
$DIMASZ
 40
0.18
  9
$DIMEXO
 40
0.0625
  9
$DIMDLI
 40
0.38
  9
$DIMRND
 40
0.0
  9
$DIMDLE
 40
0.0
  9
$DIMEXE
 40
0.18
  9
$DIMTP
 40
0.0
  9
$DIMTM
 40
0.0
  9
$DIMTXT
 40
0.18
  9
$DIMCEN
 40
0.09
  9
$DIMTSZ
 40
0.0
  9
$DIMTOL
 70
               0
  9
$DIMLIM
 70
               0
  9
$DIMTIH
 70
               1
  9
$DIMTOH
 70
               1
  9
$DIMSE1
 70
               0
  9
$DIMSE2
 70
               0
  9
$DIMTAD
 70
               0
  9
$DIMZIN
 70
               0
  9
$DIMBLK
  1

  9
$DIMASO
 70
               1
  9
$DIMSHO
 70
               1
  9
$DIMPOST
  1

  9
$DIMAPOST
  1

  9
$DIMALT
 70
               0
  9
$DIMALTD
 70
               2
  9
$DIMALTF
 40
25.399999999999999
  9
$DIMLFAC
 40
1.0
  9
$DIMTOFL
 70
               0
  9
$DIMTVP
 40
0.0
  9
$DIMTIX
 70
               0
  9
$DIMSOXD
 70
               0
  9
$DIMSAH
 70
               0
  9
$DIMBLK1
  1

  9
$DIMBLK2
  1

  9
$DIMSTYLE
  2
STANDARD
  9
$DIMCLRD
 70
               0
  9
$DIMCLRE
 70
               0
  9
$DIMCLRT
 70
               0
  9
$DIMTFAC
 40
1.0
  9
$DIMGAP
 40
0.09
  9
$LUNITS
 70
               2
  9
$LUPREC
 70
               4
  9
$AXISMODE
 70
               0
  9
$AXISUNIT
 10
0.0
 20
0.0
  9
$SKETCHINC
 40
0.1
  9
$FILLETRAD
 40
0.0
  9
$AUNITS
 70
               0
  9
$AUPREC
 70
               0
  9
$MENU
  1
acad
  9
$ELEVATION
 40
0.0
  9
$PELEVATION
 40
0.0
  9
$THICKNESS
 40
0.0
  9
$LIMCHECK
 70
               0
  9
$BLIPMODE
 70
               1
  9
$CHAMFERA
 40
0.0
  9
$CHAMFERB
 40
0.0
  9
$SKPOLY
 70
               0
  9
$TDCREATE
 40
0.000000000
  9
$TDUPDATE
 40
0.000000000
  9
$TDINDWG
 40
0.0000000000
  9
$TDUSRTIMER
 40
0.0000000000
  9
$USRTIMER
 70
               1
  9
$ANGBASE
 50
0.0
  9
$ANGDIR
 70
               0
  9
$PDMODE
 70
               0
  9
$PDSIZE
 40
1.0
  9
$PLINEWID
 40
0.0
  9
$COORDS
 70
               1
  9
$SPLFRAME
 70
               0
  9
$SPLINETYPE
 70
               6
  9
$SPLINESEGS
 70
               8
  9
$ATTDIA
 70
               0
  9
$ATTREQ
 70
               1
  9
$HANDLING
 70
               1
  9
$HANDSEED
  5
4E6
  9
$SURFTAB1
 70
               6
  9
$SURFTAB2
 70
               6
  9
$SURFTYPE
 70
               6
  9
$SURFU
 70
               6
  9
$SURFV
 70
               6
  9
$UCSNAME
  2

  9
$UCSORG
 10
0.0
 20
0.0
 30
0.0
  9
$UCSXDIR
 10
1.0
 20
0.0
 30
0.0
  9
$UCSYDIR
 10
0.0
 20
1.0
 30
0.0
  9
$PUCSNAME
  2

  9
$PUCSORG
 10
0.0
 20
0.0
 30
0.0
  9
$PUCSXDIR
 10
1.0
 20
0.0
 30
0.0
  9
$PUCSYDIR
 10
0.0
 20
1.0
 30
0.0
  9
$USERI1
 70
               0
  9
$USERI2
 70
               0
  9
$USERI3
 70
               0
  9
$USERI4
 70
               0
  9
$USERI5
 70
               0
  9
$USERR1
 40
0.0
  9
$USERR2
 40
0.0
  9
$USERR3
 40
0.0
  9
$USERR4
 40
0.0
  9
$USERR5
 40
0.0
  9
$WORLDVIEW
 70
               1
  9
$SHADEDGE
 70
               3
  9
$SHADEDIF
 70
              70
  9
$TILEMODE
 70
               1
  9
$MAXACTVP
 70
              16
  9
$PINSBASE
 10
0.0
 20
0.0
 30
0.0
  9
$PLIMCHECK
 70
               0
  9
$PEXTMIN
 10
1.0000000000000000E+20
 20
1.0000000000000000E+20
 30
1.0000000000000000E+20
  9
$PEXTMAX
 10
-1.0000000000000000E+20
 20
-1.0000000000000000E+20
 30
-1.0000000000000000E+20
  9
$PLIMMIN
 10
0.0
 20
0.0
  9
$PLIMMAX
 10
12.0
 20
9.0
  9
$UNITMODE
 70
               0
  9
$VISRETAIN
 70
               0
  9
$PLINEGEN
 70
               1
  9
$PSLTSCALE
 70
               0
  9
$TREEDEPTH
 70
            3020
  9
$DWGCODEPAGE
  3
dos932
  0
ENDSEC
  0
SECTION
  2
TABLES
  0
TABLE
  2
VPORT
 70
               1
  0
VPORT
  2
*ACTIVE
 70
               0
 10
0.0
 20
0.0
 11
1.0
 21
1.0
 12
-34.235386346400446
 22
-100.0
 13
0.0
 23
0.0
 14
1.0
 24
1.0
 15
0.0
 25
0.0
 16
0.0
 26
0.0
 36
1.0
 17
0.0
 27
0.0
 37
0.0
 40
2590.8362560067158
 41
0.599785727311511
 42
50.0
 43
0.0
 44
0.0
 50
0.0
 51
0.0
 71
               0
 72
             100
 73
               1
 74
               1
 75
               0
 76
               0
 77
               0
 78
               0
  0
ENDTAB
  0
TABLE
  2
LTYPE
 70
              26
  0
LTYPE
  2
CONTINUOUS
 70
               0
  3
Solid line
 72
              65
 73
               0
 40
0.0
  0
LTYPE
  2
HIDDENX2
 70
               0
  3
CADPAC FUSION LINETYPE
 72
              65
 73
               2
 40
47.560000000000002
 49
35.670000000000002
 49
-11.890000000000001
  0
LTYPE
  2
HIDDEN
 70
               0
  3
CADPAC FUSION LINETYPE
 72
              65
 73
               2
 40
35.670000000000002
 49
23.780000000000001
 49
-11.890000000000001
  0
LTYPE
  2
HIDDEN2
 70
               0
  3
CADPAC FUSION LINETYPE
 72
              65
 73
               2
 40
29.725000000000001
 49
17.835000000000001
 49
-11.890000000000001
  0
LTYPE
  2
DASHED
 70
               0
  3
CADPAC FUSION LINETYPE
 72
              65
 73
               2
 40
35.670000000000002
 49
23.780000000000001
 49
-11.890000000000001
  0
LTYPE
  2
DASHED2
 70
               0
  3
CADPAC FUSION LINETYPE
 72
              65
 73
               2
 40
26.752500000000001
 49
17.835000000000001
 49
-8.9175000000000004
  0
LTYPE
  2
DASHEDX2
 70
               0
  3
CADPAC FUSION LINETYPE
 72
              65
 73
               2
 40
53.505000000000003
 49
35.670000000000002
 49
-17.835000000000001
  0
LTYPE
  2
DOTX2
 70
               0
  3
CADPAC FUSION LINETYPE
 72
              65
 73
               2
 40
14.862500000000001
 49
0.0
 49
-14.862500000000001
  0
LTYPE
  2
DOT
 70
               0
  3
CADPAC FUSION LINETYPE
 72
              65
 73
               2
 40
11.890000000000001
 49
0.0
 49
-11.890000000000001
  0
LTYPE
  2
DOTS
 70
               0
  3
CADPAC FUSION LINETYPE
 72
              65
 73
               2
 40
11.890000000000001
 49
0.0
 49
-11.890000000000001
  0
LTYPE
  2
DOT2
 70
               0
  3
CADPAC FUSION LINETYPE
 72
              65
 73
               2
 40
8.9175000000000004
 49
0.0
 49
-8.9175000000000004
  0
LTYPE
  2
CENTERX2
 70
               0
  3
CADPAC FUSION LINETYPE
 72
              65
 73
               4
 40
71.340000000000003
 49
29.725000000000001
 49
-14.862500000000001
 49
11.890000000000001
 49
-14.862500000000001
  0
LTYPE
  2
CENTER
 70
               0
  3
CADPAC FUSION LINETYPE
 72
              65
 73
               4
 40
54.694000000000003
 49
23.780000000000001
 49
-11.890000000000001
 49
7.1340000000000003
 49
-11.890000000000001
  0
LTYPE
  2
CENTER2
 70
               0
  3
CADPAC FUSION LINETYPE
 72
              65
 73
               4
 40
38.048000000000002
 49
17.835000000000001
 49
-8.9175000000000004
 49
2.3780000000000001
 49
-8.9175000000000004
  0
LTYPE
  2
DASHDOTX2
 70
               0
  3
CADPAC FUSION LINETYPE
 72
              65
 73
               4
 40
59.450000000000003
 49
29.725000000000001
 49
-14.862500000000001
 49
0.0
 49
-14.862500000000001
  0
LTYPE
  2
DASHDOT
 70
               0
  3
CADPAC FUSION LINETYPE
 72
              65
 73
               4
 40
47.560000000000002
 49
23.780000000000001
 49
-11.890000000000001
 49
0.0
 49
-11.890000000000001
  0
LTYPE
  2
DASHDOT2
 70
               0
  3
CADPAC FUSION LINETYPE
 72
              65
 73
               4
 40
35.670000000000002
 49
17.835000000000001
 49
-8.9175000000000004
 49
0.0
 49
-8.9175000000000004
  0
LTYPE
  2
DIVIDEX2
 70
               0
  3
CADPAC FUSION LINETYPE
 72
              65
 73
               6
 40
74.3125
 49
29.725000000000001
 49
-14.862500000000001
 49
0.0
 49
-14.862500000000001
 49
0.0
 49
-14.862500000000001
  0
LTYPE
  2
DIVIDE
 70
               0
  3
CADPAC FUSION LINETYPE
 72
              65
 73
               6
 40
59.450000000000003
 49
23.780000000000001
 49
-11.890000000000001
 49
0.0
 49
-11.890000000000001
 49
0.0
 49
-11.890000000000001
  0
LTYPE
  2
DIVIDE2
 70
               0
  3
CADPAC FUSION LINETYPE
 72
              65
 73
               6
 40
44.587500000000006
 49
17.835000000000001
 49
-8.9175000000000004
 49
0.0
 49
-8.9175000000000004
 49
0.0
 49
-8.9175000000000004
  0
LTYPE
  2
BORDERX2
 70
               0
  3
CADPAC FUSION LINETYPE
 72
              65
 73
               6
 40
104.03750000000001
 49
29.725000000000001
 49
-14.862500000000001
 49
29.725000000000001
 49
-14.862500000000001
 49
0.0
 49
-14.862500000000001
  0
LTYPE
  2
BORDER
 70
               0
  3
CADPAC FUSION LINETYPE
 72
              65
 73
               6
 40
83.230000000000004
 49
23.780000000000001
 49
-11.890000000000001
 49
23.780000000000001
 49
-11.890000000000001
 49
0.0
 49
-11.890000000000001
  0
LTYPE
  2
BORDER2
 70
               0
  3
CADPAC FUSION LINETYPE
 72
              65
 73
               6
 40
62.422499999999999
 49
17.835000000000001
 49
-8.9175000000000004
 49
17.835000000000001
 49
-8.9175000000000004
 49
0.0
 49
-8.9175000000000004
  0
LTYPE
  2
PHANTOMX2
 70
               0
  3
CADPAC FUSION LINETYPE
 72
              65
 73
               6
 40
89.175000000000011
 49
29.725000000000001
 49
-11.890000000000001
 49
11.890000000000001
 49
-11.890000000000001
 49
11.890000000000001
 49
-11.890000000000001
  0
LTYPE
  2
PHANTOM
 70
               0
  3
CADPAC FUSION LINETYPE
 72
              65
 73
               6
 40
73.718000000000004
 49
23.780000000000001
 49
-11.890000000000001
 49
7.1340000000000003
 49
-11.890000000000001
 49
7.1340000000000003
 49
-11.890000000000001
  0
LTYPE
  2
PHANTOM2
 70
               0
  3
CADPAC FUSION LINETYPE
 72
              65
 73
               6
 40
63.017000000000003
 49
17.835000000000001
 49
-11.890000000000001
 49
4.7560000000000002
 49
-11.890000000000001
 49
4.7560000000000002
 49
-11.890000000000001
  0
ENDTAB
  0
TABLE
  2
LAYER
 70
             256
  0
LAYER
  2
0
 70
               0
 62
               7
  6
CONTINUOUS
  0
LAYER
  2
LAYER001
 70
               0
 62
               7
  6
CONTINUOUS
  0
LAYER
  2
LAYER002
 70
               0
 62
               7
  6
CONTINUOUS
  0
LAYER
  2
LAYER003
 70
               0
 62
               7
  6
CONTINUOUS
  0
LAYER
  2
LAYER004
 70
               0
 62
               7
  6
CONTINUOUS
  0
LAYER
  2
LAYER005
 70
               0
 62
               7
  6
CONTINUOUS
  0
LAYER
  2
LAYER006
 70
               0
 62
               7
  6
CONTINUOUS
  0
LAYER
  2
LAYER007
 70
               0
 62
               7
  6
CONTINUOUS
  0
LAYER
  2
LAYER008
 70
               0
 62
               7
  6
CONTINUOUS
  0
LAYER
  2
LAYER009
 70
               0
 62
               7
  6
CONTINUOUS
  0
LAYER
  2
LAYER010
 70
               0
 62
               7
  6
CONTINUOUS
  0
LAYER
  2
LAYER011
 70
               0
 62
               7
  6
CONTINUOUS
  0
LAYER
  2
LAYER012
 70
               0
 62
               7
  6
CONTINUOUS
  0
LAYER
  2
LAYER013
 70
               0
 62
               7
  6
CONTINUOUS
  0
LAYER
  2
LAYER014
 70
               0
 62
               7
  6
CONTINUOUS
  0
LAYER
  2
LAYER015
 70
               0
 62
               7
  6
CONTINUOUS
  0
LAYER
  2
LAYER016
 70
               0
 62
               7
  6
CONTINUOUS
  0
LAYER
  2
LAYER017
 70
               0
 62
               7
  6
CONTINUOUS
  0
LAYER
  2
LAYER018
 70
               0
 62
               7
  6
CONTINUOUS
  0
LAYER
  2
LAYER019
 70
               0
 62
               7
  6
CONTINUOUS
  0
LAYER
  2
LAYER020
 70
               0
 62
               7
  6
CONTINUOUS
  0
LAYER
  2
LAYER021
 70
               0
 62
               7
  6
CONTINUOUS
  0
LAYER
  2
LAYER022
 70
               0
 62
               7
  6
CONTINUOUS
  0
LAYER
  2
LAYER023
 70
               0
 62
               7
  6
CONTINUOUS
  0
LAYER
  2
LAYER024
 70
               0
 62
               7
  6
CONTINUOUS
  0
LAYER
  2
LAYER025
 70
               0
 62
               7
  6
CONTINUOUS
  0
LAYER
  2
LAYER026
 70
               0
 62
               7
  6
CONTINUOUS
  0
LAYER
  2
LAYER027
 70
               0
 62
               7
  6
CONTINUOUS
  0
LAYER
  2
LAYER028
 70
               0
 62
               7
  6
CONTINUOUS
  0
LAYER
  2
LAYER029
 70
               0
 62
               7
  6
CONTINUOUS
  0
LAYER
  2
LAYER030
 70
               0
 62
               7
  6
CONTINUOUS
  0
LAYER
  2
LAYER031
 70
               0
 62
               7
  6
CONTINUOUS
  0
LAYER
  2
LAYER032
 70
               0
 62
               7
  6
CONTINUOUS
  0
LAYER
  2
LAYER033
 70
               0
 62
               7
  6
CONTINUOUS
  0
LAYER
  2
LAYER034
 70
               0
 62
               7
  6
CONTINUOUS
  0
LAYER
  2
LAYER035
 70
               0
 62
               7
  6
CONTINUOUS
  0
LAYER
  2
LAYER036
 70
               0
 62
               7
  6
CONTINUOUS
  0
LAYER
  2
LAYER037
 70
               0
 62
               7
  6
CONTINUOUS
  0
LAYER
  2
LAYER038
 70
               0
 62
               7
  6
CONTINUOUS
  0
LAYER
  2
LAYER039
 70
               0
 62
               7
  6
CONTINUOUS
  0
LAYER
  2
LAYER040
 70
               0
 62
               7
  6
CONTINUOUS
  0
LAYER
  2
LAYER041
 70
               0
 62
               7
  6
CONTINUOUS
  0
LAYER
  2
LAYER042
 70
               0
 62
               7
  6
CONTINUOUS
  0
LAYER
  2
LAYER043
 70
               0
 62
               7
  6
CONTINUOUS
  0
LAYER
  2
LAYER044
 70
               0
 62
               7
  6
CONTINUOUS
  0
LAYER
  2
LAYER045
 70
               0
 62
               7
  6
CONTINUOUS
  0
LAYER
  2
LAYER046
 70
               0
 62
               7
  6
CONTINUOUS
  0
LAYER
  2
LAYER047
 70
               0
 62
               7
  6
CONTINUOUS
  0
LAYER
  2
LAYER048
 70
               0
 62
               7
  6
CONTINUOUS
  0
LAYER
  2
LAYER049
 70
               0
 62
               7
  6
CONTINUOUS
  0
LAYER
  2
LAYER050
 70
               0
 62
               7
  6
CONTINUOUS
  0
LAYER
  2
LAYER051
 70
               0
 62
               7
  6
CONTINUOUS
  0
LAYER
  2
LAYER052
 70
               0
 62
               7
  6
CONTINUOUS
  0
LAYER
  2
LAYER053
 70
               0
 62
               7
  6
CONTINUOUS
  0
LAYER
  2
LAYER054
 70
               0
 62
               7
  6
CONTINUOUS
  0
LAYER
  2
LAYER055
 70
               0
 62
               7
  6
CONTINUOUS
  0
LAYER
  2
LAYER056
 70
               0
 62
               7
  6
CONTINUOUS
  0
LAYER
  2
LAYER057
 70
               0
 62
               7
  6
CONTINUOUS
  0
LAYER
  2
LAYER058
 70
               0
 62
               7
  6
CONTINUOUS
  0
LAYER
  2
LAYER059
 70
               0
 62
               7
  6
CONTINUOUS
  0
LAYER
  2
LAYER060
 70
               0
 62
               7
  6
CONTINUOUS
  0
LAYER
  2
LAYER061
 70
               0
 62
               7
  6
CONTINUOUS
  0
LAYER
  2
LAYER062
 70
               0
 62
               7
  6
CONTINUOUS
  0
LAYER
  2
LAYER063
 70
               0
 62
               7
  6
CONTINUOUS
  0
LAYER
  2
LAYER064
 70
               0
 62
               7
  6
CONTINUOUS
  0
LAYER
  2
LAYER065
 70
               0
 62
               7
  6
CONTINUOUS
  0
LAYER
  2
LAYER066
 70
               0
 62
               7
  6
CONTINUOUS
  0
LAYER
  2
LAYER067
 70
               0
 62
               7
  6
CONTINUOUS
  0
LAYER
  2
LAYER068
 70
               0
 62
               7
  6
CONTINUOUS
  0
LAYER
  2
LAYER069
 70
               0
 62
               7
  6
CONTINUOUS
  0
LAYER
  2
LAYER070
 70
               0
 62
               7
  6
CONTINUOUS
  0
LAYER
  2
LAYER071
 70
               0
 62
               7
  6
CONTINUOUS
  0
LAYER
  2
LAYER072
 70
               0
 62
               7
  6
CONTINUOUS
  0
LAYER
  2
LAYER073
 70
               0
 62
               7
  6
CONTINUOUS
  0
LAYER
  2
LAYER074
 70
               0
 62
               7
  6
CONTINUOUS
  0
LAYER
  2
LAYER075
 70
               0
 62
               7
  6
CONTINUOUS
  0
LAYER
  2
LAYER076
 70
               0
 62
               7
  6
CONTINUOUS
  0
LAYER
  2
LAYER077
 70
               0
 62
               7
  6
CONTINUOUS
  0
LAYER
  2
LAYER078
 70
               0
 62
               7
  6
CONTINUOUS
  0
LAYER
  2
LAYER079
 70
               0
 62
               7
  6
CONTINUOUS
  0
LAYER
  2
LAYER080
 70
               0
 62
               7
  6
CONTINUOUS
  0
LAYER
  2
LAYER081
 70
               0
 62
               7
  6
CONTINUOUS
  0
LAYER
  2
LAYER082
 70
               0
 62
               7
  6
CONTINUOUS
  0
LAYER
  2
LAYER083
 70
               0
 62
               7
  6
CONTINUOUS
  0
LAYER
  2
LAYER084
 70
               0
 62
               7
  6
CONTINUOUS
  0
LAYER
  2
LAYER085
 70
               0
 62
               7
  6
CONTINUOUS
  0
LAYER
  2
LAYER086
 70
               0
 62
               7
  6
CONTINUOUS
  0
LAYER
  2
LAYER087
 70
               0
 62
               7
  6
CONTINUOUS
  0
LAYER
  2
LAYER088
 70
               0
 62
               7
  6
CONTINUOUS
  0
LAYER
  2
LAYER089
 70
               0
 62
               7
  6
CONTINUOUS
  0
LAYER
  2
LAYER090
 70
               0
 62
               7
  6
CONTINUOUS
  0
LAYER
  2
LAYER091
 70
               0
 62
               7
  6
CONTINUOUS
  0
LAYER
  2
LAYER092
 70
               0
 62
               7
  6
CONTINUOUS
  0
LAYER
  2
LAYER093
 70
               0
 62
               7
  6
CONTINUOUS
  0
LAYER
  2
LAYER094
 70
               0
 62
               7
  6
CONTINUOUS
  0
LAYER
  2
LAYER095
 70
               0
 62
               7
  6
CONTINUOUS
  0
LAYER
  2
LAYER096
 70
               0
 62
               7
  6
CONTINUOUS
  0
LAYER
  2
LAYER097
 70
               0
 62
               7
  6
CONTINUOUS
  0
LAYER
  2
LAYER098
 70
               0
 62
               7
  6
CONTINUOUS
  0
LAYER
  2
LAYER099
 70
               0
 62
               7
  6
CONTINUOUS
  0
LAYER
  2
LAYER100
 70
               0
 62
               7
  6
CONTINUOUS
  0
LAYER
  2
LAYER101
 70
               0
 62
               7
  6
CONTINUOUS
  0
LAYER
  2
LAYER102
 70
               0
 62
               7
  6
CONTINUOUS
  0
LAYER
  2
LAYER103
 70
               0
 62
               7
  6
CONTINUOUS
  0
LAYER
  2
LAYER104
 70
               0
 62
               7
  6
CONTINUOUS
  0
LAYER
  2
LAYER105
 70
               0
 62
               7
  6
CONTINUOUS
  0
LAYER
  2
LAYER106
 70
               0
 62
               7
  6
CONTINUOUS
  0
LAYER
  2
LAYER107
 70
               0
 62
               7
  6
CONTINUOUS
  0
LAYER
  2
LAYER108
 70
               0
 62
               7
  6
CONTINUOUS
  0
LAYER
  2
LAYER109
 70
               0
 62
               7
  6
CONTINUOUS
  0
LAYER
  2
LAYER110
 70
               0
 62
               7
  6
CONTINUOUS
  0
LAYER
  2
LAYER111
 70
               0
 62
               7
  6
CONTINUOUS
  0
LAYER
  2
LAYER112
 70
               0
 62
               7
  6
CONTINUOUS
  0
LAYER
  2
LAYER113
 70
               0
 62
               7
  6
CONTINUOUS
  0
LAYER
  2
LAYER114
 70
               0
 62
               7
  6
CONTINUOUS
  0
LAYER
  2
LAYER115
 70
               0
 62
               7
  6
CONTINUOUS
  0
LAYER
  2
LAYER116
 70
               0
 62
               7
  6
CONTINUOUS
  0
LAYER
  2
LAYER117
 70
               0
 62
               7
  6
CONTINUOUS
  0
LAYER
  2
LAYER118
 70
               0
 62
               7
  6
CONTINUOUS
  0
LAYER
  2
LAYER119
 70
               0
 62
               7
  6
CONTINUOUS
  0
LAYER
  2
LAYER120
 70
               0
 62
               7
  6
CONTINUOUS
  0
LAYER
  2
LAYER121
 70
               0
 62
               7
  6
CONTINUOUS
  0
LAYER
  2
LAYER122
 70
               0
 62
               7
  6
CONTINUOUS
  0
LAYER
  2
LAYER123
 70
               0
 62
               7
  6
CONTINUOUS
  0
LAYER
  2
LAYER124
 70
               0
 62
               7
  6
CONTINUOUS
  0
LAYER
  2
LAYER125
 70
               0
 62
               7
  6
CONTINUOUS
  0
LAYER
  2
LAYER126
 70
               0
 62
               7
  6
CONTINUOUS
  0
LAYER
  2
LAYER127
 70
               0
 62
               7
  6
CONTINUOUS
  0
LAYER
  2
LAYER128
 70
               0
 62
               7
  6
CONTINUOUS
  0
LAYER
  2
LAYER129
 70
               0
 62
               7
  6
CONTINUOUS
  0
LAYER
  2
LAYER130
 70
               0
 62
               7
  6
CONTINUOUS
  0
LAYER
  2
LAYER131
 70
               0
 62
               7
  6
CONTINUOUS
  0
LAYER
  2
LAYER132
 70
               0
 62
               7
  6
CONTINUOUS
  0
LAYER
  2
LAYER133
 70
               0
 62
               7
  6
CONTINUOUS
  0
LAYER
  2
LAYER134
 70
               0
 62
               7
  6
CONTINUOUS
  0
LAYER
  2
LAYER135
 70
               0
 62
               7
  6
CONTINUOUS
  0
LAYER
  2
LAYER136
 70
               0
 62
               7
  6
CONTINUOUS
  0
LAYER
  2
LAYER137
 70
               0
 62
               7
  6
CONTINUOUS
  0
LAYER
  2
LAYER138
 70
               0
 62
               7
  6
CONTINUOUS
  0
LAYER
  2
LAYER139
 70
               0
 62
               7
  6
CONTINUOUS
  0
LAYER
  2
LAYER140
 70
               0
 62
               7
  6
CONTINUOUS
  0
LAYER
  2
LAYER141
 70
               0
 62
               7
  6
CONTINUOUS
  0
LAYER
  2
LAYER142
 70
               0
 62
               7
  6
CONTINUOUS
  0
LAYER
  2
LAYER143
 70
               0
 62
               7
  6
CONTINUOUS
  0
LAYER
  2
LAYER144
 70
               0
 62
               7
  6
CONTINUOUS
  0
LAYER
  2
LAYER145
 70
               0
 62
               7
  6
CONTINUOUS
  0
LAYER
  2
LAYER146
 70
               0
 62
               7
  6
CONTINUOUS
  0
LAYER
  2
LAYER147
 70
               0
 62
               7
  6
CONTINUOUS
  0
LAYER
  2
LAYER148
 70
               0
 62
               7
  6
CONTINUOUS
  0
LAYER
  2
LAYER149
 70
               0
 62
               7
  6
CONTINUOUS
  0
LAYER
  2
LAYER150
 70
               0
 62
               7
  6
CONTINUOUS
  0
LAYER
  2
LAYER151
 70
               0
 62
               7
  6
CONTINUOUS
  0
LAYER
  2
LAYER152
 70
               0
 62
               7
  6
CONTINUOUS
  0
LAYER
  2
LAYER153
 70
               0
 62
               7
  6
CONTINUOUS
  0
LAYER
  2
LAYER154
 70
               0
 62
               7
  6
CONTINUOUS
  0
LAYER
  2
LAYER155
 70
               0
 62
               7
  6
CONTINUOUS
  0
LAYER
  2
LAYER156
 70
               0
 62
               7
  6
CONTINUOUS
  0
LAYER
  2
LAYER157
 70
               0
 62
               7
  6
CONTINUOUS
  0
LAYER
  2
LAYER158
 70
               0
 62
               7
  6
CONTINUOUS
  0
LAYER
  2
LAYER159
 70
               0
 62
               7
  6
CONTINUOUS
  0
LAYER
  2
LAYER160
 70
               0
 62
               7
  6
CONTINUOUS
  0
LAYER
  2
LAYER161
 70
               0
 62
               7
  6
CONTINUOUS
  0
LAYER
  2
LAYER162
 70
               0
 62
               7
  6
CONTINUOUS
  0
LAYER
  2
LAYER163
 70
               0
 62
               7
  6
CONTINUOUS
  0
LAYER
  2
LAYER164
 70
               0
 62
               7
  6
CONTINUOUS
  0
LAYER
  2
LAYER165
 70
               0
 62
               7
  6
CONTINUOUS
  0
LAYER
  2
LAYER166
 70
               0
 62
               7
  6
CONTINUOUS
  0
LAYER
  2
LAYER167
 70
               0
 62
               7
  6
CONTINUOUS
  0
LAYER
  2
LAYER168
 70
               0
 62
               7
  6
CONTINUOUS
  0
LAYER
  2
LAYER169
 70
               0
 62
               7
  6
CONTINUOUS
  0
LAYER
  2
LAYER170
 70
               0
 62
               7
  6
CONTINUOUS
  0
LAYER
  2
LAYER171
 70
               0
 62
               7
  6
CONTINUOUS
  0
LAYER
  2
LAYER172
 70
               0
 62
               7
  6
CONTINUOUS
  0
LAYER
  2
LAYER173
 70
               0
 62
               7
  6
CONTINUOUS
  0
LAYER
  2
LAYER174
 70
               0
 62
               7
  6
CONTINUOUS
  0
LAYER
  2
LAYER175
 70
               0
 62
               7
  6
CONTINUOUS
  0
LAYER
  2
LAYER176
 70
               0
 62
               7
  6
CONTINUOUS
  0
LAYER
  2
LAYER177
 70
               0
 62
               7
  6
CONTINUOUS
  0
LAYER
  2
LAYER178
 70
               0
 62
               7
  6
CONTINUOUS
  0
LAYER
  2
LAYER179
 70
               0
 62
               7
  6
CONTINUOUS
  0
LAYER
  2
LAYER180
 70
               0
 62
               7
  6
CONTINUOUS
  0
LAYER
  2
LAYER181
 70
               0
 62
               7
  6
CONTINUOUS
  0
LAYER
  2
LAYER182
 70
               0
 62
               7
  6
CONTINUOUS
  0
LAYER
  2
LAYER183
 70
               0
 62
               7
  6
CONTINUOUS
  0
LAYER
  2
LAYER184
 70
               0
 62
               7
  6
CONTINUOUS
  0
LAYER
  2
LAYER185
 70
               0
 62
               7
  6
CONTINUOUS
  0
LAYER
  2
LAYER186
 70
               0
 62
               7
  6
CONTINUOUS
  0
LAYER
  2
LAYER187
 70
               0
 62
               7
  6
CONTINUOUS
  0
LAYER
  2
LAYER188
 70
               0
 62
               7
  6
CONTINUOUS
  0
LAYER
  2
LAYER189
 70
               0
 62
               7
  6
CONTINUOUS
  0
LAYER
  2
LAYER190
 70
               0
 62
               7
  6
CONTINUOUS
  0
LAYER
  2
LAYER191
 70
               0
 62
               7
  6
CONTINUOUS
  0
LAYER
  2
LAYER192
 70
               0
 62
               7
  6
CONTINUOUS
  0
LAYER
  2
LAYER193
 70
               0
 62
               7
  6
CONTINUOUS
  0
LAYER
  2
LAYER194
 70
               0
 62
               7
  6
CONTINUOUS
  0
LAYER
  2
LAYER195
 70
               0
 62
               7
  6
CONTINUOUS
  0
LAYER
  2
LAYER196
 70
               0
 62
               7
  6
CONTINUOUS
  0
LAYER
  2
LAYER197
 70
               0
 62
               7
  6
CONTINUOUS
  0
LAYER
  2
LAYER198
 70
               0
 62
               7
  6
CONTINUOUS
  0
LAYER
  2
LAYER199
 70
               0
 62
               7
  6
CONTINUOUS
  0
LAYER
  2
LAYER200
 70
               0
 62
               7
  6
CONTINUOUS
  0
LAYER
  2
LAYER201
 70
               0
 62
               7
  6
CONTINUOUS
  0
LAYER
  2
LAYER202
 70
               0
 62
               7
  6
CONTINUOUS
  0
LAYER
  2
LAYER203
 70
               0
 62
               7
  6
CONTINUOUS
  0
LAYER
  2
LAYER204
 70
               0
 62
               7
  6
CONTINUOUS
  0
LAYER
  2
LAYER205
 70
               0
 62
               7
  6
CONTINUOUS
  0
LAYER
  2
LAYER206
 70
               0
 62
               7
  6
CONTINUOUS
  0
LAYER
  2
LAYER207
 70
               0
 62
               7
  6
CONTINUOUS
  0
LAYER
  2
LAYER208
 70
               0
 62
               7
  6
CONTINUOUS
  0
LAYER
  2
LAYER209
 70
               0
 62
               7
  6
CONTINUOUS
  0
LAYER
  2
LAYER210
 70
               0
 62
               7
  6
CONTINUOUS
  0
LAYER
  2
LAYER211
 70
               0
 62
               7
  6
CONTINUOUS
  0
LAYER
  2
LAYER212
 70
               0
 62
               7
  6
CONTINUOUS
  0
LAYER
  2
LAYER213
 70
               0
 62
               7
  6
CONTINUOUS
  0
LAYER
  2
LAYER214
 70
               0
 62
               7
  6
CONTINUOUS
  0
LAYER
  2
LAYER215
 70
               0
 62
               7
  6
CONTINUOUS
  0
LAYER
  2
LAYER216
 70
               0
 62
               7
  6
CONTINUOUS
  0
LAYER
  2
LAYER217
 70
               0
 62
               7
  6
CONTINUOUS
  0
LAYER
  2
LAYER218
 70
               0
 62
               7
  6
CONTINUOUS
  0
LAYER
  2
LAYER219
 70
               0
 62
               7
  6
CONTINUOUS
  0
LAYER
  2
LAYER220
 70
               0
 62
               7
  6
CONTINUOUS
  0
LAYER
  2
LAYER221
 70
               0
 62
               7
  6
CONTINUOUS
  0
LAYER
  2
LAYER222
 70
               0
 62
               7
  6
CONTINUOUS
  0
LAYER
  2
LAYER223
 70
               0
 62
               7
  6
CONTINUOUS
  0
LAYER
  2
LAYER224
 70
               0
 62
               7
  6
CONTINUOUS
  0
LAYER
  2
LAYER225
 70
               0
 62
               7
  6
CONTINUOUS
  0
LAYER
  2
LAYER226
 70
               0
 62
               7
  6
CONTINUOUS
  0
LAYER
  2
LAYER227
 70
               0
 62
               7
  6
CONTINUOUS
  0
LAYER
  2
LAYER228
 70
               0
 62
               7
  6
CONTINUOUS
  0
LAYER
  2
LAYER229
 70
               0
 62
               7
  6
CONTINUOUS
  0
LAYER
  2
LAYER230
 70
               0
 62
               7
  6
CONTINUOUS
  0
LAYER
  2
LAYER231
 70
               0
 62
               7
  6
CONTINUOUS
  0
LAYER
  2
LAYER232
 70
               0
 62
               7
  6
CONTINUOUS
  0
LAYER
  2
LAYER233
 70
               0
 62
               7
  6
CONTINUOUS
  0
LAYER
  2
LAYER234
 70
               0
 62
               7
  6
CONTINUOUS
  0
LAYER
  2
LAYER235
 70
               0
 62
               7
  6
CONTINUOUS
  0
LAYER
  2
LAYER236
 70
               0
 62
               7
  6
CONTINUOUS
  0
LAYER
  2
LAYER237
 70
               0
 62
               7
  6
CONTINUOUS
  0
LAYER
  2
LAYER238
 70
               0
 62
               7
  6
CONTINUOUS
  0
LAYER
  2
LAYER239
 70
               0
 62
               7
  6
CONTINUOUS
  0
LAYER
  2
LAYER240
 70
               0
 62
               7
  6
CONTINUOUS
  0
LAYER
  2
LAYER241
 70
               0
 62
               7
  6
CONTINUOUS
  0
LAYER
  2
LAYER242
 70
               0
 62
               7
  6
CONTINUOUS
  0
LAYER
  2
LAYER243
 70
               0
 62
               7
  6
CONTINUOUS
  0
LAYER
  2
LAYER244
 70
               0
 62
               7
  6
CONTINUOUS
  0
LAYER
  2
LAYER245
 70
               0
 62
               7
  6
CONTINUOUS
  0
LAYER
  2
LAYER246
 70
               0
 62
               7
  6
CONTINUOUS
  0
LAYER
  2
LAYER247
 70
               0
 62
               7
  6
CONTINUOUS
  0
LAYER
  2
LAYER248
 70
               0
 62
               7
  6
CONTINUOUS
  0
LAYER
  2
LAYER249
 70
               0
 62
               7
  6
CONTINUOUS
  0
LAYER
  2
LAYER250
 70
               0
 62
               7
  6
CONTINUOUS
  0
LAYER
  2
LAYER251
 70
               0
 62
               7
  6
CONTINUOUS
  0
LAYER
  2
LAYER252
 70
               0
 62
               7
  6
CONTINUOUS
  0
LAYER
  2
LAYER253
 70
               0
 62
               7
  6
CONTINUOUS
  0
LAYER
  2
LAYER254
 70
               0
 62
               7
  6
CONTINUOUS
  0
LAYER
  2
LAYER255
 70
               0
 62
               7
  6
CONTINUOUS
  0
ENDTAB
  0
TABLE
  2
STYLE
 70
               1
  0
STYLE
  2
STANDARD
 70
               0
 40
0.0
 41
0.8
 50
0.0
 71
               0
 42
40.0
  3
MS PGothic.ttf
  4

  0
ENDTAB
  0
TABLE
  2
VIEW
 70
               0
  0
VIEW
  2
QQQQ
 70
               0
 40
2590.8362560067158
 10
-34.235386346400446
 20
-100.0
 41
1553.9466081540202
 11
0.0
 21
0.0
 31
1.0
 12
100.0
 22
100.0
 32
0.0
 42
50.0
 43
0.0
 44
0.0
 50
0.0
 71
               0
  0
ENDTAB
  0
TABLE
  2
UCS
 70
               0
  0
ENDTAB
  0
TABLE
  2
APPID
 70
               1
  0
APPID
  2
ACAD
 70
               0
  0
ENDTAB
  0
TABLE
  2
DIMSTYLE
 70
               1
  0
DIMSTYLE
  2
STANDARD
 70
               0
  3

  4

  5

  6

  7

 40
1.0
 41
0.18
 42
0.0625
 43
0.38
 44
0.18
 45
0.0
 46
0.0
 47
0.0
 48
0.0
140
0.18
141
0.09
142
0.0
143
25.399999999999999
144
1.0
145
0.0
146
1.0
147
0.09
 71
               0
 72
               0
 73
               1
 74
               1
 75
               0
 76
               0
 77
               0
 78
               0
170
               0
171
               2
172
               0
173
               0
174
               0
175
               0
176
               0
177
               0
178
               0
  0
ENDTAB
  0
ENDSEC
  0
SECTION
  2
BLOCKS
  0
ENDSEC
  0
SECTION
  2
ENTITIES
  0
CIRCLE
  8
0
  6
CONTINUOUS
 62
               3
  5
136
 10
-48.878647954554708
 20
963.82409774059499
 30
0.0
 40
75.0
  0
CIRCLE
  8
0
  6
CONTINUOUS
 62
               3
  5
137
 10
-48.878647954554708
 20
963.82409774059499
 30
0.0
 40
52.5
  0
LINE
  8
0
  6
CONTINUOUS
 62
               3
  5
138
 10
-68.878647954554708
 20
877.61359953996975
 30
0.0
 11
-68.878647954554708
 21
891.53993626658962
 31
0.0
  0
LINE
  8
0
  6
CONTINUOUS
 62
               3
  5
139
 10
-28.878647954554708
 20
891.53993626658962
 30
0.0
 11
-28.878647954554708
 21
877.61359953996975
 31
0.0
  0
ARC
  8
0
  6
CONTINUOUS
 62
               3
  5
13A
 10
-48.878647954554708
 20
963.82409774059499
 30
0.0
 40
88.5
 50
256.93897588495355
 51
283.06102411452952
  0
LINE
  8
0
  6
CONTINUOUS
 62
               3
  5
13B
 10
37.331850246070189
 20
943.82409774059499
 30
0.0
 11
23.405513519450324
 21
943.82409774059499
 31
0.0
  0
LINE
  8
0
  6
CONTINUOUS
 62
               3
  5
13C
 10
23.405513519450324
 20
983.82409774059499
 30
0.0
 11
37.331850246070189
 21
983.82409774059499
 31
0.0
  0
ARC
  8
0
  6
CONTINUOUS
 62
               3
  5
13D
 10
-48.878647954554708
 20
963.82409774059499
 30
0.0
 40
88.5
 50
346.9389758848672
 51
373.06102411444323
  0
LINE
  8
0
  6
CONTINUOUS
 62
               3
  5
13E
 10
-28.878647954554694
 20
1050.0345959412198
 30
0.0
 11
-28.878647954554694
 21
1036.1082592145992
 31
0.0
  0
LINE
  8
0
  6
CONTINUOUS
 62
               3
  5
13F
 10
-68.878647954554708
 20
1036.1082592145992
 30
0.0
 11
-68.878647954554708
 21
1050.0345959412198
 31
0.0
  0
ARC
  8
0
  6
CONTINUOUS
 62
               3
  5
140
 10
-48.878647954554708
 20
963.82409774059499
 30
0.0
 40
88.5
 50
76.938975885125799
 51
103.06102411470188
  0
LINE
  8
0
  6
CONTINUOUS
 62
               3
  5
141
 10
-135.08914615518029
 20
983.82409774059499
 30
0.0
 11
-121.16280942855974
 21
983.82409774059499
 31
0.0
  0
LINE
  8
0
  6
CONTINUOUS
 62
               3
  5
142
 10
-121.16280942855974
 20
943.82409774059499
 30
0.0
 11
-135.08914615518029
 21
943.82409774059499
 31
0.0
  0
ARC
  8
0
  6
CONTINUOUS
 62
               3
  5
143
 10
-48.878647954554708
 20
963.82409774059499
 30
0.0
 40
88.5
 50
166.93897588503955
 51
193.06102411461566
  0
LINE
  8
0
  6
CONTINUOUS
 62
               3
  5
144
 10
-26.878647954554253
 20
916.15597421973393
 30
0.0
 11
-26.878647954554239
 21
1011.4922212614549
 31
0.0
  0
ARC
  8
0
  6
CONTINUOUS
 62
               3
  5
145
 10
-57.585045582173734
 20
976.32770938997612
 30
0.0
 40
54.763804151667173
 50
231.38591763661623
 51
235.15009542072866
  0
ARC
  8
0
  6
CONTINUOUS
 62
               3
  5
146
 10
-48.878647954554708
 20
963.82409774059499
 30
0.0
 40
51.5
 50
64.710988473395787
 51
140.95932736350559
  0
ARC
  8
0
  6
CONTINUOUS
 62
               3
  5
147
 10
-48.878647954554708
 20
963.82409774059499
 30
0.0
 40
51.5
 50
219.04067263615008
 51
295.28901152625957
  0
ARC
  8
0
  6
CONTINUOUS
 62
               3
  5
148
 10
-48.878647954554708
 20
963.82409774059499
 30
0.0
 40
77.5
 50
321.42711690865889
 51
345.04475168302622
  0
ARC
  8
0
  6
CONTINUOUS
 62
               3
  5
149
 10
-48.878647954554708
 20
963.82409774059499
 30
0.0
 40
77.5
 50
104.95524831654285
 51
136.00495767878678
  0
ARC
  8
0
  6
CONTINUOUS
 62
               3
  5
14A
 10
-48.878647954554708
 20
963.82409774059499
 30
0.0
 40
77.5
 50
14.95524831662895
 51
75.044751683284801
  0
LINE
  8
0
  6
CONTINUOUS
 62
               3
  5
14B
 10
6.1213520454452919
 20
823.82409774059499
 30
0.0
 11
6.1213520454452919
 21
824.49565386655922
 31
0.0
  0
LINE
  8
0
  6
CONTINUOUS
 62
               3
  5
14C
 10
8.6213520454452635
 20
826.99565386655968
 30
0.0
 11
6.1213520454452919
 21
824.49565386655922
 31
0.0
  0
LINE
  8
0
  6
CONTINUOUS
 62
               3
  5
14D
 10
-103.87864795455471
 20
823.82409774059499
 30
0.0
 11
-103.87864795455471
 21
824.49565386655922
 31
0.0
  0
LINE
  8
0
  6
CONTINUOUS
 62
               3
  5
14E
 10
-106.37864795455471
 20
826.99565386655922
 30
0.0
 11
-103.87864795455471
 21
824.49565386655922
 31
0.0
  0
LINE
  8
0
  6
CONTINUOUS
 62
               3
  5
14F
 10
-103.87864795455471
 20
824.49565386655922
 30
0.0
 11
6.1213520454452919
 21
824.49565386655922
 31
0.0
  0
LINE
  8
0
  6
CONTINUOUS
 62
               3
  5
150
 10
-109.56824497289634
 20
918.33376195421715
 30
0.0
 11
-106.37864795455471
 21
826.99565386655922
 31
0.0
  0
LINE
  8
0
  6
CONTINUOUS
 62
               3
  5
151
 10
11.810949063786467
 20
918.33376195421647
 30
0.0
 11
8.6213520454452919
 21
826.99565386655968
 31
0.0
  0
LINE
  8
0
  6
CONTINUOUS
 62
               3
  5
152
 10
-103.70709182859059
 20
818.82409774059499
 30
0.0
 11
6.2213520454452862
 21
818.82409774059499
 31
0.0
  0
LINE
  8
0
  6
CONTINUOUS
 62
               3
  5
153
 10
8.7213520454452862
 20
823.82409774059499
 30
0.0
 11
-106.4786479545547
 21
823.82409774059499
 31
0.0
  0
LINE
  8
0
  6
CONTINUOUS
 62
               3
  5
154
 10
-106.4786479545547
 20
823.82409774059499
 30
0.0
 11
-106.4786479545547
 21
821.32409774059499
 31
0.0
  0
LINE
  8
0
  6
CONTINUOUS
 62
               3
  5
155
 10
8.7213520454452862
 20
823.82409774059499
 30
0.0
 11
8.7213520454452862
 21
821.32409774059499
 31
0.0
  0
ARC
  8
0
  6
CONTINUOUS
 62
               3
  5
156
 10
6.2213520454452862
 20
821.32409774059499
 30
0.0
 40
2.5
 50
269.99999999974114
 51
359.9999999996553
  0
ARC
  8
0
  6
CONTINUOUS
 62
               3
  5
157
 10
-103.9786479545547
 20
821.32409774059499
 30
0.0
 40
2.5
 50
179.99999999982765
 51
269.99999999974142
  0
LINE
  8
0
  6
CONTINUOUS
 62
               3
  5
158
 10
-88.878647954554481
 20
931.38569457397739
 30
0.0
 11
-88.878647954554481
 21
963.82409774059499
 31
0.0
  0
LINE
  8
0
  6
CONTINUOUS
 62
               3
  5
159
 10
-88.878647954554481
 20
963.82409774059499
 30
0.0
 11
-88.878647954554481
 21
997.82777401243368
 31
0.0
  0
LINE
  8
0
  6
CONTINUOUS
 62
               3
  5
15A
 10
8.6213520454452635
 20
826.99565386655968
 30
0.0
 11
-106.37864795455471
 21
826.99565386655922
 31
0.0
  0
ARC
  8
0
  6
CONTINUOUS
 62
               3
  5
15B
 10
-114.56519910799179
 20
918.15926447070456
 30
0.0
 40
5.0
 50
1.9999999999984339
 51
34.806757870394975
  0
ARC
  8
0
  6
CONTINUOUS
 62
               3
  5
15C
 10
16.807903198881945
 20
918.15926447070387
 30
0.0
 40
5.0
 50
145.19324212943289
 51
177.9999999998291
  0
LINE
  8
0
  6
CONTINUOUS
 62
               3
  5
15D
 10
-188.87864795455465
 20
1012.3240977405949
 30
0.0
 11
-188.20709182859042
 21
1012.3240977405949
 31
0.0
  0
LINE
  8
0
  6
CONTINUOUS
 62
               3
  5
15E
 10
-185.70709182858968
 20
1014.8240977405949
 30
0.0
 11
-188.20709182859042
 21
1012.3240977405949
 31
0.0
  0
LINE
  8
0
  6
CONTINUOUS
 62
               3
  5
15F
 10
-188.87864795455465
 20
915.32409774059488
 30
0.0
 11
-188.20709182859042
 21
915.32409774059488
 31
0.0
  0
LINE
  8
0
  6
CONTINUOUS
 62
               3
  5
160
 10
-185.70709182859042
 20
912.82409774059488
 30
0.0
 11
-188.20709182859042
 21
915.32409774059488
 31
0.0
  0
LINE
  8
0
  6
CONTINUOUS
 62
               3
  5
161
 10
-188.20709182859042
 20
915.32409774059465
 30
0.0
 11
-188.20709182859042
 21
1012.3240977405949
 31
0.0
  0
LINE
  8
0
  6
CONTINUOUS
 62
               3
  5
162
 10
-193.87864795455465
 20
915.47409774059497
 30
0.0
 11
-193.87864795455465
 21
1012.1740977405949
 31
0.0
  0
LINE
  8
0
  6
CONTINUOUS
 62
               3
  5
163
 10
-188.87864795455465
 20
1014.6740977405949
 30
0.0
 11
-188.87864795455465
 21
912.97409774059497
 31
0.0
  0
LINE
  8
0
  6
CONTINUOUS
 62
               3
  5
164
 10
-188.87864795455465
 20
912.97409774059497
 30
0.0
 11
-191.37864795455465
 21
912.97409774059497
 31
0.0
  0
LINE
  8
0
  6
CONTINUOUS
 62
               3
  5
165
 10
-188.87864795455465
 20
1014.6740977405949
 30
0.0
 11
-191.37864795455465
 21
1014.6740977405949
 31
0.0
  0
ARC
  8
0
  6
CONTINUOUS
 62
               3
  5
166
 10
-191.37864795455465
 20
1012.1740977405949
 30
0.0
 40
2.5
 50
89.999999999913825
 51
179.99999999982765
  0
ARC
  8
0
  6
CONTINUOUS
 62
               3
  5
167
 10
-191.37864795455465
 20
915.47409774059497
 30
0.0
 40
2.5
 50
179.99999999982765
 51
269.99999999974142
  0
LINE
  8
0
  6
CONTINUOUS
 62
               3
  5
168
 10
-185.70709182859042
 20
912.82409774059488
 30
0.0
 11
-185.70709182858968
 21
1014.824097740595
 31
0.0
  0
LINE
  8
0
  6
CONTINUOUS
 62
               3
  5
169
 10
-109.28264669420722
 20
910.15529730852222
 30
0.0
 11
-185.70709182859042
 21
912.82409774059488
 31
0.0
  0
LINE
  8
0
  6
CONTINUOUS
 62
               3
  5
16A
 10
-102.85143246329022
 20
1017.7174811223787
 30
0.0
 11
-185.70709182858968
 21
1014.824097740595
 31
0.0
  0
ARC
  8
0
  6
CONTINUOUS
 62
               3
  5
16B
 10
-103.02592994680282
 20
1022.7144352574741
 30
0.0
 40
5.0
 50
271.99999999974034
 51
312.59728005321426
  0
LINE
  8
0
  6
CONTINUOUS
 62
               3
  5
16C
 10
-123.87864795455471
 20
528.82409774059499
 30
0.0
 11
26.121352045444723
 21
528.82409774059499
 31
0.0
  0
LINE
  8
0
  6
CONTINUOUS
 62
               3
  5
16D
 10
-137.37864795455494
 20
518.82409774059499
 30
0.0
 11
-137.37864795455494
 21
511.82409774059533
 31
0.0
  0
LINE
  8
0
  6
CONTINUOUS
 62
               3
  5
16E
 10
-137.37864795455494
 20
518.82409774059499
 30
0.0
 11
-123.87864795455471
 21
528.82409774059499
 31
0.0
  0
ARC
  8
0
  6
CONTINUOUS
 62
               3
  5
16F
 10
-125.87864795455459
 20
507.24152204563961
 30
0.0
 40
4.9999999999999991
 50
0.0
 51
66.421821521734401
  0
LINE
  8
0
  6
CONTINUOUS
 62
               3
  5
170
 10
-137.37864795455494
 20
511.82409774059533
 30
0.0
 11
39.621352045444951
 21
511.82409774059533
 31
0.0
  0
ARC
  8
0
  6
CONTINUOUS
 62
               3
  5
171
 10
6.121352045444155
 20
421.82409774059499
 30
0.0
 40
19.999999999999996
 50
0.0
 51
31.788330617021305
  0
LINE
  8
0
  6
CONTINUOUS
 62
               3
  5
172
 10
-120.87864795455459
 20
507.24152204563961
 30
0.0
 11
-120.87864795455459
 21
432.35975149344779
 31
0.0
  0
ARC
  8
0
  6
CONTINUOUS
 62
               3
  5
173
 10
-103.87864795455528
 20
421.82409774059499
 30
0.0
 40
19.999999999999996
 50
148.21166938280629
 51
179.99999999982765
  0
LINE
  8
0
  6
CONTINUOUS
 62
               3
  5
174
 10
23.121352045445178
 20
432.35975149344779
 30
0.0
 11
23.121352045445178
 21
507.24152204563961
 31
0.0
  0
LINE
  8
0
  6
CONTINUOUS
 62
               3
  5
175
 10
-106.87864795455482
 20
-24.175902259405234
 30
0.0
 11
-123.87864795455471
 21
124.82409774059516
 31
0.0
  0
LINE
  8
0
  6
CONTINUOUS
 62
               3
  5
176
 10
26.121352045444155
 20
237.82409774059499
 30
0.0
 11
26.121352045444155
 21
124.82409774059516
 31
0.0
  0
LINE
  8
0
  6
CONTINUOUS
 62
               3
  5
177
 10
-120.87864795455459
 20
432.35975149344779
 30
0.0
 11
23.121352045445178
 21
432.35975149344779
 31
0.0
  0
LINE
  8
0
  6
CONTINUOUS
 62
               3
  5
178
 10
-68.878647954554708
 20
511.82409774059533
 30
0.0
 11
-68.878647954554708
 21
528.82409774059499
 31
0.0
  0
LINE
  8
0
  6
CONTINUOUS
 62
               3
  5
179
 10
-28.878647954555277
 20
528.82409774059499
 30
0.0
 11
-28.878647954555277
 21
511.82409774059533
 31
0.0
  0
LINE
  8
0
  6
CONTINUOUS
 62
               3
  5
17A
 10
-68.878647954554708
 20
518.82409774059499
 30
0.0
 11
-28.878647954555277
 21
518.82409774059499
 31
0.0
  0
LINE
  8
0
  6
CONTINUOUS
 62
               3
  5
17B
 10
-121.16280942855894
 20
528.82409774059499
 30
0.0
 11
-121.16280942855894
 21
511.82409774059533
 31
0.0
  0
LINE
  8
0
  6
CONTINUOUS
 62
               3
  5
17C
 10
-135.08914615517995
 20
518.82409774059499
 30
0.0
 11
-135.08914615517995
 21
511.82409774059533
 31
0.0
  0
LINE
  8
0
  6
CONTINUOUS
 62
               3
  5
17D
 10
-137.37864795455494
 20
518.82409774059499
 30
0.0
 11
-135.08914615517995
 21
518.82409774059499
 31
0.0
  0
LINE
  8
0
  6
CONTINUOUS
 62
               3
  5
17E
 10
-135.08914615517995
 20
518.82409774059499
 30
0.0
 11
-121.16280942855894
 21
528.82409774059499
 31
0.0
  0
LINE
  8
0
  6
CONTINUOUS
 62
               3
  5
17F
 10
39.621352045444951
 20
518.82409774059499
 30
0.0
 11
39.621352045444951
 21
511.82409774059533
 31
0.0
  0
LINE
  8
0
  6
CONTINUOUS
 62
               3
  5
180
 10
39.621352045444951
 20
518.82409774059499
 30
0.0
 11
26.121352045444723
 21
528.82409774059499
 31
0.0
  0
ARC
  8
0
  6
CONTINUOUS
 62
               3
  5
181
 10
28.121352045445178
 20
507.24152204563961
 30
0.0
 40
4.9999999999999991
 50
113.57817847809295
 51
179.99999999982765
  0
LINE
  8
0
  6
CONTINUOUS
 62
               3
  5
182
 10
23.405513519450096
 20
528.82409774059499
 30
0.0
 11
23.405513519450096
 21
511.82409774059533
 31
0.0
  0
LINE
  8
0
  6
CONTINUOUS
 62
               3
  5
183
 10
37.33185024607053
 20
518.82409774059499
 30
0.0
 11
37.33185024607053
 21
511.82409774059533
 31
0.0
  0
LINE
  8
0
  6
CONTINUOUS
 62
               3
  5
184
 10
39.621352045444951
 20
518.82409774059499
 30
0.0
 11
37.33185024607053
 21
518.82409774059499
 31
0.0
  0
LINE
  8
0
  6
CONTINUOUS
 62
               3
  5
185
 10
37.33185024607053
 20
518.82409774059499
 30
0.0
 11
23.405513519450096
 21
528.82409774059499
 31
0.0
  0
ARC
  8
0
  6
CONTINUOUS
 62
               3
  5
186
 10
26.121352045444155
 20
240.32409774059499
 30
0.0
 40
2.4999999999999996
 50
269.99999999974159
 51
449.99999999956907
  0
LINE
  8
0
  6
CONTINUOUS
 62
               3
  5
187
 10
26.121352045444155
 20
421.82409774059499
 30
0.0
 11
26.121352045444155
 21
242.82409774059499
 31
0.0
  0
LINE
  8
0
  6
CONTINUOUS
 62
               3
  5
188
 10
-123.87864795455471
 20
124.82409774059516
 30
0.0
 11
10.070352045445361
 21
124.82409774059545
 31
0.0
  0
LINE
  8
0
  6
CONTINUOUS
 62
               3
  5
189
 10
22.877718588984521
 20
124.82409774059545
 30
0.0
 11
26.121352045444723
 21
124.82409774059545
 31
0.0
  0
LINE
  8
0
  6
CONTINUOUS
 62
               3
  5
18A
 10
26.121352045444155
 20
237.82409774059499
 30
0.0
 11
-113.87864795455528
 21
237.82409774059499
 31
0.0
  0
LINE
  8
0
  6
CONTINUOUS
 62
               3
  5
18B
 10
26.121352045444155
 20
242.82409774059499
 30
0.0
 11
-113.87864795455528
 21
242.82409774059499
 31
0.0
  0
LINE
  8
0
  6
CONTINUOUS
 62
               3
  5
18C
 10
-22.091290862075823
 20
390.82409774059488
 30
0.0
 11
-75.66600504703473
 21
390.82409774059488
 31
0.0
  0
CIRCLE
  8
0
  6
CONTINUOUS
 62
               3
  5
18D
 10
-48.878647954555262
 20
362.82409774059499
 30
0.0
 40
48.5
  0
CIRCLE
  8
0
  6
CONTINUOUS
 62
               3
  5
18E
 10
-48.878647954555262
 20
362.82409774059499
 30
0.0
 40
38.75
  0
CIRCLE
  8
0
  6
CONTINUOUS
 62
               3
  5
18F
 10
-48.878647954555262
 20
362.82409774059499
 30
0.0
 40
47.299999999999997
  0
LINE
  8
0
  6
CONTINUOUS
 62
               3
  5
190
 10
-80.698453107949888
 20
331.00429258720044
 30
0.0
 11
-82.324798704678983
 21
329.37794699047129
 31
0.0
  0
LINE
  8
0
  6
CONTINUOUS
 62
               3
  5
191
 10
-17.058842801160608
 20
331.00429258720044
 30
0.0
 11
-15.432497204431513
 21
329.3779469904714
 31
0.0
  0
ARC
  8
0
  6
CONTINUOUS
 62
               3
  5
192
 10
-48.878647954555262
 20
362.82409774059499
 30
0.0
 40
45.0
 50
224.99999999978448
 51
314.99999999969839
  0
CIRCLE
  8
0
  6
CONTINUOUS
 62
               3
  5
193
 10
-48.878647954555262
 20
362.82409774059499
 30
0.0
 40
43.0
  0
CIRCLE
  8
0
  6
CONTINUOUS
 62
               3
  5
194
 10
-48.878647954555262
 20
362.82409774059499
 30
0.0
 40
57.600000000000001
  0
LINE
  8
0
  6
CONTINUOUS
 62
               3
  5
195
 10
9.1213520454454056
 20
-24.175902259405234
 30
0.0
 11
21.669443026145871
 21
85.804424571444713
 31
0.0
  0
LINE
  8
0
  6
CONTINUOUS
 62
               3
  5
196
 10
23.7214949992063
 20
103.79005657062254
 30
0.0
 11
26.121352045444723
 21
124.82409774059545
 31
0.0
  0
ARC
  8
0
  6
CONTINUOUS
 62
               3
  5
197
 10
-113.87864795455528
 20
240.32409774059499
 30
0.0
 40
2.4999999999999996
 50
89.999999999913825
 51
269.99999999974142
  0
LINE
  8
0
  6
CONTINUOUS
 62
               3
  5
198
 10
-123.87864795455528
 20
124.82409774059516
 30
0.0
 11
-123.87864795455471
 21
222.18843053434011
 31
0.0
  0
LINE
  8
0
  6
CONTINUOUS
 62
               3
  5
199
 10
-123.87864795455528
 20
352.31163845118897
 30
0.0
 11
-123.87864795455528
 21
421.82409774059499
 31
0.0
  0
LINE
  8
0
  6
CONTINUOUS
 62
               3
  5
19A
 10
-185.70709182859042
 20
243.32409774059573
 30
0.0
 11
-143.36421779858259
 21
241.84545199697544
 31
0.0
  0
LINE
  8
0
  6
CONTINUOUS
 62
               3
  5
19B
 10
-125.34311404862203
 20
225.72396444027288
 30
0.0
 11
-140.00318137616244
 21
240.38403176781276
 31
0.0
  0
LINE
  8
0
  6
CONTINUOUS
 62
               3
  5
19C
 10
-185.70709182859042
 20
345.32409774059511
 30
0.0
 11
-128.70415047104223
 21
347.31468431609352
 31
0.0
  0
LINE
  8
0
  6
CONTINUOUS
 62
               3
  5
19D
 10
-188.87864795455471
 20
245.82409774059499
 30
0.0
 11
-188.20709182859048
 21
245.82409774059499
 31
0.0
  0
LINE
  8
0
  6
CONTINUOUS
 62
               3
  5
19E
 10
-185.70709182858974
 20
243.32409774059499
 30
0.0
 11
-188.20709182859048
 21
245.82409774059499
 31
0.0
  0
LINE
  8
0
  6
CONTINUOUS
 62
               3
  5
19F
 10
-188.87864795455471
 20
342.82409774059499
 30
0.0
 11
-188.20709182859048
 21
342.82409774059499
 31
0.0
  0
LINE
  8
0
  6
CONTINUOUS
 62
               3
  5
1A0
 10
-185.70709182859048
 20
345.32409774059505
 30
0.0
 11
-188.20709182859048
 21
342.82409774059499
 31
0.0
  0
LINE
  8
0
  6
CONTINUOUS
 62
               3
  5
1A1
 10
-188.20709182859048
 20
342.82409774059522
 30
0.0
 11
-188.20709182859048
 21
245.82409774059499
 31
0.0
  0
LINE
  8
0
  6
CONTINUOUS
 62
               3
  5
1A2
 10
-193.87864795455471
 20
342.67409774059502
 30
0.0
 11
-193.87864795455471
 21
245.97409774059503
 31
0.0
  0
LINE
  8
0
  6
CONTINUOUS
 62
               3
  5
1A3
 10
-188.87864795455471
 20
243.47409774059503
 30
0.0
 11
-188.87864795455471
 21
345.17409774059502
 31
0.0
  0
LINE
  8
0
  6
CONTINUOUS
 62
               3
  5
1A4
 10
-188.87864795455471
 20
345.17409774059502
 30
0.0
 11
-191.37864795455471
 21
345.17409774059502
 31
0.0
  0
LINE
  8
0
  6
CONTINUOUS
 62
               3
  5
1A5
 10
-188.87864795455471
 20
243.47409774059503
 30
0.0
 11
-191.37864795455471
 21
243.47409774059503
 31
0.0
  0
ARC
  8
0
  6
CONTINUOUS
 62
               3
  5
1A6
 10
-191.37864795455471
 20
245.97409774059503
 30
0.0
 40
2.5
 50
179.99999999982697
 51
269.99999999974142
  0
ARC
  8
0
  6
CONTINUOUS
 62
               3
  5
1A7
 10
-191.37864795455471
 20
342.67409774059502
 30
0.0
 40
2.5
 50
89.999999999913825
 51
179.99999999982765
  0
LINE
  8
0
  6
CONTINUOUS
 62
               3
  5
1A8
 10
-185.70709182859042
 20
345.32409774059505
 30
0.0
 11
-185.70709182858968
 21
243.32409774059499
 31
0.0
  0
ARC
  8
0
  6
CONTINUOUS
 62
               3
  5
1A9
 10
-143.53871528209513
 20
236.84849786187999
 30
0.0
 40
5.0
 50
44.999999999957986
 51
87.999999999915332
  0
ARC
  8
0
  6
CONTINUOUS
 62
               3
  5
1AA
 10
-128.87864795455471
 20
222.18843053434011
 30
0.0
 40
5.0
 50
0.0
 51
44.999999999957986
  0
ARC
  8
0
  6
CONTINUOUS
 62
               3
  5
1AB
 10
-128.87864795455471
 20
352.31163845118897
 30
0.0
 40
5.0
 50
271.99999999973909
 51
359.9999999996553
  0
LINE
  8
0
  6
CONTINUOUS
 62
               3
  5
1AC
 10
-573.87864795455471
 20
528.82409774059499
 30
0.0
 11
-723.87864795455471
 21
528.82409774059499
 31
0.0
  0
LINE
  8
0
  6
CONTINUOUS
 62
               3
  5
1AD
 10
-560.37864795455448
 20
518.82409774059499
 30
0.0
 11
-560.37864795455448
 21
511.82409774059533
 31
0.0
  0
LINE
  8
0
  6
CONTINUOUS
 62
               3
  5
1AE
 10
-560.37864795455448
 20
518.82409774059499
 30
0.0
 11
-573.87864795455471
 21
528.82409774059499
 31
0.0
  0
ARC
  8
0
  6
CONTINUOUS
 62
               3
  5
1AF
 10
-571.87864795455482
 20
507.24152204563961
 30
0.0
 40
4.9999999999999991
 50
113.57817847809341
 51
179.99999999982765
  0
LINE
  8
0
  6
CONTINUOUS
 62
               3
  5
1B0
 10
-560.37864795455448
 20
511.82409774059533
 30
0.0
 11
-737.37864795455437
 21
511.82409774059533
 31
0.0
  0
ARC
  8
0
  6
CONTINUOUS
 62
               3
  5
1B1
 10
-593.87864795455471
 20
421.82409774059499
 30
0.0
 40
19.999999999999996
 50
12.730180138300213
 51
31.788330617021266
  0
LINE
  8
0
  6
CONTINUOUS
 62
               3
  5
1B2
 10
-576.87864795455482
 20
507.24152204563961
 30
0.0
 11
-576.87864795455482
 21
432.35975149344779
 31
0.0
  0
LINE
  8
0
  6
CONTINUOUS
 62
               3
  5
1B3
 10
-720.87864795455459
 20
437.35975149344836
 30
0.0
 11
-720.87864795455459
 21
507.24152204563961
 31
0.0
  0
LINE
  8
0
  6
CONTINUOUS
 62
               3
  5
1B4
 10
-590.87864795455459
 20
-24.175902259405461
 30
0.0
 11
-573.87864795455471
 21
124.82409774059494
 31
0.0
  0
LINE
  8
0
  6
CONTINUOUS
 62
               3
  5
1B5
 10
-576.87864795455482
 20
432.35975149344779
 30
0.0
 11
-720.37864795455505
 21
432.35975149344779
 31
0.0
  0
LINE
  8
0
  6
CONTINUOUS
 62
               3
  5
1B6
 10
-628.87864795455471
 20
511.82409774059533
 30
0.0
 11
-628.87864795455471
 21
528.82409774059499
 31
0.0
  0
LINE
  8
0
  6
CONTINUOUS
 62
               3
  5
1B7
 10
-668.87864795455471
 20
528.82409774059499
 30
0.0
 11
-668.87864795455471
 21
511.82409774059533
 31
0.0
  0
LINE
  8
0
  6
CONTINUOUS
 62
               3
  5
1B8
 10
-628.87864795455471
 20
518.82409774059499
 30
0.0
 11
-668.87864795455471
 21
518.82409774059499
 31
0.0
  0
LINE
  8
0
  6
CONTINUOUS
 62
               3
  5
1B9
 10
-576.59448648054934
 20
528.82409774059499
 30
0.0
 11
-576.59448648054934
 21
511.82409774059533
 31
0.0
  0
LINE
  8
0
  6
CONTINUOUS
 62
               3
  5
1BA
 10
-562.66814975392947
 20
518.82409774059499
 30
0.0
 11
-562.66814975392947
 21
511.82409774059533
 31
0.0
  0
LINE
  8
0
  6
CONTINUOUS
 62
               3
  5
1BB
 10
-560.37864795455448
 20
518.82409774059499
 30
0.0
 11
-562.66814975392947
 21
518.82409774059499
 31
0.0
  0
LINE
  8
0
  6
CONTINUOUS
 62
               3
  5
1BC
 10
-562.66814975392947
 20
518.82409774059499
 30
0.0
 11
-576.59448648054934
 21
528.82409774059499
 31
0.0
  0
LINE
  8
0
  6
CONTINUOUS
 62
               3
  5
1BD
 10
-737.37864795455437
 20
518.82409774059499
 30
0.0
 11
-737.37864795455437
 21
511.82409774059533
 31
0.0
  0
LINE
  8
0
  6
CONTINUOUS
 62
               3
  5
1BE
 10
-737.37864795455437
 20
518.82409774059499
 30
0.0
 11
-723.87864795455471
 21
528.82409774059499
 31
0.0
  0
ARC
  8
0
  6
CONTINUOUS
 62
               3
  5
1BF
 10
-725.87864795455459
 20
507.24152204563961
 30
0.0
 40
4.9999999999999991
 50
0.0
 51
66.421821521734117
  0
LINE
  8
0
  6
CONTINUOUS
 62
               3
  5
1C0
 10
-721.16280942855894
 20
528.82409774059499
 30
0.0
 11
-721.16280942855894
 21
511.82409774059533
 31
0.0
  0
LINE
  8
0
  6
CONTINUOUS
 62
               3
  5
1C1
 10
-735.08914615517995
 20
518.82409774059499
 30
0.0
 11
-735.08914615517995
 21
511.82409774059533
 31
0.0
  0
LINE
  8
0
  6
CONTINUOUS
 62
               3
  5
1C2
 10
-737.37864795455437
 20
518.82409774059499
 30
0.0
 11
-735.08914615517995
 21
518.82409774059499
 31
0.0
  0
LINE
  8
0
  6
CONTINUOUS
 62
               3
  5
1C3
 10
-735.08914615517995
 20
518.82409774059499
 30
0.0
 11
-721.16280942855894
 21
528.82409774059499
 31
0.0
  0
ARC
  8
0
  6
CONTINUOUS
 62
               3
  5
1C4
 10
-573.87864795455471
 20
240.32409774059477
 30
0.0
 40
2.4999999999999996
 50
269.99999999974142
 51
449.99999999956907
  0
ARC
  8
0
  6
CONTINUOUS
 62
               3
  5
1C5
 10
-723.87864795455471
 20
240.32409774059477
 30
0.0
 40
2.4999999999999996
 50
89.999999999911211
 51
269.99999999974142
  0
LINE
  8
0
  6
CONTINUOUS
 62
               3
  5
1C6
 10
-573.87864795455471
 20
124.82409774059494
 30
0.0
 11
-723.37541308820448
 21
124.82409774059494
 31
0.0
  0
LINE
  8
0
  6
CONTINUOUS
 62
               3
  5
1C7
 10
-508.87864795455471
 20
307.82409774059499
 30
0.0
 11
-509.55020408051917
 21
307.82409774059499
 31
0.0
  0
LINE
  8
0
  6
CONTINUOUS
 62
               3
  5
1C8
 10
-512.05020408051917
 20
305.32409774059573
 30
0.0
 11
-509.55020408051917
 21
307.82409774059499
 31
0.0
  0
LINE
  8
0
  6
CONTINUOUS
 62
               3
  5
1C9
 10
-512.05020408051985
 20
305.32409774059499
 30
0.0
 11
-554.21531433679741
 21
303.85165964474095
 31
0.0
  0
LINE
  8
0
  6
CONTINUOUS
 62
               3
  5
1CA
 10
-572.41418186048725
 20
287.55240831430899
 30
0.0
 11
-557.57635075921746
 21
302.39023941557826
 31
0.0
  0
ARC
  8
0
  6
CONTINUOUS
 62
               3
  5
1CB
 10
-568.87864795455471
 20
284.01687440837588
 30
0.0
 40
4.9999999999999991
 50
134.99999999987119
 51
179.99999999982765
  0
LINE
  8
0
  6
CONTINUOUS
 62
               3
  5
1CC
 10
-508.87864795455471
 20
417.82409774059488
 30
0.0
 11
-509.55020408051917
 21
417.82409774059488
 31
0.0
  0
LINE
  8
0
  6
CONTINUOUS
 62
               3
  5
1CD
 10
-512.05020408051917
 20
420.32409774059511
 30
0.0
 11
-509.55020408051917
 21
417.82409774059488
 31
0.0
  0
LINE
  8
0
  6
CONTINUOUS
 62
               3
  5
1CE
 10
-512.05020408051917
 20
420.32409774059505
 30
0.0
 11
-569.66768028269337
 21
422.3361443457473
 31
0.0
  0
LINE
  8
0
  6
CONTINUOUS
 62
               3
  5
1CF
 10
-509.55020408051917
 20
417.82409774059488
 30
0.0
 11
-509.55020408051917
 21
307.82409774059499
 31
0.0
  0
LINE
  8
0
  6
CONTINUOUS
 62
               3
  5
1D0
 10
-508.87864795455471
 20
305.22409774059497
 30
0.0
 11
-508.87864795455471
 21
420.42409774059502
 31
0.0
  0
LINE
  8
0
  6
CONTINUOUS
 62
               3
  5
1D1
 10
-508.87864795455471
 20
420.42409774059502
 30
0.0
 11
-506.37864795455471
 21
420.42409774059502
 31
0.0
  0
ARC
  8
0
  6
CONTINUOUS
 62
               3
  5
1D2
 10
-506.37864795455471
 20
417.92409774059502
 30
0.0
 40
2.5
 50
0.0
 51
89.999999999913825
  0
LINE
  8
0
  6
CONTINUOUS
 62
               3
  5
1D3
 10
-503.87864795455471
 20
417.92409774059502
 30
0.0
 11
-503.87864795455471
 21
307.72409774059497
 31
0.0
  0
LINE
  8
0
  6
CONTINUOUS
 62
               3
  5
1D4
 10
-508.87864795455471
 20
305.22409774059497
 30
0.0
 11
-506.37864795455471
 21
305.22409774059497
 31
0.0
  0
ARC
  8
0
  6
CONTINUOUS
 62
               3
  5
1D5
 10
-506.37864795455471
 20
307.72409774059497
 30
0.0
 40
2.5
 50
269.99999999974142
 51
359.9999999996553
  0
LINE
  8
0
  6
CONTINUOUS
 62
               3
  5
1D6
 10
-512.05020408051917
 20
420.32409774059511
 30
0.0
 11
-512.05020408051985
 21
305.32409774059499
 31
0.0
  0
ARC
  8
0
  6
CONTINUOUS
 62
               3
  5
1D7
 10
-554.04081685328481
 20
298.8547055096455
 30
0.0
 40
5.0
 50
91.999999999912205
 51
134.9999999998698
  0
ARC
  8
0
  6
CONTINUOUS
 62
               3
  5
1D8
 10
-569.49318279918089
 20
427.33309848084275
 30
0.0
 40
5.0
 50
192.73018013812944
 51
267.99999999974415
  0
ARC
  8
0
  6
CONTINUOUS
 62
               3
  5
1D9
 10
-626.37864795455528
 20
240.32409774059477
 30
0.0
 40
2.4999999999999996
 50
89.999999999911211
 51
269.99999999974142
  0
ARC
  8
0
  6
CONTINUOUS
 62
               3
  5
1DA
 10
-671.37864795455528
 20
240.32409774059477
 30
0.0
 40
2.4999999999999996
 50
269.99999999974142
 51
449.99999999956907
  0
CIRCLE
  8
0
  6
CONTINUOUS
 62
               3
  5
1DB
 10
-648.87864795455471
 20
294.32409774059488
 30
0.0
 40
50.850000000000001
  0
LINE
  8
0
  6
CONTINUOUS
 62
               3
  5
1DC
 10
-573.87864795455471
 20
242.82409774059477
 30
0.0
 11
-626.37864795455528
 21
242.82409774059477
 31
0.0
  0
LINE
  8
0
  6
CONTINUOUS
 62
               3
  5
1DD
 10
-671.37864795455528
 20
242.82409774059477
 30
0.0
 11
-723.87864795455471
 21
242.82409774059477
 31
0.0
  0
LINE
  8
0
  6
CONTINUOUS
 62
               3
  5
1DE
 10
-573.87864795455471
 20
237.82409774059477
 30
0.0
 11
-626.37864795455528
 21
237.82409774059477
 31
0.0
  0
LINE
  8
0
  6
CONTINUOUS
 62
               3
  5
1DF
 10
-671.37864795455528
 20
237.82409774059477
 30
0.0
 11
-723.87864795455471
 21
237.82409774059477
 31
0.0
  0
LINE
  8
0
  6
CONTINUOUS
 62
               3
  5
1E0
 10
-573.87864795455471
 20
284.01687440837588
 30
0.0
 11
-573.87864795455471
 21
242.82409774059477
 31
0.0
  0
LINE
  8
0
  6
CONTINUOUS
 62
               3
  5
1E1
 10
-573.87864795455471
 20
237.82409774059477
 30
0.0
 11
-573.87864795455471
 21
124.82409774059494
 31
0.0
  0
LINE
  8
0
  6
CONTINUOUS
 62
               3
  5
1E2
 10
476.12135204544529
 20
528.82409774059499
 30
0.0
 11
626.12135204544529
 21
528.82409774059499
 31
0.0
  0
LINE
  8
0
  6
CONTINUOUS
 62
               3
  5
1E3
 10
462.62135204544506
 20
518.82409774059499
 30
0.0
 11
462.62135204544506
 21
511.82409774059533
 31
0.0
  0
LINE
  8
0
  6
CONTINUOUS
 62
               3
  5
1E4
 10
462.62135204544506
 20
518.82409774059499
 30
0.0
 11
476.12135204544529
 21
528.82409774059499
 31
0.0
  0
ARC
  8
0
  6
CONTINUOUS
 62
               3
  5
1E5
 10
474.12135204544541
 20
507.24152204563961
 30
0.0
 40
4.9999999999999991
 50
0.0
 51
66.421821521734117
  0
LINE
  8
0
  6
CONTINUOUS
 62
               3
  5
1E6
 10
462.62135204544506
 20
511.82409774059533
 30
0.0
 11
639.62135204544495
 21
511.82409774059533
 31
0.0
  0
ARC
  8
0
  6
CONTINUOUS
 62
               3
  5
1E7
 10
496.12135204544529
 20
421.82409774059499
 30
0.0
 40
19.999999999999996
 50
148.21166938280612
 51
167.26981986152745
  0
LINE
  8
0
  6
CONTINUOUS
 62
               3
  5
1E8
 10
479.12135204544541
 20
507.24152204563961
 30
0.0
 11
479.12135204544541
 21
432.35975149344779
 31
0.0
  0
LINE
  8
0
  6
CONTINUOUS
 62
               3
  5
1E9
 10
623.12135204544518
 20
437.35975149344836
 30
0.0
 11
623.12135204544518
 21
507.24152204563961
 31
0.0
  0
LINE
  8
0
  6
CONTINUOUS
 62
               3
  5
1EA
 10
493.12135204544518
 20
-24.175902259405234
 30
0.0
 11
476.12135204544529
 21
124.82409774059516
 31
0.0
  0
LINE
  8
0
  6
CONTINUOUS
 62
               3
  5
1EB
 10
479.12135204544541
 20
432.35975149344779
 30
0.0
 11
622.62135204544563
 21
432.35975149344779
 31
0.0
  0
LINE
  8
0
  6
CONTINUOUS
 62
               3
  5
1EC
 10
531.12135204544529
 20
511.82409774059533
 30
0.0
 11
531.12135204544529
 21
528.82409774059499
 31
0.0
  0
LINE
  8
0
  6
CONTINUOUS
 62
               3
  5
1ED
 10
571.12135204544529
 20
528.82409774059499
 30
0.0
 11
571.12135204544529
 21
511.82409774059533
 31
0.0
  0
LINE
  8
0
  6
CONTINUOUS
 62
               3
  5
1EE
 10
531.12135204544529
 20
518.82409774059499
 30
0.0
 11
571.12135204544529
 21
518.82409774059499
 31
0.0
  0
LINE
  8
0
  6
CONTINUOUS
 62
               3
  5
1EF
 10
478.83719057143992
 20
528.82409774059499
 30
0.0
 11
478.83719057143992
 21
511.82409774059533
 31
0.0
  0
LINE
  8
0
  6
CONTINUOUS
 62
               3
  5
1F0
 10
464.91085384482005
 20
518.82409774059499
 30
0.0
 11
464.91085384482005
 21
511.82409774059533
 31
0.0
  0
LINE
  8
0
  6
CONTINUOUS
 62
               3
  5
1F1
 10
462.62135204544506
 20
518.82409774059499
 30
0.0
 11
464.91085384482005
 21
518.82409774059499
 31
0.0
  0
LINE
  8
0
  6
CONTINUOUS
 62
               3
  5
1F2
 10
464.91085384482005
 20
518.82409774059499
 30
0.0
 11
478.83719057143992
 21
528.82409774059499
 31
0.0
  0
LINE
  8
0
  6
CONTINUOUS
 62
               3
  5
1F3
 10
639.62135204544495
 20
518.82409774059499
 30
0.0
 11
639.62135204544495
 21
511.82409774059533
 31
0.0
  0
LINE
  8
0
  6
CONTINUOUS
 62
               3
  5
1F4
 10
639.62135204544495
 20
518.82409774059499
 30
0.0
 11
626.12135204544529
 21
528.82409774059499
 31
0.0
  0
ARC
  8
0
  6
CONTINUOUS
 62
               3
  5
1F5
 10
628.12135204544518
 20
507.24152204563961
 30
0.0
 40
4.9999999999999991
 50
113.57817847809341
 51
179.99999999982765
  0
LINE
  8
0
  6
CONTINUOUS
 62
               3
  5
1F6
 10
623.40551351944953
 20
528.82409774059499
 30
0.0
 11
623.40551351944953
 21
511.82409774059533
 31
0.0
  0
LINE
  8
0
  6
CONTINUOUS
 62
               3
  5
1F7
 10
637.33185024607053
 20
518.82409774059499
 30
0.0
 11
637.33185024607053
 21
511.82409774059533
 31
0.0
  0
LINE
  8
0
  6
CONTINUOUS
 62
               3
  5
1F8
 10
639.62135204544495
 20
518.82409774059499
 30
0.0
 11
637.33185024607053
 21
518.82409774059499
 31
0.0
  0
LINE
  8
0
  6
CONTINUOUS
 62
               3
  5
1F9
 10
637.33185024607053
 20
518.82409774059499
 30
0.0
 11
623.40551351944953
 21
528.82409774059499
 31
0.0
  0
ARC
  8
0
  6
CONTINUOUS
 62
               3
  5
1FA
 10
476.12135204544529
 20
240.32409774059499
 30
0.0
 40
2.4999999999999996
 50
89.999999999912518
 51
269.99999999974142
  0
ARC
  8
0
  6
CONTINUOUS
 62
               3
  5
1FB
 10
626.12135204544529
 20
240.32409774059499
 30
0.0
 40
2.4999999999999996
 50
269.99999999974142
 51
449.99999999956907
  0
LINE
  8
0
  6
CONTINUOUS
 62
               3
  5
1FC
 10
476.12135204544529
 20
124.82409774059516
 30
0.0
 11
504.7532442533884
 21
124.82409774059516
 31
0.0
  0
LINE
  8
0
  6
CONTINUOUS
 62
               3
  5
1FD
 10
549.1485187652944
 20
124.82409774059516
 30
0.0
 11
625.61811717909507
 21
124.82409774059516
 31
0.0
  0
LINE
  8
0
  6
CONTINUOUS
 62
               3
  5
1FE
 10
476.12135204544529
 20
242.82409774059499
 30
0.0
 11
626.12135204544529
 21
242.82409774059499
 31
0.0
  0
LINE
  8
0
  6
CONTINUOUS
 62
               3
  5
1FF
 10
476.12135204544529
 20
237.82409774059499
 30
0.0
 11
626.12135204544529
 21
237.82409774059499
 31
0.0
  0
LINE
  8
0
  6
CONTINUOUS
 62
               3
  5
200
 10
411.12135204544529
 20
307.82409774059499
 30
0.0
 11
411.79290817140969
 21
307.82409774059499
 31
0.0
  0
LINE
  8
0
  6
CONTINUOUS
 62
               3
  5
201
 10
414.29290817140975
 20
305.32409774059573
 30
0.0
 11
411.79290817140969
 21
307.82409774059499
 31
0.0
  0
LINE
  8
0
  6
CONTINUOUS
 62
               3
  5
202
 10
414.29290817141049
 20
305.32409774059499
 30
0.0
 11
456.45801842768793
 21
303.85165964474095
 31
0.0
  0
LINE
  8
0
  6
CONTINUOUS
 62
               3
  5
203
 10
474.65688595137783
 20
287.55240831430899
 30
0.0
 11
459.81905485010805
 21
302.39023941557826
 31
0.0
  0
ARC
  8
0
  6
CONTINUOUS
 62
               3
  5
204
 10
471.12135204544529
 20
284.01687440837588
 30
0.0
 40
4.9999999999999991
 50
0.0
 51
44.999999999956145
  0
LINE
  8
0
  6
CONTINUOUS
 62
               3
  5
205
 10
411.12135204544529
 20
417.82409774059488
 30
0.0
 11
411.79290817140969
 21
417.82409774059488
 31
0.0
  0
LINE
  8
0
  6
CONTINUOUS
 62
               3
  5
206
 10
414.29290817140975
 20
420.32409774059511
 30
0.0
 11
411.79290817140969
 21
417.82409774059488
 31
0.0
  0
LINE
  8
0
  6
CONTINUOUS
 62
               3
  5
207
 10
414.29290817140969
 20
420.32409774059505
 30
0.0
 11
471.91038437358395
 21
422.3361443457473
 31
0.0
  0
LINE
  8
0
  6
CONTINUOUS
 62
               3
  5
208
 10
411.79290817140969
 20
417.82409774059488
 30
0.0
 11
411.79290817140969
 21
307.82409774059499
 31
0.0
  0
LINE
  8
0
  6
CONTINUOUS
 62
               3
  5
209
 10
411.12135204544529
 20
305.22409774059497
 30
0.0
 11
411.12135204544529
 21
420.42409774059502
 31
0.0
  0
LINE
  8
0
  6
CONTINUOUS
 62
               3
  5
20A
 10
411.12135204544529
 20
420.42409774059502
 30
0.0
 11
408.62135204544529
 21
420.42409774059502
 31
0.0
  0
ARC
  8
0
  6
CONTINUOUS
 62
               3
  5
20B
 10
408.62135204544529
 20
417.92409774059502
 30
0.0
 40
2.5
 50
89.999999999915119
 51
179.99999999982765
  0
LINE
  8
0
  6
CONTINUOUS
 62
               3
  5
20C
 10
406.12135204544529
 20
417.92409774059502
 30
0.0
 11
406.12135204544529
 21
307.72409774059497
 31
0.0
  0
LINE
  8
0
  6
CONTINUOUS
 62
               3
  5
20D
 10
411.12135204544529
 20
305.22409774059497
 30
0.0
 11
408.62135204544529
 21
305.22409774059497
 31
0.0
  0
ARC
  8
0
  6
CONTINUOUS
 62
               3
  5
20E
 10
408.62135204544529
 20
307.72409774059497
 30
0.0
 40
2.5
 50
179.99999999982765
 51
269.99999999974017
  0
LINE
  8
0
  6
CONTINUOUS
 62
               3
  5
20F
 10
414.29290817140975
 20
420.32409774059511
 30
0.0
 11
414.29290817141049
 21
305.32409774059499
 31
0.0
  0
ARC
  8
0
  6
CONTINUOUS
 62
               3
  5
210
 10
456.28352094417539
 20
298.8547055096455
 30
0.0
 40
5.0
 50
44.999999999957986
 51
87.999999999915332
  0
ARC
  8
0
  6
CONTINUOUS
 62
               3
  5
211
 10
471.73588689007147
 20
427.33309848084275
 30
0.0
 40
5.0
 50
271.99999999973971
 51
347.26981986135371
  0
LINE
  8
0
  6
CONTINUOUS
 62
               3
  5
212
 10
476.12135204544529
 20
284.01687440837588
 30
0.0
 11
476.12135204544529
 21
242.82409774059499
 31
0.0
  0
LINE
  8
0
  6
CONTINUOUS
 62
               3
  5
213
 10
476.12135204544529
 20
237.82409774059499
 30
0.0
 11
476.12135204544529
 21
124.82409774059516
 31
0.0
  0
LINE
  8
0
  6
CONTINUOUS
 62
               3
  5
214
 10
-629.79822605146296
 20
320.32409774059477
 30
0.0
 11
-667.95906985764759
 21
320.32409774059477
 31
0.0
  0
CIRCLE
  8
0
  6
CONTINUOUS
 62
               3
  5
215
 10
-648.87864795455471
 20
294.32409774059488
 30
0.0
 40
41.849999999999994
  0
CIRCLE
  8
0
  6
CONTINUOUS
 62
               3
  5
216
 10
-648.87864795455471
 20
294.32409774059488
 30
0.0
 40
40.75
  0
CIRCLE
  8
0
  6
CONTINUOUS
 62
               3
  5
217
 10
-648.87864795455528
 20
294.32409774059488
 30
0.0
 40
36.399999999999999
  0
CIRCLE
  8
0
  6
CONTINUOUS
 62
               3
  5
218
 10
-648.87864795455528
 20
294.32409774059488
 30
0.0
 40
32.25
  0
LINE
  8
0
  6
CONTINUOUS
 62
               3
  5
219
 10
-621.8318135741697
 20
267.27726336020942
 30
0.0
 11
-620.06404662120292
 21
265.50949640724298
 31
0.0
  0
LINE
  8
0
  6
CONTINUOUS
 62
               3
  5
21A
 10
-675.9254823349338
 20
267.2772633602026
 30
0.0
 11
-677.69324928790604
 21
265.50949640724241
 31
0.0
  0
ARC
  8
0
  6
CONTINUOUS
 62
               3
  5
21B
 10
-648.87864795455528
 20
294.32409774059488
 30
0.0
 40
38.25
 50
224.99999999979906
 51
314.99999999970726
  0
CIRCLE
  8
0
  6
CONTINUOUS
 62
               3
  5
21C
 10
-48.878647954554708
 20
963.82409774059499
 30
0.0
 40
59.0
  0
CIRCLE
  8
0
  6
CONTINUOUS
 62
               3
  5
21D
 10
560.40787526175313
 20
-700.13966216880453
 30
0.0
 40
75.0
  0
CIRCLE
  8
0
  6
CONTINUOUS
 62
               3
  5
21E
 10
560.40787526175313
 20
-700.13966216880453
 30
0.0
 40
52.5
  0
LINE
  8
0
  6
CONTINUOUS
 62
               3
  5
21F
 10
474.19737706112795
 20
-680.13966216880453
 30
0.0
 11
488.12371378774782
 21
-680.13966216880453
 31
0.0
  0
LINE
  8
0
  6
CONTINUOUS
 62
               3
  5
220
 10
488.12371378774782
 20
-720.13966216880465
 30
0.0
 11
474.19737706112795
 21
-720.13966216880465
 31
0.0
  0
ARC
  8
0
  6
CONTINUOUS
 62
               3
  5
221
 10
560.40787526175313
 20
-700.13966216880453
 30
0.0
 40
88.5
 50
166.93897588507147
 51
193.06102411465255
  0
LINE
  8
0
  6
CONTINUOUS
 62
               3
  5
222
 10
540.40787526175313
 20
-786.35016036942955
 30
0.0
 11
540.40787526175313
 21
-772.42382364280968
 31
0.0
  0
LINE
  8
0
  6
CONTINUOUS
 62
               3
  5
223
 10
580.40787526175313
 20
-772.42382364280968
 30
0.0
 11
580.40787526175313
 21
-786.35016036942955
 31
0.0
  0
ARC
  8
0
  6
CONTINUOUS
 62
               3
  5
224
 10
560.40787526175313
 20
-700.13966216880453
 30
0.0
 40
88.5
 50
256.93897588500255
 51
283.06102411458357
  0
LINE
  8
0
  6
CONTINUOUS
 62
               3
  5
225
 10
646.61837346237792
 20
-720.13966216880465
 30
0.0
 11
632.69203673575737
 21
-720.13966216880465
 31
0.0
  0
LINE
  8
0
  6
CONTINUOUS
 62
               3
  5
226
 10
632.69203673575737
 20
-680.13966216880453
 30
0.0
 11
646.61837346237792
 21
-680.13966216880453
 31
0.0
  0
ARC
  8
0
  6
CONTINUOUS
 62
               3
  5
227
 10
560.40787526175313
 20
-700.13966216880453
 30
0.0
 40
88.5
 50
346.93897588493354
 51
373.06102411451457
  0
LINE
  8
0
  6
CONTINUOUS
 62
               3
  5
228
 10
580.40787526175313
 20
-613.92916396817895
 30
0.0
 11
580.40787526175313
 21
-627.8555006947995
 31
0.0
  0
LINE
  8
0
  6
CONTINUOUS
 62
               3
  5
229
 10
540.40787526175313
 20
-627.8555006947995
 30
0.0
 11
540.40787526175313
 21
-613.92916396817895
 31
0.0
  0
ARC
  8
0
  6
CONTINUOUS
 62
               3
  5
22A
 10
560.40787526175313
 20
-700.13966216880453
 30
0.0
 40
88.5
 50
76.938975885140522
 51
103.06102411472156
  0
LINE
  8
0
  6
CONTINUOUS
 62
               3
  5
22B
 10
512.73975174089219
 20
-722.1396621688051
 30
0.0
 11
608.07599878261306
 21
-722.1396621688051
 31
0.0
  0
ARC
  8
0
  6
CONTINUOUS
 62
               3
  5
22C
 10
572.91148691113426
 20
-691.43326454118551
 30
0.0
 40
54.763804151667173
 50
141.38591763672954
 51
145.15009542084258
  0
ARC
  8
0
  6
CONTINUOUS
 62
               3
  5
22D
 10
560.40787526175313
 20
-700.13966216880453
 30
0.0
 40
51.5
 50
334.71098847320116
 51
410.95932736332554
  0
ARC
  8
0
  6
CONTINUOUS
 62
               3
  5
22E
 10
560.40787526175313
 20
-700.13966216880453
 30
0.0
 40
51.5
 50
129.04067263626098
 51
205.289011526385
  0
ARC
  8
0
  6
CONTINUOUS
 62
               3
  5
22F
 10
560.40787526175313
 20
-700.13966216880453
 30
0.0
 40
77.5
 50
104.95524831656294
 51
128.57288309093477
  0
ARC
  8
0
  6
CONTINUOUS
 62
               3
  5
230
 10
560.40787526175313
 20
-700.13966216880453
 30
0.0
 40
77.5
 50
14.955248316631835
 51
75.044751683299211
  0
ARC
  8
0
  6
CONTINUOUS
 62
               3
  5
231
 10
560.40787526175313
 20
-700.13966216880453
 30
0.0
 40
77.5
 50
321.42711690871977
 51
345.0447516830921
  0
LINE
  8
0
  6
CONTINUOUS
 62
               3
  5
232
 10
420.40787526175313
 20
-755.13966216880465
 30
0.0
 11
421.07943138771736
 21
-755.13966216880465
 31
0.0
  0
LINE
  8
0
  6
CONTINUOUS
 62
               3
  5
233
 10
423.57943138771782
 20
-757.63966216880465
 30
0.0
 11
421.07943138771736
 21
-755.13966216880465
 31
0.0
  0
LINE
  8
0
  6
CONTINUOUS
 62
               3
  5
234
 10
420.40787526175313
 20
-645.13966216880453
 30
0.0
 11
421.07943138771736
 21
-645.13966216880453
 31
0.0
  0
LINE
  8
0
  6
CONTINUOUS
 62
               3
  5
235
 10
423.57943138771736
 20
-642.63966216880453
 30
0.0
 11
421.07943138771736
 21
-645.13966216880453
 31
0.0
  0
LINE
  8
0
  6
CONTINUOUS
 62
               3
  5
236
 10
421.07943138771736
 20
-645.13966216880453
 30
0.0
 11
421.07943138771736
 21
-755.13966216880465
 31
0.0
  0
LINE
  8
0
  6
CONTINUOUS
 62
               3
  5
237
 10
514.91753947537518
 20
-639.45006515046293
 30
0.0
 11
423.57943138771736
 21
-642.63966216880453
 31
0.0
  0
LINE
  8
0
  6
CONTINUOUS
 62
               3
  5
238
 10
495.57140354520214
 20
-760.15367723377233
 30
0.0
 11
423.57943138771793
 21
-757.63966216880465
 31
0.0
  0
LINE
  8
0
  6
CONTINUOUS
 62
               3
  5
239
 10
415.40787526175313
 20
-645.31121829476865
 30
0.0
 11
415.40787526175313
 21
-755.23966216880456
 31
0.0
  0
LINE
  8
0
  6
CONTINUOUS
 62
               3
  5
23A
 10
420.40787526175313
 20
-757.73966216880456
 30
0.0
 11
420.40787526175313
 21
-642.5396621688044
 31
0.0
  0
LINE
  8
0
  6
CONTINUOUS
 62
               3
  5
23B
 10
420.40787526175313
 20
-642.5396621688044
 30
0.0
 11
417.90787526175313
 21
-642.5396621688044
 31
0.0
  0
LINE
  8
0
  6
CONTINUOUS
 62
               3
  5
23C
 10
420.40787526175313
 20
-757.73966216880456
 30
0.0
 11
417.90787526175313
 21
-757.73966216880456
 31
0.0
  0
ARC
  8
0
  6
CONTINUOUS
 62
               3
  5
23D
 10
417.90787526175313
 20
-755.23966216880456
 30
0.0
 40
2.5
 50
179.9999999998615
 51
269.99999999979229
  0
ARC
  8
0
  6
CONTINUOUS
 62
               3
  5
23E
 10
417.90787526175313
 20
-645.0396621688044
 30
0.0
 40
2.5
 50
89.999999999932058
 51
179.9999999998615
  0
LINE
  8
0
  6
CONTINUOUS
 62
               3
  5
23F
 10
527.96947209513564
 20
-660.13966216880476
 30
0.0
 11
560.40787526175313
 21
-660.13966216880476
 31
0.0
  0
LINE
  8
0
  6
CONTINUOUS
 62
               3
  5
240
 10
560.40787526175313
 20
-660.13966216880476
 30
0.0
 11
594.41155153359193
 21
-660.13966216880476
 31
0.0
  0
LINE
  8
0
  6
CONTINUOUS
 62
               3
  5
241
 10
423.57943138771782
 20
-757.63966216880465
 30
0.0
 11
423.57943138771736
 21
-642.63966216880453
 31
0.0
  0
ARC
  8
0
  6
CONTINUOUS
 62
               3
  5
242
 10
514.74304199186281
 20
-634.45311101536731
 30
0.0
 40
5.0
 50
271.99999999979184
 51
304.80675787019396
  0
LINE
  8
0
  6
CONTINUOUS
 62
               3
  5
243
 10
615.40787526175302
 20
-840.13966216880465
 30
0.0
 11
615.40787526175302
 21
-839.4681060428403
 31
0.0
  0
LINE
  8
0
  6
CONTINUOUS
 62
               3
  5
244
 10
617.90787526175302
 20
-836.96810604283985
 30
0.0
 11
615.40787526175302
 21
-839.4681060428403
 31
0.0
  0
LINE
  8
0
  6
CONTINUOUS
 62
               3
  5
245
 10
505.40787526175308
 20
-840.13966216880465
 30
0.0
 11
505.40787526175308
 21
-839.4681060428403
 31
0.0
  0
LINE
  8
0
  6
CONTINUOUS
 62
               3
  5
246
 10
502.90787526175308
 20
-836.9681060428403
 30
0.0
 11
505.40787526175308
 21
-839.4681060428403
 31
0.0
  0
LINE
  8
0
  6
CONTINUOUS
 62
               3
  5
247
 10
505.40787526175308
 20
-839.4681060428403
 30
0.0
 11
615.40787526175302
 21
-839.4681060428403
 31
0.0
  0
LINE
  8
0
  6
CONTINUOUS
 62
               3
  5
248
 10
505.57943138771719
 20
-845.13966216880465
 30
0.0
 11
615.50787526175316
 21
-845.13966216880465
 31
0.0
  0
LINE
  8
0
  6
CONTINUOUS
 62
               3
  5
249
 10
618.00787526175316
 20
-840.13966216880465
 30
0.0
 11
502.80787526175305
 21
-840.13966216880465
 31
0.0
  0
LINE
  8
0
  6
CONTINUOUS
 62
               3
  5
24A
 10
502.80787526175305
 20
-840.13966216880465
 30
0.0
 11
502.80787526175305
 21
-842.63966216880465
 31
0.0
  0
LINE
  8
0
  6
CONTINUOUS
 62
               3
  5
24B
 10
618.00787526175316
 20
-840.13966216880465
 30
0.0
 11
618.00787526175316
 21
-842.63966216880465
 31
0.0
  0
ARC
  8
0
  6
CONTINUOUS
 62
               3
  5
24C
 10
615.50787526175316
 20
-842.63966216880465
 30
0.0
 40
2.5
 50
269.99999999979354
 51
359.99999999972562
  0
ARC
  8
0
  6
CONTINUOUS
 62
               3
  5
24D
 10
505.30787526175305
 20
-842.63966216880465
 30
0.0
 40
2.5
 50
179.9999999998615
 51
269.99999999979354
  0
LINE
  8
0
  6
CONTINUOUS
 62
               3
  5
24E
 10
617.90787526175302
 20
-836.96810604283985
 30
0.0
 11
502.90787526175308
 21
-836.9681060428403
 31
0.0
  0
LINE
  8
0
  6
CONTINUOUS
 62
               3
  5
24F
 10
621.09747228009417
 20
-745.62999795518283
 30
0.0
 11
617.90787526175302
 21
-836.96810604283985
 31
0.0
  0
ARC
  8
0
  6
CONTINUOUS
 62
               3
  5
250
 10
626.09442641518979
 20
-745.80449543869565
 30
0.0
 40
5.0
 50
145.19324212946151
 51
177.99999999986429
  0
LINE
  8
0
  6
CONTINUOUS
 62
               3
  5
251
 10
500.39386019678506
 20
-764.97613388535558
 30
0.0
 11
502.90787526175308
 21
-836.9681060428403
 31
0.0
  0
ARC
  8
0
  6
CONTINUOUS
 62
               3
  5
252
 10
495.39690606168966
 20
-765.15063136886749
 30
0.0
 40
5.0
 50
1.9999999999958187
 51
87.999999999932285
  0
LINE
  8
0
  6
CONTINUOUS
 62
               3
  5
253
 10
485.40787526175319
 20
-1008.6390959173888
 30
0.0
 11
635.40787526175325
 21
-1008.6390959173888
 31
0.0
  0
LINE
  8
0
  6
CONTINUOUS
 62
               3
  5
254
 10
471.90787526175296
 20
-1018.6390959173888
 30
0.0
 11
471.90787526175296
 21
-1025.6390959173882
 31
0.0
  0
LINE
  8
0
  6
CONTINUOUS
 62
               3
  5
255
 10
471.90787526175296
 20
-1018.6390959173888
 30
0.0
 11
485.40787526175319
 21
-1008.6390959173888
 31
0.0
  0
ARC
  8
0
  6
CONTINUOUS
 62
               3
  5
256
 10
483.4078752617533
 20
-1030.2216716123439
 30
0.0
 40
4.9999999999999991
 50
0.0
 51
66.421821521747276
  0
LINE
  8
0
  6
CONTINUOUS
 62
               3
  5
257
 10
471.90787526175296
 20
-1025.6390959173882
 30
0.0
 11
648.90787526175279
 21
-1025.6390959173882
 31
0.0
  0
ARC
  8
0
  6
CONTINUOUS
 62
               3
  5
258
 10
505.40787526175319
 20
-1115.6390959173887
 30
0.0
 40
19.999999999999996
 50
148.21166938283449
 51
167.2698198615592
  0
LINE
  8
0
  6
CONTINUOUS
 62
               3
  5
259
 10
488.4078752617533
 20
-1030.2216716123439
 30
0.0
 11
488.4078752617533
 21
-1105.1034421645359
 31
0.0
  0
LINE
  8
0
  6
CONTINUOUS
 62
               3
  5
25A
 10
632.40787526175302
 20
-1100.1034421645354
 30
0.0
 11
632.40787526175302
 21
-1030.2216716123439
 31
0.0
  0
LINE
  8
0
  6
CONTINUOUS
 62
               3
  5
25B
 10
488.4078752617533
 20
-1105.1034421645359
 30
0.0
 11
631.90787526175347
 21
-1105.1034421645359
 31
0.0
  0
LINE
  8
0
  6
CONTINUOUS
 62
               3
  5
25C
 10
540.40787526175313
 20
-1025.6390959173882
 30
0.0
 11
540.40787526175313
 21
-1008.6390959173888
 31
0.0
  0
LINE
  8
0
  6
CONTINUOUS
 62
               3
  5
25D
 10
580.40787526175313
 20
-1008.6390959173888
 30
0.0
 11
580.40787526175313
 21
-1025.6390959173882
 31
0.0
  0
LINE
  8
0
  6
CONTINUOUS
 62
               3
  5
25E
 10
540.40787526175313
 20
-1018.6390959173888
 30
0.0
 11
580.40787526175313
 21
-1018.6390959173888
 31
0.0
  0
LINE
  8
0
  6
CONTINUOUS
 62
               3
  5
25F
 10
488.12371378774782
 20
-1008.6390959173888
 30
0.0
 11
488.12371378774782
 21
-1025.6390959173882
 31
0.0
  0
LINE
  8
0
  6
CONTINUOUS
 62
               3
  5
260
 10
474.19737706112795
 20
-1018.6390959173888
 30
0.0
 11
474.19737706112795
 21
-1025.6390959173882
 31
0.0
  0
LINE
  8
0
  6
CONTINUOUS
 62
               3
  5
261
 10
471.90787526175296
 20
-1018.6390959173888
 30
0.0
 11
474.19737706112795
 21
-1018.6390959173888
 31
0.0
  0
LINE
  8
0
  6
CONTINUOUS
 62
               3
  5
262
 10
474.19737706112795
 20
-1018.6390959173888
 30
0.0
 11
488.12371378774782
 21
-1008.6390959173888
 31
0.0
  0
LINE
  8
0
  6
CONTINUOUS
 62
               3
  5
263
 10
648.90787526175279
 20
-1018.6390959173888
 30
0.0
 11
648.90787526175279
 21
-1025.6390959173882
 31
0.0
  0
LINE
  8
0
  6
CONTINUOUS
 62
               3
  5
264
 10
648.90787526175279
 20
-1018.6390959173888
 30
0.0
 11
635.40787526175325
 21
-1008.6390959173888
 31
0.0
  0
ARC
  8
0
  6
CONTINUOUS
 62
               3
  5
265
 10
637.40787526175302
 20
-1030.2216716123439
 30
0.0
 40
4.9999999999999991
 50
113.5781784781135
 51
179.9999999998615
  0
LINE
  8
0
  6
CONTINUOUS
 62
               3
  5
266
 10
632.69203673575737
 20
-1008.6390959173888
 30
0.0
 11
632.69203673575737
 21
-1025.6390959173882
 31
0.0
  0
LINE
  8
0
  6
CONTINUOUS
 62
               3
  5
267
 10
646.61837346237837
 20
-1018.6390959173888
 30
0.0
 11
646.61837346237837
 21
-1025.6390959173882
 31
0.0
  0
LINE
  8
0
  6
CONTINUOUS
 62
               3
  5
268
 10
648.90787526175279
 20
-1018.6390959173888
 30
0.0
 11
646.61837346237837
 21
-1018.6390959173888
 31
0.0
  0
LINE
  8
0
  6
CONTINUOUS
 62
               3
  5
269
 10
646.61837346237837
 20
-1018.6390959173888
 30
0.0
 11
632.69203673575737
 21
-1008.6390959173888
 31
0.0
  0
ARC
  8
0
  6
CONTINUOUS
 62
               3
  5
26A
 10
495.40787526175319
 20
-1237.1390959173887
 30
0.0
 40
2.4999999999999996
 50
89.999999999930751
 51
269.99999999979354
  0
ARC
  8
0
  6
CONTINUOUS
 62
               3
  5
26B
 10
635.40787526175325
 20
-1237.1390959173887
 30
0.0
 40
2.4999999999999996
 50
269.99999999979354
 51
449.99999999965507
  0
LINE
  8
0
  6
CONTINUOUS
 62
               3
  5
26C
 10
420.40787526175313
 20
-1229.6390959173887
 30
0.0
 11
421.07943138771748
 21
-1229.6390959173887
 31
0.0
  0
LINE
  8
0
  6
CONTINUOUS
 62
               3
  5
26D
 10
423.57943138771759
 20
-1232.1390959173882
 30
0.0
 11
421.07943138771748
 21
-1229.6390959173887
 31
0.0
  0
LINE
  8
0
  6
CONTINUOUS
 62
               3
  5
26E
 10
423.57943138771839
 20
-1232.1390959173887
 30
0.0
 11
465.74454164399577
 21
-1233.6115340132428
 31
0.0
  0
LINE
  8
0
  6
CONTINUOUS
 62
               3
  5
26F
 10
483.94340916768573
 20
-1249.9107853436749
 30
0.0
 11
469.10557806641594
 21
-1235.0729542424056
 31
0.0
  0
ARC
  8
0
  6
CONTINUOUS
 62
               3
  5
270
 10
480.40787526175319
 20
-1253.4463192496078
 30
0.0
 40
4.9999999999999991
 50
0.0
 51
44.999999999964892
  0
LINE
  8
0
  6
CONTINUOUS
 62
               3
  5
271
 10
420.40787526175313
 20
-1119.6390959173887
 30
0.0
 11
421.07943138771748
 21
-1119.6390959173887
 31
0.0
  0
LINE
  8
0
  6
CONTINUOUS
 62
               3
  5
272
 10
423.57943138771759
 20
-1117.1390959173887
 30
0.0
 11
421.07943138771748
 21
-1119.6390959173887
 31
0.0
  0
LINE
  8
0
  6
CONTINUOUS
 62
               3
  5
273
 10
423.57943138771748
 20
-1117.1390959173887
 30
0.0
 11
481.19690758989185
 21
-1115.1270493122365
 31
0.0
  0
LINE
  8
0
  6
CONTINUOUS
 62
               3
  5
274
 10
421.07943138771748
 20
-1119.6390959173887
 30
0.0
 11
421.07943138771748
 21
-1229.6390959173887
 31
0.0
  0
LINE
  8
0
  6
CONTINUOUS
 62
               3
  5
275
 10
420.40787526175313
 20
-1232.2390959173886
 30
0.0
 11
420.40787526175313
 21
-1117.0390959173887
 31
0.0
  0
LINE
  8
0
  6
CONTINUOUS
 62
               3
  5
276
 10
420.40787526175313
 20
-1117.0390959173887
 30
0.0
 11
417.90787526175313
 21
-1117.0390959173887
 31
0.0
  0
ARC
  8
0
  6
CONTINUOUS
 62
               3
  5
277
 10
417.90787526175313
 20
-1119.5390959173887
 30
0.0
 40
2.5
 50
89.999999999932058
 51
179.9999999998615
  0
LINE
  8
0
  6
CONTINUOUS
 62
               3
  5
278
 10
415.40787526175313
 20
-1119.5390959173887
 30
0.0
 11
415.40787526175313
 21
-1229.7390959173886
 31
0.0
  0
LINE
  8
0
  6
CONTINUOUS
 62
               3
  5
279
 10
420.40787526175313
 20
-1232.2390959173886
 30
0.0
 11
417.90787526175313
 21
-1232.2390959173886
 31
0.0
  0
ARC
  8
0
  6
CONTINUOUS
 62
               3
  5
27A
 10
417.90787526175313
 20
-1229.7390959173886
 30
0.0
 40
2.5
 50
179.99999999985891
 51
269.99999999979229
  0
LINE
  8
0
  6
CONTINUOUS
 62
               3
  5
27B
 10
423.57943138771759
 20
-1117.1390959173887
 30
0.0
 11
423.57943138771839
 21
-1232.1390959173887
 31
0.0
  0
ARC
  8
0
  6
CONTINUOUS
 62
               3
  5
27C
 10
465.57004416048329
 20
-1238.6084881483384
 30
0.0
 40
5.0
 50
44.999999999968125
 51
87.999999999932243
  0
ARC
  8
0
  6
CONTINUOUS
 62
               3
  5
27D
 10
481.02241010637937
 20
-1110.1300951771409
 30
0.0
 40
5.0
 50
271.9999999997919
 51
347.26981986141988
  0
CIRCLE
  8
0
  6
CONTINUOUS
 62
               3
  5
27E
 10
560.40787526175313
 20
-1174.6390959173887
 30
0.0
 40
48.5
  0
CIRCLE
  8
0
  6
CONTINUOUS
 62
               3
  5
27F
 10
560.40787526175313
 20
-1174.6390959173887
 30
0.0
 40
47.299999999999997
  0
LINE
  8
0
  6
CONTINUOUS
 62
               3
  5
280
 10
528.58807010835858
 20
-1206.4589010707832
 30
0.0
 11
526.96172451162943
 21
-1208.0852466675124
 31
0.0
  0
LINE
  8
0
  6
CONTINUOUS
 62
               3
  5
281
 10
592.2276804151478
 20
-1206.4589010707832
 30
0.0
 11
593.85402601187695
 21
-1208.0852466675124
 31
0.0
  0
ARC
  8
0
  6
CONTINUOUS
 62
               3
  5
282
 10
560.40787526175313
 20
-1174.6390959173887
 30
0.0
 40
45.0
 50
224.99999999982739
 51
314.9999999997587
  0
CIRCLE
  8
0
  6
CONTINUOUS
 62
               3
  5
283
 10
560.40787526175313
 20
-1174.6390959173887
 30
0.0
 40
57.600000000000001
  0
ARC
  8
0
  6
CONTINUOUS
 62
               3
  5
284
 10
537.90787526175382
 20
-1237.1390959173887
 30
0.0
 40
2.4999999999999996
 50
269.99999999979354
 51
449.99999999965507
  0
ARC
  8
0
  6
CONTINUOUS
 62
               3
  5
285
 10
582.90787526175359
 20
-1237.1390959173887
 30
0.0
 40
2.4999999999999996
 50
89.999999999930751
 51
269.99999999979354
  0
LINE
  8
0
  6
CONTINUOUS
 62
               3
  5
286
 10
495.40787526175319
 20
-1239.6390959173887
 30
0.0
 11
537.90787526175382
 21
-1239.6390959173887
 31
0.0
  0
LINE
  8
0
  6
CONTINUOUS
 62
               3
  5
287
 10
495.40787526175319
 20
-1234.6390959173887
 30
0.0
 11
537.90787526175382
 21
-1234.6390959173887
 31
0.0
  0
LINE
  8
0
  6
CONTINUOUS
 62
               3
  5
288
 10
582.90787526175359
 20
-1234.6390959173887
 30
0.0
 11
635.40787526175325
 21
-1234.6390959173887
 31
0.0
  0
LINE
  8
0
  6
CONTINUOUS
 62
               3
  5
289
 10
582.90787526175359
 20
-1239.6390959173887
 30
0.0
 11
635.40787526175325
 21
-1239.6390959173887
 31
0.0
  0
CIRCLE
  8
0
  6
CONTINUOUS
 62
               3
  5
28A
 10
560.40787526175313
 20
-700.13966216880453
 30
0.0
 40
59.0
  0
LINE
  8
0
  6
CONTINUOUS
 62
               3
  5
28B
 10
-706.01149350868627
 20
-36.175902259405234
 30
0.0
 11
-591.87864795455539
 21
-36.175902259405234
 31
0.0
  0
LINE
  8
0
  6
CONTINUOUS
 62
               3
  5
28C
 10
-591.87864795455539
 20
-36.175902259405234
 30
0.0
 11
-590.87864795455516
 21
-35.175902259405007
 31
0.0
  0
LINE
  8
0
  6
CONTINUOUS
 62
               3
  5
28D
 10
-706.01149350868627
 20
-36.175902259405234
 30
0.0
 11
-706.87864795455539
 21
-35.308747813536115
 31
0.0
  0
LINE
  8
0
  6
CONTINUOUS
 62
               3
  5
28E
 10
-706.87864795455539
 20
-35.308747813536115
 30
0.0
 11
-706.87864795455539
 21
-23.763926627479464
 31
0.0
  0
LINE
  8
0
  6
CONTINUOUS
 62
               3
  5
28F
 10
-590.87864795455516
 20
-35.175902259405007
 30
0.0
 11
-590.87864795455516
 21
-24.175902259405461
 31
0.0
  0
LINE
  8
0
  6
CONTINUOUS
 62
               3
  5
290
 10
-706.01149350868627
 20
-36.175902259405234
 30
0.0
 11
-706.01149350868627
 21
-87.175902259405234
 31
0.0
  0
LINE
  8
0
  6
CONTINUOUS
 62
               3
  5
291
 10
-591.87864795455539
 20
-36.175902259405234
 30
0.0
 11
-591.87864795455539
 21
-87.175902259405234
 31
0.0
  0
LINE
  8
0
  6
CONTINUOUS
 62
               3
  5
292
 10
-710.87864795455539
 20
-216.1759022594041
 30
0.0
 11
-710.87864795455539
 21
-201.17590225940501
 31
0.0
  0
LINE
  8
0
  6
CONTINUOUS
 62
               3
  5
293
 10
-713.87864795455516
 20
-216.1759022594041
 30
0.0
 11
-583.87864795455528
 21
-216.1759022594041
 31
0.0
  0
ARC
  8
0
  6
CONTINUOUS
 62
               3
  5
294
 10
-724.87864795455471
 20
-75.175902259405916
 30
0.0
 40
4.0
 50
89.99999999994769
 51
179.9999999998962
  0
LINE
  8
0
  6
CONTINUOUS
 62
               3
  5
295
 10
-728.87864795455471
 20
-75.175902259403529
 30
0.0
 11
-728.87864795455494
 21
-94.175902259405916
 31
0.0
  0
LINE
  8
0
  6
CONTINUOUS
 62
               3
  5
296
 10
-664.87864795455471
 20
-71.175902259405348
 30
0.0
 11
-724.87864795455471
 21
-71.175902259405916
 31
0.0
  0
LINE
  8
0
  6
CONTINUOUS
 62
               3
  5
297
 10
-664.87864795455471
 20
-202.17590225940398
 30
0.0
 11
-632.87864795455425
 21
-202.17590225940353
 31
0.0
  0
ARC
  8
0
  6
CONTINUOUS
 62
               3
  5
298
 10
-724.87864795455425
 20
-197.17590225940501
 30
0.0
 40
4.0
 50
179.999999999897
 51
269.9999999998463
  0
LINE
  8
0
  6
CONTINUOUS
 62
               3
  5
299
 10
-728.87864795455448
 20
-197.17590225940501
 30
0.0
 11
-728.87864795455425
 21
-178.67590225940478
 31
0.0
  0
LINE
  8
0
  6
CONTINUOUS
 62
               3
  5
29A
 10
-664.87864795455471
 20
-201.17590225940432
 30
0.0
 11
-724.87864795455789
 21
-201.17590225940501
 31
0.0
  0
LINE
  8
0
  6
CONTINUOUS
 62
               3
  5
29B
 10
-664.87864795455471
 20
-178.67590225940421
 30
0.0
 11
-728.87864795455448
 21
-178.67590225940478
 31
0.0
  0
LINE
  8
0
  6
CONTINUOUS
 62
               3
  5
29C
 10
-728.87864795455494
 20
-94.175902259405916
 30
0.0
 11
-664.87864795455471
 21
-94.175902259405916
 31
0.0
  0
LINE
  8
0
  6
CONTINUOUS
 62
               3
  5
29D
 10
-725.87864795455494
 20
-94.175902259405916
 30
0.0
 11
-725.87864795455539
 21
-178.67590225940478
 31
0.0
  0
LINE
  8
0
  6
CONTINUOUS
 62
               3
  5
29E
 10
-632.87864795455471
 20
-71.175902259405348
 30
0.0
 11
-569.87864795455494
 21
-71.175902259405916
 31
0.0
  0
LINE
  8
0
  6
CONTINUOUS
 62
               3
  5
29F
 10
-632.87864795455425
 20
-201.17590225940432
 30
0.0
 11
-572.8786479545563
 21
-201.17590225940501
 31
0.0
  0
LINE
  8
0
  6
CONTINUOUS
 62
               3
  5
2A0
 10
-632.87864795455425
 20
-178.67590225940432
 30
0.0
 11
-568.87864795455607
 21
-178.67590225940478
 31
0.0
  0
LINE
  8
0
  6
CONTINUOUS
 62
               3
  5
2A1
 10
-568.87864795455471
 20
-94.175902259405916
 30
0.0
 11
-632.87864795455471
 21
-94.175902259405916
 31
0.0
  0
LINE
  8
0
  6
CONTINUOUS
 62
               3
  5
2A2
 10
-586.87864795455539
 20
-216.1759022594041
 30
0.0
 11
-586.87864795455539
 21
-201.17590225940501
 31
0.0
  0
LINE
  8
0
  6
CONTINUOUS
 62
               3
  5
2A3
 10
-664.87864795455471
 20
-137.17590225940478
 30
0.0
 11
-632.87864795455425
 21
-137.17590225940478
 31
0.0
  0
LINE
  8
0
  6
CONTINUOUS
 62
               3
  5
2A4
 10
-664.87864795455471
 20
-136.17590225940501
 30
0.0
 11
-632.87864795455425
 21
-136.17590225940501
 31
0.0
  0
LINE
  8
0
  6
CONTINUOUS
 62
               3
  5
2A5
 10
-664.87864795455471
 20
-138.17590225940501
 30
0.0
 11
-632.87864795455425
 21
-138.17590225940501
 31
0.0
  0
ARC
  8
0
  6
CONTINUOUS
 62
               3
  5
2A6
 10
-572.87864795455584
 20
-75.175902259405916
 30
0.0
 40
4.0
 50
0.0000000000341973
 51
89.999999999982705
  0
LINE
  8
0
  6
CONTINUOUS
 62
               3
  5
2A7
 10
-568.87864795455584
 20
-75.175902259403529
 30
0.0
 11
-568.87864795455562
 21
-94.175902259405916
 31
0.0
  0
ARC
  8
0
  6
CONTINUOUS
 62
               3
  5
2A8
 10
-572.87864795455619
 20
-197.17590225940501
 30
0.0
 40
4.0
 50
269.99999999994731
 51
359.99999999989581
  0
LINE
  8
0
  6
CONTINUOUS
 62
               3
  5
2A9
 10
-568.87864795455607
 20
-197.17590225940501
 30
0.0
 11
-568.8786479545563
 21
-178.67590225940478
 31
0.0
  0
LINE
  8
0
  6
CONTINUOUS
 62
               3
  5
2AA
 10
-571.87864795455562
 20
-94.175902259405916
 30
0.0
 11
-571.87864795455516
 21
-178.67590225940478
 31
0.0
  0
LINE
  8
0
  6
CONTINUOUS
 62
               3
  5
2AB
 10
-664.87864795455471
 20
-70.175902259405916
 30
0.0
 11
-664.87864795455471
 21
-202.17590225940398
 31
0.0
  0
LINE
  8
0
  6
CONTINUOUS
 62
               3
  5
2AC
 10
-664.87864795455516
 20
-70.175902259405916
 30
0.0
 11
-632.87864795455528
 21
-70.175902259405916
 31
0.0
  0
LINE
  8
0
  6
CONTINUOUS
 62
               3
  5
2AD
 10
-632.87864795455425
 20
-202.17590225940353
 30
0.0
 11
-632.87864795455471
 21
-70.175902259405916
 31
0.0
  0
LINE
  8
0
  6
CONTINUOUS
 62
               3
  5
2AE
 10
-664.87864795455471
 20
-202.17590225940398
 30
0.0
 11
-632.87864795455425
 21
-202.17590225940353
 31
0.0
  0
LINE
  8
0
  6
CONTINUOUS
 62
               3
  5
2AF
 10
493.98850649131373
 20
-36.175902259405007
 30
0.0
 11
608.12135204544461
 21
-36.175902259405007
 31
0.0
  0
LINE
  8
0
  6
CONTINUOUS
 62
               3
  5
2B0
 10
608.12135204544461
 20
-36.175902259405007
 30
0.0
 11
609.12135204544484
 21
-35.175902259404779
 31
0.0
  0
LINE
  8
0
  6
CONTINUOUS
 62
               3
  5
2B1
 10
493.98850649131373
 20
-36.175902259405007
 30
0.0
 11
493.12135204544461
 21
-35.308747813535888
 31
0.0
  0
LINE
  8
0
  6
CONTINUOUS
 62
               3
  5
2B2
 10
493.12135204544461
 20
-35.308747813535888
 30
0.0
 11
493.12135204544461
 21
-24.175902259405234
 31
0.0
  0
LINE
  8
0
  6
CONTINUOUS
 62
               3
  5
2B3
 10
609.12135204544484
 20
-35.175902259404779
 30
0.0
 11
609.12135204544484
 21
-23.763926627480146
 31
0.0
  0
LINE
  8
0
  6
CONTINUOUS
 62
               3
  5
2B4
 10
493.98850649131373
 20
-36.175902259405007
 30
0.0
 11
493.98850649131373
 21
-87.175902259405007
 31
0.0
  0
LINE
  8
0
  6
CONTINUOUS
 62
               3
  5
2B5
 10
608.12135204544461
 20
-36.175902259405007
 30
0.0
 11
608.12135204544461
 21
-87.175902259405007
 31
0.0
  0
LINE
  8
0
  6
CONTINUOUS
 62
               3
  5
2B6
 10
489.12135204544461
 20
-216.17590225940387
 30
0.0
 11
489.12135204544461
 21
-201.17590225940478
 31
0.0
  0
LINE
  8
0
  6
CONTINUOUS
 62
               3
  5
2B7
 10
486.12135204544484
 20
-216.17590225940387
 30
0.0
 11
616.12135204544484
 21
-216.17590225940387
 31
0.0
  0
ARC
  8
0
  6
CONTINUOUS
 62
               3
  5
2B8
 10
475.12135204544541
 20
-75.175902259405689
 30
0.0
 40
4.0
 50
89.99999999994769
 51
179.9999999998962
  0
LINE
  8
0
  6
CONTINUOUS
 62
               3
  5
2B9
 10
471.12135204544541
 20
-75.175902259403301
 30
0.0
 11
471.12135204544518
 21
-94.175902259405689
 31
0.0
  0
LINE
  8
0
  6
CONTINUOUS
 62
               3
  5
2BA
 10
535.12135204544529
 20
-71.17590225940512
 30
0.0
 11
475.12135204544529
 21
-71.175902259405689
 31
0.0
  0
LINE
  8
0
  6
CONTINUOUS
 62
               3
  5
2BB
 10
535.12135204544529
 20
-202.17590225940376
 30
0.0
 11
567.12135204544586
 21
-202.1759022594033
 31
0.0
  0
ARC
  8
0
  6
CONTINUOUS
 62
               3
  5
2BC
 10
475.12135204544575
 20
-197.17590225940478
 30
0.0
 40
4.0
 50
179.999999999897
 51
269.9999999998463
  0
LINE
  8
0
  6
CONTINUOUS
 62
               3
  5
2BD
 10
471.12135204544563
 20
-197.17590225940478
 30
0.0
 11
471.12135204544575
 21
-178.67590225940455
 31
0.0
  0
LINE
  8
0
  6
CONTINUOUS
 62
               3
  5
2BE
 10
535.12135204544529
 20
-201.1759022594041
 30
0.0
 11
475.12135204544211
 21
-201.17590225940478
 31
0.0
  0
LINE
  8
0
  6
CONTINUOUS
 62
               3
  5
2BF
 10
535.12135204544529
 20
-178.67590225940398
 30
0.0
 11
471.12135204544563
 21
-178.67590225940455
 31
0.0
  0
LINE
  8
0
  6
CONTINUOUS
 62
               3
  5
2C0
 10
471.12135204544518
 20
-94.175902259405689
 30
0.0
 11
535.12135204544529
 21
-94.175902259405689
 31
0.0
  0
LINE
  8
0
  6
CONTINUOUS
 62
               3
  5
2C1
 10
474.12135204544518
 20
-94.175902259405689
 30
0.0
 11
474.12135204544461
 21
-178.67590225940455
 31
0.0
  0
LINE
  8
0
  6
CONTINUOUS
 62
               3
  5
2C2
 10
567.12135204544529
 20
-71.17590225940512
 30
0.0
 11
630.12135204544506
 21
-71.175902259405689
 31
0.0
  0
LINE
  8
0
  6
CONTINUOUS
 62
               3
  5
2C3
 10
567.12135204544586
 20
-201.1759022594041
 30
0.0
 11
627.12135204544381
 21
-201.17590225940478
 31
0.0
  0
LINE
  8
0
  6
CONTINUOUS
 62
               3
  5
2C4
 10
567.12135204544586
 20
-178.6759022594041
 30
0.0
 11
631.12135204544393
 21
-178.67590225940455
 31
0.0
  0
LINE
  8
0
  6
CONTINUOUS
 62
               3
  5
2C5
 10
631.12135204544529
 20
-94.175902259405689
 30
0.0
 11
567.12135204544529
 21
-94.175902259405689
 31
0.0
  0
LINE
  8
0
  6
CONTINUOUS
 62
               3
  5
2C6
 10
613.12135204544461
 20
-216.17590225940387
 30
0.0
 11
613.12135204544461
 21
-201.17590225940478
 31
0.0
  0
LINE
  8
0
  6
CONTINUOUS
 62
               3
  5
2C7
 10
535.12135204544529
 20
-137.17590225940455
 30
0.0
 11
567.12135204544586
 21
-137.17590225940455
 31
0.0
  0
LINE
  8
0
  6
CONTINUOUS
 62
               3
  5
2C8
 10
535.12135204544529
 20
-136.17590225940478
 30
0.0
 11
567.12135204544586
 21
-136.17590225940478
 31
0.0
  0
LINE
  8
0
  6
CONTINUOUS
 62
               3
  5
2C9
 10
535.12135204544529
 20
-138.17590225940478
 30
0.0
 11
567.12135204544586
 21
-138.17590225940478
 31
0.0
  0
ARC
  8
0
  6
CONTINUOUS
 62
               3
  5
2CA
 10
627.12135204544416
 20
-75.175902259405689
 30
0.0
 40
4.0
 50
0.0000000000341973
 51
89.999999999982705
  0
LINE
  8
0
  6
CONTINUOUS
 62
               3
  5
2CB
 10
631.12135204544416
 20
-75.175902259403301
 30
0.0
 11
631.12135204544438
 21
-94.175902259405689
 31
0.0
  0
ARC
  8
0
  6
CONTINUOUS
 62
               3
  5
2CC
 10
627.12135204544393
 20
-197.17590225940478
 30
0.0
 40
4.0
 50
269.99999999994731
 51
359.99999999989581
  0
LINE
  8
0
  6
CONTINUOUS
 62
               3
  5
2CD
 10
631.12135204544393
 20
-197.17590225940478
 30
0.0
 11
631.12135204544381
 21
-178.67590225940455
 31
0.0
  0
LINE
  8
0
  6
CONTINUOUS
 62
               3
  5
2CE
 10
628.12135204544438
 20
-94.175902259405689
 30
0.0
 11
628.12135204544495
 21
-178.67590225940455
 31
0.0
  0
LINE
  8
0
  6
CONTINUOUS
 62
               3
  5
2CF
 10
535.12135204544529
 20
-70.175902259405689
 30
0.0
 11
535.12135204544529
 21
-202.17590225940376
 31
0.0
  0
LINE
  8
0
  6
CONTINUOUS
 62
               3
  5
2D0
 10
535.12135204544484
 20
-70.175902259405689
 30
0.0
 11
567.12135204544484
 21
-70.175902259405689
 31
0.0
  0
LINE
  8
0
  6
CONTINUOUS
 62
               3
  5
2D1
 10
567.12135204544586
 20
-202.1759022594033
 30
0.0
 11
567.12135204544529
 21
-70.175902259405689
 31
0.0
  0
LINE
  8
0
  6
CONTINUOUS
 62
               3
  5
2D2
 10
535.12135204544529
 20
-202.17590225940376
 30
0.0
 11
567.12135204544586
 21
-202.1759022594033
 31
0.0
  0
LINE
  8
0
  6
CONTINUOUS
 62
               3
  5
2D3
 10
9.1213520454453914
 20
-24.175902259404722
 30
0.0
 11
11.393127645794138
 21
-21.90412665905626
 31
0.0
  0
LINE
  8
0
  6
CONTINUOUS
 62
               3
  5
2D4
 10
8.6181171790957336
 20
-24.175902259405291
 30
0.0
 11
11.393127645794138
 21
-21.90412665905626
 31
0.0
  0
LINE
  8
0
  6
CONTINUOUS
 62
               3
  5
2D5
 10
-106.01149350868569
 20
-36.175902259405007
 30
0.0
 11
8.121352045445164
 21
-36.175902259405007
 31
0.0
  0
LINE
  8
0
  6
CONTINUOUS
 62
               3
  5
2D6
 10
8.121352045445164
 20
-36.175902259405007
 30
0.0
 11
9.1213520454453914
 21
-35.175902259404779
 31
0.0
  0
LINE
  8
0
  6
CONTINUOUS
 62
               3
  5
2D7
 10
-106.01149350868569
 20
-36.175902259405007
 30
0.0
 11
-106.87864795455484
 21
-35.308747813535831
 31
0.0
  0
LINE
  8
0
  6
CONTINUOUS
 62
               3
  5
2D8
 10
9.1213520454453914
 20
-35.175902259404779
 30
0.0
 11
9.1213520454453914
 21
-24.175902259405234
 31
0.0
  0
LINE
  8
0
  6
CONTINUOUS
 62
               3
  5
2D9
 10
-106.87864795455484
 20
-35.308747813535831
 30
0.0
 11
-106.87864795455484
 21
-24.175902259405291
 31
0.0
  0
LINE
  8
0
  6
CONTINUOUS
 62
               3
  5
2DA
 10
8.121352045445164
 20
-36.175902259405007
 30
0.0
 11
8.121352045445164
 21
-87.175902259405007
 31
0.0
  0
LINE
  8
0
  6
CONTINUOUS
 62
               3
  5
2DB
 10
-106.01149350868569
 20
-36.175902259405007
 30
0.0
 11
-106.01149350868569
 21
-87.175902259405007
 31
0.0
  0
LINE
  8
0
  6
CONTINUOUS
 62
               3
  5
2DC
 10
8.6181171790957336
 20
-24.175902259405291
 30
0.0
 11
9.1213520454453914
 21
-24.175902259405234
 31
0.0
  0
LINE
  8
0
  6
CONTINUOUS
 62
               3
  5
2DD
 10
-110.87864795455545
 20
-216.17590225940387
 30
0.0
 11
-110.87864795455545
 21
-201.17590225940478
 31
0.0
  0
LINE
  8
0
  6
CONTINUOUS
 62
               3
  5
2DE
 10
-113.87864795455528
 20
-216.17590225940387
 30
0.0
 11
16.121352045444695
 21
-216.17590225940387
 31
0.0
  0
ARC
  8
0
  6
CONTINUOUS
 62
               3
  5
2DF
 10
-124.87864795455465
 20
-75.175902259405689
 30
0.0
 40
4.0
 50
89.999999999947889
 51
179.9999999998962
  0
ARC
  8
0
  6
CONTINUOUS
 62
               3
  5
2E0
 10
-127.87864795455462
 20
-72.175902259405689
 30
0.0
 40
1.0000000000000004
 50
89.99999999994688
 51
179.99999999989538
  0
LINE
  8
0
  6
CONTINUOUS
 62
               3
  5
2E1
 10
-129.87864795455465
 20
-72.175902259405689
 30
0.0
 11
-129.87864795455522
 21
-135.17590225940455
 31
0.0
  0
LINE
  8
0
  6
CONTINUOUS
 62
               3
  5
2E2
 10
-128.87864795455485
 20
-72.175902259405689
 30
0.0
 11
-128.87864795455542
 21
-135.17590225940455
 31
0.0
  0
ARC
  8
0
  6
CONTINUOUS
 62
               3
  5
2E3
 10
-130.87864795455516
 20
-135.17590225940455
 30
0.0
 40
1.9999999999999996
 50
269.99999999984431
 51
359.999999999794
  0
ARC
  8
0
  6
CONTINUOUS
 62
               3
  5
2E4
 10
-130.87864795455516
 20
-135.17590225940455
 30
0.0
 40
1.0000000000000004
 50
269.99999999984391
 51
359.999999999794
  0
LINE
  8
0
  6
CONTINUOUS
 62
               3
  5
2E5
 10
-130.87864795455516
 20
-137.17590225940455
 30
0.0
 11
-193.87864795455528
 21
-137.17590225940501
 31
0.0
  0
LINE
  8
0
  6
CONTINUOUS
 62
               3
  5
2E6
 10
-130.87864795455516
 20
-136.17590225940455
 30
0.0
 11
-193.87864795455528
 21
-136.17590225940501
 31
0.0
  0
LINE
  8
0
  6
CONTINUOUS
 62
               3
  5
2E7
 10
-48.878647954554708
 20
-71.175902259405007
 30
0.0
 11
-127.87864795455462
 21
-71.175902259405689
 31
0.0
  0
LINE
  8
0
  6
CONTINUOUS
 62
               3
  5
2E8
 10
-113.87864795455428
 20
-202.17590225940455
 30
0.0
 11
-127.8786479545542
 21
-202.17590225940478
 31
0.0
  0
ARC
  8
0
  6
CONTINUOUS
 62
               3
  5
2E9
 10
-127.8786479545542
 20
-200.17590225940478
 30
0.0
 40
1.0000000000000004
 50
179.99999999989538
 51
269.99999999984391
  0
ARC
  8
0
  6
CONTINUOUS
 62
               3
  5
2EA
 10
-127.8786479545542
 20
-200.17590225940478
 30
0.0
 40
1.9999999999999996
 50
179.999999999897
 51
269.9999999998459
  0
ARC
  8
0
  6
CONTINUOUS
 62
               3
  5
2EB
 10
-124.87864795455437
 20
-197.17590225940478
 30
0.0
 40
4.0
 50
179.999999999897
 51
269.99999999984573
  0
LINE
  8
0
  6
CONTINUOUS
 62
               3
  5
2EC
 10
-113.87864795455428
 20
-202.17590225940455
 30
0.0
 11
-113.87864795455428
 21
-201.17590225940478
 31
0.0
  0
LINE
  8
0
  6
CONTINUOUS
 62
               3
  5
2ED
 10
-129.87864795455437
 20
-200.17590225940478
 30
0.0
 11
-129.87864795455522
 21
-139.17590225940455
 31
0.0
  0
LINE
  8
0
  6
CONTINUOUS
 62
               3
  5
2EE
 10
-128.87864795455428
 20
-200.17590225940478
 30
0.0
 11
-128.87864795455528
 21
-139.17590225940455
 31
0.0
  0
LINE
  8
0
  6
CONTINUOUS
 62
               3
  5
2EF
 10
-48.878647954555277
 20
-201.17590225940387
 30
0.0
 11
-127.8786479545542
 21
-201.17590225940478
 31
0.0
  0
LINE
  8
0
  6
CONTINUOUS
 62
               3
  5
2F0
 10
-48.878647954555277
 20
-178.67590225940387
 30
0.0
 11
-128.87864795455442
 21
-178.67590225940455
 31
0.0
  0
ARC
  8
0
  6
CONTINUOUS
 62
               3
  5
2F1
 10
-130.87864795455516
 20
-139.17590225940455
 30
0.0
 40
1.9999999999999996
 50
0.0000000000016284
 51
89.9999999999485
  0
ARC
  8
0
  6
CONTINUOUS
 62
               3
  5
2F2
 10
-130.87864795455516
 20
-139.17590225940455
 30
0.0
 40
1.0000000000000004
 50
0.0
 51
89.999999999950134
  0
LINE
  8
0
  6
CONTINUOUS
 62
               3
  5
2F3
 10
-130.87864795455516
 20
-138.17590225940455
 30
0.0
 11
-193.87864795455528
 21
-138.17590225940501
 31
0.0
  0
LINE
  8
0
  6
CONTINUOUS
 62
               3
  5
2F4
 10
-128.87864795455485
 20
-94.175902259405689
 30
0.0
 11
-48.878647954554708
 21
-94.175902259405689
 31
0.0
  0
LINE
  8
0
  6
CONTINUOUS
 62
               3
  5
2F5
 10
-125.87864795455488
 20
-94.175902259405689
 30
0.0
 11
-125.87864795455545
 21
-178.67590225940455
 31
0.0
  0
LINE
  8
0
  6
CONTINUOUS
 62
               3
  5
2F6
 10
-193.87864795455528
 20
-136.17590225940501
 30
0.0
 11
-193.87864795455528
 21
-137.17590225940501
 31
0.0
  0
LINE
  8
0
  6
CONTINUOUS
 62
               3
  5
2F7
 10
-193.87864795455528
 20
-138.17590225940501
 30
0.0
 11
-193.87864795455528
 21
-137.17590225940501
 31
0.0
  0
LINE
  8
0
  6
CONTINUOUS
 62
               3
  5
2F8
 10
-136.12864795455522
 20
-134.67590225940455
 30
0.0
 11
-143.62864795455522
 21
-134.67590225940455
 31
0.0
  0
LINE
  8
0
  6
CONTINUOUS
 62
               3
  5
2F9
 10
-136.12864795455522
 20
-139.67590225940455
 30
0.0
 11
-143.62864795455522
 21
-139.67590225940478
 31
0.0
  0
LINE
  8
0
  6
CONTINUOUS
 62
               3
  5
2FA
 10
-136.12864795455522
 20
-134.67590225940455
 30
0.0
 11
-136.12864795455522
 21
-136.17590225940455
 31
0.0
  0
LINE
  8
0
  6
CONTINUOUS
 62
               3
  5
2FB
 10
-136.12864795455522
 20
-138.17590225940455
 30
0.0
 11
-136.12864795455522
 21
-139.67590225940455
 31
0.0
  0
LINE
  8
0
  6
CONTINUOUS
 62
               3
  5
2FC
 10
-143.62864795455522
 20
-134.67590225940455
 30
0.0
 11
-143.62864795455522
 21
-136.17590225940455
 31
0.0
  0
LINE
  8
0
  6
CONTINUOUS
 62
               3
  5
2FD
 10
-143.62864795455522
 20
-138.17590225940478
 30
0.0
 11
-143.62864795455522
 21
-139.67590225940478
 31
0.0
  0
ARC
  8
0
  6
CONTINUOUS
 62
               3
  5
2FE
 10
27.121352045445093
 20
-75.175902259405689
 30
0.0
 40
4.0
 50
0.0000000000341973
 51
89.999999999982904
  0
ARC
  8
0
  6
CONTINUOUS
 62
               3
  5
2FF
 10
30.121352045445036
 20
-72.175902259405689
 30
0.0
 40
1.0000000000000004
 50
0.0000000000358258
 51
89.999999999984325
  0
LINE
  8
0
  6
CONTINUOUS
 62
               3
  5
300
 10
32.121352045445093
 20
-72.175902259405689
 30
0.0
 11
32.121352045444524
 21
-135.17590225940455
 31
0.0
  0
LINE
  8
0
  6
CONTINUOUS
 62
               3
  5
301
 10
31.121352045445263
 20
-72.175902259405689
 30
0.0
 11
31.121352045444695
 21
-135.17590225940455
 31
0.0
  0
ARC
  8
0
  6
CONTINUOUS
 62
               3
  5
302
 10
33.121352045444581
 20
-135.17590225940455
 30
0.0
 40
1.9999999999999996
 50
179.9999999999996
 51
269.9999999999477
  0
ARC
  8
0
  6
CONTINUOUS
 62
               3
  5
303
 10
33.121352045444581
 20
-135.17590225940455
 30
0.0
 40
1.0000000000000004
 50
179.9999999999996
 51
269.9999999999481
  0
LINE
  8
0
  6
CONTINUOUS
 62
               3
  5
304
 10
33.121352045444581
 20
-137.17590225940455
 30
0.0
 11
96.121352045444695
 21
-137.17590225940501
 31
0.0
  0
LINE
  8
0
  6
CONTINUOUS
 62
               3
  5
305
 10
33.121352045444581
 20
-136.17590225940455
 30
0.0
 11
96.121352045444695
 21
-136.17590225940501
 31
0.0
  0
LINE
  8
0
  6
CONTINUOUS
 62
               3
  5
306
 10
-48.878647954554708
 20
-71.175902259405007
 30
0.0
 11
30.121352045445036
 21
-71.175902259405689
 31
0.0
  0
LINE
  8
0
  6
CONTINUOUS
 62
               3
  5
307
 10
16.121352045443558
 20
-202.17590225940455
 30
0.0
 11
30.121352045443615
 21
-202.17590225940478
 31
0.0
  0
ARC
  8
0
  6
CONTINUOUS
 62
               3
  5
308
 10
30.121352045443615
 20
-200.17590225940478
 30
0.0
 40
1.0000000000000004
 50
269.9999999999481
 51
359.99999999989495
  0
ARC
  8
0
  6
CONTINUOUS
 62
               3
  5
309
 10
30.121352045443615
 20
-200.17590225940478
 30
0.0
 40
1.9999999999999996
 50
269.99999999994685
 51
359.99999999989495
  0
ARC
  8
0
  6
CONTINUOUS
 62
               3
  5
30A
 10
27.121352045443672
 20
-197.17590225940478
 30
0.0
 40
4.0
 50
269.99999999994645
 51
359.99999999989581
  0
LINE
  8
0
  6
CONTINUOUS
 62
               3
  5
30B
 10
16.121352045443558
 20
-202.17590225940455
 30
0.0
 11
16.121352045443558
 21
-201.17590225940478
 31
0.0
  0
LINE
  8
0
  6
CONTINUOUS
 62
               3
  5
30C
 10
32.121352045443501
 20
-200.17590225940478
 30
0.0
 11
32.121352045444524
 21
-139.17590225940455
 31
0.0
  0
LINE
  8
0
  6
CONTINUOUS
 62
               3
  5
30D
 10
31.121352045443558
 20
-200.17590225940478
 30
0.0
 11
31.121352045444581
 21
-139.17590225940455
 31
0.0
  0
LINE
  8
0
  6
CONTINUOUS
 62
               3
  5
30E
 10
-48.878647954555277
 20
-201.17590225940387
 30
0.0
 11
30.121352045443615
 21
-201.17590225940478
 31
0.0
  0
LINE
  8
0
  6
CONTINUOUS
 62
               3
  5
30F
 10
-48.878647954555277
 20
-178.67590225940387
 30
0.0
 11
31.121352045443842
 21
-178.67590225940455
 31
0.0
  0
ARC
  8
0
  6
CONTINUOUS
 62
               3
  5
310
 10
33.121352045444581
 20
-139.17590225940455
 30
0.0
 40
1.9999999999999996
 50
89.999999999982705
 51
179.99999999992957
  0
ARC
  8
0
  6
CONTINUOUS
 62
               3
  5
311
 10
33.121352045444581
 20
-139.17590225940455
 30
0.0
 40
1.0000000000000004
 50
89.999999999981071
 51
179.99999999992795
  0
LINE
  8
0
  6
CONTINUOUS
 62
               3
  5
312
 10
33.121352045444581
 20
-138.17590225940455
 30
0.0
 11
96.121352045444695
 21
-138.17590225940501
 31
0.0
  0
LINE
  8
0
  6
CONTINUOUS
 62
               3
  5
313
 10
31.121352045445263
 20
-94.175902259405689
 30
0.0
 11
-48.878647954554708
 21
-94.175902259405689
 31
0.0
  0
LINE
  8
0
  6
CONTINUOUS
 62
               3
  5
314
 10
28.12135204544515
 20
-94.175902259405689
 30
0.0
 11
28.121352045444581
 21
-178.67590225940455
 31
0.0
  0
LINE
  8
0
  6
CONTINUOUS
 62
               3
  5
315
 10
96.121352045444695
 20
-136.17590225940501
 30
0.0
 11
96.121352045444695
 21
-137.17590225940501
 31
0.0
  0
LINE
  8
0
  6
CONTINUOUS
 62
               3
  5
316
 10
96.121352045444695
 20
-138.17590225940501
 30
0.0
 11
96.121352045444695
 21
-137.17590225940501
 31
0.0
  0
LINE
  8
0
  6
CONTINUOUS
 62
               3
  5
317
 10
38.371352045444524
 20
-134.67590225940455
 30
0.0
 11
45.871352045444524
 21
-134.67590225940455
 31
0.0
  0
LINE
  8
0
  6
CONTINUOUS
 62
               3
  5
318
 10
38.371352045444524
 20
-139.67590225940455
 30
0.0
 11
45.871352045444524
 21
-139.67590225940478
 31
0.0
  0
LINE
  8
0
  6
CONTINUOUS
 62
               3
  5
319
 10
38.371352045444524
 20
-134.67590225940455
 30
0.0
 11
38.371352045444524
 21
-136.17590225940455
 31
0.0
  0
LINE
  8
0
  6
CONTINUOUS
 62
               3
  5
31A
 10
38.371352045444524
 20
-138.17590225940455
 30
0.0
 11
38.371352045444524
 21
-139.67590225940455
 31
0.0
  0
LINE
  8
0
  6
CONTINUOUS
 62
               3
  5
31B
 10
45.871352045444524
 20
-134.67590225940455
 30
0.0
 11
45.871352045444524
 21
-136.17590225940455
 31
0.0
  0
LINE
  8
0
  6
CONTINUOUS
 62
               3
  5
31C
 10
45.871352045444524
 20
-138.17590225940478
 30
0.0
 11
45.871352045444524
 21
-139.67590225940478
 31
0.0
  0
LINE
  8
0
  6
CONTINUOUS
 62
               3
  5
31D
 10
13.12135204544461
 20
-216.17590225940387
 30
0.0
 11
13.12135204544461
 21
-201.17590225940478
 31
0.0
  0
LINE
  8
0
  6
DASHDOT
 62
               4
  5
31E
 10
59.621352045445292
 20
963.82409774059499
 30
0.0
 11
-213.87864795455465
 21
963.82409774059499
 31
0.0
  0
LINE
  8
0
  6
DASHDOT
 62
               4
  5
31F
 10
-48.878647954554708
 20
801.82409774059511
 30
0.0
 11
-48.878647954554694
 21
1072.3240977405953
 31
0.0
  0
LINE
  8
0
  6
DASHDOT
 62
               4
  5
320
 10
19.646576820669452
 20
362.82409774059499
 30
0.0
 11
-117.05422238012977
 21
362.82409774059499
 31
0.0
  0
LINE
  8
0
  6
DASHDOT
 62
               4
  5
321
 10
-48.878647954554708
 20
548.82409774059499
 30
0.0
 11
-48.878647954554708
 21
-156.17590225940501
 31
0.0
  0
LINE
  8
0
  6
DASHDOT
 62
               4
  5
322
 10
-483.87864795455471
 20
362.82409774059499
 30
0.0
 11
-586.87864795455482
 21
362.82409774059499
 31
0.0
  0
LINE
  8
0
  6
DASHDOT
 62
               4
  5
323
 10
-648.87864795455471
 20
548.82409774059499
 30
0.0
 11
-648.87864795455471
 21
-156.17590225940523
 31
0.0
  0
LINE
  8
0
  6
DASHDOT
 62
               4
  5
324
 10
389.12135204544541
 20
362.82409774059499
 30
0.0
 11
489.12135204544541
 21
362.82409774059499
 31
0.0
  0
LINE
  8
0
  6
DASHDOT
 62
               4
  5
325
 10
551.12135204544529
 20
548.82409774059499
 30
0.0
 11
551.12135204544529
 21
-156.17590225940501
 31
0.0
  0
LINE
  8
0
  6
DASHDOT
 62
               4
  5
326
 10
-585.60852584321026
 20
294.32409774059488
 30
0.0
 11
-711.50914488222065
 21
294.32409774059488
 31
0.0
  0
LINE
  8
0
  6
DASHDOT
 62
               4
  5
327
 10
-585.60852584321026
 20
294.32409774059488
 30
0.0
 11
-711.50914488222065
 21
294.32409774059488
 31
0.0
  0
LINE
  8
0
  6
DASHDOT
 62
               4
  5
328
 10
-213.87864795455471
 20
294.32409774059499
 30
0.0
 11
-111.99334758067789
 21
294.32409774059499
 31
0.0
  0
LINE
  8
0
  6
DASHDOT
 62
               4
  5
329
 10
-441.01641700502353
 20
-822.32409774059545
 30
0.0
 11
-441.0164170050233
 21
-693.32409774059556
 31
0.0
  0
LINE
  8
0
  6
DASHDOT
 62
               4
  5
32A
 10
-499.0164170050233
 20
-764.32409774059545
 30
0.0
 11
-383.01641700502341
 21
-764.32409774059545
 31
0.0
  0
LINE
  8
0
  6
DASHDOT
 62
               4
  5
32B
 10
-510.81959548913085
 20
-757.82409774059545
 30
0.0
 11
-376.51641700502341
 21
-757.82409774059545
 31
0.0
  0
LINE
  8
0
  6
DASHDOT
 62
               4
  5
32C
 10
-317.11641700502332
 20
-757.82409774059545
 30
0.0
 11
-218.51641700502341
 21
-757.82409774059545
 31
0.0
  0
LINE
  8
0
  6
DASHDOT
 62
               4
  5
32D
 10
-351.51641700502341
 20
-764.32409774059545
 30
0.0
 11
-277.11641700502344
 21
-764.32409774059545
 31
0.0
  0
LINE
  8
0
  6
DASHDOT
 62
               4
  5
32E
 10
-564.91641700502316
 20
-757.82409774059545
 30
0.0
 11
-663.5164170050233
 21
-757.82409774059499
 31
0.0
  0
LINE
  8
0
  6
DASHDOT
 62
               4
  5
32F
 10
-530.5164170050233
 20
-764.32409774059545
 30
0.0
 11
-604.91641700502316
 21
-764.32409774059545
 31
0.0
  0
LINE
  8
0
  6
DASHDOT
 62
               4
  5
330
 10
-442.96237440079005
 20
-660.85621367156045
 30
0.0
 11
-442.96237440079005
 21
-527.85621367156045
 31
0.0
  0
LINE
  8
0
  6
DASHDOT
 62
               4
  5
331
 10
172.75527573132626
 20
-757.82409774059545
 30
0.0
 11
271.3552757313264
 21
-757.82409774059545
 31
0.0
  0
LINE
  8
0
  6
DASHDOT
 62
               4
  5
332
 10
147.75527573132626
 20
-772.32409774059545
 30
0.0
 11
212.75527573132626
 21
-772.32409774059545
 31
0.0
  0
LINE
  8
0
  6
DASHDOT
 62
               4
  5
333
 10
21.999259506083263
 20
-772.32409774059545
 30
0.0
 11
121.99925950608348
 21
-772.32409774059545
 31
0.0
  0
LINE
  8
0
  6
DASHDOT
 62
               4
  5
334
 10
71.999259506083263
 20
-822.32409774059545
 30
0.0
 11
71.99925950608349
 21
-693.32409774059556
 31
0.0
  0
LINE
  8
0
  6
DASHDOT
 62
               4
  5
335
 10
7.4992595060832627
 20
-757.82409774059545
 30
0.0
 11
142.0432692860345
 21
-757.82409774059545
 31
0.0
  0
LINE
  8
0
  6
DASHDOT
 62
               4
  5
336
 10
-28.756756719159512
 20
-757.82409774059545
 30
0.0
 11
-127.35675671915953
 21
-757.82409774059545
 31
0.0
  0
LINE
  8
0
  6
DASHDOT
 62
               4
  5
337
 10
-3.7567567191595117
 20
-772.32409774059545
 30
0.0
 11
-68.756756719159512
 21
-772.32409774059545
 31
0.0
  0
LINE
  8
0
  6
DASHDOT
 62
               4
  5
338
 10
71.99925950608349
 20
-671.56808151535279
 30
0.0
 11
71.99925950608349
 21
-547.96808151535265
 31
0.0
  0
LINE
  8
0
  6
DASHDOT
 62
               4
  5
339
 10
560.40787526175313
 20
-591.63966216880453
 30
0.0
 11
560.40787526175313
 21
-862.186448968631
 31
0.0
  0
LINE
  8
0
  6
DASHDOT
 62
               4
  5
33A
 10
398.40787526175325
 20
-700.13966216880453
 30
0.0
 11
668.90787526175347
 21
-700.13966216880453
 31
0.0
  0
LINE
  8
0
  6
DASHDOT
 62
               4
  5
33B
 10
628.93310003697786
 20
-1174.6390959173887
 30
0.0
 11
398.67926196832491
 21
-1174.6390959173887
 31
0.0
  0
LINE
  8
0
  6
DASHDOT
 62
               4
  5
33C
 10
560.40787526175313
 20
-988.63909591738877
 30
0.0
 11
560.40787526175313
 21
-1239.6390959173887
 31
0.0
  0
LINE
  8
0
  6
DASHDOT
 62
               4
  5
33D
 10
510.40787526175319
 20
-1189.1390959173887
 30
0.0
 11
610.40787526175347
 21
-1189.1390959173887
 31
0.0
  0
LINE
  8
0
  6
DASHDOT
 62
               4
  5
33E
 10
560.40787526175313
 20
-890.73966216880456
 30
0.0
 11
560.40787526175313
 21
-767.13966216880419
 31
0.0
  0
LINE
  8
0
  6
DASHDOT
 62
               4
  5
33F
 10
360.40787526175313
 20
-1181.1390959173887
 30
0.0
 11
434.80787526175311
 21
-1181.1390959173887
 31
0.0
  0
LINE
  8
0
  6
DASHDOT
 62
               4
  5
340
 10
360.40787526175336
 20
-700.13966216880431
 30
0.0
 11
493.40787526175342
 21
-700.13966216880431
 31
0.0
  0
LINE
  8
0
  6
DASHDOT
 62
               4
  5
341
 10
71.999259506083249
 20
-1245.8240977405953
 30
0.0
 11
71.999259506083305
 21
-1129.8240977405953
 31
0.0
  0
LINE
  8
0
  6
DASHDOT
 62
               4
  5
342
 10
13.999259506083305
 20
-1187.8240977405953
 30
0.0
 11
129.99925950608332
 21
-1187.8240977405953
 31
0.0
  0
LINE
  8
0
  6
DASHDOT
 62
               4
  5
343
 10
21.999259506083305
 20
-1195.8240977405953
 30
0.0
 11
121.99925950608331
 21
-1195.8240977405953
 31
0.0
  0
LINE
  8
0
  6
DASHDOT
 62
               4
  5
344
 10
-91.926968750505637
 20
-1195.8240977405953
 30
0.0
 11
-26.457672930436289
 21
-1195.8240977405953
 31
0.0
  0
LINE
  8
0
  6
DASHDOT
 62
               4
  5
345
 10
-150.50074049391668
 20
-1187.8240977405953
 30
0.0
 11
-51.900740493916601
 21
-1187.8240977405953
 31
0.0
  0
LINE
  8
0
  6
DASHDOT
 62
               4
  5
346
 10
235.92548776267228
 20
-1195.8240977405958
 30
0.0
 11
170.45619194260291
 21
-1195.8240977405953
 31
0.0
  0
LINE
  8
0
  6
DASHDOT
 62
               4
  5
347
 10
294.49925950608332
 20
-1187.8240977405958
 30
0.0
 11
195.89925950608324
 21
-1187.8240977405953
 31
0.0
  0
LINE
  8
0
  6
DASHDOT
 62
               4
  5
348
 10
71.999259506083249
 20
-965.32409774059545
 30
0.0
 11
71.999259506083249
 21
-1089.367165304076
 31
0.0
  0
LINE
  8
0
  6
DASHDOT
 62
               4
  5
349
 10
-648.87864795455584
 20
-376.39708768964988
 30
0.0
 11
-648.87864795455675
 21
-131.19004398988545
 31
0.0
  0
LINE
  8
0
  6
DASHDOT
 62
               4
  5
34A
 10
551.12135204544416
 20
-376.39708768964965
 30
0.0
 11
551.12135204544325
 21
-131.19004398988523
 31
0.0
  0
LINE
  8
0
  6
DASHDOT
 62
               4
  5
34B
 10
-48.878647954554722
 20
-376.39708768964965
 30
0.0
 11
-48.878647954554722
 21
-87.175902259405007
 31
0.0
  0
LINE
  8
0
  6
DASHDOT
 62
               4
  5
34C
 10
76.121352045444695
 20
-15.185800261399663
 30
0.0
 11
76.121352045444695
 21
-179.56416188089008
 31
0.0
  0
LINE
  8
0
  6
DASHDOT
 62
               4
  5
34D
 10
-173.87864795455528
 20
-15.185800261399663
 30
0.0
 11
-173.87864795455528
 21
-179.56416188089008
 31
0.0
  0
ARC
  8
0
  6
CONTINUOUS
 62
               4
  5
34E
 10
-327.80787680367951
 20
3.1516993291326116
 30
0.0
 40
359.11818398045398
 50
13.306177675717487
 51
28.55244350159116
  0
ARC
  8
0
  6
CONTINUOUS
 62
               4
  5
34F
 10
-49.209834424548831
 20
111.39837523170183
 30
0.0
 40
73.327111796148202
 50
342.62945642097981
 51
419.83689160521772
  0
LINE
  8
0
  6
CONTINUOUS
 62
               4
  5
350
 10
-725.87864795455459
 20
432.35975149344779
 30
0.0
 11
-720.87864795455459
 21
437.35975149344779
 31
0.0
  0
LINE
  8
0
  6
CONTINUOUS
 62
               4
  5
351
 10
-725.87864795455459
 20
238.67107414347788
 30
0.0
 11
-725.87864795455459
 21
124.71052951033971
 31
0.0
  0
LINE
  8
0
  6
CONTINUOUS
 62
               4
  5
352
 10
-725.87864795455459
 20
124.71052951033971
 30
0.0
 11
-709.15042355490357
 21
-21.904126659056487
 31
0.0
  0
ARC
  8
0
  6
CONTINUOUS
 62
               4
  5
353
 10
-703.37864795455459
 20
421.82409774059499
 30
0.0
 40
19.999999999999996
 50
148.21166938280601
 51
179.99999999982765
  0
LINE
  8
0
  6
CONTINUOUS
 62
               4
  5
354
 10
-720.37864795455505
 20
432.35975149344779
 30
0.0
 11
-720.37864795455505
 21
437.35975149344836
 31
0.0
  0
LINE
  8
0
  6
CONTINUOUS
 62
               4
  5
355
 10
-720.87864795455459
 20
437.35975149344779
 30
0.0
 11
-720.37864795455505
 21
437.35975149344779
 31
0.0
  0
LINE
  8
0
  6
CONTINUOUS
 62
               4
  5
356
 10
-725.62864795455482
 20
432.10975149344779
 30
0.0
 11
-720.37864795455505
 21
437.35975149344779
 31
0.0
  0
LINE
  8
0
  6
CONTINUOUS
 62
               4
  5
357
 10
-725.62864795455482
 20
432.10975149344779
 30
0.0
 11
-725.87864795455459
 21
432.35975149344779
 31
0.0
  0
LINE
  8
0
  6
CONTINUOUS
 62
               4
  5
358
 10
-723.37864795455459
 20
237.67107414347765
 30
0.0
 11
-723.37864795455459
 21
124.85248979815924
 31
0.0
  0
LINE
  8
0
  6
CONTINUOUS
 62
               4
  5
359
 10
-725.62864795455482
 20
238.38571703634182
 30
0.0
 11
-725.62864795455482
 21
124.72472553912172
 31
0.0
  0
LINE
  8
0
  6
CONTINUOUS
 62
               4
  5
35A
 10
-723.37864795455459
 20
124.85248979815924
 30
0.0
 11
-706.37541308820516
 21
-24.175902259405461
 31
0.0
  0
LINE
  8
0
  6
CONTINUOUS
 62
               4
  5
35B
 10
-723.37541308820448
 20
124.82409774059494
 30
0.0
 11
-725.87864795455459
 21
124.71052951033971
 31
0.0
  0
LINE
  8
0
  6
CONTINUOUS
 62
               4
  5
35C
 10
-725.62864795455482
 20
124.72472553912172
 30
0.0
 11
-708.8729225082335
 21
-22.131304219091362
 31
0.0
  0
LINE
  8
0
  6
CONTINUOUS
 62
               4
  5
35D
 10
-725.87864795455459
 20
432.35975149344779
 30
0.0
 11
-725.87864795455459
 21
241.67107414347777
 31
0.0
  0
LINE
  8
0
  6
CONTINUOUS
 62
               4
  5
35E
 10
-725.62864795455482
 20
432.10975149344779
 30
0.0
 11
-725.62864795455482
 21
241.95643125061326
 31
0.0
  0
LINE
  8
0
  6
CONTINUOUS
 62
               4
  5
35F
 10
-723.37864795455459
 20
421.97712133771211
 30
0.0
 11
-723.37864795455459
 21
242.82409774059477
 31
0.0
  0
LINE
  8
0
  6
CONTINUOUS
 62
               4
  5
360
 10
-646.86219984765057
 20
22.63123801478207
 30
0.0
 11
-689.0526479545548
 21
95.707237730038401
 31
0.0
  0
ARC
  8
0
  6
CONTINUOUS
 62
               4
  5
361
 10
-445.43710986679287
 20
187.64140108027948
 30
0.0
 40
260.38513933920774
 50
200.67520123172588
 51
219.32479876787187
  0
ARC
  8
0
  6
CONTINUOUS
 62
               4
  5
362
 10
-1286.0060735943966
 20
-297.66131640029664
 30
0.0
 40
714.90713506142345
 50
26.616707427973086
 51
33.383292571969413
  0
LINE
  8
0
  6
CONTINUOUS
 62
               4
  5
363
 10
628.12135204544518
 20
432.35975149344779
 30
0.0
 11
623.12135204544518
 21
437.35975149344779
 31
0.0
  0
LINE
  8
0
  6
CONTINUOUS
 62
               4
  5
364
 10
628.12135204544518
 20
238.67107414347811
 30
0.0
 11
628.12135204544518
 21
124.71052951033994
 31
0.0
  0
LINE
  8
0
  6
CONTINUOUS
 62
               4
  5
365
 10
628.12135204544518
 20
124.71052951033994
 30
0.0
 11
611.39312764579415
 21
-21.90412665905626
 31
0.0
  0
ARC
  8
0
  6
CONTINUOUS
 62
               4
  5
366
 10
605.62135204544518
 20
421.82409774059499
 30
0.0
 40
19.999999999999996
 50
0.0
 51
31.788330617021266
  0
LINE
  8
0
  6
CONTINUOUS
 62
               4
  5
367
 10
622.62135204544563
 20
432.35975149344779
 30
0.0
 11
622.62135204544563
 21
437.35975149344836
 31
0.0
  0
LINE
  8
0
  6
CONTINUOUS
 62
               4
  5
368
 10
623.12135204544518
 20
437.35975149344779
 30
0.0
 11
622.62135204544563
 21
437.35975149344779
 31
0.0
  0
LINE
  8
0
  6
CONTINUOUS
 62
               4
  5
369
 10
627.87135204544541
 20
432.10975149344779
 30
0.0
 11
622.62135204544563
 21
437.35975149344779
 31
0.0
  0
LINE
  8
0
  6
CONTINUOUS
 62
               4
  5
36A
 10
627.87135204544541
 20
432.10975149344779
 30
0.0
 11
628.12135204544518
 21
432.35975149344779
 31
0.0
  0
LINE
  8
0
  6
CONTINUOUS
 62
               4
  5
36B
 10
625.62135204544518
 20
237.67107414347788
 30
0.0
 11
625.62135204544518
 21
124.85248979815947
 31
0.0
  0
LINE
  8
0
  6
CONTINUOUS
 62
               4
  5
36C
 10
627.87135204544541
 20
238.38571703634204
 30
0.0
 11
627.87135204544541
 21
124.72472553912195
 31
0.0
  0
LINE
  8
0
  6
CONTINUOUS
 62
               4
  5
36D
 10
625.62135204544518
 20
124.85248979815947
 30
0.0
 11
608.61811717909575
 21
-24.175902259405234
 31
0.0
  0
LINE
  8
0
  6
CONTINUOUS
 62
               4
  5
36E
 10
625.61811717909507
 20
124.82409774059516
 30
0.0
 11
628.12135204544518
 21
124.71052951033994
 31
0.0
  0
LINE
  8
0
  6
CONTINUOUS
 62
               4
  5
36F
 10
627.87135204544541
 20
124.72472553912195
 30
0.0
 11
611.11562659912408
 21
-22.131304219091135
 31
0.0
  0
LINE
  8
0
  6
CONTINUOUS
 62
               4
  5
370
 10
628.12135204544518
 20
432.35975149344779
 30
0.0
 11
628.12135204544518
 21
241.67107414347799
 31
0.0
  0
LINE
  8
0
  6
CONTINUOUS
 62
               4
  5
371
 10
627.87135204544541
 20
432.10975149344779
 30
0.0
 11
627.87135204544541
 21
241.95643125061349
 31
0.0
  0
LINE
  8
0
  6
CONTINUOUS
 62
               4
  5
372
 10
625.62135204544518
 20
421.97712133771211
 30
0.0
 11
625.62135204544518
 21
242.82409774059499
 31
0.0
  0
LINE
  8
0
  6
CONTINUOUS
 62
               4
  5
373
 10
609.26248463195122
 20
71.039588684395312
 30
0.0
 11
485.60935204544478
 21
174.79688663164819
 31
0.0
  0
ARC
  8
0
  6
CONTINUOUS
 62
               4
  5
374
 10
-363.15096805509427
 20
-969.76153049530046
 30
0.0
 40
1424.9238755783815
 50
50.189956146218464
 51
53.44079605068071
  0
ARC
  8
0
  6
CONTINUOUS
 62
               4
  5
375
 10
614.70074088247827
 20
195.59675665544125
 30
0.0
 40
130.75634311527989
 50
189.15312334012282
 51
212.76918311254923
  0
ARC
  8
0
  6
CONTINUOUS
 62
               4
  5
376
 10
612.48537754499637
 20
205.73077740668157
 30
0.0
 40
134.72974192119386
 50
216.90649751112986
 51
268.62928723384999
  0
ARC
  8
0
  6
CONTINUOUS
 62
               4
  5
377
 10
-182.50899605306302
 20
-753.42257317041378
 30
0.0
 40
1143.0835201141012
 50
46.1587326533813
 51
50.202696616608264
  0
POINT
  8
0
  6
CONTINUOUS
 62
               4
  5
378
 10
-295.91641700502339
 20
-713.32409774059545
 30
0.0
  0
POINT
  8
0
  6
CONTINUOUS
 62
               4
  5
379
 10
-586.11641700502321
 20
-713.32409774059545
 30
0.0
  0
POINT
  8
0
  6
CONTINUOUS
 62
               4
  5
37A
 10
-398.46237440078994
 20
-605.25621367156054
 30
0.0
  0
POINT
  8
0
  6
CONTINUOUS
 62
               4
  5
37B
 10
193.95527573132631
 20
-713.32409774059545
 30
0.0
  0
POINT
  8
0
  6
CONTINUOUS
 62
               4
  5
37C
 10
-49.956756719159557
 20
-713.32409774059545
 30
0.0
  0
POINT
  8
0
  6
CONTINUOUS
 62
               4
  5
37D
 10
116.49925950608348
 20
-625.36808151535274
 30
0.0
  0
LINE
  8
0
  6
CONTINUOUS
 62
               4
  5
37E
 10
637.40787526175302
 20
-1105.1034421645359
 30
0.0
 11
632.40787526175302
 21
-1100.1034421645359
 31
0.0
  0
ARC
  8
0
  6
CONTINUOUS
 62
               4
  5
37F
 10
614.90787526175302
 20
-1115.6390959173887
 30
0.0
 40
19.999999999999996
 50
0.0
 51
31.788330617027277
  0
LINE
  8
0
  6
CONTINUOUS
 62
               4
  5
380
 10
631.90787526175347
 20
-1105.1034421645359
 30
0.0
 11
631.90787526175347
 21
-1100.1034421645354
 31
0.0
  0
LINE
  8
0
  6
CONTINUOUS
 62
               4
  5
381
 10
632.40787526175302
 20
-1100.1034421645359
 30
0.0
 11
631.90787526175347
 21
-1100.1034421645359
 31
0.0
  0
LINE
  8
0
  6
CONTINUOUS
 62
               4
  5
382
 10
637.15787526175325
 20
-1105.3534421645359
 30
0.0
 11
631.90787526175347
 21
-1100.1034421645359
 31
0.0
  0
LINE
  8
0
  6
CONTINUOUS
 62
               4
  5
383
 10
637.15787526175325
 20
-1105.3534421645359
 30
0.0
 11
637.40787526175302
 21
-1105.1034421645359
 31
0.0
  0
LINE
  8
0
  6
CONTINUOUS
 62
               4
  5
384
 10
637.40787526175302
 20
-1105.1034421645359
 30
0.0
 11
637.40787526175302
 21
-1235.7921195145059
 31
0.0
  0
LINE
  8
0
  6
CONTINUOUS
 62
               4
  5
385
 10
637.15787526175325
 20
-1105.3534421645359
 30
0.0
 11
637.15787526175325
 21
-1235.5067624073704
 31
0.0
  0
LINE
  8
0
  6
CONTINUOUS
 62
               4
  5
386
 10
634.90787526175302
 20
-1115.4860723202714
 30
0.0
 11
634.90787526175302
 21
-1234.6390959173887
 31
0.0
  0
POINT
  8
0
  6
CONTINUOUS
 62
               4
  5
387
 10
604.90787526175325
 20
-844.53966216880474
 30
0.0
  0
POINT
  8
0
  6
CONTINUOUS
 62
               4
  5
388
 10
416.00787526175316
 20
-1130.1390959173887
 30
0.0
  0
POINT
  8
0
  6
CONTINUOUS
 62
               4
  5
389
 10
416.00787526175327
 20
-744.63966216880419
 30
0.0
  0
POINT
  8
0
  6
CONTINUOUS
 62
               4
  5
38A
 10
-72.500740493916567
 20
-1136.8240977405953
 30
0.0
  0
POINT
  8
0
  6
CONTINUOUS
 62
               4
  5
38B
 10
216.49925950608326
 20
-1136.8240977405953
 30
0.0
  0
POINT
  8
0
  6
CONTINUOUS
 62
               4
  5
38C
 10
122.99925950608342
 20
-1043.3240977405958
 30
0.0
  0
LINE
  8
0
  6
CONTINUOUS
 62
               4
  5
38D
 10
-714.3786479545563
 20
-241.17590225940398
 30
0.0
 11
-583.37864795455425
 21
-241.17590225940398
 31
0.0
  0
LINE
  8
0
  6
CONTINUOUS
 62
               4
  5
38E
 10
485.62135204544381
 20
-241.17590225940376
 30
0.0
 11
616.62135204544575
 21
-241.17590225940376
 31
0.0
  0
LINE
  8
0
  6
CONTINUOUS
 62
               4
  5
38F
 10
-139.87864795455522
 20
-141.92112404672741
 30
0.0
 11
-139.87864795455522
 21
-132.04683783967164
 31
0.0
  0
LINE
  8
0
  6
CONTINUOUS
 62
               4
  5
390
 10
42.121352045444524
 20
-141.92112404672741
 30
0.0
 11
42.121352045444524
 21
-132.04683783967164
 31
0.0
  0
LINE
  8
0
  6
CONTINUOUS
 62
               4
  5
391
 10
-114.37864795455624
 20
-241.17590225940376
 30
0.0
 11
16.621352045445661
 21
-241.17590225940376
 31
0.0
  0
LINE
  8
0
  6
CONTINUOUS
 62
               4
  5
392
 10
608.61811717909575
 20
-24.175902259405234
 30
0.0
 11
611.39312764579415
 21
-21.90412665905626
 31
0.0
  0
LINE
  8
0
  6
CONTINUOUS
 62
               4
  5
393
 10
-709.15042355490357
 20
-21.904126659056487
 30
0.0
 11
-706.37541308820516
 21
-24.175902259405461
 31
0.0
  0
LINE
  8
0
  6
DASHED2
 62
               4
  5
394
 10
-105.87864795455516
 20
463.82409774059499
 30
0.0
 11
8.1213520454446098
 21
463.82409774059499
 31
0.0
  0
LINE
  8
0
  6
DASHED2
 62
               4
  5
395
 10
-591.87864795455482
 20
463.82409774059499
 30
0.0
 11
-705.87864795455459
 21
463.82409774059499
 31
0.0
  0
LINE
  8
0
  6
DASHED2
 62
               4
  5
396
 10
494.12135204544541
 20
463.82409774059499
 30
0.0
 11
608.12135204544518
 21
463.82409774059499
 31
0.0
  0
LINE
  8
0
  6
DASHED2
 62
               4
  5
397
 10
503.4078752617533
 20
-1073.6390959173887
 30
0.0
 11
617.40787526175302
 21
-1073.6390959173887
 31
0.0
  0
LINE
  8
0
  6
DASHED2
 62
               4
  5
398
 10
-591.87864795455539
 20
-36.175902259405234
 30
0.0
 11
-591.87864795455539
 21
-136.17590225940523
 31
0.0
  0
LINE
  8
0
  6
DASHED2
 62
               4
  5
399
 10
-706.01149350868627
 20
-36.175902259405234
 30
0.0
 11
-706.01149350868627
 21
-136.27433000485644
 31
0.0
  0
LINE
  8
0
  6
DASHED2
 62
               4
  5
39A
 10
-706.37864795455766
 20
-151.17590225940637
 30
0.0
 11
-706.37864795455766
 21
-216.1759022594041
 31
0.0
  0
LINE
  8
0
  6
DASHED2
 62
               4
  5
39B
 10
-648.87864795455471
 20
-136.17590225940523
 30
0.0
 11
-705.87864795455494
 21
-136.17590225940523
 31
0.0
  0
LINE
  8
0
  6
DASHED2
 62
               4
  5
39C
 10
-706.37864795455766
 20
-151.17590225940637
 30
0.0
 11
-648.87864795455584
 21
-151.17590225940523
 31
0.0
  0
LINE
  8
0
  6
DASHED2
 62
               4
  5
39D
 10
-648.87864795455471
 20
-136.17590225940523
 30
0.0
 11
-591.87864795455482
 21
-136.17590225940523
 31
0.0
  0
LINE
  8
0
  6
DASHED2
 62
               4
  5
39E
 10
-591.378647954553
 20
-151.17590225940637
 30
0.0
 11
-648.87864795455471
 21
-151.17590225940523
 31
0.0
  0
LINE
  8
0
  6
DASHED2
 62
               4
  5
39F
 10
-591.378647954553
 20
-151.17590225940637
 30
0.0
 11
-591.378647954553
 21
-216.1759022594041
 31
0.0
  0
LINE
  8
0
  6
DASHED2
 62
               4
  5
3A0
 10
-660.63864795455549
 20
-136.17590225940523
 30
0.0
 11
-660.63864795455549
 21
-127.64977376009801
 31
0.0
  0
LINE
  8
0
  6
DASHED2
 62
               4
  5
3A1
 10
-654.74967520882103
 20
-127.64977376009801
 30
0.0
 11
-654.74967520882103
 21
-136.17590225940523
 31
0.0
  0
LINE
  8
0
  6
DASHED2
 62
               4
  5
3A2
 10
-657.69416158168815
 20
-126.5759022594051
 30
0.0
 11
-640.06313432742218
 21
-126.5759022594051
 31
0.0
  0
LINE
  8
0
  6
DASHED2
 62
               4
  5
3A3
 10
-637.11864795455517
 20
-136.17590225940523
 30
0.0
 11
-637.11864795455517
 21
-127.64977376009801
 31
0.0
  0
LINE
  8
0
  6
DASHED2
 62
               4
  5
3A4
 10
-643.00762070028986
 20
-136.17590225940523
 30
0.0
 11
-643.00762070028986
 21
-127.64977376009801
 31
0.0
  0
ARC
  8
0
  6
DASHED2
 62
               4
  5
3A5
 10
-657.69416158168815
 20
-131.14963384352109
 30
0.0
 40
4.5737315841157447
 50
49.925579661593176
 51
130.07442033830333
  0
ARC
  8
0
  6
DASHED2
 62
               4
  5
3A6
 10
-640.06313432742218
 20
-131.14963384352109
 30
0.0
 40
4.5737315841157686
 50
49.925579661593176
 51
130.07442033830387
  0
ARC
  8
0
  6
DASHED2
 62
               4
  5
3A7
 10
-648.87864795455528
 20
-143.16176052892558
 30
0.0
 40
16.58585826952007
 50
69.269184858521257
 51
110.73081514137587
  0
LINE
  8
0
  6
DASHED2
 62
               4
  5
3A8
 10
-660.63864795455686
 20
-138.17590225940558
 30
0.0
 11
-660.63864795455686
 21
-146.70203075871279
 31
0.0
  0
LINE
  8
0
  6
DASHED2
 62
               4
  5
3A9
 10
-654.74967520882251
 20
-146.70203075871279
 30
0.0
 11
-654.74967520882251
 21
-138.17590225940558
 31
0.0
  0
LINE
  8
0
  6
DASHED2
 62
               4
  5
3AA
 10
-657.69416158168951
 20
-147.77590225940537
 30
0.0
 11
-640.06313432742388
 21
-147.77590225940537
 31
0.0
  0
LINE
  8
0
  6
DASHED2
 62
               4
  5
3AB
 10
-637.11864795455654
 20
-138.17590225940558
 30
0.0
 11
-637.11864795455654
 21
-146.70203075871279
 31
0.0
  0
LINE
  8
0
  6
DASHED2
 62
               4
  5
3AC
 10
-643.007620700291
 20
-138.17590225940558
 30
0.0
 11
-643.007620700291
 21
-146.70203075871279
 31
0.0
  0
ARC
  8
0
  6
DASHED2
 62
               4
  5
3AD
 10
-657.69416158168951
 20
-143.20217067528995
 30
0.0
 40
4.5737315841157447
 50
229.92557966149019
 51
310.07442033820132
  0
ARC
  8
0
  6
DASHED2
 62
               4
  5
3AE
 10
-640.06313432742388
 20
-143.20217067528995
 30
0.0
 40
4.5737315841157686
 50
229.92557966149019
 51
310.07442033820035
  0
ARC
  8
0
  6
DASHED2
 62
               4
  5
3AF
 10
-648.87864795455675
 20
-131.19004398988545
 30
0.0
 40
16.58585826952007
 50
249.26918485841776
 51
290.73081514127233
  0
LINE
  8
0
  6
DASHED2
 62
               4
  5
3B0
 10
-654.87864795455528
 20
-147.77590225940537
 30
0.0
 11
-654.87864795455528
 21
-158.29526850172999
 31
0.0
  0
LINE
  8
0
  6
DASHED2
 62
               4
  5
3B1
 10
-642.87864795455539
 20
-147.77590225940537
 30
0.0
 11
-642.87864795455539
 21
-158.29526850172999
 31
0.0
  0
LINE
  8
0
  6
DASHED2
 62
               4
  5
3B2
 10
-653.67864795455546
 20
-159.49526850173038
 30
0.0
 11
-644.07864795455544
 21
-159.49526850173038
 31
0.0
  0
LINE
  8
0
  6
DASHED2
 62
               4
  5
3B3
 10
-654.87864795455528
 20
-158.29526850172999
 30
0.0
 11
-653.67864795455546
 21
-159.49526850173038
 31
0.0
  0
LINE
  8
0
  6
DASHED2
 62
               4
  5
3B4
 10
-642.87864795455539
 20
-158.29526850172999
 30
0.0
 11
-644.07864795455544
 21
-159.49526850173038
 31
0.0
  0
LINE
  8
0
  6
DASHED2
 62
               4
  5
3B5
 10
-660.63864795455549
 20
-136.17590225940523
 30
0.0
 11
-637.11864795455517
 21
-136.17590225940523
 31
0.0
  0
LINE
  8
0
  6
DASHED2
 62
               4
  5
3B6
 10
-637.11864795455654
 20
-138.17590225940558
 30
0.0
 11
-660.63864795455686
 21
-138.17590225940558
 31
0.0
  0
LINE
  8
0
  6
DASHED2
 62
               4
  5
3B7
 10
-654.87864795455528
 20
-21.112322783476827
 30
0.0
 11
-654.87864795455528
 21
-126.5759022594055
 31
0.0
  0
LINE
  8
0
  6
DASHED2
 62
               4
  5
3B8
 10
-642.87864795455539
 20
-21.112322783476827
 30
0.0
 11
-642.87864795455539
 21
-126.5759022594055
 31
0.0
  0
LINE
  8
0
  6
DASHED2
 62
               4
  5
3B9
 10
-642.87864795455539
 20
-21.112322783476827
 30
0.0
 11
-654.87864795455528
 21
-21.112322783476827
 31
0.0
  0
LINE
  8
0
  6
DASHED2
 62
               4
  5
3BA
 10
608.12135204544461
 20
-36.175902259405007
 30
0.0
 11
608.12135204544461
 21
-136.17590225940501
 31
0.0
  0
LINE
  8
0
  6
DASHED2
 62
               4
  5
3BB
 10
493.98850649131373
 20
-36.175902259405007
 30
0.0
 11
493.98850649131373
 21
-136.27433000485621
 31
0.0
  0
LINE
  8
0
  6
DASHED2
 62
               4
  5
3BC
 10
493.62135204544234
 20
-151.17590225940614
 30
0.0
 11
493.62135204544234
 21
-216.17590225940387
 31
0.0
  0
LINE
  8
0
  6
DASHED2
 62
               4
  5
3BD
 10
551.12135204544529
 20
-136.17590225940501
 30
0.0
 11
494.12135204544518
 21
-136.17590225940501
 31
0.0
  0
LINE
  8
0
  6
DASHED2
 62
               4
  5
3BE
 10
493.62135204544234
 20
-151.17590225940614
 30
0.0
 11
551.12135204544416
 21
-151.17590225940501
 31
0.0
  0
LINE
  8
0
  6
DASHED2
 62
               4
  5
3BF
 10
551.12135204544529
 20
-136.17590225940501
 30
0.0
 11
608.12135204544529
 21
-136.17590225940501
 31
0.0
  0
LINE
  8
0
  6
DASHED2
 62
               4
  5
3C0
 10
608.62135204544711
 20
-151.17590225940614
 30
0.0
 11
551.12135204544529
 21
-151.17590225940501
 31
0.0
  0
LINE
  8
0
  6
DASHED2
 62
               4
  5
3C1
 10
608.62135204544711
 20
-151.17590225940614
 30
0.0
 11
608.62135204544711
 21
-216.17590225940387
 31
0.0
  0
LINE
  8
0
  6
DASHED2
 62
               4
  5
3C2
 10
539.36135204544462
 20
-136.17590225940501
 30
0.0
 11
539.36135204544462
 21
-127.64977376009779
 31
0.0
  0
LINE
  8
0
  6
DASHED2
 62
               4
  5
3C3
 10
545.25032479117908
 20
-127.64977376009779
 30
0.0
 11
545.25032479117908
 21
-136.17590225940501
 31
0.0
  0
LINE
  8
0
  6
DASHED2
 62
               4
  5
3C4
 10
542.30583841831185
 20
-126.57590225940487
 30
0.0
 11
559.93686567257782
 21
-126.57590225940487
 31
0.0
  0
LINE
  8
0
  6
DASHED2
 62
               4
  5
3C5
 10
562.88135204544483
 20
-136.17590225940501
 30
0.0
 11
562.88135204544483
 21
-127.64977376009779
 31
0.0
  0
LINE
  8
0
  6
DASHED2
 62
               4
  5
3C6
 10
556.99237929971014
 20
-136.17590225940501
 30
0.0
 11
556.99237929971014
 21
-127.64977376009779
 31
0.0
  0
ARC
  8
0
  6
DASHED2
 62
               4
  5
3C7
 10
542.30583841831185
 20
-131.14963384352086
 30
0.0
 40
4.5737315841157447
 50
49.925579661593176
 51
130.07442033830333
  0
ARC
  8
0
  6
DASHED2
 62
               4
  5
3C8
 10
559.93686567257782
 20
-131.14963384352086
 30
0.0
 40
4.5737315841157686
 50
49.925579661593176
 51
130.07442033830387
  0
ARC
  8
0
  6
DASHED2
 62
               4
  5
3C9
 10
551.12135204544484
 20
-143.16176052892536
 30
0.0
 40
16.58585826952007
 50
69.269184858521257
 51
110.73081514137587
  0
LINE
  8
0
  6
DASHED2
 62
               4
  5
3CA
 10
539.36135204544325
 20
-138.17590225940535
 30
0.0
 11
539.36135204544325
 21
-146.70203075871257
 31
0.0
  0
LINE
  8
0
  6
DASHED2
 62
               4
  5
3CB
 10
545.25032479117749
 20
-146.70203075871257
 30
0.0
 11
545.25032479117749
 21
-138.17590225940535
 31
0.0
  0
LINE
  8
0
  6
DASHED2
 62
               4
  5
3CC
 10
542.30583841831049
 20
-147.77590225940514
 30
0.0
 11
559.93686567257623
 21
-147.77590225940514
 31
0.0
  0
LINE
  8
0
  6
DASHED2
 62
               4
  5
3CD
 10
562.88135204544346
 20
-138.17590225940535
 30
0.0
 11
562.88135204544346
 21
-146.70203075871257
 31
0.0
  0
LINE
  8
0
  6
DASHED2
 62
               4
  5
3CE
 10
556.992379299709
 20
-138.17590225940535
 30
0.0
 11
556.992379299709
 21
-146.70203075871257
 31
0.0
  0
ARC
  8
0
  6
DASHED2
 62
               4
  5
3CF
 10
542.30583841831049
 20
-143.20217067528972
 30
0.0
 40
4.5737315841157447
 50
229.92557966149019
 51
310.07442033820132
  0
ARC
  8
0
  6
DASHED2
 62
               4
  5
3D0
 10
559.93686567257623
 20
-143.20217067528972
 30
0.0
 40
4.5737315841157686
 50
229.92557966149019
 51
310.07442033820035
  0
ARC
  8
0
  6
DASHED2
 62
               4
  5
3D1
 10
551.12135204544325
 20
-131.19004398988523
 30
0.0
 40
16.58585826952007
 50
249.26918485841776
 51
290.73081514127233
  0
LINE
  8
0
  6
DASHED2
 62
               4
  5
3D2
 10
545.12135204544484
 20
-147.77590225940514
 30
0.0
 11
545.12135204544484
 21
-158.29526850172977
 31
0.0
  0
LINE
  8
0
  6
DASHED2
 62
               4
  5
3D3
 10
557.12135204544461
 20
-147.77590225940514
 30
0.0
 11
557.12135204544461
 21
-158.29526850172977
 31
0.0
  0
LINE
  8
0
  6
DASHED2
 62
               4
  5
3D4
 10
546.32135204544466
 20
-159.49526850173015
 30
0.0
 11
555.92135204544456
 21
-159.49526850173015
 31
0.0
  0
LINE
  8
0
  6
DASHED2
 62
               4
  5
3D5
 10
545.12135204544484
 20
-158.29526850172977
 30
0.0
 11
546.32135204544466
 21
-159.49526850173015
 31
0.0
  0
LINE
  8
0
  6
DASHED2
 62
               4
  5
3D6
 10
557.12135204544461
 20
-158.29526850172977
 30
0.0
 11
555.92135204544456
 21
-159.49526850173015
 31
0.0
  0
LINE
  8
0
  6
DASHED2
 62
               4
  5
3D7
 10
539.36135204544462
 20
-136.17590225940501
 30
0.0
 11
562.88135204544483
 21
-136.17590225940501
 31
0.0
  0
LINE
  8
0
  6
DASHED2
 62
               4
  5
3D8
 10
562.88135204544346
 20
-138.17590225940535
 30
0.0
 11
539.36135204544325
 21
-138.17590225940535
 31
0.0
  0
LINE
  8
0
  6
DASHED2
 62
               4
  5
3D9
 10
545.12135204544484
 20
-21.1123227834766
 30
0.0
 11
545.12135204544484
 21
-126.57590225940527
 31
0.0
  0
LINE
  8
0
  6
DASHED2
 62
               4
  5
3DA
 10
557.12135204544461
 20
-21.1123227834766
 30
0.0
 11
557.12135204544461
 21
-126.57590225940527
 31
0.0
  0
LINE
  8
0
  6
DASHED2
 62
               4
  5
3DB
 10
557.12135204544461
 20
-21.1123227834766
 30
0.0
 11
545.12135204544484
 21
-21.1123227834766
 31
0.0
  0
LINE
  8
0
  6
DASHED2
 62
               4
  5
3DC
 10
8.121352045445164
 20
-36.175902259405007
 30
0.0
 11
8.121352045445164
 21
-136.17590225940501
 31
0.0
  0
LINE
  8
0
  6
DASHED2
 62
               4
  5
3DD
 10
-106.01149350868569
 20
-36.175902259405007
 30
0.0
 11
-106.01149350868569
 21
-136.27433000485621
 31
0.0
  0
LINE
  8
0
  6
DASHED2
 62
               4
  5
3DE
 10
-106.37864795455769
 20
-151.17590225940614
 30
0.0
 11
-106.37864795455769
 21
-216.17590225940387
 31
0.0
  0
LINE
  8
0
  6
DASHED2
 62
               4
  5
3DF
 10
-48.878647954554708
 20
-136.17590225940501
 30
0.0
 11
-105.87864795455488
 21
-136.17590225940501
 31
0.0
  0
LINE
  8
0
  6
DASHED2
 62
               4
  5
3E0
 10
-106.37864795455769
 20
-151.17590225940614
 30
0.0
 11
-48.878647954555845
 21
-151.17590225940501
 31
0.0
  0
LINE
  8
0
  6
DASHED2
 62
               4
  5
3E1
 10
-48.878647954554708
 20
-136.17590225940501
 30
0.0
 11
8.1213520454451782
 21
-136.17590225940501
 31
0.0
  0
LINE
  8
0
  6
DASHED2
 62
               4
  5
3E2
 10
8.6213520454469972
 20
-151.17590225940614
 30
0.0
 11
-48.878647954554708
 21
-151.17590225940501
 31
0.0
  0
LINE
  8
0
  6
DASHED2
 62
               4
  5
3E3
 10
8.6213520454469972
 20
-151.17590225940614
 30
0.0
 11
8.6213520454469972
 21
-216.17590225940387
 31
0.0
  0
LINE
  8
0
  6
DASHED2
 62
               4
  5
3E4
 10
-185.63864795455544
 20
-136.17590225940455
 30
0.0
 11
-185.63864795455544
 21
-127.64977376009733
 31
0.0
  0
LINE
  8
0
  6
DASHED2
 62
               4
  5
3E5
 10
-179.74967520882103
 20
-127.64977376009733
 30
0.0
 11
-179.74967520882103
 21
-136.17590225940455
 31
0.0
  0
LINE
  8
0
  6
DASHED2
 62
               4
  5
3E6
 10
-182.69416158168809
 20
-126.57590225940442
 30
0.0
 11
-165.06313432742218
 21
-126.57590225940442
 31
0.0
  0
LINE
  8
0
  6
DASHED2
 62
               4
  5
3E7
 10
-162.11864795455512
 20
-136.17590225940455
 30
0.0
 11
-162.11864795455512
 21
-127.64977376009733
 31
0.0
  0
LINE
  8
0
  6
DASHED2
 62
               4
  5
3E8
 10
-168.00762070028981
 20
-136.17590225940455
 30
0.0
 11
-168.00762070028981
 21
-127.64977376009733
 31
0.0
  0
ARC
  8
0
  6
DASHED2
 62
               4
  5
3E9
 10
-182.69416158168809
 20
-131.14963384352041
 30
0.0
 40
4.5737315841157447
 50
49.925579661593176
 51
130.07442033830358
  0
ARC
  8
0
  6
DASHED2
 62
               4
  5
3EA
 10
-165.06313432742218
 20
-131.14963384352041
 30
0.0
 40
4.5737315841157686
 50
49.925579661593304
 51
130.07442033830372
  0
ARC
  8
0
  6
DASHED2
 62
               4
  5
3EB
 10
-173.87864795455528
 20
-143.1617605289249
 30
0.0
 40
16.58585826952007
 50
69.269184858521172
 51
110.73081514137587
  0
LINE
  8
0
  6
DASHED2
 62
               4
  5
3EC
 10
-185.63864795455686
 20
-138.17590225940489
 30
0.0
 11
-185.63864795455686
 21
-146.70203075871211
 31
0.0
  0
LINE
  8
0
  6
DASHED2
 62
               4
  5
3ED
 10
-179.74967520882245
 20
-146.70203075871211
 30
0.0
 11
-179.74967520882245
 21
-138.17590225940489
 31
0.0
  0
LINE
  8
0
  6
DASHED2
 62
               4
  5
3EE
 10
-182.69416158168951
 20
-147.77590225940469
 30
0.0
 11
-165.06313432742388
 21
-147.77590225940469
 31
0.0
  0
LINE
  8
0
  6
DASHED2
 62
               4
  5
3EF
 10
-162.11864795455654
 20
-138.17590225940489
 30
0.0
 11
-162.11864795455654
 21
-146.70203075871211
 31
0.0
  0
LINE
  8
0
  6
DASHED2
 62
               4
  5
3F0
 10
-168.00762070029094
 20
-138.17590225940489
 30
0.0
 11
-168.00762070029094
 21
-146.70203075871211
 31
0.0
  0
ARC
  8
0
  6
DASHED2
 62
               4
  5
3F1
 10
-182.69416158168951
 20
-143.20217067528927
 30
0.0
 40
4.5737315841157447
 50
229.92557966149019
 51
310.07442033820132
  0
ARC
  8
0
  6
DASHED2
 62
               4
  5
3F2
 10
-165.06313432742388
 20
-143.20217067528927
 30
0.0
 40
4.5737315841157686
 50
229.92557966149064
 51
310.07442033820121
  0
ARC
  8
0
  6
DASHED2
 62
               4
  5
3F3
 10
-173.8786479545567
 20
-131.19004398988477
 30
0.0
 40
16.58585826952007
 50
249.26918485841776
 51
290.73081514127233
  0
LINE
  8
0
  6
DASHED2
 62
               4
  5
3F4
 10
-179.87864795455522
 20
-147.77590225940469
 30
0.0
 11
-179.87864795455522
 21
-158.29526850172931
 31
0.0
  0
LINE
  8
0
  6
DASHED2
 62
               4
  5
3F5
 10
-167.87864795455533
 20
-147.77590225940469
 30
0.0
 11
-167.87864795455533
 21
-158.29526850172931
 31
0.0
  0
LINE
  8
0
  6
DASHED2
 62
               4
  5
3F6
 10
-178.67864795455546
 20
-159.4952685017297
 30
0.0
 11
-169.07864795455538
 21
-159.4952685017297
 31
0.0
  0
LINE
  8
0
  6
DASHED2
 62
               4
  5
3F7
 10
-179.87864795455522
 20
-158.29526850172931
 30
0.0
 11
-178.67864795455546
 21
-159.4952685017297
 31
0.0
  0
LINE
  8
0
  6
DASHED2
 62
               4
  5
3F8
 10
-167.87864795455533
 20
-158.29526850172931
 30
0.0
 11
-169.07864795455538
 21
-159.4952685017297
 31
0.0
  0
LINE
  8
0
  6
DASHED2
 62
               4
  5
3F9
 10
-185.63864795455544
 20
-136.17590225940455
 30
0.0
 11
-162.11864795455512
 21
-136.17590225940455
 31
0.0
  0
LINE
  8
0
  6
DASHED2
 62
               4
  5
3FA
 10
-162.11864795455654
 20
-138.17590225940489
 30
0.0
 11
-185.63864795455686
 21
-138.17590225940489
 31
0.0
  0
LINE
  8
0
  6
DASHED2
 62
               4
  5
3FB
 10
87.881352045444856
 20
-136.17590225940455
 30
0.0
 11
87.881352045444856
 21
-127.64977376009733
 31
0.0
  0
LINE
  8
0
  6
DASHED2
 62
               4
  5
3FC
 10
81.99237929971045
 20
-127.64977376009733
 30
0.0
 11
81.99237929971045
 21
-136.17590225940455
 31
0.0
  0
LINE
  8
0
  6
DASHED2
 62
               4
  5
3FD
 10
84.936865672577511
 20
-126.57590225940442
 30
0.0
 11
67.305838418311595
 21
-126.57590225940442
 31
0.0
  0
LINE
  8
0
  6
DASHED2
 62
               4
  5
3FE
 10
64.361352045444534
 20
-136.17590225940455
 30
0.0
 11
64.361352045444534
 21
-127.64977376009733
 31
0.0
  0
LINE
  8
0
  6
DASHED2
 62
               4
  5
3FF
 10
70.250324791179224
 20
-136.17590225940455
 30
0.0
 11
70.250324791179224
 21
-127.64977376009733
 31
0.0
  0
ARC
  8
0
  6
DASHED2
 62
               4
  5
400
 10
84.936865672577511
 20
-131.14963384352041
 30
0.0
 40
4.5737315841157447
 50
49.925579661626813
 51
130.07442033833769
  0
ARC
  8
0
  6
DASHED2
 62
               4
  5
401
 10
67.305838418311595
 20
-131.14963384352041
 30
0.0
 40
4.5737315841157686
 50
49.925579661626678
 51
130.07442033833755
  0
ARC
  8
0
  6
DASHED2
 62
               4
  5
402
 10
76.121352045444695
 20
-143.1617605289249
 30
0.0
 40
16.58585826952007
 50
69.269184858554965
 51
110.73081514140964
  0
LINE
  8
0
  6
DASHED2
 62
               4
  5
403
 10
87.881352045446278
 20
-138.17590225940489
 30
0.0
 11
87.881352045446278
 21
-146.70203075871211
 31
0.0
  0
LINE
  8
0
  6
DASHED2
 62
               4
  5
404
 10
81.992379299711871
 20
-146.70203075871211
 30
0.0
 11
81.992379299711871
 21
-138.17590225940489
 31
0.0
  0
LINE
  8
0
  6
DASHED2
 62
               4
  5
405
 10
84.936865672578932
 20
-147.77590225940469
 30
0.0
 11
67.3058384183133
 21
-147.77590225940469
 31
0.0
  0
LINE
  8
0
  6
DASHED2
 62
               4
  5
406
 10
64.361352045445955
 20
-138.17590225940489
 30
0.0
 11
64.361352045445955
 21
-146.70203075871211
 31
0.0
  0
LINE
  8
0
  6
DASHED2
 62
               4
  5
407
 10
70.250324791180361
 20
-138.17590225940489
 30
0.0
 11
70.250324791180361
 21
-146.70203075871211
 31
0.0
  0
ARC
  8
0
  6
DASHED2
 62
               4
  5
408
 10
84.936865672578932
 20
-143.20217067528927
 30
0.0
 40
4.5737315841157447
 50
229.92557966159103
 51
310.07442033830262
  0
ARC
  8
0
  6
DASHED2
 62
               4
  5
409
 10
67.3058384183133
 20
-143.20217067528927
 30
0.0
 40
4.5737315841157686
 50
229.92557966159134
 51
310.07442033830176
  0
ARC
  8
0
  6
DASHED2
 62
               4
  5
40A
 10
76.121352045446116
 20
-131.19004398988477
 30
0.0
 40
16.58585826952007
 50
249.26918485851999
 51
290.73081514137471
  0
LINE
  8
0
  6
DASHED2
 62
               4
  5
40B
 10
82.121352045444638
 20
-147.77590225940469
 30
0.0
 11
82.121352045444638
 21
-158.29526850172931
 31
0.0
  0
LINE
  8
0
  6
DASHED2
 62
               4
  5
40C
 10
70.121352045444752
 20
-147.77590225940469
 30
0.0
 11
70.121352045444752
 21
-158.29526850172931
 31
0.0
  0
LINE
  8
0
  6
DASHED2
 62
               4
  5
40D
 10
80.921352045444877
 20
-159.4952685017297
 30
0.0
 11
71.321352045444797
 21
-159.4952685017297
 31
0.0
  0
LINE
  8
0
  6
DASHED2
 62
               4
  5
40E
 10
82.121352045444638
 20
-158.29526850172931
 30
0.0
 11
80.921352045444877
 21
-159.4952685017297
 31
0.0
  0
LINE
  8
0
  6
DASHED2
 62
               4
  5
40F
 10
70.121352045444752
 20
-158.29526850172931
 30
0.0
 11
71.321352045444797
 21
-159.4952685017297
 31
0.0
  0
LINE
  8
0
  6
DASHED2
 62
               4
  5
410
 10
87.881352045444856
 20
-136.17590225940455
 30
0.0
 11
64.361352045444534
 21
-136.17590225940455
 31
0.0
  0
LINE
  8
0
  6
DASHED2
 62
               4
  5
411
 10
64.361352045445955
 20
-138.17590225940489
 30
0.0
 11
87.881352045446278
 21
-138.17590225940489
 31
0.0
  0
LINE
  8
0
  6
DASHED2
 62
               4
  5
412
 10
70.121352045444752
 20
-21.112322783475747
 30
0.0
 11
70.121352045444752
 21
-126.57590225940442
 31
0.0
  0
LINE
  8
0
  6
DASHED2
 62
               4
  5
413
 10
82.121352045444638
 20
-21.112322783475747
 30
0.0
 11
82.121352045444638
 21
-126.57590225940442
 31
0.0
  0
LINE
  8
0
  6
DASHED2
 62
               4
  5
414
 10
70.121352045444752
 20
-21.112322783475747
 30
0.0
 11
82.121352045444638
 21
-21.112322783475747
 31
0.0
  0
LINE
  8
0
  6
DASHED2
 62
               4
  5
415
 10
-167.87864795455533
 20
-21.112322783475747
 30
0.0
 11
-179.87864795455522
 21
-21.112322783475747
 31
0.0
  0
LINE
  8
0
  6
DASHED2
 62
               4
  5
416
 10
-167.87864795455533
 20
-21.112322783475747
 30
0.0
 11
-167.87864795455533
 21
-126.57590225940442
 31
0.0
  0
LINE
  8
0
  6
DASHED2
 62
               4
  5
417
 10
-179.87864795455522
 20
-21.112322783475747
 30
0.0
 11
-179.87864795455522
 21
-126.57590225940442
 31
0.0
  0
CIRCLE
  8
0
  6
DASHED
 62
               4
  5
418
 10
71.999259506083249
 20
-1187.8240977405953
 30
0.0
 40
33.5
  0
ARC
  8
0
  6
DIVIDE
 62
               4
  5
419
 10
-677.37864795455516
 20
-383.10888356357373
 30
0.0
 40
55.0
 50
58.789629707467164
 51
121.21037029246362
  0
ARC
  8
0
  6
DIVIDE
 62
               4
  5
41A
 10
-677.37864795455516
 20
-289.02913016253615
 30
0.0
 40
55.0
 50
238.78962970739806
 51
301.21037029239432
  0
ARC
  8
0
  6
DIVIDE
 62
               4
  5
41B
 10
-681.37864795455516
 20
-358.57150429885155
 30
0.0
 40
65.0
 50
59.999999999976794
 51
119.99999999995403
  0
ARC
  8
0
  6
DIVIDE
 62
               4
  5
41C
 10
-620.37864795455516
 20
-289.02913016253638
 30
0.0
 40
55.0
 50
238.78962970739806
 51
301.21037029239449
  0
ARC
  8
0
  6
DIVIDE
 62
               4
  5
41D
 10
-616.37864795455528
 20
-245.98820180687449
 30
0.0
 40
65.0
 50
239.99999999990789
 51
299.99999999988472
  0
LINE
  8
0
  6
DIVIDE
 62
               4
  5
41E
 10
-705.87864795455516
 20
-298.36560757768302
 30
0.0
 11
-705.87864795455516
 21
-336.06900686305494
 31
0.0
  0
LINE
  8
0
  6
DIVIDE
 62
               4
  5
41F
 10
-591.87864795455516
 20
-306.19409852804301
 30
0.0
 11
-591.87864795455516
 21
-336.06900686305494
 31
0.0
  0
ARC
  8
0
  6
DIVIDE
 62
               4
  5
420
 10
-681.37864795455516
 20
-245.98820180687471
 30
0.0
 40
65.0
 50
239.9999999999076
 51
247.85677929845662
  0
LINE
  8
0
  6
DIVIDE
 62
               4
  5
421
 10
-583.87864795455528
 20
-216.1759022594041
 30
0.0
 11
-583.87864795455528
 21
-302.27985305286302
 31
0.0
  0
LINE
  8
0
  6
DIVIDE
 62
               4
  5
422
 10
-713.87864795455516
 20
-216.1759022594041
 30
0.0
 11
-713.87864795455516
 21
-302.27985305286302
 31
0.0
  0
ARC
  8
0
  6
DIVIDE
 62
               4
  5
423
 10
522.62135204544484
 20
-383.1088835635735
 30
0.0
 40
55.0
 50
58.789629707467164
 51
121.21037029246362
  0
ARC
  8
0
  6
DIVIDE
 62
               4
  5
424
 10
522.62135204544484
 20
-289.02913016253592
 30
0.0
 40
55.0
 50
238.78962970739806
 51
301.21037029239432
  0
ARC
  8
0
  6
DIVIDE
 62
               4
  5
425
 10
518.62135204544484
 20
-358.57150429885132
 30
0.0
 40
65.0
 50
59.999999999976794
 51
119.99999999995403
  0
ARC
  8
0
  6
DIVIDE
 62
               4
  5
426
 10
579.62135204544484
 20
-289.02913016253615
 30
0.0
 40
55.0
 50
238.78962970739806
 51
301.21037029239449
  0
ARC
  8
0
  6
DIVIDE
 62
               4
  5
427
 10
583.62135204544484
 20
-245.98820180687426
 30
0.0
 40
65.0
 50
239.99999999990789
 51
299.99999999988472
  0
LINE
  8
0
  6
DIVIDE
 62
               4
  5
428
 10
494.12135204544484
 20
-298.36560757768279
 30
0.0
 11
494.12135204544484
 21
-336.06900686305471
 31
0.0
  0
LINE
  8
0
  6
DIVIDE
 62
               4
  5
429
 10
608.12135204544495
 20
-306.19409852804279
 30
0.0
 11
608.12135204544495
 21
-336.06900686305471
 31
0.0
  0
ARC
  8
0
  6
DIVIDE
 62
               4
  5
42A
 10
518.62135204544484
 20
-245.98820180687449
 30
0.0
 40
65.0
 50
239.9999999999076
 51
247.85677929845662
  0
LINE
  8
0
  6
DIVIDE
 62
               4
  5
42B
 10
616.12135204544484
 20
-216.17590225940387
 30
0.0
 11
616.12135204544484
 21
-302.27985305286279
 31
0.0
  0
LINE
  8
0
  6
DIVIDE
 62
               4
  5
42C
 10
486.12135204544484
 20
-216.17590225940387
 30
0.0
 11
486.12135204544484
 21
-302.27985305286279
 31
0.0
  0
ARC
  8
0
  6
DIVIDE
 62
               4
  5
42D
 10
-77.37864795455522
 20
-383.1088835635735
 30
0.0
 40
55.0
 50
58.789629707467135
 51
121.21037029246354
  0
ARC
  8
0
  6
DIVIDE
 62
               4
  5
42E
 10
-77.37864795455522
 20
-289.02913016253592
 30
0.0
 40
55.0
 50
238.78962970739806
 51
301.21037029239432
  0
ARC
  8
0
  6
DIVIDE
 62
               4
  5
42F
 10
-81.378647954555277
 20
-358.57150429885132
 30
0.0
 40
65.0
 50
59.999999999976822
 51
119.999999999954
  0
ARC
  8
0
  6
DIVIDE
 62
               4
  5
430
 10
-20.378647954555191
 20
-289.02913016253615
 30
0.0
 40
55.0
 50
238.78962970739812
 51
301.21037029239449
  0
ARC
  8
0
  6
DIVIDE
 62
               4
  5
431
 10
-16.378647954555277
 20
-245.98820180687426
 30
0.0
 40
65.0
 50
239.99999999990789
 51
299.99999999988472
  0
LINE
  8
0
  6
DIVIDE
 62
               4
  5
432
 10
-105.87864795455516
 20
-298.36560757768279
 30
0.0
 11
-105.87864795455516
 21
-336.06900686305471
 31
0.0
  0
LINE
  8
0
  6
DIVIDE
 62
               4
  5
433
 10
8.121352045444894
 20
-306.19409852804279
 30
0.0
 11
8.121352045444894
 21
-336.06900686305471
 31
0.0
  0
ARC
  8
0
  6
DIVIDE
 62
               4
  5
434
 10
-81.378647954555277
 20
-245.98820180687449
 30
0.0
 40
65.0
 50
239.99999999990749
 51
247.85677929845664
  0
LINE
  8
0
  6
DIVIDE
 62
               4
  5
435
 10
16.121352045444695
 20
-216.17590225940387
 30
0.0
 11
16.121352045444695
 21
-302.27985305286279
 31
0.0
  0
LINE
  8
0
  6
DIVIDE
 62
               4
  5
436
 10
-113.87864795455528
 20
-216.17590225940387
 30
0.0
 11
-113.87864795455528
 21
-302.27985305286279
 31
0.0
  0
POINT
  8
0
  6
CONTINUOUS
 62
               5
  5
437
 10
-441.01641700502353
 20
-757.82409774059545
 30
0.0
  0
POINT
  8
0
  6
CONTINUOUS
 62
               5
  5
438
 10
-267.78634549506307
 20
-759.11489181548461
 30
0.0
  0
POINT
  8
0
  6
CONTINUOUS
 62
               5
  5
439
 10
-614.24648851498353
 20
-759.11489181548416
 30
0.0
  0
POINT
  8
0
  6
CONTINUOUS
 62
               5
  5
43A
 10
-444.25316847567899
 20
-577.12614216160023
 30
0.0
  0
POINT
  8
0
  6
CONTINUOUS
 62
               5
  5
43B
 10
444.13794677171347
 20
-1175.9298899922778
 30
0.0
  0
POINT
  8
0
  6
CONTINUOUS
 62
               5
  5
43C
 10
444.13794677171359
 20
-698.84886809391537
 30
0.0
  0
POINT
  8
0
  6
CONTINUOUS
 62
               5
  5
43D
 10
71.999259506083305
 20
-1181.3240977405953
 30
0.0
  0
POINT
  8
0
  6
CONTINUOUS
 62
               5
  5
43E
 10
-101.23081200387691
 20
-1182.614891815484
 30
0.0
  0
POINT
  8
0
  6
CONTINUOUS
 62
               5
  5
43F
 10
245.2293310160436
 20
-1182.6148918154845
 30
0.0
  0
POINT
  8
0
  6
CONTINUOUS
 62
               5
  5
440
 10
77.208465431194369
 20
-1014.5940262306352
 30
0.0
  0
CIRCLE
  8
0
  6
CONTINUOUS
 62
               7
  5
441
 10
-441.01641700502353
 20
-764.32409774059545
 30
0.0
 40
38.0
  0
CIRCLE
  8
0
  6
CONTINUOUS
 62
               7
  5
442
 10
-441.01641700502353
 20
-764.32409774059545
 30
0.0
 40
33.5
  0
LINE
  8
0
  6
CONTINUOUS
 62
               7
  5
443
 10
-296.51641700502341
 20
-713.32409774059545
 30
0.0
 11
-296.51641700502341
 21
-802.31886161992099
 31
0.0
  0
LINE
  8
0
  6
CONTINUOUS
 62
               7
  5
444
 10
-295.91641700502339
 20
-713.32409774059545
 30
0.0
 11
-296.51641700502341
 21
-713.32409774059545
 31
0.0
  0
LINE
  8
0
  6
CONTINUOUS
 62
               7
  5
445
 10
-331.51641700502341
 20
-801.32409774059545
 30
0.0
 11
-331.51641700502341
 21
-727.32409774059545
 31
0.0
  0
LINE
  8
0
  6
CONTINUOUS
 62
               7
  5
446
 10
-238.51641700502341
 20
-801.32409774059545
 30
0.0
 11
-238.51641700502341
 21
-714.32409774059545
 31
0.0
  0
LINE
  8
0
  6
CONTINUOUS
 62
               7
  5
447
 10
-296.51641700502341
 20
-713.32409774059545
 30
0.0
 11
-239.51641700502341
 21
-713.32409774059545
 31
0.0
  0
LINE
  8
0
  6
CONTINUOUS
 62
               7
  5
448
 10
-330.51641700502341
 20
-802.32409774059545
 30
0.0
 11
-239.51641700502341
 21
-802.32409774059545
 31
0.0
  0
LINE
  8
0
  6
CONTINUOUS
 62
               7
  5
449
 10
-239.51641700502341
 20
-713.32409774059545
 30
0.0
 11
-238.51641700502341
 21
-714.32409774059545
 31
0.0
  0
LINE
  8
0
  6
CONTINUOUS
 62
               7
  5
44A
 10
-238.51641700502341
 20
-801.32409774059545
 30
0.0
 11
-239.51641700502341
 21
-802.32409774059545
 31
0.0
  0
LINE
  8
0
  6
CONTINUOUS
 62
               7
  5
44B
 10
-330.51641700502341
 20
-726.32409774059545
 30
0.0
 11
-296.51641700502341
 21
-726.32409774059545
 31
0.0
  0
CIRCLE
  8
0
  6
CONTINUOUS
 62
               7
  5
44C
 10
-441.01641700502353
 20
-757.82409774059545
 30
0.0
 40
44.5
  0
LINE
  8
0
  6
CONTINUOUS
 62
               7
  5
44D
 10
-330.51641700502341
 20
-726.32409774059545
 30
0.0
 11
-331.51641700502341
 21
-727.32409774059545
 31
0.0
  0
LINE
  8
0
  6
CONTINUOUS
 62
               7
  5
44E
 10
-331.51641700502341
 20
-801.32409774059545
 30
0.0
 11
-330.51641700502341
 21
-802.32409774059545
 31
0.0
  0
LINE
  8
0
  6
CONTINUOUS
 62
               7
  5
44F
 10
-585.5164170050233
 20
-713.32409774059545
 30
0.0
 11
-585.5164170050233
 21
-802.31886161992099
 31
0.0
  0
LINE
  8
0
  6
CONTINUOUS
 62
               7
  5
450
 10
-586.11641700502321
 20
-713.32409774059545
 30
0.0
 11
-585.5164170050233
 21
-713.32409774059545
 31
0.0
  0
LINE
  8
0
  6
CONTINUOUS
 62
               7
  5
451
 10
-550.5164170050233
 20
-801.32409774059545
 30
0.0
 11
-550.5164170050233
 21
-727.32409774059545
 31
0.0
  0
LINE
  8
0
  6
CONTINUOUS
 62
               7
  5
452
 10
-643.5164170050233
 20
-801.32409774059545
 30
0.0
 11
-643.5164170050233
 21
-714.32409774059545
 31
0.0
  0
LINE
  8
0
  6
CONTINUOUS
 62
               7
  5
453
 10
-585.5164170050233
 20
-713.32409774059545
 30
0.0
 11
-642.5164170050233
 21
-713.32409774059545
 31
0.0
  0
LINE
  8
0
  6
CONTINUOUS
 62
               7
  5
454
 10
-551.5164170050233
 20
-802.32409774059545
 30
0.0
 11
-642.5164170050233
 21
-802.32409774059545
 31
0.0
  0
LINE
  8
0
  6
CONTINUOUS
 62
               7
  5
455
 10
-642.5164170050233
 20
-713.32409774059545
 30
0.0
 11
-643.5164170050233
 21
-714.32409774059545
 31
0.0
  0
LINE
  8
0
  6
CONTINUOUS
 62
               7
  5
456
 10
-643.5164170050233
 20
-801.32409774059545
 30
0.0
 11
-642.5164170050233
 21
-802.32409774059545
 31
0.0
  0
LINE
  8
0
  6
CONTINUOUS
 62
               7
  5
457
 10
-551.5164170050233
 20
-726.32409774059545
 30
0.0
 11
-585.5164170050233
 21
-726.32409774059545
 31
0.0
  0
LINE
  8
0
  6
CONTINUOUS
 62
               7
  5
458
 10
-551.5164170050233
 20
-726.32409774059545
 30
0.0
 11
-550.5164170050233
 21
-727.32409774059545
 31
0.0
  0
LINE
  8
0
  6
CONTINUOUS
 62
               7
  5
459
 10
-550.5164170050233
 20
-801.32409774059545
 30
0.0
 11
-551.5164170050233
 21
-802.32409774059545
 31
0.0
  0
LINE
  8
0
  6
CONTINUOUS
 62
               7
  5
45A
 10
-398.46237440078994
 20
-605.85621367156068
 30
0.0
 11
-487.45713828011537
 21
-605.85621367156045
 31
0.0
  0
LINE
  8
0
  6
CONTINUOUS
 62
               7
  5
45B
 10
-398.46237440078994
 20
-605.25621367156054
 30
0.0
 11
-398.46237440078994
 21
-605.85621367156068
 31
0.0
  0
LINE
  8
0
  6
CONTINUOUS
 62
               7
  5
45C
 10
-479.96237440078983
 20
-640.85621367156045
 30
0.0
 11
-405.96237440078994
 21
-640.85621367156068
 31
0.0
  0
LINE
  8
0
  6
CONTINUOUS
 62
               7
  5
45D
 10
-486.46237440078983
 20
-547.85621367156045
 30
0.0
 11
-399.46237440078994
 21
-547.85621367156068
 31
0.0
  0
LINE
  8
0
  6
CONTINUOUS
 62
               7
  5
45E
 10
-398.46237440078994
 20
-605.85621367156068
 30
0.0
 11
-398.46237440078994
 21
-548.85621367156068
 31
0.0
  0
LINE
  8
0
  6
CONTINUOUS
 62
               7
  5
45F
 10
-480.96237440078983
 20
-639.85621367156045
 30
0.0
 11
-480.96237440078983
 21
-605.85621367156045
 31
0.0
  0
LINE
  8
0
  6
CONTINUOUS
 62
               7
  5
460
 10
-398.46237440078994
 20
-548.85621367156068
 30
0.0
 11
-399.46237440078994
 21
-547.85621367156068
 31
0.0
  0
LINE
  8
0
  6
CONTINUOUS
 62
               7
  5
461
 10
-486.46237440078983
 20
-547.85621367156045
 30
0.0
 11
-487.46237440078983
 21
-548.85621367156045
 31
0.0
  0
LINE
  8
0
  6
CONTINUOUS
 62
               7
  5
462
 10
-404.96237440078994
 20
-639.85621367156068
 30
0.0
 11
-404.96237440078994
 21
-605.85621367156045
 31
0.0
  0
LINE
  8
0
  6
CONTINUOUS
 62
               7
  5
463
 10
-404.96237440078994
 20
-639.85621367156068
 30
0.0
 11
-405.96237440078994
 21
-640.85621367156068
 31
0.0
  0
LINE
  8
0
  6
CONTINUOUS
 62
               7
  5
464
 10
-479.96237440078983
 20
-640.85621367156045
 30
0.0
 11
-480.96237440078983
 21
-639.85621367156045
 31
0.0
  0
LINE
  8
0
  6
CONTINUOUS
 62
               7
  5
465
 10
-487.46237440078983
 20
-605.85621367156045
 30
0.0
 11
-487.46237440078983
 21
-548.85621367156045
 31
0.0
  0
LINE
  8
0
  6
CONTINUOUS
 62
               7
  5
466
 10
167.75527573132626
 20
-801.32409774059545
 30
0.0
 11
167.75527573132626
 21
-743.32409774059545
 31
0.0
  0
LINE
  8
0
  6
CONTINUOUS
 62
               7
  5
467
 10
193.35527573132617
 20
-713.32409774059545
 30
0.0
 11
193.35527573132617
 21
-802.32409774059545
 31
0.0
  0
LINE
  8
0
  6
CONTINUOUS
 62
               7
  5
468
 10
193.95527573132631
 20
-713.32409774059545
 30
0.0
 11
193.35527573132617
 21
-713.32409774059545
 31
0.0
  0
LINE
  8
0
  6
CONTINUOUS
 62
               7
  5
469
 10
251.3552757313264
 20
-801.32409774059545
 30
0.0
 11
251.3552757313264
 21
-714.32409774059545
 31
0.0
  0
CIRCLE
  8
0
  6
CONTINUOUS
 62
               7
  5
46A
 10
71.999259506083263
 20
-772.32409774059545
 30
0.0
 40
30.0
  0
CIRCLE
  8
0
  6
CONTINUOUS
 62
               7
  5
46B
 10
71.999259506083263
 20
-772.32409774059545
 30
0.0
 40
25.5
  0
CIRCLE
  8
0
  6
CONTINUOUS
 62
               7
  5
46C
 10
71.999259506083263
 20
-757.82409774059545
 30
0.0
 40
44.5
  0
LINE
  8
0
  6
CONTINUOUS
 62
               7
  5
46D
 10
193.48972747680659
 20
-713.32409774059545
 30
0.0
 11
250.3552757313264
 21
-713.32409774059545
 31
0.0
  0
LINE
  8
0
  6
CONTINUOUS
 62
               7
  5
46E
 10
168.75527573132626
 20
-802.32409774059545
 30
0.0
 11
250.3552757313264
 21
-802.32409774059545
 31
0.0
  0
LINE
  8
0
  6
CONTINUOUS
 62
               7
  5
46F
 10
168.75527573132626
 20
-742.32409774059545
 30
0.0
 11
193.35527573132617
 21
-742.32409774059545
 31
0.0
  0
LINE
  8
0
  6
CONTINUOUS
 62
               7
  5
470
 10
168.75527573132626
 20
-742.32409774059545
 30
0.0
 11
167.75527573132626
 21
-743.32409774059545
 31
0.0
  0
LINE
  8
0
  6
CONTINUOUS
 62
               7
  5
471
 10
250.3552757313264
 20
-713.32409774059545
 30
0.0
 11
251.3552757313264
 21
-714.32409774059545
 31
0.0
  0
LINE
  8
0
  6
CONTINUOUS
 62
               7
  5
472
 10
167.75527573132626
 20
-801.32409774059545
 30
0.0
 11
168.75527573132626
 21
-802.32409774059545
 31
0.0
  0
LINE
  8
0
  6
CONTINUOUS
 62
               7
  5
473
 10
251.3552757313264
 20
-801.32409774059545
 30
0.0
 11
250.3552757313264
 21
-802.32409774059545
 31
0.0
  0
LINE
  8
0
  6
CONTINUOUS
 62
               7
  5
474
 10
-23.756756719159512
 20
-801.32409774059545
 30
0.0
 11
-23.756756719159512
 21
-743.32409774059545
 31
0.0
  0
LINE
  8
0
  6
CONTINUOUS
 62
               7
  5
475
 10
-49.356756719159534
 20
-713.32409774059545
 30
0.0
 11
-49.356756719159534
 21
-802.32409774059545
 31
0.0
  0
LINE
  8
0
  6
CONTINUOUS
 62
               7
  5
476
 10
-49.956756719159557
 20
-713.32409774059545
 30
0.0
 11
-49.356756719159534
 21
-713.32409774059545
 31
0.0
  0
LINE
  8
0
  6
CONTINUOUS
 62
               7
  5
477
 10
-107.35675671915953
 20
-801.32409774059545
 30
0.0
 11
-107.35675671915953
 21
-714.32409774059545
 31
0.0
  0
LINE
  8
0
  6
CONTINUOUS
 62
               7
  5
478
 10
-49.49120846463984
 20
-713.32409774059545
 30
0.0
 11
-106.35675671915953
 21
-713.32409774059545
 31
0.0
  0
LINE
  8
0
  6
CONTINUOUS
 62
               7
  5
479
 10
-24.756756719159512
 20
-802.32409774059545
 30
0.0
 11
-106.35675671915953
 21
-802.32409774059545
 31
0.0
  0
LINE
  8
0
  6
CONTINUOUS
 62
               7
  5
47A
 10
-24.756756719159512
 20
-742.32409774059545
 30
0.0
 11
-49.356756719159534
 21
-742.32409774059545
 31
0.0
  0
LINE
  8
0
  6
CONTINUOUS
 62
               7
  5
47B
 10
-24.756756719159512
 20
-742.32409774059545
 30
0.0
 11
-23.756756719159512
 21
-743.32409774059545
 31
0.0
  0
LINE
  8
0
  6
CONTINUOUS
 62
               7
  5
47C
 10
-106.35675671915953
 20
-713.32409774059545
 30
0.0
 11
-107.35675671915953
 21
-714.32409774059545
 31
0.0
  0
LINE
  8
0
  6
CONTINUOUS
 62
               7
  5
47D
 10
-23.756756719159512
 20
-801.32409774059545
 30
0.0
 11
-24.756756719159512
 21
-802.32409774059545
 31
0.0
  0
LINE
  8
0
  6
CONTINUOUS
 62
               7
  5
47E
 10
-107.35675671915953
 20
-801.32409774059545
 30
0.0
 11
-106.35675671915953
 21
-802.32409774059545
 31
0.0
  0
LINE
  8
0
  6
CONTINUOUS
 62
               7
  5
47F
 10
42.99925950608349
 20
-651.56808151535279
 30
0.0
 11
100.99925950608348
 21
-651.56808151535279
 31
0.0
  0
LINE
  8
0
  6
CONTINUOUS
 62
               7
  5
480
 10
116.49925950608348
 20
-625.96808151535265
 30
0.0
 11
27.49925950608349
 21
-625.96808151535265
 31
0.0
  0
LINE
  8
0
  6
CONTINUOUS
 62
               7
  5
481
 10
116.49925950608348
 20
-625.36808151535274
 30
0.0
 11
116.49925950608348
 21
-625.96808151535265
 31
0.0
  0
LINE
  8
0
  6
CONTINUOUS
 62
               7
  5
482
 10
28.49925950608349
 20
-567.96808151535265
 30
0.0
 11
115.49925950608348
 21
-567.96808151535265
 31
0.0
  0
LINE
  8
0
  6
CONTINUOUS
 62
               7
  5
483
 10
116.49925950608348
 20
-625.83362976987246
 30
0.0
 11
116.49925950608348
 21
-568.96808151535265
 31
0.0
  0
LINE
  8
0
  6
CONTINUOUS
 62
               7
  5
484
 10
41.99925950608349
 20
-650.56808151535279
 30
0.0
 11
41.99925950608349
 21
-625.96808151535265
 31
0.0
  0
LINE
  8
0
  6
CONTINUOUS
 62
               7
  5
485
 10
101.99925950608348
 20
-650.56808151535279
 30
0.0
 11
101.99925950608348
 21
-625.96808151535265
 31
0.0
  0
LINE
  8
0
  6
CONTINUOUS
 62
               7
  5
486
 10
101.99925950608348
 20
-650.56808151535279
 30
0.0
 11
100.99925950608348
 21
-651.56808151535279
 31
0.0
  0
LINE
  8
0
  6
CONTINUOUS
 62
               7
  5
487
 10
116.49925950608348
 20
-568.96808151535265
 30
0.0
 11
115.49925950608348
 21
-567.96808151535265
 31
0.0
  0
LINE
  8
0
  6
CONTINUOUS
 62
               7
  5
488
 10
42.99925950608349
 20
-651.56808151535279
 30
0.0
 11
41.99925950608349
 21
-650.56808151535279
 31
0.0
  0
LINE
  8
0
  6
CONTINUOUS
 62
               7
  5
489
 10
28.49925950608349
 20
-567.96808151535265
 30
0.0
 11
27.49925950608349
 21
-568.96808151535265
 31
0.0
  0
LINE
  8
0
  6
CONTINUOUS
 62
               7
  5
48A
 10
27.49925950608349
 20
-625.83362976987223
 30
0.0
 11
27.49925950608349
 21
-568.96808151535265
 31
0.0
  0
CIRCLE
  8
0
  6
CONTINUOUS
 62
               7
  5
48B
 10
560.40787526175313
 20
-1189.1390959173887
 30
0.0
 40
25.5
  0
CIRCLE
  8
0
  6
CONTINUOUS
 62
               7
  5
48C
 10
560.40787526175313
 20
-1174.6390959173887
 30
0.0
 40
44.5
  0
CIRCLE
  8
0
  6
CONTINUOUS
 62
               7
  5
48D
 10
560.40787526175313
 20
-1189.1390959173887
 30
0.0
 40
30.0
  0
LINE
  8
0
  6
CONTINUOUS
 62
               7
  5
48E
 10
531.40787526175313
 20
-870.73966216880456
 30
0.0
 11
589.40787526175313
 21
-870.73966216880456
 31
0.0
  0
LINE
  8
0
  6
CONTINUOUS
 62
               7
  5
48F
 10
604.90787526175325
 20
-845.13966216880465
 30
0.0
 11
515.90787526175313
 21
-845.13966216880465
 31
0.0
  0
LINE
  8
0
  6
CONTINUOUS
 62
               7
  5
490
 10
604.90787526175325
 20
-844.53966216880474
 30
0.0
 11
604.90787526175325
 21
-845.13966216880465
 31
0.0
  0
LINE
  8
0
  6
CONTINUOUS
 62
               7
  5
491
 10
516.90787526175313
 20
-787.13966216880419
 30
0.0
 11
603.90787526175325
 21
-787.13966216880419
 31
0.0
  0
LINE
  8
0
  6
CONTINUOUS
 62
               7
  5
492
 10
604.90787526175325
 20
-845.00521042332423
 30
0.0
 11
604.90787526175325
 21
-788.13966216880419
 31
0.0
  0
LINE
  8
0
  6
CONTINUOUS
 62
               7
  5
493
 10
530.40787526175313
 20
-869.73966216880456
 30
0.0
 11
530.40787526175313
 21
-845.13966216880465
 31
0.0
  0
LINE
  8
0
  6
CONTINUOUS
 62
               7
  5
494
 10
590.40787526175325
 20
-869.73966216880456
 30
0.0
 11
590.40787526175325
 21
-845.13966216880465
 31
0.0
  0
LINE
  8
0
  6
CONTINUOUS
 62
               7
  5
495
 10
590.40787526175325
 20
-869.73966216880456
 30
0.0
 11
589.40787526175313
 21
-870.73966216880456
 31
0.0
  0
LINE
  8
0
  6
CONTINUOUS
 62
               7
  5
496
 10
604.90787526175325
 20
-788.13966216880419
 30
0.0
 11
603.90787526175325
 21
-787.13966216880419
 31
0.0
  0
LINE
  8
0
  6
CONTINUOUS
 62
               7
  5
497
 10
531.40787526175313
 20
-870.73966216880456
 30
0.0
 11
530.40787526175313
 21
-869.73966216880456
 31
0.0
  0
LINE
  8
0
  6
CONTINUOUS
 62
               7
  5
498
 10
516.90787526175313
 20
-787.13966216880419
 30
0.0
 11
515.90787526175313
 21
-788.13966216880419
 31
0.0
  0
LINE
  8
0
  6
CONTINUOUS
 62
               7
  5
499
 10
515.90787526175313
 20
-845.00521042332423
 30
0.0
 11
515.90787526175313
 21
-788.13966216880419
 31
0.0
  0
LINE
  8
0
  6
CONTINUOUS
 62
               7
  5
49A
 10
415.40787526175313
 20
-1130.1390959173887
 30
0.0
 11
415.40787526175313
 21
-1219.1338597967142
 31
0.0
  0
LINE
  8
0
  6
CONTINUOUS
 62
               7
  5
49B
 10
416.00787526175316
 20
-1130.1390959173887
 30
0.0
 11
415.40787526175313
 21
-1130.1390959173887
 31
0.0
  0
LINE
  8
0
  6
CONTINUOUS
 62
               7
  5
49C
 10
380.40787526175313
 20
-1218.1390959173887
 30
0.0
 11
380.40787526175313
 21
-1144.1390959173887
 31
0.0
  0
LINE
  8
0
  6
CONTINUOUS
 62
               7
  5
49D
 10
473.40787526175319
 20
-1218.1390959173887
 30
0.0
 11
473.40787526175319
 21
-1131.1390959173887
 31
0.0
  0
LINE
  8
0
  6
CONTINUOUS
 62
               7
  5
49E
 10
415.40787526175313
 20
-1130.1390959173887
 30
0.0
 11
472.40787526175319
 21
-1130.1390959173887
 31
0.0
  0
LINE
  8
0
  6
CONTINUOUS
 62
               7
  5
49F
 10
381.40787526175313
 20
-1219.1390959173887
 30
0.0
 11
472.40787526175319
 21
-1219.1390959173887
 31
0.0
  0
LINE
  8
0
  6
CONTINUOUS
 62
               7
  5
4A0
 10
472.40787526175319
 20
-1130.1390959173887
 30
0.0
 11
473.40787526175319
 21
-1131.1390959173887
 31
0.0
  0
LINE
  8
0
  6
CONTINUOUS
 62
               7
  5
4A1
 10
473.40787526175319
 20
-1218.1390959173887
 30
0.0
 11
472.40787526175319
 21
-1219.1390959173887
 31
0.0
  0
LINE
  8
0
  6
CONTINUOUS
 62
               7
  5
4A2
 10
381.40787526175313
 20
-1143.1390959173887
 30
0.0
 11
415.40787526175313
 21
-1143.1390959173887
 31
0.0
  0
LINE
  8
0
  6
CONTINUOUS
 62
               7
  5
4A3
 10
381.40787526175313
 20
-1143.1390959173887
 30
0.0
 11
380.40787526175313
 21
-1144.1390959173887
 31
0.0
  0
LINE
  8
0
  6
CONTINUOUS
 62
               7
  5
4A4
 10
380.40787526175313
 20
-1218.1390959173887
 30
0.0
 11
381.40787526175313
 21
-1219.1390959173887
 31
0.0
  0
LINE
  8
0
  6
CONTINUOUS
 62
               7
  5
4A5
 10
415.40787526175313
 20
-744.63966216880419
 30
0.0
 11
415.40787526175336
 21
-655.64489828947876
 31
0.0
  0
LINE
  8
0
  6
CONTINUOUS
 62
               7
  5
4A6
 10
416.00787526175327
 20
-744.63966216880419
 30
0.0
 11
415.40787526175313
 21
-744.63966216880419
 31
0.0
  0
LINE
  8
0
  6
CONTINUOUS
 62
               7
  5
4A7
 10
380.40787526175336
 20
-663.13966216880431
 30
0.0
 11
380.40787526175313
 21
-737.13966216880419
 31
0.0
  0
LINE
  8
0
  6
CONTINUOUS
 62
               7
  5
4A8
 10
473.40787526175342
 20
-656.63966216880453
 30
0.0
 11
473.40787526175319
 21
-743.63966216880419
 31
0.0
  0
LINE
  8
0
  6
CONTINUOUS
 62
               7
  5
4A9
 10
415.40787526175313
 20
-744.63966216880419
 30
0.0
 11
472.40787526175319
 21
-744.63966216880419
 31
0.0
  0
LINE
  8
0
  6
CONTINUOUS
 62
               7
  5
4AA
 10
381.40787526175336
 20
-662.13966216880431
 30
0.0
 11
415.40787526175336
 21
-662.13966216880431
 31
0.0
  0
LINE
  8
0
  6
CONTINUOUS
 62
               7
  5
4AB
 10
472.40787526175319
 20
-744.63966216880419
 30
0.0
 11
473.40787526175319
 21
-743.63966216880419
 31
0.0
  0
LINE
  8
0
  6
CONTINUOUS
 62
               7
  5
4AC
 10
473.40787526175342
 20
-656.63966216880453
 30
0.0
 11
472.40787526175342
 21
-655.63966216880453
 31
0.0
  0
LINE
  8
0
  6
CONTINUOUS
 62
               7
  5
4AD
 10
381.40787526175313
 20
-738.13966216880419
 30
0.0
 11
415.40787526175336
 21
-738.13966216880419
 31
0.0
  0
LINE
  8
0
  6
CONTINUOUS
 62
               7
  5
4AE
 10
381.40787526175313
 20
-738.13966216880419
 30
0.0
 11
380.40787526175313
 21
-737.13966216880419
 31
0.0
  0
LINE
  8
0
  6
CONTINUOUS
 62
               7
  5
4AF
 10
380.40787526175336
 20
-663.13966216880431
 30
0.0
 11
381.40787526175336
 21
-662.13966216880431
 31
0.0
  0
LINE
  8
0
  6
CONTINUOUS
 62
               7
  5
4B0
 10
415.40787526175336
 20
-655.63966216880431
 30
0.0
 11
472.40787526175342
 21
-655.63966216880431
 31
0.0
  0
CIRCLE
  8
0
  6
CONTINUOUS
 62
               7
  5
4B1
 10
71.999259506083305
 20
-1187.8240977405953
 30
0.0
 40
38.0
  0
LINE
  8
0
  6
CONTINUOUS
 62
               7
  5
4B2
 10
-72.500740493916567
 20
-1149.8240977405953
 30
0.0
 11
-72.50074049391668
 21
-1225.8188616199209
 31
0.0
  0
LINE
  8
0
  6
CONTINUOUS
 62
               7
  5
4B3
 10
-72.500740493916567
 20
-1136.8240977405953
 30
0.0
 11
-71.900740493916601
 21
-1136.8240977405953
 31
0.0
  0
LINE
  8
0
  6
CONTINUOUS
 62
               7
  5
4B4
 10
-130.50074049391668
 20
-1224.8240977405953
 30
0.0
 11
-130.50074049391668
 21
-1150.8240977405953
 31
0.0
  0
LINE
  8
0
  6
CONTINUOUS
 62
               7
  5
4B5
 10
-72.50074049391668
 20
-1225.8240977405953
 30
0.0
 11
-47.900740493916615
 21
-1225.8240977405953
 31
0.0
  0
LINE
  8
0
  6
CONTINUOUS
 62
               7
  5
4B6
 10
-130.50074049391668
 20
-1224.8240977405953
 30
0.0
 11
-129.50074049391668
 21
-1225.8240977405953
 31
0.0
  0
LINE
  8
0
  6
CONTINUOUS
 62
               7
  5
4B7
 10
-129.50074049391668
 20
-1149.8240977405953
 30
0.0
 11
-72.500740493916567
 21
-1149.8240977405953
 31
0.0
  0
LINE
  8
0
  6
CONTINUOUS
 62
               7
  5
4B8
 10
-37.500740493916695
 20
-1224.8240977405953
 30
0.0
 11
-38.500740493916695
 21
-1225.8240977405953
 31
0.0
  0
CIRCLE
  8
0
  6
CONTINUOUS
 62
               7
  5
4B9
 10
71.999259506083249
 20
-1195.8240977405953
 30
0.0
 40
30.0
  0
CIRCLE
  8
0
  6
CONTINUOUS
 62
               7
  5
4BA
 10
71.999259506083249
 20
-1195.8240977405953
 30
0.0
 40
0.1981604108525852
  0
CIRCLE
  8
0
  6
CONTINUOUS
 62
               7
  5
4BB
 10
71.999259506083249
 20
-1195.8240977405953
 30
0.0
 40
25.5
  0
LINE
  8
0
  6
CONTINUOUS
 62
               7
  5
4BC
 10
-46.900740493916615
 20
-1224.8240977405953
 30
0.0
 11
-46.900740493916615
 21
-1166.8240977405953
 31
0.0
  0
LINE
  8
0
  6
CONTINUOUS
 62
               7
  5
4BD
 10
-72.500740493916567
 20
-1165.8240977405953
 30
0.0
 11
-47.900740493916615
 21
-1165.8240977405953
 31
0.0
  0
LINE
  8
0
  6
CONTINUOUS
 62
               7
  5
4BE
 10
-72.50074049391668
 20
-1225.8188616199209
 30
0.0
 11
-129.50074049391668
 21
-1225.8240977405953
 31
0.0
  0
LINE
  8
0
  6
CONTINUOUS
 62
               7
  5
4BF
 10
-129.50074049391668
 20
-1149.8240977405953
 30
0.0
 11
-130.50074049391668
 21
-1150.8240977405953
 31
0.0
  0
LINE
  8
0
  6
CONTINUOUS
 62
               7
  5
4C0
 10
-47.900740493916615
 20
-1165.8240977405953
 30
0.0
 11
-46.900740493916615
 21
-1166.8240977405953
 31
0.0
  0
LINE
  8
0
  6
CONTINUOUS
 62
               7
  5
4C1
 10
-46.900740493916615
 20
-1224.8240977405953
 30
0.0
 11
-47.900740493916615
 21
-1225.8240977405953
 31
0.0
  0
LINE
  8
0
  6
CONTINUOUS
 62
               7
  5
4C2
 10
216.49925950608326
 20
-1149.8240977405953
 30
0.0
 11
216.49925950608321
 21
-1225.8188616199209
 31
0.0
  0
LINE
  8
0
  6
CONTINUOUS
 62
               7
  5
4C3
 10
216.49925950608326
 20
-1136.8240977405953
 30
0.0
 11
215.8992595060833
 21
-1136.8240977405953
 31
0.0
  0
LINE
  8
0
  6
CONTINUOUS
 62
               7
  5
4C4
 10
274.49925950608326
 20
-1224.8240977405953
 30
0.0
 11
274.49925950608332
 21
-1150.8240977405953
 31
0.0
  0
LINE
  8
0
  6
CONTINUOUS
 62
               7
  5
4C5
 10
216.49925950608321
 20
-1225.8240977405953
 30
0.0
 11
191.89925950608318
 21
-1225.8240977405953
 31
0.0
  0
LINE
  8
0
  6
CONTINUOUS
 62
               7
  5
4C6
 10
274.49925950608326
 20
-1224.8240977405953
 30
0.0
 11
273.49925950608326
 21
-1225.8240977405953
 31
0.0
  0
LINE
  8
0
  6
CONTINUOUS
 62
               7
  5
4C7
 10
273.49925950608332
 20
-1149.8240977405953
 30
0.0
 11
216.49925950608326
 21
-1149.8240977405953
 31
0.0
  0
LINE
  8
0
  6
CONTINUOUS
 62
               7
  5
4C8
 10
181.49925950608326
 20
-1224.8240977405953
 30
0.0
 11
182.49925950608326
 21
-1225.8240977405953
 31
0.0
  0
LINE
  8
0
  6
CONTINUOUS
 62
               7
  5
4C9
 10
190.89925950608318
 20
-1224.8240977405953
 30
0.0
 11
190.89925950608324
 21
-1166.8240977405958
 31
0.0
  0
LINE
  8
0
  6
CONTINUOUS
 62
               7
  5
4CA
 10
216.49925950608321
 20
-1165.8240977405958
 30
0.0
 11
191.89925950608324
 21
-1165.8240977405958
 31
0.0
  0
LINE
  8
0
  6
CONTINUOUS
 62
               7
  5
4CB
 10
216.49925950608321
 20
-1225.8188616199209
 30
0.0
 11
273.49925950608326
 21
-1225.8240977405953
 31
0.0
  0
LINE
  8
0
  6
CONTINUOUS
 62
               7
  5
4CC
 10
273.49925950608332
 20
-1149.8240977405953
 30
0.0
 11
274.49925950608332
 21
-1150.8240977405953
 31
0.0
  0
LINE
  8
0
  6
CONTINUOUS
 62
               7
  5
4CD
 10
191.89925950608324
 20
-1165.8240977405958
 30
0.0
 11
190.89925950608324
 21
-1166.8240977405958
 31
0.0
  0
LINE
  8
0
  6
CONTINUOUS
 62
               7
  5
4CE
 10
190.89925950608318
 20
-1224.8240977405953
 30
0.0
 11
191.89925950608318
 21
-1225.8240977405953
 31
0.0
  0
LINE
  8
0
  6
CONTINUOUS
 62
               7
  5
4CF
 10
109.99925950608342
 20
-1043.3240977405958
 30
0.0
 11
34.004495626757873
 21
-1043.3240977405953
 31
0.0
  0
LINE
  8
0
  6
CONTINUOUS
 62
               7
  5
4D0
 10
122.99925950608342
 20
-1042.7240977405954
 30
0.0
 11
122.99925950608342
 21
-1043.3240977405958
 31
0.0
  0
LINE
  8
0
  6
CONTINUOUS
 62
               7
  5
4D1
 10
34.999259506083476
 20
-985.32409774059545
 30
0.0
 11
108.99925950608348
 21
-985.32409774059545
 31
0.0
  0
LINE
  8
0
  6
CONTINUOUS
 62
               7
  5
4D2
 10
41.999259506083419
 20
-1043.3240977405953
 30
0.0
 11
41.999259506083419
 21
-1067.9240977405957
 31
0.0
  0
LINE
  8
0
  6
CONTINUOUS
 62
               7
  5
4D3
 10
34.999259506083476
 20
-985.32409774059545
 30
0.0
 11
33.999259506083476
 21
-986.32409774059545
 31
0.0
  0
LINE
  8
0
  6
CONTINUOUS
 62
               7
  5
4D4
 10
109.99925950608348
 20
-986.32409774059545
 30
0.0
 11
109.99925950608342
 21
-1043.3240977405958
 31
0.0
  0
LINE
  8
0
  6
CONTINUOUS
 62
               7
  5
4D5
 10
42.999259506083362
 20
-1078.3240977405953
 30
0.0
 11
41.999259506083362
 21
-1077.3240977405953
 31
0.0
  0
LINE
  8
0
  6
CONTINUOUS
 62
               7
  5
4D6
 10
42.999259506083419
 20
-1068.9240977405957
 30
0.0
 11
100.99925950608325
 21
-1068.9240977405957
 31
0.0
  0
LINE
  8
0
  6
CONTINUOUS
 62
               7
  5
4D7
 10
101.99925950608325
 20
-1043.3240977405958
 30
0.0
 11
101.99925950608325
 21
-1067.9240977405957
 31
0.0
  0
LINE
  8
0
  6
CONTINUOUS
 62
               7
  5
4D8
 10
34.004495626757873
 20
-1043.3240977405953
 30
0.0
 11
33.999259506083476
 21
-986.32409774059545
 31
0.0
  0
LINE
  8
0
  6
CONTINUOUS
 62
               7
  5
4D9
 10
109.99925950608348
 20
-986.32409774059545
 30
0.0
 11
108.99925950608348
 21
-985.32409774059545
 31
0.0
  0
LINE
  8
0
  6
CONTINUOUS
 62
               7
  5
4DA
 10
101.99925950608325
 20
-1067.9240977405957
 30
0.0
 11
100.99925950608325
 21
-1068.9240977405957
 31
0.0
  0
LINE
  8
0
  6
CONTINUOUS
 62
               7
  5
4DB
 10
42.999259506083419
 20
-1068.9240977405957
 30
0.0
 11
41.999259506083419
 21
-1067.9240977405957
 31
0.0
  0
CIRCLE
  8
0
  6
DASHED
 62
               7
  5
4DC
 10
-441.01641700502353
 20
-757.82409774059545
 30
0.0
 40
40.0
  0
CIRCLE
  8
0
  6
DASHED
 62
               7
  5
4DD
 10
71.999259506083263
 20
-757.82409774059545
 30
0.0
 40
40.0
  0
CIRCLE
  8
0
  6
DASHED
 62
               7
  5
4DE
 10
560.40787526175313
 20
-1174.6390959173887
 30
0.0
 40
40.0
  0
TEXT
  8
0
 62
               3
  5
4DF
 10
-441.01641700502353
 20
-842.32409774059545
 30
0.0
 40
40.0
  1
EMB_80×65
 41
0.8
 72
               1
 11
-441.01641700502353
 21
-842.32409774059545
 31
0.0
 73
               3
  0
TEXT
  8
0
 62
               3
  5
4E0
 10
71.999259506083263
 20
-842.32409774059545
 30
0.0
 40
40.0
  1
EMB_80×50
 41
0.8
 72
               1
 11
71.999259506083263
 21
-842.32409774059545
 31
0.0
 73
               3
  0
TEXT
  8
0
 62
               3
  5
4E1
 10
556.71047128411283
 20
-520.69329366358511
 30
0.0
 40
40.0
  1
EMB使用例
 41
0.8
 72
               1
 11
556.71047128411283
 21
-520.69329366358511
 31
0.0
 73
               3
  0
TEXT
  8
0
 62
               3
  5
4E2
 10
-172.6213520454456
 20
-466.33315776324571
 30
0.0
 40
35.0
  1
横枝管に呼び６５、５０の管を接続するときは、EMBをご使用ください。
 41
0.8
 72
               1
 11
-172.6213520454456
 21
-466.33315776324571
 31
0.0
 73
               3
  0
TEXT
  8
0
 62
               3
  5
4E3
 10
71.999259506083249
 20
-1272.3240977405953
 30
0.0
 40
40.0
  1
EMB_65×50
 41
0.8
 72
               1
 11
71.999259506083249
 21
-1272.3240977405953
 31
0.0
 73
               3
  0
ENDSEC
  0
EOF
