  0
SECTION
  2
HEADER
  9
$ACADVER
  1
AC1009
  9
$INSBASE
 10
0.0
 20
0.0
 30
0.0
  9
$EXTMIN
 10
-641.2862548958044
 20
-1593.1508417537341
 30
0.0
  9
$EXTMAX
 10
744.43500906164354
 20
695.88042476353121
 30
0.0
  9
$LIMMIN
 10
-684.5900443944746
 20
-1664.6830688323987
  9
$LIMMAX
 10
787.73879856031374
 20
767.41265184219571
  9
$ORTHOMODE
 70
               0
  9
$REGENMODE
 70
               1
  9
$FILLMODE
 70
               1
  9
$QTEXTMODE
 70
               0
  9
$MIRRTEXT
 70
               1
  9
$DRAGMODE
 70
               2
  9
$LTSCALE
 40
1.0
  9
$OSMODE
 70
               0
  9
$ATTMODE
 70
               1
  9
$TEXTSIZE
 40
0.2
  9
$TRACEWID
 40
0.05
  9
$TEXTSTYLE
  7
STANDARD
  9
$CLAYER
  8
0
  9
$CELTYPE
  6
CONTINUOUS
  9
$CECOLOR
 62
             256
  9
$DIMSCALE
 40
1.0
  9
$DIMASZ
 40
0.18
  9
$DIMEXO
 40
0.0625
  9
$DIMDLI
 40
0.38
  9
$DIMRND
 40
0.0
  9
$DIMDLE
 40
0.0
  9
$DIMEXE
 40
0.18
  9
$DIMTP
 40
0.0
  9
$DIMTM
 40
0.0
  9
$DIMTXT
 40
0.18
  9
$DIMCEN
 40
0.09
  9
$DIMTSZ
 40
0.0
  9
$DIMTOL
 70
               0
  9
$DIMLIM
 70
               0
  9
$DIMTIH
 70
               1
  9
$DIMTOH
 70
               1
  9
$DIMSE1
 70
               0
  9
$DIMSE2
 70
               0
  9
$DIMTAD
 70
               0
  9
$DIMZIN
 70
               0
  9
$DIMBLK
  1

  9
$DIMASO
 70
               1
  9
$DIMSHO
 70
               1
  9
$DIMPOST
  1

  9
$DIMAPOST
  1

  9
$DIMALT
 70
               0
  9
$DIMALTD
 70
               2
  9
$DIMALTF
 40
25.399999999999999
  9
$DIMLFAC
 40
1.0
  9
$DIMTOFL
 70
               0
  9
$DIMTVP
 40
0.0
  9
$DIMTIX
 70
               0
  9
$DIMSOXD
 70
               0
  9
$DIMSAH
 70
               0
  9
$DIMBLK1
  1

  9
$DIMBLK2
  1

  9
$DIMSTYLE
  2
STANDARD
  9
$DIMCLRD
 70
               0
  9
$DIMCLRE
 70
               0
  9
$DIMCLRT
 70
               0
  9
$DIMTFAC
 40
1.0
  9
$DIMGAP
 40
0.09
  9
$LUNITS
 70
               2
  9
$LUPREC
 70
               4
  9
$AXISMODE
 70
               0
  9
$AXISUNIT
 10
0.0
 20
0.0
  9
$SKETCHINC
 40
0.1
  9
$FILLETRAD
 40
0.0
  9
$AUNITS
 70
               0
  9
$AUPREC
 70
               0
  9
$MENU
  1
acad
  9
$ELEVATION
 40
0.0
  9
$PELEVATION
 40
0.0
  9
$THICKNESS
 40
0.0
  9
$LIMCHECK
 70
               0
  9
$BLIPMODE
 70
               1
  9
$CHAMFERA
 40
0.0
  9
$CHAMFERB
 40
0.0
  9
$SKPOLY
 70
               0
  9
$TDCREATE
 40
0.000000000
  9
$TDUPDATE
 40
0.000000000
  9
$TDINDWG
 40
0.0000000000
  9
$TDUSRTIMER
 40
0.0000000000
  9
$USRTIMER
 70
               1
  9
$ANGBASE
 50
0.0
  9
$ANGDIR
 70
               0
  9
$PDMODE
 70
               0
  9
$PDSIZE
 40
1.0
  9
$PLINEWID
 40
0.0
  9
$COORDS
 70
               1
  9
$SPLFRAME
 70
               0
  9
$SPLINETYPE
 70
               6
  9
$SPLINESEGS
 70
               8
  9
$ATTDIA
 70
               0
  9
$ATTREQ
 70
               1
  9
$HANDLING
 70
               1
  9
$HANDSEED
  5
499
  9
$SURFTAB1
 70
               6
  9
$SURFTAB2
 70
               6
  9
$SURFTYPE
 70
               6
  9
$SURFU
 70
               6
  9
$SURFV
 70
               6
  9
$UCSNAME
  2

  9
$UCSORG
 10
0.0
 20
0.0
 30
0.0
  9
$UCSXDIR
 10
1.0
 20
0.0
 30
0.0
  9
$UCSYDIR
 10
0.0
 20
1.0
 30
0.0
  9
$PUCSNAME
  2

  9
$PUCSORG
 10
0.0
 20
0.0
 30
0.0
  9
$PUCSXDIR
 10
1.0
 20
0.0
 30
0.0
  9
$PUCSYDIR
 10
0.0
 20
1.0
 30
0.0
  9
$USERI1
 70
               0
  9
$USERI2
 70
               0
  9
$USERI3
 70
               0
  9
$USERI4
 70
               0
  9
$USERI5
 70
               0
  9
$USERR1
 40
0.0
  9
$USERR2
 40
0.0
  9
$USERR3
 40
0.0
  9
$USERR4
 40
0.0
  9
$USERR5
 40
0.0
  9
$WORLDVIEW
 70
               1
  9
$SHADEDGE
 70
               3
  9
$SHADEDIF
 70
              70
  9
$TILEMODE
 70
               1
  9
$MAXACTVP
 70
              16
  9
$PINSBASE
 10
0.0
 20
0.0
 30
0.0
  9
$PLIMCHECK
 70
               0
  9
$PEXTMIN
 10
1.0000000000000000E+20
 20
1.0000000000000000E+20
 30
1.0000000000000000E+20
  9
$PEXTMAX
 10
-1.0000000000000000E+20
 20
-1.0000000000000000E+20
 30
-1.0000000000000000E+20
  9
$PLIMMIN
 10
0.0
 20
0.0
  9
$PLIMMAX
 10
12.0
 20
9.0
  9
$UNITMODE
 70
               0
  9
$VISRETAIN
 70
               0
  9
$PLINEGEN
 70
               1
  9
$PSLTSCALE
 70
               0
  9
$TREEDEPTH
 70
            3020
  9
$DWGCODEPAGE
  3
dos932
  0
ENDSEC
  0
SECTION
  2
TABLES
  0
TABLE
  2
VPORT
 70
               1
  0
VPORT
  2
*ACTIVE
 70
               0
 10
0.0
 20
0.0
 11
1.0
 21
1.0
 12
51.574377082919568
 22
-448.63520849510149
 13
0.0
 23
0.0
 14
1.0
 24
1.0
 15
0.0
 25
0.0
 16
0.0
 26
0.0
 36
1.0
 17
0.0
 27
0.0
 37
0.0
 40
2432.0957206745943
 41
0.6053745460916341
 42
50.0
 43
0.0
 44
0.0
 50
0.0
 51
0.0
 71
               0
 72
             100
 73
               1
 74
               1
 75
               0
 76
               0
 77
               0
 78
               0
  0
ENDTAB
  0
TABLE
  2
LTYPE
 70
              26
  0
LTYPE
  2
CONTINUOUS
 70
               0
  3
Solid line
 72
              65
 73
               0
 40
0.0
  0
LTYPE
  2
HIDDENX2
 70
               0
  3
CADPAC FUSION LINETYPE
 72
              65
 73
               2
 40
47.560000000000002
 49
35.670000000000002
 49
-11.890000000000001
  0
LTYPE
  2
HIDDEN
 70
               0
  3
CADPAC FUSION LINETYPE
 72
              65
 73
               2
 40
35.670000000000002
 49
23.780000000000001
 49
-11.890000000000001
  0
LTYPE
  2
HIDDEN2
 70
               0
  3
CADPAC FUSION LINETYPE
 72
              65
 73
               2
 40
29.725000000000001
 49
17.835000000000001
 49
-11.890000000000001
  0
LTYPE
  2
DASHED
 70
               0
  3
CADPAC FUSION LINETYPE
 72
              65
 73
               2
 40
35.670000000000002
 49
23.780000000000001
 49
-11.890000000000001
  0
LTYPE
  2
DASHED2
 70
               0
  3
CADPAC FUSION LINETYPE
 72
              65
 73
               2
 40
26.752500000000001
 49
17.835000000000001
 49
-8.9175000000000004
  0
LTYPE
  2
DASHEDX2
 70
               0
  3
CADPAC FUSION LINETYPE
 72
              65
 73
               2
 40
53.505000000000003
 49
35.670000000000002
 49
-17.835000000000001
  0
LTYPE
  2
DOTX2
 70
               0
  3
CADPAC FUSION LINETYPE
 72
              65
 73
               2
 40
14.862500000000001
 49
0.0
 49
-14.862500000000001
  0
LTYPE
  2
DOT
 70
               0
  3
CADPAC FUSION LINETYPE
 72
              65
 73
               2
 40
11.890000000000001
 49
0.0
 49
-11.890000000000001
  0
LTYPE
  2
DOTS
 70
               0
  3
CADPAC FUSION LINETYPE
 72
              65
 73
               2
 40
11.890000000000001
 49
0.0
 49
-11.890000000000001
  0
LTYPE
  2
DOT2
 70
               0
  3
CADPAC FUSION LINETYPE
 72
              65
 73
               2
 40
8.9175000000000004
 49
0.0
 49
-8.9175000000000004
  0
LTYPE
  2
CENTERX2
 70
               0
  3
CADPAC FUSION LINETYPE
 72
              65
 73
               4
 40
71.340000000000003
 49
29.725000000000001
 49
-14.862500000000001
 49
11.890000000000001
 49
-14.862500000000001
  0
LTYPE
  2
CENTER
 70
               0
  3
CADPAC FUSION LINETYPE
 72
              65
 73
               4
 40
54.694000000000003
 49
23.780000000000001
 49
-11.890000000000001
 49
7.1340000000000003
 49
-11.890000000000001
  0
LTYPE
  2
CENTER2
 70
               0
  3
CADPAC FUSION LINETYPE
 72
              65
 73
               4
 40
38.048000000000002
 49
17.835000000000001
 49
-8.9175000000000004
 49
2.3780000000000001
 49
-8.9175000000000004
  0
LTYPE
  2
DASHDOTX2
 70
               0
  3
CADPAC FUSION LINETYPE
 72
              65
 73
               4
 40
59.450000000000003
 49
29.725000000000001
 49
-14.862500000000001
 49
0.0
 49
-14.862500000000001
  0
LTYPE
  2
DASHDOT
 70
               0
  3
CADPAC FUSION LINETYPE
 72
              65
 73
               4
 40
47.560000000000002
 49
23.780000000000001
 49
-11.890000000000001
 49
0.0
 49
-11.890000000000001
  0
LTYPE
  2
DASHDOT2
 70
               0
  3
CADPAC FUSION LINETYPE
 72
              65
 73
               4
 40
35.670000000000002
 49
17.835000000000001
 49
-8.9175000000000004
 49
0.0
 49
-8.9175000000000004
  0
LTYPE
  2
DIVIDEX2
 70
               0
  3
CADPAC FUSION LINETYPE
 72
              65
 73
               6
 40
74.3125
 49
29.725000000000001
 49
-14.862500000000001
 49
0.0
 49
-14.862500000000001
 49
0.0
 49
-14.862500000000001
  0
LTYPE
  2
DIVIDE
 70
               0
  3
CADPAC FUSION LINETYPE
 72
              65
 73
               6
 40
59.450000000000003
 49
23.780000000000001
 49
-11.890000000000001
 49
0.0
 49
-11.890000000000001
 49
0.0
 49
-11.890000000000001
  0
LTYPE
  2
DIVIDE2
 70
               0
  3
CADPAC FUSION LINETYPE
 72
              65
 73
               6
 40
44.587500000000006
 49
17.835000000000001
 49
-8.9175000000000004
 49
0.0
 49
-8.9175000000000004
 49
0.0
 49
-8.9175000000000004
  0
LTYPE
  2
BORDERX2
 70
               0
  3
CADPAC FUSION LINETYPE
 72
              65
 73
               6
 40
104.03750000000001
 49
29.725000000000001
 49
-14.862500000000001
 49
29.725000000000001
 49
-14.862500000000001
 49
0.0
 49
-14.862500000000001
  0
LTYPE
  2
BORDER
 70
               0
  3
CADPAC FUSION LINETYPE
 72
              65
 73
               6
 40
83.230000000000004
 49
23.780000000000001
 49
-11.890000000000001
 49
23.780000000000001
 49
-11.890000000000001
 49
0.0
 49
-11.890000000000001
  0
LTYPE
  2
BORDER2
 70
               0
  3
CADPAC FUSION LINETYPE
 72
              65
 73
               6
 40
62.422499999999999
 49
17.835000000000001
 49
-8.9175000000000004
 49
17.835000000000001
 49
-8.9175000000000004
 49
0.0
 49
-8.9175000000000004
  0
LTYPE
  2
PHANTOMX2
 70
               0
  3
CADPAC FUSION LINETYPE
 72
              65
 73
               6
 40
89.175000000000011
 49
29.725000000000001
 49
-11.890000000000001
 49
11.890000000000001
 49
-11.890000000000001
 49
11.890000000000001
 49
-11.890000000000001
  0
LTYPE
  2
PHANTOM
 70
               0
  3
CADPAC FUSION LINETYPE
 72
              65
 73
               6
 40
73.718000000000004
 49
23.780000000000001
 49
-11.890000000000001
 49
7.1340000000000003
 49
-11.890000000000001
 49
7.1340000000000003
 49
-11.890000000000001
  0
LTYPE
  2
PHANTOM2
 70
               0
  3
CADPAC FUSION LINETYPE
 72
              65
 73
               6
 40
63.017000000000003
 49
17.835000000000001
 49
-11.890000000000001
 49
4.7560000000000002
 49
-11.890000000000001
 49
4.7560000000000002
 49
-11.890000000000001
  0
ENDTAB
  0
TABLE
  2
LAYER
 70
             256
  0
LAYER
  2
0
 70
               0
 62
               7
  6
CONTINUOUS
  0
LAYER
  2
LAYER001
 70
               0
 62
               7
  6
CONTINUOUS
  0
LAYER
  2
LAYER002
 70
               0
 62
               7
  6
CONTINUOUS
  0
LAYER
  2
LAYER003
 70
               0
 62
               7
  6
CONTINUOUS
  0
LAYER
  2
LAYER004
 70
               0
 62
               7
  6
CONTINUOUS
  0
LAYER
  2
LAYER005
 70
               0
 62
               7
  6
CONTINUOUS
  0
LAYER
  2
LAYER006
 70
               0
 62
               7
  6
CONTINUOUS
  0
LAYER
  2
LAYER007
 70
               0
 62
               7
  6
CONTINUOUS
  0
LAYER
  2
LAYER008
 70
               0
 62
               7
  6
CONTINUOUS
  0
LAYER
  2
LAYER009
 70
               0
 62
               7
  6
CONTINUOUS
  0
LAYER
  2
LAYER010
 70
               0
 62
               7
  6
CONTINUOUS
  0
LAYER
  2
LAYER011
 70
               0
 62
               7
  6
CONTINUOUS
  0
LAYER
  2
LAYER012
 70
               0
 62
               7
  6
CONTINUOUS
  0
LAYER
  2
LAYER013
 70
               0
 62
               7
  6
CONTINUOUS
  0
LAYER
  2
LAYER014
 70
               0
 62
               7
  6
CONTINUOUS
  0
LAYER
  2
LAYER015
 70
               0
 62
               7
  6
CONTINUOUS
  0
LAYER
  2
LAYER016
 70
               0
 62
               7
  6
CONTINUOUS
  0
LAYER
  2
LAYER017
 70
               0
 62
               7
  6
CONTINUOUS
  0
LAYER
  2
LAYER018
 70
               0
 62
               7
  6
CONTINUOUS
  0
LAYER
  2
LAYER019
 70
               0
 62
               7
  6
CONTINUOUS
  0
LAYER
  2
LAYER020
 70
               0
 62
               7
  6
CONTINUOUS
  0
LAYER
  2
LAYER021
 70
               0
 62
               7
  6
CONTINUOUS
  0
LAYER
  2
LAYER022
 70
               0
 62
               7
  6
CONTINUOUS
  0
LAYER
  2
LAYER023
 70
               0
 62
               7
  6
CONTINUOUS
  0
LAYER
  2
LAYER024
 70
               0
 62
               7
  6
CONTINUOUS
  0
LAYER
  2
LAYER025
 70
               0
 62
               7
  6
CONTINUOUS
  0
LAYER
  2
LAYER026
 70
               0
 62
               7
  6
CONTINUOUS
  0
LAYER
  2
LAYER027
 70
               0
 62
               7
  6
CONTINUOUS
  0
LAYER
  2
LAYER028
 70
               0
 62
               7
  6
CONTINUOUS
  0
LAYER
  2
LAYER029
 70
               0
 62
               7
  6
CONTINUOUS
  0
LAYER
  2
LAYER030
 70
               0
 62
               7
  6
CONTINUOUS
  0
LAYER
  2
LAYER031
 70
               0
 62
               7
  6
CONTINUOUS
  0
LAYER
  2
LAYER032
 70
               0
 62
               7
  6
CONTINUOUS
  0
LAYER
  2
LAYER033
 70
               0
 62
               7
  6
CONTINUOUS
  0
LAYER
  2
LAYER034
 70
               0
 62
               7
  6
CONTINUOUS
  0
LAYER
  2
LAYER035
 70
               0
 62
               7
  6
CONTINUOUS
  0
LAYER
  2
LAYER036
 70
               0
 62
               7
  6
CONTINUOUS
  0
LAYER
  2
LAYER037
 70
               0
 62
               7
  6
CONTINUOUS
  0
LAYER
  2
LAYER038
 70
               0
 62
               7
  6
CONTINUOUS
  0
LAYER
  2
LAYER039
 70
               0
 62
               7
  6
CONTINUOUS
  0
LAYER
  2
LAYER040
 70
               0
 62
               7
  6
CONTINUOUS
  0
LAYER
  2
LAYER041
 70
               0
 62
               7
  6
CONTINUOUS
  0
LAYER
  2
LAYER042
 70
               0
 62
               7
  6
CONTINUOUS
  0
LAYER
  2
LAYER043
 70
               0
 62
               7
  6
CONTINUOUS
  0
LAYER
  2
LAYER044
 70
               0
 62
               7
  6
CONTINUOUS
  0
LAYER
  2
LAYER045
 70
               0
 62
               7
  6
CONTINUOUS
  0
LAYER
  2
LAYER046
 70
               0
 62
               7
  6
CONTINUOUS
  0
LAYER
  2
LAYER047
 70
               0
 62
               7
  6
CONTINUOUS
  0
LAYER
  2
LAYER048
 70
               0
 62
               7
  6
CONTINUOUS
  0
LAYER
  2
LAYER049
 70
               0
 62
               7
  6
CONTINUOUS
  0
LAYER
  2
LAYER050
 70
               0
 62
               7
  6
CONTINUOUS
  0
LAYER
  2
LAYER051
 70
               0
 62
               7
  6
CONTINUOUS
  0
LAYER
  2
LAYER052
 70
               0
 62
               7
  6
CONTINUOUS
  0
LAYER
  2
LAYER053
 70
               0
 62
               7
  6
CONTINUOUS
  0
LAYER
  2
LAYER054
 70
               0
 62
               7
  6
CONTINUOUS
  0
LAYER
  2
LAYER055
 70
               0
 62
               7
  6
CONTINUOUS
  0
LAYER
  2
LAYER056
 70
               0
 62
               7
  6
CONTINUOUS
  0
LAYER
  2
LAYER057
 70
               0
 62
               7
  6
CONTINUOUS
  0
LAYER
  2
LAYER058
 70
               0
 62
               7
  6
CONTINUOUS
  0
LAYER
  2
LAYER059
 70
               0
 62
               7
  6
CONTINUOUS
  0
LAYER
  2
LAYER060
 70
               0
 62
               7
  6
CONTINUOUS
  0
LAYER
  2
LAYER061
 70
               0
 62
               7
  6
CONTINUOUS
  0
LAYER
  2
LAYER062
 70
               0
 62
               7
  6
CONTINUOUS
  0
LAYER
  2
LAYER063
 70
               0
 62
               7
  6
CONTINUOUS
  0
LAYER
  2
LAYER064
 70
               0
 62
               7
  6
CONTINUOUS
  0
LAYER
  2
LAYER065
 70
               0
 62
               7
  6
CONTINUOUS
  0
LAYER
  2
LAYER066
 70
               0
 62
               7
  6
CONTINUOUS
  0
LAYER
  2
LAYER067
 70
               0
 62
               7
  6
CONTINUOUS
  0
LAYER
  2
LAYER068
 70
               0
 62
               7
  6
CONTINUOUS
  0
LAYER
  2
LAYER069
 70
               0
 62
               7
  6
CONTINUOUS
  0
LAYER
  2
LAYER070
 70
               0
 62
               7
  6
CONTINUOUS
  0
LAYER
  2
LAYER071
 70
               0
 62
               7
  6
CONTINUOUS
  0
LAYER
  2
LAYER072
 70
               0
 62
               7
  6
CONTINUOUS
  0
LAYER
  2
LAYER073
 70
               0
 62
               7
  6
CONTINUOUS
  0
LAYER
  2
LAYER074
 70
               0
 62
               7
  6
CONTINUOUS
  0
LAYER
  2
LAYER075
 70
               0
 62
               7
  6
CONTINUOUS
  0
LAYER
  2
LAYER076
 70
               0
 62
               7
  6
CONTINUOUS
  0
LAYER
  2
LAYER077
 70
               0
 62
               7
  6
CONTINUOUS
  0
LAYER
  2
LAYER078
 70
               0
 62
               7
  6
CONTINUOUS
  0
LAYER
  2
LAYER079
 70
               0
 62
               7
  6
CONTINUOUS
  0
LAYER
  2
LAYER080
 70
               0
 62
               7
  6
CONTINUOUS
  0
LAYER
  2
LAYER081
 70
               0
 62
               7
  6
CONTINUOUS
  0
LAYER
  2
LAYER082
 70
               0
 62
               7
  6
CONTINUOUS
  0
LAYER
  2
LAYER083
 70
               0
 62
               7
  6
CONTINUOUS
  0
LAYER
  2
LAYER084
 70
               0
 62
               7
  6
CONTINUOUS
  0
LAYER
  2
LAYER085
 70
               0
 62
               7
  6
CONTINUOUS
  0
LAYER
  2
LAYER086
 70
               0
 62
               7
  6
CONTINUOUS
  0
LAYER
  2
LAYER087
 70
               0
 62
               7
  6
CONTINUOUS
  0
LAYER
  2
LAYER088
 70
               0
 62
               7
  6
CONTINUOUS
  0
LAYER
  2
LAYER089
 70
               0
 62
               7
  6
CONTINUOUS
  0
LAYER
  2
LAYER090
 70
               0
 62
               7
  6
CONTINUOUS
  0
LAYER
  2
LAYER091
 70
               0
 62
               7
  6
CONTINUOUS
  0
LAYER
  2
LAYER092
 70
               0
 62
               7
  6
CONTINUOUS
  0
LAYER
  2
LAYER093
 70
               0
 62
               7
  6
CONTINUOUS
  0
LAYER
  2
LAYER094
 70
               0
 62
               7
  6
CONTINUOUS
  0
LAYER
  2
LAYER095
 70
               0
 62
               7
  6
CONTINUOUS
  0
LAYER
  2
LAYER096
 70
               0
 62
               7
  6
CONTINUOUS
  0
LAYER
  2
LAYER097
 70
               0
 62
               7
  6
CONTINUOUS
  0
LAYER
  2
LAYER098
 70
               0
 62
               7
  6
CONTINUOUS
  0
LAYER
  2
LAYER099
 70
               0
 62
               7
  6
CONTINUOUS
  0
LAYER
  2
LAYER100
 70
               0
 62
               7
  6
CONTINUOUS
  0
LAYER
  2
LAYER101
 70
               0
 62
               7
  6
CONTINUOUS
  0
LAYER
  2
LAYER102
 70
               0
 62
               7
  6
CONTINUOUS
  0
LAYER
  2
LAYER103
 70
               0
 62
               7
  6
CONTINUOUS
  0
LAYER
  2
LAYER104
 70
               0
 62
               7
  6
CONTINUOUS
  0
LAYER
  2
LAYER105
 70
               0
 62
               7
  6
CONTINUOUS
  0
LAYER
  2
LAYER106
 70
               0
 62
               7
  6
CONTINUOUS
  0
LAYER
  2
LAYER107
 70
               0
 62
               7
  6
CONTINUOUS
  0
LAYER
  2
LAYER108
 70
               0
 62
               7
  6
CONTINUOUS
  0
LAYER
  2
LAYER109
 70
               0
 62
               7
  6
CONTINUOUS
  0
LAYER
  2
LAYER110
 70
               0
 62
               7
  6
CONTINUOUS
  0
LAYER
  2
LAYER111
 70
               0
 62
               7
  6
CONTINUOUS
  0
LAYER
  2
LAYER112
 70
               0
 62
               7
  6
CONTINUOUS
  0
LAYER
  2
LAYER113
 70
               0
 62
               7
  6
CONTINUOUS
  0
LAYER
  2
LAYER114
 70
               0
 62
               7
  6
CONTINUOUS
  0
LAYER
  2
LAYER115
 70
               0
 62
               7
  6
CONTINUOUS
  0
LAYER
  2
LAYER116
 70
               0
 62
               7
  6
CONTINUOUS
  0
LAYER
  2
LAYER117
 70
               0
 62
               7
  6
CONTINUOUS
  0
LAYER
  2
LAYER118
 70
               0
 62
               7
  6
CONTINUOUS
  0
LAYER
  2
LAYER119
 70
               0
 62
               7
  6
CONTINUOUS
  0
LAYER
  2
LAYER120
 70
               0
 62
               7
  6
CONTINUOUS
  0
LAYER
  2
LAYER121
 70
               0
 62
               7
  6
CONTINUOUS
  0
LAYER
  2
LAYER122
 70
               0
 62
               7
  6
CONTINUOUS
  0
LAYER
  2
LAYER123
 70
               0
 62
               7
  6
CONTINUOUS
  0
LAYER
  2
LAYER124
 70
               0
 62
               7
  6
CONTINUOUS
  0
LAYER
  2
LAYER125
 70
               0
 62
               7
  6
CONTINUOUS
  0
LAYER
  2
LAYER126
 70
               0
 62
               7
  6
CONTINUOUS
  0
LAYER
  2
LAYER127
 70
               0
 62
               7
  6
CONTINUOUS
  0
LAYER
  2
LAYER128
 70
               0
 62
               7
  6
CONTINUOUS
  0
LAYER
  2
LAYER129
 70
               0
 62
               7
  6
CONTINUOUS
  0
LAYER
  2
LAYER130
 70
               0
 62
               7
  6
CONTINUOUS
  0
LAYER
  2
LAYER131
 70
               0
 62
               7
  6
CONTINUOUS
  0
LAYER
  2
LAYER132
 70
               0
 62
               7
  6
CONTINUOUS
  0
LAYER
  2
LAYER133
 70
               0
 62
               7
  6
CONTINUOUS
  0
LAYER
  2
LAYER134
 70
               0
 62
               7
  6
CONTINUOUS
  0
LAYER
  2
LAYER135
 70
               0
 62
               7
  6
CONTINUOUS
  0
LAYER
  2
LAYER136
 70
               0
 62
               7
  6
CONTINUOUS
  0
LAYER
  2
LAYER137
 70
               0
 62
               7
  6
CONTINUOUS
  0
LAYER
  2
LAYER138
 70
               0
 62
               7
  6
CONTINUOUS
  0
LAYER
  2
LAYER139
 70
               0
 62
               7
  6
CONTINUOUS
  0
LAYER
  2
LAYER140
 70
               0
 62
               7
  6
CONTINUOUS
  0
LAYER
  2
LAYER141
 70
               0
 62
               7
  6
CONTINUOUS
  0
LAYER
  2
LAYER142
 70
               0
 62
               7
  6
CONTINUOUS
  0
LAYER
  2
LAYER143
 70
               0
 62
               7
  6
CONTINUOUS
  0
LAYER
  2
LAYER144
 70
               0
 62
               7
  6
CONTINUOUS
  0
LAYER
  2
LAYER145
 70
               0
 62
               7
  6
CONTINUOUS
  0
LAYER
  2
LAYER146
 70
               0
 62
               7
  6
CONTINUOUS
  0
LAYER
  2
LAYER147
 70
               0
 62
               7
  6
CONTINUOUS
  0
LAYER
  2
LAYER148
 70
               0
 62
               7
  6
CONTINUOUS
  0
LAYER
  2
LAYER149
 70
               0
 62
               7
  6
CONTINUOUS
  0
LAYER
  2
LAYER150
 70
               0
 62
               7
  6
CONTINUOUS
  0
LAYER
  2
LAYER151
 70
               0
 62
               7
  6
CONTINUOUS
  0
LAYER
  2
LAYER152
 70
               0
 62
               7
  6
CONTINUOUS
  0
LAYER
  2
LAYER153
 70
               0
 62
               7
  6
CONTINUOUS
  0
LAYER
  2
LAYER154
 70
               0
 62
               7
  6
CONTINUOUS
  0
LAYER
  2
LAYER155
 70
               0
 62
               7
  6
CONTINUOUS
  0
LAYER
  2
LAYER156
 70
               0
 62
               7
  6
CONTINUOUS
  0
LAYER
  2
LAYER157
 70
               0
 62
               7
  6
CONTINUOUS
  0
LAYER
  2
LAYER158
 70
               0
 62
               7
  6
CONTINUOUS
  0
LAYER
  2
LAYER159
 70
               0
 62
               7
  6
CONTINUOUS
  0
LAYER
  2
LAYER160
 70
               0
 62
               7
  6
CONTINUOUS
  0
LAYER
  2
LAYER161
 70
               0
 62
               7
  6
CONTINUOUS
  0
LAYER
  2
LAYER162
 70
               0
 62
               7
  6
CONTINUOUS
  0
LAYER
  2
LAYER163
 70
               0
 62
               7
  6
CONTINUOUS
  0
LAYER
  2
LAYER164
 70
               0
 62
               7
  6
CONTINUOUS
  0
LAYER
  2
LAYER165
 70
               0
 62
               7
  6
CONTINUOUS
  0
LAYER
  2
LAYER166
 70
               0
 62
               7
  6
CONTINUOUS
  0
LAYER
  2
LAYER167
 70
               0
 62
               7
  6
CONTINUOUS
  0
LAYER
  2
LAYER168
 70
               0
 62
               7
  6
CONTINUOUS
  0
LAYER
  2
LAYER169
 70
               0
 62
               7
  6
CONTINUOUS
  0
LAYER
  2
LAYER170
 70
               0
 62
               7
  6
CONTINUOUS
  0
LAYER
  2
LAYER171
 70
               0
 62
               7
  6
CONTINUOUS
  0
LAYER
  2
LAYER172
 70
               0
 62
               7
  6
CONTINUOUS
  0
LAYER
  2
LAYER173
 70
               0
 62
               7
  6
CONTINUOUS
  0
LAYER
  2
LAYER174
 70
               0
 62
               7
  6
CONTINUOUS
  0
LAYER
  2
LAYER175
 70
               0
 62
               7
  6
CONTINUOUS
  0
LAYER
  2
LAYER176
 70
               0
 62
               7
  6
CONTINUOUS
  0
LAYER
  2
LAYER177
 70
               0
 62
               7
  6
CONTINUOUS
  0
LAYER
  2
LAYER178
 70
               0
 62
               7
  6
CONTINUOUS
  0
LAYER
  2
LAYER179
 70
               0
 62
               7
  6
CONTINUOUS
  0
LAYER
  2
LAYER180
 70
               0
 62
               7
  6
CONTINUOUS
  0
LAYER
  2
LAYER181
 70
               0
 62
               7
  6
CONTINUOUS
  0
LAYER
  2
LAYER182
 70
               0
 62
               7
  6
CONTINUOUS
  0
LAYER
  2
LAYER183
 70
               0
 62
               7
  6
CONTINUOUS
  0
LAYER
  2
LAYER184
 70
               0
 62
               7
  6
CONTINUOUS
  0
LAYER
  2
LAYER185
 70
               0
 62
               7
  6
CONTINUOUS
  0
LAYER
  2
LAYER186
 70
               0
 62
               7
  6
CONTINUOUS
  0
LAYER
  2
LAYER187
 70
               0
 62
               7
  6
CONTINUOUS
  0
LAYER
  2
LAYER188
 70
               0
 62
               7
  6
CONTINUOUS
  0
LAYER
  2
LAYER189
 70
               0
 62
               7
  6
CONTINUOUS
  0
LAYER
  2
LAYER190
 70
               0
 62
               7
  6
CONTINUOUS
  0
LAYER
  2
LAYER191
 70
               0
 62
               7
  6
CONTINUOUS
  0
LAYER
  2
LAYER192
 70
               0
 62
               7
  6
CONTINUOUS
  0
LAYER
  2
LAYER193
 70
               0
 62
               7
  6
CONTINUOUS
  0
LAYER
  2
LAYER194
 70
               0
 62
               7
  6
CONTINUOUS
  0
LAYER
  2
LAYER195
 70
               0
 62
               7
  6
CONTINUOUS
  0
LAYER
  2
LAYER196
 70
               0
 62
               7
  6
CONTINUOUS
  0
LAYER
  2
LAYER197
 70
               0
 62
               7
  6
CONTINUOUS
  0
LAYER
  2
LAYER198
 70
               0
 62
               7
  6
CONTINUOUS
  0
LAYER
  2
LAYER199
 70
               0
 62
               7
  6
CONTINUOUS
  0
LAYER
  2
LAYER200
 70
               0
 62
               7
  6
CONTINUOUS
  0
LAYER
  2
LAYER201
 70
               0
 62
               7
  6
CONTINUOUS
  0
LAYER
  2
LAYER202
 70
               0
 62
               7
  6
CONTINUOUS
  0
LAYER
  2
LAYER203
 70
               0
 62
               7
  6
CONTINUOUS
  0
LAYER
  2
LAYER204
 70
               0
 62
               7
  6
CONTINUOUS
  0
LAYER
  2
LAYER205
 70
               0
 62
               7
  6
CONTINUOUS
  0
LAYER
  2
LAYER206
 70
               0
 62
               7
  6
CONTINUOUS
  0
LAYER
  2
LAYER207
 70
               0
 62
               7
  6
CONTINUOUS
  0
LAYER
  2
LAYER208
 70
               0
 62
               7
  6
CONTINUOUS
  0
LAYER
  2
LAYER209
 70
               0
 62
               7
  6
CONTINUOUS
  0
LAYER
  2
LAYER210
 70
               0
 62
               7
  6
CONTINUOUS
  0
LAYER
  2
LAYER211
 70
               0
 62
               7
  6
CONTINUOUS
  0
LAYER
  2
LAYER212
 70
               0
 62
               7
  6
CONTINUOUS
  0
LAYER
  2
LAYER213
 70
               0
 62
               7
  6
CONTINUOUS
  0
LAYER
  2
LAYER214
 70
               0
 62
               7
  6
CONTINUOUS
  0
LAYER
  2
LAYER215
 70
               0
 62
               7
  6
CONTINUOUS
  0
LAYER
  2
LAYER216
 70
               0
 62
               7
  6
CONTINUOUS
  0
LAYER
  2
LAYER217
 70
               0
 62
               7
  6
CONTINUOUS
  0
LAYER
  2
LAYER218
 70
               0
 62
               7
  6
CONTINUOUS
  0
LAYER
  2
LAYER219
 70
               0
 62
               7
  6
CONTINUOUS
  0
LAYER
  2
LAYER220
 70
               0
 62
               7
  6
CONTINUOUS
  0
LAYER
  2
LAYER221
 70
               0
 62
               7
  6
CONTINUOUS
  0
LAYER
  2
LAYER222
 70
               0
 62
               7
  6
CONTINUOUS
  0
LAYER
  2
LAYER223
 70
               0
 62
               7
  6
CONTINUOUS
  0
LAYER
  2
LAYER224
 70
               0
 62
               7
  6
CONTINUOUS
  0
LAYER
  2
LAYER225
 70
               0
 62
               7
  6
CONTINUOUS
  0
LAYER
  2
LAYER226
 70
               0
 62
               7
  6
CONTINUOUS
  0
LAYER
  2
LAYER227
 70
               0
 62
               7
  6
CONTINUOUS
  0
LAYER
  2
LAYER228
 70
               0
 62
               7
  6
CONTINUOUS
  0
LAYER
  2
LAYER229
 70
               0
 62
               7
  6
CONTINUOUS
  0
LAYER
  2
LAYER230
 70
               0
 62
               7
  6
CONTINUOUS
  0
LAYER
  2
LAYER231
 70
               0
 62
               7
  6
CONTINUOUS
  0
LAYER
  2
LAYER232
 70
               0
 62
               7
  6
CONTINUOUS
  0
LAYER
  2
LAYER233
 70
               0
 62
               7
  6
CONTINUOUS
  0
LAYER
  2
LAYER234
 70
               0
 62
               7
  6
CONTINUOUS
  0
LAYER
  2
LAYER235
 70
               0
 62
               7
  6
CONTINUOUS
  0
LAYER
  2
LAYER236
 70
               0
 62
               7
  6
CONTINUOUS
  0
LAYER
  2
LAYER237
 70
               0
 62
               7
  6
CONTINUOUS
  0
LAYER
  2
LAYER238
 70
               0
 62
               7
  6
CONTINUOUS
  0
LAYER
  2
LAYER239
 70
               0
 62
               7
  6
CONTINUOUS
  0
LAYER
  2
LAYER240
 70
               0
 62
               7
  6
CONTINUOUS
  0
LAYER
  2
LAYER241
 70
               0
 62
               7
  6
CONTINUOUS
  0
LAYER
  2
LAYER242
 70
               0
 62
               7
  6
CONTINUOUS
  0
LAYER
  2
LAYER243
 70
               0
 62
               7
  6
CONTINUOUS
  0
LAYER
  2
LAYER244
 70
               0
 62
               7
  6
CONTINUOUS
  0
LAYER
  2
LAYER245
 70
               0
 62
               7
  6
CONTINUOUS
  0
LAYER
  2
LAYER246
 70
               0
 62
               7
  6
CONTINUOUS
  0
LAYER
  2
LAYER247
 70
               0
 62
               7
  6
CONTINUOUS
  0
LAYER
  2
LAYER248
 70
               0
 62
               7
  6
CONTINUOUS
  0
LAYER
  2
LAYER249
 70
               0
 62
               7
  6
CONTINUOUS
  0
LAYER
  2
LAYER250
 70
               0
 62
               7
  6
CONTINUOUS
  0
LAYER
  2
LAYER251
 70
               0
 62
               7
  6
CONTINUOUS
  0
LAYER
  2
LAYER252
 70
               0
 62
               7
  6
CONTINUOUS
  0
LAYER
  2
LAYER253
 70
               0
 62
               7
  6
CONTINUOUS
  0
LAYER
  2
LAYER254
 70
               0
 62
               7
  6
CONTINUOUS
  0
LAYER
  2
LAYER255
 70
               0
 62
               7
  6
CONTINUOUS
  0
ENDTAB
  0
TABLE
  2
STYLE
 70
               1
  0
STYLE
  2
STANDARD
 70
               0
 40
0.0
 41
0.8
 50
0.0
 71
               0
 42
40.0
  3
MS PGothic.ttf
  4

  0
ENDTAB
  0
TABLE
  2
VIEW
 70
               0
  0
VIEW
  2
QQQQ
 70
               0
 40
2432.0957206745943
 10
51.574377082919568
 20
-448.63520849510149
 41
1472.3288429547883
 11
0.0
 21
0.0
 31
1.0
 12
100.0
 22
100.0
 32
0.0
 42
50.0
 43
0.0
 44
0.0
 50
0.0
 71
               0
  0
ENDTAB
  0
TABLE
  2
UCS
 70
               0
  0
ENDTAB
  0
TABLE
  2
APPID
 70
               1
  0
APPID
  2
ACAD
 70
               0
  0
ENDTAB
  0
TABLE
  2
DIMSTYLE
 70
               1
  0
DIMSTYLE
  2
STANDARD
 70
               0
  3

  4

  5

  6

  7

 40
1.0
 41
0.18
 42
0.0625
 43
0.38
 44
0.18
 45
0.0
 46
0.0
 47
0.0
 48
0.0
140
0.18
141
0.09
142
0.0
143
25.399999999999999
144
1.0
145
0.0
146
1.0
147
0.09
 71
               0
 72
               0
 73
               1
 74
               1
 75
               0
 76
               0
 77
               0
 78
               0
170
               0
171
               2
172
               0
173
               0
174
               0
175
               0
176
               0
177
               0
178
               0
  0
ENDTAB
  0
ENDSEC
  0
SECTION
  2
BLOCKS
  0
ENDSEC
  0
SECTION
  2
ENTITIES
  0
LINE
  8
0
  6
CONTINUOUS
 62
               3
  5
136
 10
-75.000000000000043
 20
193.36059271512238
 30
0.0
 11
74.999999999999943
 21
193.36059271512238
 31
0.0
  0
LINE
  8
0
  6
CONTINUOUS
 62
               3
  5
137
 10
-88.50000000000027
 20
183.36059271512238
 30
0.0
 11
-88.50000000000027
 21
176.36059271512272
 31
0.0
  0
LINE
  8
0
  6
CONTINUOUS
 62
               3
  5
138
 10
-88.50000000000027
 20
183.36059271512238
 30
0.0
 11
-75.000000000000043
 21
193.36059271512238
 31
0.0
  0
ARC
  8
0
  6
CONTINUOUS
 62
               3
  5
139
 10
-76.999999999999929
 20
171.778017020167
 30
0.0
 40
4.9999999999999991
 50
0.0
 51
66.421821521759782
  0
LINE
  8
0
  6
CONTINUOUS
 62
               3
  5
13A
 10
-88.50000000000027
 20
176.36059271512272
 30
0.0
 11
88.499999999999602
 21
176.36059271512272
 31
0.0
  0
LINE
  8
0
  6
CONTINUOUS
 62
               3
  5
13B
 10
-71.999999999999929
 20
171.778017020167
 30
0.0
 11
-71.999999999999929
 21
96.89624646797516
 31
0.0
  0
LINE
  8
0
  6
CONTINUOUS
 62
               3
  5
13C
 10
71.999999999999829
 20
96.896246467991972
 30
0.0
 11
71.999999999999829
 21
171.778017020167
 31
0.0
  0
LINE
  8
0
  6
CONTINUOUS
 62
               3
  5
13D
 10
-58.000000000000156
 20
-299.6394072848779
 30
0.0
 11
-75.000000000000043
 21
-150.63940728487745
 31
0.0
  0
LINE
  8
0
  6
CONTINUOUS
 62
               3
  5
13E
 10
-20.000000000000043
 20
176.36059271512272
 30
0.0
 11
-20.000000000000043
 21
193.36059271512238
 31
0.0
  0
LINE
  8
0
  6
CONTINUOUS
 62
               3
  5
13F
 10
19.999999999999957
 20
193.36059271512238
 30
0.0
 11
19.999999999999957
 21
176.36059271512272
 31
0.0
  0
LINE
  8
0
  6
CONTINUOUS
 62
               3
  5
140
 10
-20.000000000000043
 20
183.36059271512238
 30
0.0
 11
19.999999999999957
 21
183.36059271512238
 31
0.0
  0
LINE
  8
0
  6
CONTINUOUS
 62
               3
  5
141
 10
-72.284161474005415
 20
193.36059271512238
 30
0.0
 11
-72.284161474005415
 21
176.36059271512272
 31
0.0
  0
LINE
  8
0
  6
CONTINUOUS
 62
               3
  5
142
 10
-86.210498200625281
 20
183.36059271512238
 30
0.0
 11
-86.210498200625281
 21
176.36059271512272
 31
0.0
  0
LINE
  8
0
  6
CONTINUOUS
 62
               3
  5
143
 10
-88.50000000000027
 20
183.36059271512238
 30
0.0
 11
-86.210498200625281
 21
183.36059271512238
 31
0.0
  0
LINE
  8
0
  6
CONTINUOUS
 62
               3
  5
144
 10
-86.210498200625281
 20
183.36059271512238
 30
0.0
 11
-72.284161474005415
 21
193.36059271512238
 31
0.0
  0
LINE
  8
0
  6
CONTINUOUS
 62
               3
  5
145
 10
88.499999999999602
 20
183.36059271512238
 30
0.0
 11
88.499999999999602
 21
176.36059271512272
 31
0.0
  0
LINE
  8
0
  6
CONTINUOUS
 62
               3
  5
146
 10
88.499999999999602
 20
183.36059271512238
 30
0.0
 11
74.999999999999943
 21
193.36059271512238
 31
0.0
  0
ARC
  8
0
  6
CONTINUOUS
 62
               3
  5
147
 10
76.999999999999829
 20
171.778017020167
 30
0.0
 40
4.9999999999999991
 50
113.57817847813655
 51
179.99999999989603
  0
LINE
  8
0
  6
CONTINUOUS
 62
               3
  5
148
 10
72.284161474004179
 20
193.36059271512238
 30
0.0
 11
72.284161474004179
 21
176.36059271512272
 31
0.0
  0
LINE
  8
0
  6
CONTINUOUS
 62
               3
  5
149
 10
86.210498200625182
 20
183.36059271512238
 30
0.0
 11
86.210498200625182
 21
176.36059271512272
 31
0.0
  0
LINE
  8
0
  6
CONTINUOUS
 62
               3
  5
14A
 10
88.499999999999602
 20
183.36059271512238
 30
0.0
 11
86.210498200625182
 21
183.36059271512238
 31
0.0
  0
LINE
  8
0
  6
CONTINUOUS
 62
               3
  5
14B
 10
86.210498200625182
 20
183.36059271512238
 30
0.0
 11
72.284161474004179
 21
193.36059271512238
 31
0.0
  0
LINE
  8
0
  6
CONTINUOUS
 62
               3
  5
14C
 10
-75.000000000000043
 20
-150.63940728487745
 30
0.0
 11
-46.368107792056932
 21
-150.63940728487745
 31
0.0
  0
LINE
  8
0
  6
CONTINUOUS
 62
               3
  5
14D
 10
-1.9728332801509367
 20
-150.63940728487745
 30
0.0
 11
74.496765133649717
 21
-150.63940728487745
 31
0.0
  0
LINE
  8
0
  6
CONTINUOUS
 62
               3
  5
14E
 10
76.999999999999829
 20
-150.75297551513268
 30
0.0
 11
60.271775600348818
 21
-297.36763168452887
 31
0.0
  0
LINE
  8
0
  6
CONTINUOUS
 62
               3
  5
14F
 10
74.499999999999829
 20
-150.61101522731315
 30
0.0
 11
57.496765133650413
 21
-299.6394072848779
 31
0.0
  0
LINE
  8
0
  6
CONTINUOUS
 62
               3
  5
150
 10
74.496765133649717
 20
-150.63940728487745
 30
0.0
 11
76.999999999999829
 21
-150.75297551513268
 31
0.0
  0
LINE
  8
0
  6
CONTINUOUS
 62
               3
  5
151
 10
76.750000000000057
 20
-150.73877948635067
 30
0.0
 11
59.99427455367875
 21
-297.59480924456375
 31
0.0
  0
LINE
  8
0
  6
CONTINUOUS
 62
               3
  5
152
 10
58.14113258650589
 20
-204.27089274396025
 30
0.0
 11
-65.512000000000555
 21
-100.51359479670744
 31
0.0
  0
ARC
  8
0
  6
CONTINUOUS
 62
               3
  5
153
 10
-914.27232010053967
 20
-1245.072011923656
 30
0.0
 40
1424.9238755783815
 50
50.18995614625684
 51
53.440796050721552
  0
ARC
  8
0
  6
CONTINUOUS
 62
               3
  5
154
 10
63.579388837032923
 20
-79.713724772914318
 30
0.0
 40
130.75634311527989
 50
189.15312334026754
 51
212.76918311271189
  0
ARC
  8
0
  6
CONTINUOUS
 62
               3
  5
155
 10
61.364025499551033
 20
-69.579704021674004
 30
0.0
 40
134.72974192119386
 50
216.90649751129573
 51
268.62928723405531
  0
ARC
  8
0
  6
CONTINUOUS
 62
               3
  5
156
 10
-733.63034809850842
 20
-1028.7330545987693
 30
0.0
 40
1143.0835201141012
 50
46.158732653416578
 51
50.202696616646634
  0
LINE
  8
0
  6
CONTINUOUS
 62
               3
  5
157
 10
-575.0
 20
193.36059271512238
 30
0.0
 11
-425.00000000000063
 21
193.36059271512238
 31
0.0
  0
LINE
  8
0
  6
CONTINUOUS
 62
               3
  5
158
 10
-588.50000000000023
 20
183.36059271512238
 30
0.0
 11
-588.50000000000023
 21
176.36059271512272
 31
0.0
  0
LINE
  8
0
  6
CONTINUOUS
 62
               3
  5
159
 10
-588.50000000000023
 20
183.36059271512238
 30
0.0
 11
-575.0
 21
193.36059271512238
 31
0.0
  0
ARC
  8
0
  6
CONTINUOUS
 62
               3
  5
15A
 10
-577.0
 20
171.778017020167
 30
0.0
 40
4.9999999999999991
 50
0.0
 51
66.421821521759654
  0
LINE
  8
0
  6
CONTINUOUS
 62
               3
  5
15B
 10
-588.50000000000023
 20
176.36059271512272
 30
0.0
 11
-411.5000000000004
 21
176.36059271512272
 31
0.0
  0
LINE
  8
0
  6
CONTINUOUS
 62
               3
  5
15C
 10
-572.0
 20
171.778017020167
 30
0.0
 11
-572.0
 21
96.89624646797516
 31
0.0
  0
LINE
  8
0
  6
CONTINUOUS
 62
               3
  5
15D
 10
-428.00000000000017
 20
96.89624646797516
 30
0.0
 11
-428.00000000000017
 21
171.778017020167
 31
0.0
  0
LINE
  8
0
  6
CONTINUOUS
 62
               3
  5
15E
 10
-558.00000000000023
 20
-299.6394072848779
 30
0.0
 11
-575.0
 21
-150.63940728487745
 31
0.0
  0
LINE
  8
0
  6
CONTINUOUS
 62
               3
  5
15F
 10
-575.0
 20
-37.639407284877635
 30
0.0
 11
-575.0
 21
-150.63940728487745
 31
0.0
  0
LINE
  8
0
  6
CONTINUOUS
 62
               3
  5
160
 10
-520.0
 20
176.36059271512272
 30
0.0
 11
-520.0
 21
193.36059271512238
 31
0.0
  0
LINE
  8
0
  6
CONTINUOUS
 62
               3
  5
161
 10
-480.00000000000063
 20
193.36059271512238
 30
0.0
 11
-480.00000000000063
 21
176.36059271512272
 31
0.0
  0
LINE
  8
0
  6
CONTINUOUS
 62
               3
  5
162
 10
-520.0
 20
183.36059271512238
 30
0.0
 11
-480.00000000000063
 21
183.36059271512238
 31
0.0
  0
LINE
  8
0
  6
CONTINUOUS
 62
               3
  5
163
 10
-572.28416147400435
 20
193.36059271512238
 30
0.0
 11
-572.28416147400435
 21
176.36059271512272
 31
0.0
  0
LINE
  8
0
  6
CONTINUOUS
 62
               3
  5
164
 10
-586.21049820062524
 20
183.36059271512238
 30
0.0
 11
-586.21049820062524
 21
176.36059271512272
 31
0.0
  0
LINE
  8
0
  6
CONTINUOUS
 62
               3
  5
165
 10
-588.50000000000023
 20
183.36059271512238
 30
0.0
 11
-586.21049820062524
 21
183.36059271512238
 31
0.0
  0
LINE
  8
0
  6
CONTINUOUS
 62
               3
  5
166
 10
-586.21049820062524
 20
183.36059271512238
 30
0.0
 11
-572.28416147400435
 21
193.36059271512238
 31
0.0
  0
LINE
  8
0
  6
CONTINUOUS
 62
               3
  5
167
 10
-411.5000000000004
 20
183.36059271512238
 30
0.0
 11
-411.5000000000004
 21
176.36059271512272
 31
0.0
  0
LINE
  8
0
  6
CONTINUOUS
 62
               3
  5
168
 10
-411.5000000000004
 20
183.36059271512238
 30
0.0
 11
-425.00000000000063
 21
193.36059271512238
 31
0.0
  0
ARC
  8
0
  6
CONTINUOUS
 62
               3
  5
169
 10
-423.00000000000017
 20
171.778017020167
 30
0.0
 40
4.9999999999999991
 50
113.57817847813625
 51
179.99999999989603
  0
LINE
  8
0
  6
CONTINUOUS
 62
               3
  5
16A
 10
-427.71583852599525
 20
193.36059271512238
 30
0.0
 11
-427.71583852599525
 21
176.36059271512272
 31
0.0
  0
LINE
  8
0
  6
CONTINUOUS
 62
               3
  5
16B
 10
-413.78950179937482
 20
183.36059271512238
 30
0.0
 11
-413.78950179937482
 21
176.36059271512272
 31
0.0
  0
LINE
  8
0
  6
CONTINUOUS
 62
               3
  5
16C
 10
-411.5000000000004
 20
183.36059271512238
 30
0.0
 11
-413.78950179937482
 21
183.36059271512238
 31
0.0
  0
LINE
  8
0
  6
CONTINUOUS
 62
               3
  5
16D
 10
-413.78950179937482
 20
183.36059271512238
 30
0.0
 11
-427.71583852599525
 21
193.36059271512238
 31
0.0
  0
LINE
  8
0
  6
CONTINUOUS
 62
               3
  5
16E
 10
-441.99999999999994
 20
-299.6394072848779
 30
0.0
 11
-429.45190901929948
 21
-189.6590804540279
 31
0.0
  0
LINE
  8
0
  6
CONTINUOUS
 62
               3
  5
16F
 10
-575.0
 20
-150.50788368776062
 30
0.0
 11
-441.05099999999993
 21
-150.50788368776028
 31
0.0
  0
ARC
  8
0
  6
CONTINUOUS
 62
               3
  5
170
 10
-778.92922884912491
 20
-272.18028209922318
 30
0.0
 40
359.11818398045398
 50
13.303286818137401
 51
28.552443501612977
  0
ARC
  8
0
  6
CONTINUOUS
 62
               3
  5
171
 10
-500.33118646999412
 20
-163.93360619665395
 30
0.0
 40
73.327111796148202
 50
342.62945642124168
 51
419.8368916055386
  0
LINE
  8
0
  6
CONTINUOUS
 62
               3
  5
172
 10
-428.24363345646077
 20
-150.50788368776028
 30
0.0
 11
-425.00000000000057
 21
-150.50788368776028
 31
0.0
  0
LINE
  8
0
  6
CONTINUOUS
 62
               3
  5
173
 10
-427.47543193129047
 20
-172.23447090829632
 30
0.0
 11
-425.00000000000057
 21
-150.50788368776062
 31
0.0
  0
LINE
  8
0
  6
CONTINUOUS
 62
               3
  5
174
 10
575.0
 20
193.36059271512238
 30
0.0
 11
425.0
 21
193.36059271512238
 31
0.0
  0
LINE
  8
0
  6
CONTINUOUS
 62
               3
  5
175
 10
588.50000000000023
 20
183.36059271512238
 30
0.0
 11
588.50000000000023
 21
176.36059271512272
 31
0.0
  0
LINE
  8
0
  6
CONTINUOUS
 62
               3
  5
176
 10
588.50000000000023
 20
183.36059271512238
 30
0.0
 11
575.0
 21
193.36059271512238
 31
0.0
  0
ARC
  8
0
  6
CONTINUOUS
 62
               3
  5
177
 10
576.99999999999977
 20
171.778017020167
 30
0.0
 40
4.9999999999999991
 50
113.57817847813625
 51
179.99999999989603
  0
LINE
  8
0
  6
CONTINUOUS
 62
               3
  5
178
 10
588.50000000000023
 20
176.36059271512272
 30
0.0
 11
411.49999999999977
 21
176.36059271512272
 31
0.0
  0
ARC
  8
0
  6
CONTINUOUS
 62
               3
  5
179
 10
555.0
 20
86.360592715122365
 30
0.0
 40
19.999999999999996
 50
0.0
 51
31.78833061703353
  0
LINE
  8
0
  6
CONTINUOUS
 62
               3
  5
17A
 10
571.99999999999977
 20
171.778017020167
 30
0.0
 11
571.99999999999977
 21
96.89624646797516
 31
0.0
  0
LINE
  8
0
  6
CONTINUOUS
 62
               3
  5
17B
 10
428.0
 20
96.89624646797516
 30
0.0
 11
428.0
 21
171.778017020167
 31
0.0
  0
LINE
  8
0
  6
CONTINUOUS
 62
               3
  5
17C
 10
520.0
 20
176.36059271512272
 30
0.0
 11
520.0
 21
193.36059271512238
 31
0.0
  0
LINE
  8
0
  6
CONTINUOUS
 62
               3
  5
17D
 10
480.0
 20
193.36059271512238
 30
0.0
 11
480.0
 21
176.36059271512272
 31
0.0
  0
LINE
  8
0
  6
CONTINUOUS
 62
               3
  5
17E
 10
520.0
 20
183.36059271512238
 30
0.0
 11
480.0
 21
183.36059271512238
 31
0.0
  0
LINE
  8
0
  6
CONTINUOUS
 62
               3
  5
17F
 10
572.2841614740048
 20
193.36059271512238
 30
0.0
 11
572.2841614740048
 21
176.36059271512272
 31
0.0
  0
LINE
  8
0
  6
CONTINUOUS
 62
               3
  5
180
 10
586.21049820062512
 20
183.36059271512238
 30
0.0
 11
586.21049820062512
 21
176.36059271512272
 31
0.0
  0
LINE
  8
0
  6
CONTINUOUS
 62
               3
  5
181
 10
588.50000000000023
 20
183.36059271512238
 30
0.0
 11
586.21049820062512
 21
183.36059271512238
 31
0.0
  0
LINE
  8
0
  6
CONTINUOUS
 62
               3
  5
182
 10
586.21049820062512
 20
183.36059271512238
 30
0.0
 11
572.2841614740048
 21
193.36059271512238
 31
0.0
  0
LINE
  8
0
  6
CONTINUOUS
 62
               3
  5
183
 10
411.49999999999977
 20
183.36059271512238
 30
0.0
 11
411.49999999999977
 21
176.36059271512272
 31
0.0
  0
LINE
  8
0
  6
CONTINUOUS
 62
               3
  5
184
 10
411.49999999999977
 20
183.36059271512238
 30
0.0
 11
425.0
 21
193.36059271512238
 31
0.0
  0
ARC
  8
0
  6
CONTINUOUS
 62
               3
  5
185
 10
423.0
 20
171.778017020167
 30
0.0
 40
4.9999999999999991
 50
0.0
 51
66.421821521759654
  0
LINE
  8
0
  6
CONTINUOUS
 62
               3
  5
186
 10
427.7158385259952
 20
193.36059271512238
 30
0.0
 11
427.7158385259952
 21
176.36059271512272
 31
0.0
  0
LINE
  8
0
  6
CONTINUOUS
 62
               3
  5
187
 10
413.78950179937465
 20
183.36059271512238
 30
0.0
 11
413.78950179937465
 21
176.36059271512272
 31
0.0
  0
LINE
  8
0
  6
CONTINUOUS
 62
               3
  5
188
 10
411.49999999999977
 20
183.36059271512238
 30
0.0
 11
413.78950179937465
 21
183.36059271512238
 31
0.0
  0
LINE
  8
0
  6
CONTINUOUS
 62
               3
  5
189
 10
413.78950179937465
 20
183.36059271512238
 30
0.0
 11
427.7158385259952
 21
193.36059271512238
 31
0.0
  0
LINE
  8
0
  6
CONTINUOUS
 62
               3
  5
18A
 10
571.99999999999977
 20
96.89624646797516
 30
0.0
 11
511.72700000000009
 21
96.89624646797516
 31
0.0
  0
LINE
  8
0
  6
CONTINUOUS
 62
               3
  5
18B
 10
488.27299999999968
 20
96.89624646797516
 30
0.0
 11
428.0
 21
96.89624646797516
 31
0.0
  0
ARC
  8
0
  6
CONTINUOUS
 62
               3
  5
18C
 10
575.0
 20
-35.139407284877635
 30
0.0
 40
2.4999999999999996
 50
269.99999999984567
 51
449.99999999974102
  0
LINE
  8
0
  6
CONTINUOUS
 62
               3
  5
18D
 10
522.50000000000057
 20
-32.639407284877635
 30
0.0
 11
575.0
 21
-32.639407284877635
 31
0.0
  0
LINE
  8
0
  6
CONTINUOUS
 62
               3
  5
18E
 10
575.0
 20
86.360592715122365
 30
0.0
 11
575.0
 21
-32.639407284877635
 31
0.0
  0
LINE
  8
0
  6
CONTINUOUS
 62
               3
  5
18F
 10
491.78299999999945
 20
-54.528586402349575
 30
0.0
 11
491.78299999999967
 21
-299.69346875454954
 31
0.0
  0
LINE
  8
0
  6
CONTINUOUS
 62
               3
  5
190
 10
508.21700000000055
 20
-54.528586402343578
 30
0.0
 11
508.21699999999964
 21
-299.69346875454954
 31
0.0
  0
LINE
  8
0
  6
CONTINUOUS
 62
               3
  5
191
 10
493.99999999999977
 20
-49.528586402349575
 30
0.0
 11
493.99999999999977
 21
-297.42169315420051
 31
0.0
  0
LINE
  8
0
  6
CONTINUOUS
 62
               3
  5
192
 10
505.99999999999955
 20
-297.42169315420051
 30
0.0
 11
505.99999999999955
 21
-49.528586402349561
 31
0.0
  0
ARC
  8
0
  6
CONTINUOUS
 62
               3
  5
193
 10
360.6812911765046
 20
-227.27213506728498
 30
0.0
 40
204.24864340422488
 50
353.49999999993162
 51
373.4368021674054
  0
ARC
  8
0
  6
CONTINUOUS
 62
               3
  5
194
 10
398.37230094456572
 20
-224.98771799787727
 30
0.0
 40
167.18634723772169
 50
351.25933879886691
 51
375.67746336847057
  0
ARC
  8
0
  6
CONTINUOUS
 62
               3
  5
195
 10
485.02192705347215
 20
-154.78363334134201
 30
0.0
 40
59.149634972654262
 50
186.49999999996388
 51
236.78754046664218
  0
ARC
  8
0
  6
CONTINUOUS
 62
               3
  5
196
 10
505.92691953069379
 20
-142.93461624259032
 30
0.0
 40
81.261593956721953
 50
186.49999999996388
 51
229.00792456449784
  0
LINE
  8
0
  6
CONTINUOUS
 62
               3
  5
197
 10
575.0
 20
-150.48638368776028
 30
0.0
 11
425.0
 21
-150.48638368776028
 31
0.0
  0
LINE
  8
0
  6
CONTINUOUS
 62
               3
  5
198
 10
575.0
 20
-37.639407284877635
 30
0.0
 11
575.0
 21
-150.48638368776028
 31
0.0
  0
LINE
  8
0
  6
CONTINUOUS
 62
               3
  5
199
 10
558.0
 20
-299.69346875454954
 30
0.0
 11
575.0
 21
-150.48638368776028
 31
0.0
  0
LINE
  8
0
  6
CONTINUOUS
 62
               3
  5
19A
 10
441.99999999999989
 20
-299.69346875454954
 30
0.0
 11
425.0
 21
-150.48638368776028
 31
0.0
  0
CIRCLE
  8
0
  6
CONTINUOUS
 62
               3
  5
19B
 10
-0.0000000000002274
 20
543.36059271512227
 30
0.0
 40
75.0
  0
CIRCLE
  8
0
  6
CONTINUOUS
 62
               3
  5
19C
 10
-0.0000000000002274
 20
543.36059271512227
 30
0.0
 40
52.5
  0
LINE
  8
0
  6
CONTINUOUS
 62
               3
  5
19D
 10
-86.210498200625466
 20
563.36059271512227
 30
0.0
 11
-72.2841614740056
 21
563.36059271512227
 31
0.0
  0
LINE
  8
0
  6
CONTINUOUS
 62
               3
  5
19E
 10
-72.2841614740056
 20
523.36059271512227
 30
0.0
 11
-86.210498200625466
 21
523.36059271512227
 31
0.0
  0
ARC
  8
0
  6
CONTINUOUS
 62
               3
  5
19F
 10
-0.0000000000002274
 20
543.36059271512227
 30
0.0
 40
88.5
 50
166.93897588510336
 51
193.06102411468945
  0
LINE
  8
0
  6
CONTINUOUS
 62
               3
  5
1A0
 10
-20.000000000000227
 20
457.15009451449743
 30
0.0
 11
-20.000000000000227
 21
471.07643124111729
 31
0.0
  0
LINE
  8
0
  6
CONTINUOUS
 62
               3
  5
1A1
 10
19.999999999999773
 20
471.07643124111729
 30
0.0
 11
19.999999999999773
 21
457.15009451449743
 31
0.0
  0
ARC
  8
0
  6
CONTINUOUS
 62
               3
  5
1A2
 10
-0.0000000000002274
 20
543.36059271512227
 30
0.0
 40
88.5
 50
256.93897588505172
 51
283.06102411463763
  0
LINE
  8
0
  6
CONTINUOUS
 62
               3
  5
1A3
 10
86.210498200624443
 20
523.36059271512227
 30
0.0
 11
72.284161474004009
 21
523.36059271512227
 31
0.0
  0
LINE
  8
0
  6
CONTINUOUS
 62
               3
  5
1A4
 10
72.284161474004009
 20
563.36059271512227
 30
0.0
 11
86.210498200624443
 21
563.36059271512227
 31
0.0
  0
ARC
  8
0
  6
CONTINUOUS
 62
               3
  5
1A5
 10
-0.0000000000002274
 20
543.36059271512227
 30
0.0
 40
88.5
 50
346.93897588499982
 51
373.06102411458585
  0
LINE
  8
0
  6
CONTINUOUS
 62
               3
  5
1A6
 10
19.999999999999773
 20
629.57109091574785
 30
0.0
 11
19.999999999999773
 21
615.6447541891273
 31
0.0
  0
LINE
  8
0
  6
CONTINUOUS
 62
               3
  5
1A7
 10
-20.000000000000227
 20
615.6447541891273
 30
0.0
 11
-20.000000000000227
 21
629.57109091574785
 31
0.0
  0
ARC
  8
0
  6
CONTINUOUS
 62
               3
  5
1A8
 10
-0.0000000000002274
 20
543.36059271512227
 30
0.0
 40
88.5
 50
76.938975885155202
 51
103.06102411474124
  0
LINE
  8
0
  6
CONTINUOUS
 62
               3
  5
1A9
 10
-47.668123520861286
 20
521.36059271512181
 30
0.0
 11
47.668123520859695
 21
521.36059271512181
 31
0.0
  0
ARC
  8
0
  6
CONTINUOUS
 62
               3
  5
1AA
 10
12.5036116493809
 20
552.06699034274129
 30
0.0
 40
54.763804151667173
 50
141.38591763675663
 51
145.15009542087034
  0
ARC
  8
0
  6
CONTINUOUS
 62
               3
  5
1AB
 10
-0.0000000000002274
 20
543.36059271512227
 30
0.0
 40
51.5
 50
334.71098847326505
 51
410.95932736340404
  0
ARC
  8
0
  6
CONTINUOUS
 62
               3
  5
1AC
 10
-0.0000000000002274
 20
543.36059271512227
 30
0.0
 40
51.5
 50
129.04067263628565
 51
205.28901152642416
  0
LINE
  8
0
  6
CONTINUOUS
 62
               3
  5
1AD
 10
-32.438403166617832
 20
583.36059271512204
 30
0.0
 11
-0.0000000000002274
 21
583.36059271512204
 31
0.0
  0
LINE
  8
0
  6
CONTINUOUS
 62
               3
  5
1AE
 10
-0.0000000000002274
 20
583.36059271512204
 30
0.0
 11
34.003676271838458
 21
583.36059271512204
 31
0.0
  0
LINE
  8
0
  6
CONTINUOUS
 62
               3
  5
1AF
 10
-140.00000000000023
 20
488.36059271512232
 30
0.0
 11
-139.328443874036
 21
488.36059271512232
 31
0.0
  0
LINE
  8
0
  6
CONTINUOUS
 62
               3
  5
1B0
 10
-136.82844387403554
 20
485.86059271512232
 30
0.0
 11
-139.328443874036
 21
488.36059271512232
 31
0.0
  0
LINE
  8
0
  6
CONTINUOUS
 62
               3
  5
1B1
 10
-140.00000000000023
 20
598.36059271512227
 30
0.0
 11
-139.328443874036
 21
598.36059271512227
 31
0.0
  0
LINE
  8
0
  6
CONTINUOUS
 62
               3
  5
1B2
 10
-136.828443874036
 20
600.86059271512227
 30
0.0
 11
-139.328443874036
 21
598.36059271512227
 31
0.0
  0
LINE
  8
0
  6
CONTINUOUS
 62
               3
  5
1B3
 10
-139.328443874036
 20
598.36059271512227
 30
0.0
 11
-139.328443874036
 21
488.36059271512232
 31
0.0
  0
LINE
  8
0
  6
CONTINUOUS
 62
               3
  5
1B4
 10
-145.00000000000023
 20
598.46059271512536
 30
0.0
 11
-145.00000000000023
 21
488.2605927151223
 31
0.0
  0
LINE
  8
0
  6
CONTINUOUS
 62
               3
  5
1B5
 10
-140.00000000000023
 20
485.7605927151223
 30
0.0
 11
-140.00000000000023
 21
600.9605927151224
 31
0.0
  0
LINE
  8
0
  6
CONTINUOUS
 62
               3
  5
1B6
 10
-140.00000000000023
 20
600.9605927151224
 30
0.0
 11
-142.50000000000023
 21
600.9605927151224
 31
0.0
  0
LINE
  8
0
  6
CONTINUOUS
 62
               3
  5
1B7
 10
-140.00000000000023
 20
485.7605927151223
 30
0.0
 11
-142.50000000000023
 21
485.7605927151223
 31
0.0
  0
ARC
  8
0
  6
CONTINUOUS
 62
               3
  5
1B8
 10
-142.50000000000023
 20
488.2605927151223
 30
0.0
 40
2.5
 50
179.99999999989669
 51
269.99999999984499
  0
ARC
  8
0
  6
CONTINUOUS
 62
               3
  5
1B9
 10
-142.50000000000023
 20
598.4605927151224
 30
0.0
 40
2.5
 50
89.999999999948344
 51
179.99999999989538
  0
LINE
  8
0
  6
CONTINUOUS
 62
               3
  5
1BA
 10
-136.82844387403554
 20
485.86059271512232
 30
0.0
 11
-136.828443874036
 21
600.86059271512227
 31
0.0
  0
LINE
  8
0
  6
CONTINUOUS
 62
               3
  5
1BB
 10
-45.490335786378139
 20
604.05018973346387
 30
0.0
 11
-136.828443874036
 21
600.86059271512227
 31
0.0
  0
ARC
  8
0
  6
CONTINUOUS
 62
               3
  5
1BC
 10
-45.664833269890657
 20
609.04714386855949
 30
0.0
 40
5.0
 50
271.99999999984362
 51
304.80675787025234
  0
ARC
  8
0
  6
CONTINUOUS
 62
               3
  5
1BD
 10
-0.0000000000002274
 20
543.36059271512227
 30
0.0
 40
77.5
 50
104.95524831658292
 51
128.57288309100846
  0
LINE
  8
0
  6
CONTINUOUS
 62
               3
  5
1BE
 10
-71.999999999999929
 20
96.896246467975175
 30
0.0
 11
71.999999999989484
 21
96.896246467991972
 31
0.0
  0
ARC
  8
0
  6
CONTINUOUS
 62
               3
  5
1BF
 10
-65.000000000000043
 20
-35.13940728487762
 30
0.0
 40
2.4999999999999996
 50
89.999999999948159
 51
269.99999999984476
  0
ARC
  8
0
  6
CONTINUOUS
 62
               3
  5
1C0
 10
-55.000000000000043
 20
86.36059271512238
 30
0.0
 40
19.999999999999996
 50
148.21166938286288
 51
167.26981986159129
  0
LINE
  8
0
  6
CONTINUOUS
 62
               3
  5
1C1
 10
-140.00000000000006
 20
82.360592715122266
 30
0.0
 11
-139.32844387403566
 21
82.360592715122266
 31
0.0
  0
LINE
  8
0
  6
CONTINUOUS
 62
               3
  5
1C2
 10
-136.8284438740356
 20
84.860592715122493
 30
0.0
 11
-139.32844387403566
 21
82.360592715122266
 31
0.0
  0
LINE
  8
0
  6
CONTINUOUS
 62
               3
  5
1C3
 10
-136.82844387403566
 20
84.860592715122436
 30
0.0
 11
-79.210967671861354
 21
86.872639320274686
 31
0.0
  0
LINE
  8
0
  6
CONTINUOUS
 62
               3
  5
1C4
 10
-140.00000000000006
 20
84.960592715122402
 30
0.0
 11
-142.50000000000006
 21
84.960592715122402
 31
0.0
  0
ARC
  8
0
  6
CONTINUOUS
 62
               3
  5
1C5
 10
-142.50000000000006
 20
82.460592715122402
 30
0.0
 40
2.5
 50
89.999999999948344
 51
179.99999999989603
  0
ARC
  8
0
  6
CONTINUOUS
 62
               3
  5
1C6
 10
-79.385465155373851
 20
91.869593455370136
 30
0.0
 40
5.0
 50
271.9999999998434
 51
347.26981986148633
  0
LINE
  8
0
  6
CONTINUOUS
 62
               3
  5
1C7
 10
-140.00000000000006
 20
-27.63940728487762
 30
0.0
 11
-139.32844387403566
 21
-27.63940728487762
 31
0.0
  0
LINE
  8
0
  6
CONTINUOUS
 62
               3
  5
1C8
 10
-136.8284438740356
 20
-30.139407284876881
 30
0.0
 11
-139.32844387403566
 21
-27.63940728487762
 31
0.0
  0
LINE
  8
0
  6
CONTINUOUS
 62
               3
  5
1C9
 10
-139.32844387403566
 20
82.360592715122266
 30
0.0
 11
-139.32844387403566
 21
-27.63940728487762
 31
0.0
  0
LINE
  8
0
  6
CONTINUOUS
 62
               3
  5
1CA
 10
-140.00000000000006
 20
-30.239407284877615
 30
0.0
 11
-140.00000000000006
 21
84.960592715122402
 31
0.0
  0
LINE
  8
0
  6
CONTINUOUS
 62
               3
  5
1CB
 10
-145.00000000000006
 20
82.460592715122402
 30
0.0
 11
-145.00000000000006
 21
-27.739407284877615
 31
0.0
  0
LINE
  8
0
  6
CONTINUOUS
 62
               3
  5
1CC
 10
-140.00000000000006
 20
-30.239407284877615
 30
0.0
 11
-142.50000000000006
 21
-30.239407284877615
 31
0.0
  0
ARC
  8
0
  6
CONTINUOUS
 62
               3
  5
1CD
 10
-142.50000000000006
 20
-27.739407284877615
 30
0.0
 40
2.5
 50
179.9999999998962
 51
269.99999999984499
  0
LINE
  8
0
  6
CONTINUOUS
 62
               3
  5
1CE
 10
-136.8284438740356
 20
84.860592715122493
 30
0.0
 11
-136.82844387403486
 21
-30.13940728487762
 31
0.0
  0
LINE
  8
0
  6
CONTINUOUS
 62
               3
  5
1CF
 10
-136.82844387403486
 20
-30.13940728487762
 30
0.0
 11
-94.663333617757431
 21
-31.611845380731666
 31
0.0
  0
ARC
  8
0
  6
CONTINUOUS
 62
               3
  5
1D0
 10
-80.000000000000028
 20
-51.44663061709673
 30
0.0
 40
4.9999999999999991
 50
0.0
 51
44.999999999973191
  0
ARC
  8
0
  6
CONTINUOUS
 62
               3
  5
1D1
 10
-94.83783110126997
 20
-36.608799515827116
 30
0.0
 40
5.0
 50
44.999999999974911
 51
87.99999999994894
  0
LINE
  8
0
  6
CONTINUOUS
 62
               3
  5
1D2
 10
-91.302297195336223
 20
-33.073265609895401
 30
0.0
 11
-86.736155520353861
 21
-37.63940728487762
 31
0.0
  0
LINE
  8
0
  6
CONTINUOUS
 62
               3
  5
1D3
 10
-76.464466094067546
 20
-47.911096711163623
 30
0.0
 11
-86.736155520353861
 21
-37.63940728487762
 31
0.0
  0
LINE
  8
0
  6
CONTINUOUS
 62
               3
  5
1D4
 10
-75.000000000000028
 20
-51.44663061709673
 30
0.0
 11
-75.000000000000043
 21
-150.63940728487745
 31
0.0
  0
ARC
  8
0
  6
CONTINUOUS
 62
               3
  5
1D5
 10
-555.0
 20
86.36059271512238
 30
0.0
 40
19.999999999999996
 50
148.21166938286299
 51
179.99999999989646
  0
LINE
  8
0
  6
CONTINUOUS
 62
               3
  5
1D6
 10
-572.0
 20
96.896246467975175
 30
0.0
 11
-428.00000000000017
 21
96.896246467975175
 31
0.0
  0
ARC
  8
0
  6
CONTINUOUS
 62
               3
  5
1D7
 10
-575.0
 20
-35.13940728487762
 30
0.0
 40
2.4999999999999996
 50
89.99999999994769
 51
269.99999999984436
  0
LINE
  8
0
  6
CONTINUOUS
 62
               3
  5
1D8
 10
-575.0
 20
86.36059271512238
 30
0.0
 11
-575.0
 21
-32.63940728487762
 31
0.0
  0
LINE
  8
0
  6
CONTINUOUS
 62
               3
  5
1D9
 10
-575.24584199750166
 20
-37.627290262886113
 30
0.0
 11
-522.5
 21
-37.627290262886113
 31
0.0
  0
LINE
  8
0
  6
CONTINUOUS
 62
               3
  5
1DA
 10
522.49999999999602
 20
-37.720495703082086
 30
0.0
 11
575.00000000000034
 21
-37.720495703082086
 31
0.0
  0
LINE
  8
0
  6
CONTINUOUS
 62
               3
  5
1DB
 10
-477.50000000000455
 20
-37.63940728487762
 30
0.0
 11
-424.99999999999557
 21
-37.63940728487762
 31
0.0
  0
LINE
  8
0
  6
CONTINUOUS
 62
               3
  5
1DC
 10
-425.00000000000063
 20
-150.63940728487745
 30
0.0
 11
-424.99999999999557
 21
-37.63940728487762
 31
0.0
  0
LINE
  8
0
  6
CONTINUOUS
 62
               3
  5
1DD
 10
-43.993469777239902
 20
482.61872398391603
 30
0.0
 11
-136.82844387403549
 21
485.86059271512232
 31
0.0
  0
LINE
  8
0
  6
CONTINUOUS
 62
               3
  5
1DE
 10
-65.000000000004547
 20
-37.63940728487762
 30
0.0
 11
65.000000000004434
 21
-37.63940728487762
 31
0.0
  0
LINE
  8
0
  6
CONTINUOUS
 62
               3
  5
1DF
 10
-65.000000000000043
 20
-32.651524306869128
 30
0.0
 11
-22.254158002493895
 21
-32.651524306869128
 31
0.0
  0
ARC
  8
0
  6
CONTINUOUS
 62
               3
  5
1E0
 10
-425.00000000000006
 20
-35.13940728487762
 30
0.0
 40
2.4999999999999996
 50
270.00000000005019
 51
449.99999999994691
  0
ARC
  8
0
  6
CONTINUOUS
 62
               3
  5
1E1
 10
-445.00000000000006
 20
86.36059271512238
 30
0.0
 40
19.999999999999996
 50
0.0000000000687203
 51
31.788330617102261
  0
LINE
  8
0
  6
CONTINUOUS
 62
               3
  5
1E2
 10
-425.00000000000006
 20
86.36059271512238
 30
0.0
 11
-425.00000000000006
 21
-32.63940728487762
 31
0.0
  0
ARC
  8
0
  6
CONTINUOUS
 62
               3
  5
1E3
 10
54.999999999999943
 20
86.36059271512238
 30
0.0
 40
19.999999999999996
 50
12.730180138373973
 51
31.788330617102307
  0
ARC
  8
0
  6
CONTINUOUS
 62
               3
  5
1E4
 10
79.385465155373765
 20
91.869593455370136
 30
0.0
 40
5.0
 50
192.73018013840917
 51
268.00000000005213
  0
ARC
  8
0
  6
CONTINUOUS
 62
               3
  5
1E5
 10
94.837831101269842
 20
-36.608799515827116
 30
0.0
 40
5.0
 50
92.000000000016158
 51
134.99999999999045
  0
LINE
  8
0
  6
CONTINUOUS
 62
               3
  5
1E6
 10
91.302297195336109
 20
-33.073265609895401
 30
0.0
 11
75.964466094070332
 21
-48.411096711160724
 31
0.0
  0
ARC
  8
0
  6
CONTINUOUS
 62
               3
  5
1E7
 10
64.999999999999943
 20
-35.13940728487762
 30
0.0
 40
2.4999999999999996
 50
270.00000000005082
 51
449.99999999994753
  0
LINE
  8
0
  6
CONTINUOUS
 62
               3
  5
1E8
 10
139.99999999999994
 20
82.360592715122266
 30
0.0
 11
139.32844387403554
 21
82.360592715122266
 31
0.0
  0
LINE
  8
0
  6
CONTINUOUS
 62
               3
  5
1E9
 10
136.82844387403549
 20
84.860592715122493
 30
0.0
 11
139.32844387403554
 21
82.360592715122266
 31
0.0
  0
LINE
  8
0
  6
CONTINUOUS
 62
               3
  5
1EA
 10
139.99999999999994
 20
84.960592715122402
 30
0.0
 11
142.49999999999994
 21
84.960592715122402
 31
0.0
  0
ARC
  8
0
  6
CONTINUOUS
 62
               3
  5
1EB
 10
142.49999999999994
 20
82.460592715122402
 30
0.0
 40
2.5
 50
0.000000000069046
 51
90.000000000016726
  0
LINE
  8
0
  6
CONTINUOUS
 62
               3
  5
1EC
 10
139.99999999999994
 20
-27.63940728487762
 30
0.0
 11
139.32844387403554
 21
-27.63940728487762
 31
0.0
  0
LINE
  8
0
  6
CONTINUOUS
 62
               3
  5
1ED
 10
136.82844387403549
 20
-30.139407284876881
 30
0.0
 11
139.32844387403554
 21
-27.63940728487762
 31
0.0
  0
LINE
  8
0
  6
CONTINUOUS
 62
               3
  5
1EE
 10
139.32844387403554
 20
82.360592715122266
 30
0.0
 11
139.32844387403554
 21
-27.63940728487762
 31
0.0
  0
LINE
  8
0
  6
CONTINUOUS
 62
               3
  5
1EF
 10
139.99999999999994
 20
-30.239407284877615
 30
0.0
 11
139.99999999999994
 21
84.960592715122402
 31
0.0
  0
LINE
  8
0
  6
CONTINUOUS
 62
               3
  5
1F0
 10
144.99999999999994
 20
82.460592715122402
 30
0.0
 11
144.99999999999994
 21
-27.739407284877615
 31
0.0
  0
LINE
  8
0
  6
CONTINUOUS
 62
               3
  5
1F1
 10
139.99999999999994
 20
-30.239407284877615
 30
0.0
 11
142.49999999999994
 21
-30.239407284877615
 31
0.0
  0
ARC
  8
0
  6
CONTINUOUS
 62
               3
  5
1F2
 10
142.49999999999994
 20
-27.739407284877615
 30
0.0
 40
2.5
 50
270.00000000005082
 51
359.99999999999949
  0
LINE
  8
0
  6
CONTINUOUS
 62
               3
  5
1F3
 10
136.82844387403549
 20
84.860592715122493
 30
0.0
 11
136.82844387403475
 21
-30.13940728487762
 31
0.0
  0
LINE
  8
0
  6
CONTINUOUS
 62
               3
  5
1F4
 10
136.82844387403475
 20
-30.13940728487762
 30
0.0
 11
94.663333617757303
 21
-31.611845380731666
 31
0.0
  0
LINE
  8
0
  6
CONTINUOUS
 62
               3
  5
1F5
 10
136.82844387403554
 20
84.860592715122436
 30
0.0
 11
79.210967671861226
 21
86.872639320274686
 31
0.0
  0
ARC
  8
0
  6
CONTINUOUS
 62
               3
  5
1F6
 10
79.499999999999829
 20
-51.946630617096702
 30
0.0
 40
5.0
 50
134.99999999992141
 51
179.99999999989652
  0
LINE
  8
0
  6
CONTINUOUS
 62
               3
  5
1F7
 10
-64.999999999998536
 20
-32.63940728487762
 30
0.0
 11
64.999999999998437
 21
-32.63940728487762
 31
0.0
  0
ARC
  8
0
  6
CONTINUOUS
 62
               3
  5
1F8
 10
-65.000000000000043
 20
-35.13940728487762
 30
0.0
 40
2.4999999999999996
 50
89.999999999948159
 51
269.99999999984476
  0
LINE
  8
0
  6
CONTINUOUS
 62
               3
  5
1F9
 10
74.499999999999829
 20
-51.946630617096702
 30
0.0
 11
74.499999999999829
 21
-150.61101522731315
 31
0.0
  0
LINE
  8
0
  6
CONTINUOUS
 62
               3
  5
1FA
 10
76.750000000000057
 20
-47.625562805231027
 30
0.0
 11
76.750000000000057
 21
-150.73877948635067
 31
0.0
  0
LINE
  8
0
  6
CONTINUOUS
 62
               3
  5
1FB
 10
76.999999999999829
 20
-47.375562805231255
 30
0.0
 11
76.999999999999829
 21
-150.75297551513268
 31
0.0
  0
LINE
  8
0
  6
CONTINUOUS
 62
               3
  5
1FC
 10
45.490335786377685
 20
604.05018973346387
 30
0.0
 11
136.82844387403554
 21
600.86059271512227
 31
0.0
  0
LINE
  8
0
  6
CONTINUOUS
 62
               3
  5
1FD
 10
139.99999999999977
 20
488.36059271512232
 30
0.0
 11
139.32844387403554
 21
488.36059271512232
 31
0.0
  0
LINE
  8
0
  6
CONTINUOUS
 62
               3
  5
1FE
 10
136.82844387403509
 20
485.86059271512232
 30
0.0
 11
139.32844387403554
 21
488.36059271512232
 31
0.0
  0
LINE
  8
0
  6
CONTINUOUS
 62
               3
  5
1FF
 10
139.99999999999977
 20
598.36059271512227
 30
0.0
 11
139.32844387403554
 21
598.36059271512227
 31
0.0
  0
LINE
  8
0
  6
CONTINUOUS
 62
               3
  5
200
 10
136.82844387403554
 20
600.86059271512227
 30
0.0
 11
139.32844387403554
 21
598.36059271512227
 31
0.0
  0
LINE
  8
0
  6
CONTINUOUS
 62
               3
  5
201
 10
139.32844387403554
 20
598.36059271512227
 30
0.0
 11
139.32844387403554
 21
488.36059271512232
 31
0.0
  0
LINE
  8
0
  6
CONTINUOUS
 62
               3
  5
202
 10
144.99999999999977
 20
598.46059271512536
 30
0.0
 11
144.99999999999977
 21
488.2605927151223
 31
0.0
  0
LINE
  8
0
  6
CONTINUOUS
 62
               3
  5
203
 10
139.99999999999977
 20
485.7605927151223
 30
0.0
 11
139.99999999999977
 21
600.9605927151224
 31
0.0
  0
LINE
  8
0
  6
CONTINUOUS
 62
               3
  5
204
 10
139.99999999999977
 20
600.9605927151224
 30
0.0
 11
142.49999999999977
 21
600.9605927151224
 31
0.0
  0
LINE
  8
0
  6
CONTINUOUS
 62
               3
  5
205
 10
139.99999999999977
 20
485.7605927151223
 30
0.0
 11
142.49999999999977
 21
485.7605927151223
 31
0.0
  0
ARC
  8
0
  6
CONTINUOUS
 62
               3
  5
206
 10
142.49999999999977
 20
488.2605927151223
 30
0.0
 40
2.5
 50
270.00000000005082
 51
359.9999999999992
  0
ARC
  8
0
  6
CONTINUOUS
 62
               3
  5
207
 10
142.49999999999977
 20
598.4605927151224
 30
0.0
 40
2.5
 50
0.0000000000677433
 51
90.000000000016726
  0
LINE
  8
0
  6
CONTINUOUS
 62
               3
  5
208
 10
136.82844387403509
 20
485.86059271512232
 30
0.0
 11
136.82844387403554
 21
600.86059271512227
 31
0.0
  0
LINE
  8
0
  6
CONTINUOUS
 62
               3
  5
209
 10
43.993469777239213
 20
482.61872398391586
 30
0.0
 11
136.82844387403503
 21
485.86059271512232
 31
0.0
  0
ARC
  8
0
  6
CONTINUOUS
 62
               3
  5
20A
 10
-0.0000000000002274
 20
543.36059271512227
 30
0.0
 40
77.5
 50
51.427116908956663
 51
75.044751683313493
  0
ARC
  8
0
  6
CONTINUOUS
 62
               3
  5
20B
 10
474.21603418803352
 20
86.360592715122351
 30
0.0
 40
17.566965811965957
 50
0.0
 51
36.851448659209801
  0
ARC
  8
0
  6
CONTINUOUS
 62
               3
  5
20C
 10
525.78396581196648
 20
86.360592715122351
 30
0.0
 40
17.566965811965957
 50
143.14855134068659
 51
179.99999999989643
  0
LINE
  8
0
  6
CONTINUOUS
 62
               3
  5
20D
 10
494.0
 20
96.896246467973782
 30
0.0
 11
506.0
 21
96.896246467973782
 31
0.0
  0
LINE
  8
0
  6
CONTINUOUS
 62
               3
  5
20E
 10
511.72700000000077
 20
101.89624646797378
 30
0.0
 11
488.27299999999923
 21
101.89624646797378
 31
0.0
  0
LINE
  8
0
  6
CONTINUOUS
 62
               3
  5
20F
 10
488.27299999999923
 20
96.896246467973782
 30
0.0
 11
488.27299999999923
 21
101.89624646797378
 31
0.0
  0
LINE
  8
0
  6
CONTINUOUS
 62
               3
  5
210
 10
511.72700000000077
 20
96.896246467973782
 30
0.0
 11
511.72700000000077
 21
101.89624646797378
 31
0.0
  0
LINE
  8
0
  6
CONTINUOUS
 62
               3
  5
211
 10
488.27299999999923
 20
101.89624646797378
 30
0.0
 11
494.0
 21
96.896246467973782
 31
0.0
  0
LINE
  8
0
  6
CONTINUOUS
 62
               3
  5
212
 10
506.0
 20
96.896246467973782
 30
0.0
 11
511.72700000000077
 21
101.89624646797378
 31
0.0
  0
LINE
  8
0
  6
CONTINUOUS
 62
               3
  5
213
 10
506.0
 20
86.360592715122351
 30
0.0
 11
506.0
 21
96.896246467973782
 31
0.0
  0
LINE
  8
0
  6
CONTINUOUS
 62
               3
  5
214
 10
494.0
 20
96.896246467973782
 30
0.0
 11
494.0
 21
86.360592715122351
 31
0.0
  0
ARC
  8
0
  6
CONTINUOUS
 62
               3
  5
215
 10
522.50000000000057
 20
-35.139407284877635
 30
0.0
 40
2.4999999999999996
 50
89.999999999981569
 51
269.99999999984567
  0
ARC
  8
0
  6
CONTINUOUS
 62
               3
  5
216
 10
486.78299999999945
 20
-54.528586402349575
 30
0.0
 40
5.0
 50
0.0
 51
89.99999999994769
  0
ARC
  8
0
  6
CONTINUOUS
 62
               3
  5
217
 10
513.21700000000055
 20
-54.528586402349575
 30
0.0
 40
5.0
 50
89.99999999994769
 51
179.99999999989652
  0
ARC
  8
0
  6
CONTINUOUS
 62
               3
  5
218
 10
445.0
 20
86.360592715122365
 30
0.0
 40
19.999999999999996
 50
148.21166938293172
 51
179.99999999996518
  0
LINE
  8
0
  6
CONTINUOUS
 62
               3
  5
219
 10
425.0
 20
86.360592715122365
 30
0.0
 11
425.0
 21
-32.639407284877635
 31
0.0
  0
ARC
  8
0
  6
CONTINUOUS
 62
               3
  5
21A
 10
425.0
 20
-35.139407284877635
 30
0.0
 40
2.4999999999999996
 50
90.000000000154827
 51
270.00000000005019
  0
LINE
  8
0
  6
CONTINUOUS
 62
               3
  5
21B
 10
477.49999999999943
 20
-32.639407284877635
 30
0.0
 11
425.0
 21
-32.639407284877635
 31
0.0
  0
LINE
  8
0
  6
CONTINUOUS
 62
               3
  5
21C
 10
477.50000000000398
 20
-37.720495703082086
 30
0.0
 11
424.99999999999966
 21
-37.720495703082086
 31
0.0
  0
ARC
  8
0
  6
CONTINUOUS
 62
               3
  5
21D
 10
477.49999999999943
 20
-35.139407284877635
 30
0.0
 40
2.4999999999999996
 50
270.0000000000515
 51
449.99999999991297
  0
LINE
  8
0
  6
CONTINUOUS
 62
               3
  5
21E
 10
425.0
 20
-150.48638368776028
 30
0.0
 11
425.0
 21
-37.639407284877635
 31
0.0
  0
ARC
  8
0
  6
CONTINUOUS
 62
               3
  5
21F
 10
-477.50000000000006
 20
-35.13940728487762
 30
0.0
 40
2.4999999999999996
 50
89.999999999982862
 51
269.99999999984436
  0
ARC
  8
0
  6
CONTINUOUS
 62
               3
  5
220
 10
-522.5
 20
-35.13940728487762
 30
0.0
 40
2.4999999999999996
 50
269.99999999984436
 51
449.99999999991297
  0
LINE
  8
0
  6
CONTINUOUS
 62
               3
  5
221
 10
-575.0
 20
-32.63940728487762
 30
0.0
 11
-522.5
 21
-32.63940728487762
 31
0.0
  0
LINE
  8
0
  6
CONTINUOUS
 62
               3
  5
222
 10
-477.50000000000006
 20
-32.63940728487762
 30
0.0
 11
-425.00000000000153
 21
-32.63940728487762
 31
0.0
  0
CIRCLE
  8
0
  6
CONTINUOUS
 62
               3
  5
223
 10
-500.0
 20
27.360592715122479
 30
0.0
 40
57.5
  0
LINE
  8
0
  6
CONTINUOUS
 62
               3
  5
224
 10
-473.2126429075206
 20
55.360592715122266
 30
0.0
 11
-526.78735709247951
 21
55.360592715122266
 31
0.0
  0
CIRCLE
  8
0
  6
CONTINUOUS
 62
               3
  5
225
 10
-500.00000000000006
 20
27.36059271512238
 30
0.0
 40
48.5
  0
CIRCLE
  8
0
  6
CONTINUOUS
 62
               3
  5
226
 10
-500.00000000000006
 20
27.36059271512238
 30
0.0
 40
38.75
  0
CIRCLE
  8
0
  6
CONTINUOUS
 62
               3
  5
227
 10
-500.00000000000006
 20
27.36059271512238
 30
0.0
 40
47.299999999999997
  0
LINE
  8
0
  6
CONTINUOUS
 62
               3
  5
228
 10
-531.81980515339467
 20
-4.4592124382721749
 30
0.0
 11
-533.44615075012371
 21
-6.085558035001327
 31
0.0
  0
LINE
  8
0
  6
CONTINUOUS
 62
               3
  5
229
 10
-468.18019484660539
 20
-4.4592124382721749
 30
0.0
 11
-466.55384924987629
 21
-6.0855580350012133
 31
0.0
  0
ARC
  8
0
  6
CONTINUOUS
 62
               3
  5
22A
 10
-500.00000000000006
 20
27.36059271512238
 30
0.0
 40
45.0
 50
224.99999999987045
 51
314.99999999981878
  0
CIRCLE
  8
0
  6
CONTINUOUS
 62
               3
  5
22B
 10
-500.00000000000006
 20
27.36059271512238
 30
0.0
 40
43.0
  0
CIRCLE
  8
0
  6
CONTINUOUS
 62
               3
  5
22C
 10
499.99999999999989
 20
27.360592715122365
 30
0.0
 40
57.600000000000001
  0
LINE
  8
0
  6
CONTINUOUS
 62
               3
  5
22D
 10
526.78735709247928
 20
55.360592715122252
 30
0.0
 11
473.21264290752049
 21
55.360592715122252
 31
0.0
  0
CIRCLE
  8
0
  6
CONTINUOUS
 62
               3
  5
22E
 10
499.99999999999989
 20
27.360592715122365
 30
0.0
 40
48.5
  0
CIRCLE
  8
0
  6
CONTINUOUS
 62
               3
  5
22F
 10
499.99999999999989
 20
27.360592715122365
 30
0.0
 40
38.75
  0
CIRCLE
  8
0
  6
CONTINUOUS
 62
               3
  5
230
 10
499.99999999999989
 20
27.360592715122365
 30
0.0
 40
47.299999999999997
  0
LINE
  8
0
  6
CONTINUOUS
 62
               3
  5
231
 10
468.18019484660533
 20
-4.4592124382721892
 30
0.0
 11
466.55384924987618
 21
-6.0855580350013412
 31
0.0
  0
LINE
  8
0
  6
CONTINUOUS
 62
               3
  5
232
 10
531.81980515339455
 20
-4.4592124382721892
 30
0.0
 11
533.44615075012359
 21
-6.0855580350012275
 31
0.0
  0
ARC
  8
0
  6
CONTINUOUS
 62
               3
  5
233
 10
499.99999999999989
 20
27.360592715122365
 30
0.0
 40
45.0
 50
224.99999999987045
 51
314.99999999981878
  0
CIRCLE
  8
0
  6
CONTINUOUS
 62
               3
  5
234
 10
499.99999999999989
 20
27.360592715122365
 30
0.0
 40
43.0
  0
LINE
  8
0
  6
CONTINUOUS
 62
               3
  5
235
 10
58.000000000000071
 20
-299.63940728487734
 30
0.0
 11
60.271775600348818
 21
-297.36763168452887
 31
0.0
  0
LINE
  8
0
  6
CONTINUOUS
 62
               3
  5
236
 10
57.496765133650413
 20
-299.6394072848779
 30
0.0
 11
60.271775600348818
 21
-297.36763168452887
 31
0.0
  0
LINE
  8
0
  6
CONTINUOUS
 62
               3
  5
237
 10
493.99999999999977
 20
-297.42169315420051
 30
0.0
 11
505.99999999999955
 21
-297.42169315420051
 31
0.0
  0
LINE
  8
0
  6
CONTINUOUS
 62
               3
  5
238
 10
491.78299999999967
 20
-299.69346875454954
 30
0.0
 11
493.99999999999977
 21
-297.42169315420051
 31
0.0
  0
LINE
  8
0
  6
CONTINUOUS
 62
               3
  5
239
 10
505.99999999999955
 20
-297.42169315420051
 30
0.0
 11
508.21699999999964
 21
-299.69346875454954
 31
0.0
  0
LINE
  8
0
  6
CONTINUOUS
 62
               3
  5
23A
 10
-57.132845554131009
 20
-311.63940728487762
 30
0.0
 11
56.999999999999844
 21
-311.63940728487762
 31
0.0
  0
LINE
  8
0
  6
CONTINUOUS
 62
               3
  5
23B
 10
56.999999999999844
 20
-311.63940728487762
 30
0.0
 11
58.000000000000071
 21
-310.63940728487739
 31
0.0
  0
LINE
  8
0
  6
CONTINUOUS
 62
               3
  5
23C
 10
-57.132845554131009
 20
-311.63940728487762
 30
0.0
 11
-58.000000000000156
 21
-310.77225283900844
 31
0.0
  0
LINE
  8
0
  6
CONTINUOUS
 62
               3
  5
23D
 10
58.000000000000071
 20
-310.63940728487739
 30
0.0
 11
58.000000000000071
 21
-299.63940728487785
 31
0.0
  0
LINE
  8
0
  6
CONTINUOUS
 62
               3
  5
23E
 10
-58.000000000000156
 20
-310.77225283900844
 30
0.0
 11
-58.000000000000156
 21
-299.6394072848779
 31
0.0
  0
LINE
  8
0
  6
CONTINUOUS
 62
               3
  5
23F
 10
-557.13284555413111
 20
-311.63940728487762
 30
0.0
 11
-443.00000000000017
 21
-311.63940728487762
 31
0.0
  0
LINE
  8
0
  6
CONTINUOUS
 62
               3
  5
240
 10
-443.00000000000017
 20
-311.63940728487762
 30
0.0
 11
-441.99999999999994
 21
-310.63940728487739
 31
0.0
  0
LINE
  8
0
  6
CONTINUOUS
 62
               3
  5
241
 10
-557.13284555413111
 20
-311.63940728487762
 30
0.0
 11
-558.00000000000023
 21
-310.7722528390085
 31
0.0
  0
LINE
  8
0
  6
CONTINUOUS
 62
               3
  5
242
 10
-558.00000000000023
 20
-310.7722528390085
 30
0.0
 11
-558.00000000000023
 21
-299.63940728487785
 31
0.0
  0
LINE
  8
0
  6
CONTINUOUS
 62
               3
  5
243
 10
-441.99999999999994
 20
-310.63940728487739
 30
0.0
 11
-441.99999999999994
 21
-299.63940728487785
 31
0.0
  0
LINE
  8
0
  6
CONTINUOUS
 62
               3
  5
244
 10
442.86715444586889
 20
-311.63940728487762
 30
0.0
 11
556.99999999999977
 21
-311.63940728487762
 31
0.0
  0
LINE
  8
0
  6
CONTINUOUS
 62
               3
  5
245
 10
556.99999999999977
 20
-311.63940728487762
 30
0.0
 11
558.0
 21
-310.63940728487739
 31
0.0
  0
LINE
  8
0
  6
CONTINUOUS
 62
               3
  5
246
 10
442.86715444586889
 20
-311.63940728487762
 30
0.0
 11
441.99999999999977
 21
-310.7722528390085
 31
0.0
  0
LINE
  8
0
  6
CONTINUOUS
 62
               3
  5
247
 10
441.99999999999977
 20
-310.7722528390085
 30
0.0
 11
441.99999999999977
 21
-299.63940728487785
 31
0.0
  0
LINE
  8
0
  6
CONTINUOUS
 62
               3
  5
248
 10
558.0
 20
-310.63940728487739
 30
0.0
 11
558.0
 21
-299.63940728487785
 31
0.0
  0
LINE
  8
0
  6
CONTINUOUS
 62
               3
  5
249
 10
56.999999999999844
 20
-311.63940728487762
 30
0.0
 11
56.999999999999844
 21
-362.63940728487762
 31
0.0
  0
LINE
  8
0
  6
CONTINUOUS
 62
               3
  5
24A
 10
-57.132845554131009
 20
-311.63940728487762
 30
0.0
 11
-57.132845554131009
 21
-362.63940728487762
 31
0.0
  0
LINE
  8
0
  6
CONTINUOUS
 62
               3
  5
24B
 10
-557.13284555413111
 20
-311.63940728487762
 30
0.0
 11
-557.13284555413111
 21
-362.63940728487762
 31
0.0
  0
LINE
  8
0
  6
CONTINUOUS
 62
               3
  5
24C
 10
-443.00000000000017
 20
-311.63940728487762
 30
0.0
 11
-443.00000000000017
 21
-362.63940728487762
 31
0.0
  0
LINE
  8
0
  6
CONTINUOUS
 62
               3
  5
24D
 10
556.99999999999977
 20
-311.63940728487762
 30
0.0
 11
556.99999999999977
 21
-362.63940728487762
 31
0.0
  0
LINE
  8
0
  6
CONTINUOUS
 62
               3
  5
24E
 10
442.86715444586889
 20
-311.63940728487762
 30
0.0
 11
442.86715444586889
 21
-362.63940728487762
 31
0.0
  0
LINE
  8
0
  6
CONTINUOUS
 62
               3
  5
24F
 10
491.78299999999967
 20
-299.69346875454954
 30
0.0
 11
508.21699999999964
 21
-299.69346875454954
 31
0.0
  0
LINE
  8
0
  6
CONTINUOUS
 62
               3
  5
250
 10
57.496765133650413
 20
-299.6394072848779
 30
0.0
 11
58.000000000000071
 21
-299.63940728487785
 31
0.0
  0
LINE
  8
0
  6
CONTINUOUS
 62
               3
  5
251
 10
-62.000000000000767
 20
-491.63940728487648
 30
0.0
 11
-62.000000000000767
 21
-476.63940728487739
 31
0.0
  0
LINE
  8
0
  6
CONTINUOUS
 62
               3
  5
252
 10
-65.000000000000597
 20
-491.63940728487648
 30
0.0
 11
64.999999999999375
 21
-491.63940728487648
 31
0.0
  0
ARC
  8
0
  6
CONTINUOUS
 62
               3
  5
253
 10
-75.999999999999972
 20
-350.6394072848783
 30
0.0
 40
4.0
 50
89.999999999965041
 51
179.9999999999304
  0
ARC
  8
0
  6
CONTINUOUS
 62
               3
  5
254
 10
-78.999999999999943
 20
-347.6394072848783
 30
0.0
 40
1.0000000000000004
 50
89.999999999964274
 51
179.99999999993119
  0
LINE
  8
0
  6
CONTINUOUS
 62
               3
  5
255
 10
-80.999999999999972
 20
-347.6394072848783
 30
0.0
 11
-81.00000000000054
 21
-410.63940728487717
 31
0.0
  0
LINE
  8
0
  6
CONTINUOUS
 62
               3
  5
256
 10
-80.000000000000171
 20
-347.6394072848783
 30
0.0
 11
-80.000000000000739
 21
-410.63940728487717
 31
0.0
  0
ARC
  8
0
  6
CONTINUOUS
 62
               3
  5
257
 10
-82.000000000000483
 20
-410.63940728487717
 30
0.0
 40
1.9999999999999996
 50
269.99999999989586
 51
359.99999999986238
  0
ARC
  8
0
  6
CONTINUOUS
 62
               3
  5
258
 10
-82.000000000000483
 20
-410.63940728487717
 30
0.0
 40
1.0000000000000004
 50
269.99999999989581
 51
359.99999999986238
  0
LINE
  8
0
  6
CONTINUOUS
 62
               3
  5
259
 10
-82.000000000000483
 20
-412.63940728487717
 30
0.0
 11
-145.0000000000006
 21
-412.63940728487762
 31
0.0
  0
LINE
  8
0
  6
CONTINUOUS
 62
               3
  5
25A
 10
-82.000000000000483
 20
-411.63940728487717
 30
0.0
 11
-145.0000000000006
 21
-411.63940728487762
 31
0.0
  0
LINE
  8
0
  6
CONTINUOUS
 62
               3
  5
25B
 10
-0.0000000000000284
 20
-346.63940728487762
 30
0.0
 11
-78.999999999999943
 21
-346.6394072848783
 31
0.0
  0
LINE
  8
0
  6
CONTINUOUS
 62
               3
  5
25C
 10
-64.999999999999602
 20
-477.63940728487717
 30
0.0
 11
-78.999999999999517
 21
-477.63940728487739
 31
0.0
  0
ARC
  8
0
  6
CONTINUOUS
 62
               3
  5
25D
 10
-78.999999999999517
 20
-475.63940728487739
 30
0.0
 40
1.0000000000000004
 50
179.99999999993119
 51
269.99999999989586
  0
ARC
  8
0
  6
CONTINUOUS
 62
               3
  5
25E
 10
-78.999999999999517
 20
-475.63940728487739
 30
0.0
 40
1.9999999999999996
 50
179.99999999993119
 51
269.9999999998974
  0
ARC
  8
0
  6
CONTINUOUS
 62
               3
  5
25F
 10
-75.999999999999687
 20
-472.63940728487739
 30
0.0
 40
4.0
 50
179.99999999993119
 51
269.9999999998974
  0
LINE
  8
0
  6
CONTINUOUS
 62
               3
  5
260
 10
-64.999999999999602
 20
-477.63940728487717
 30
0.0
 11
-64.999999999999602
 21
-476.63940728487739
 31
0.0
  0
LINE
  8
0
  6
CONTINUOUS
 62
               3
  5
261
 10
-80.999999999999687
 20
-475.63940728487739
 30
0.0
 11
-81.00000000000054
 21
-414.63940728487717
 31
0.0
  0
LINE
  8
0
  6
CONTINUOUS
 62
               3
  5
262
 10
-79.999999999999602
 20
-475.63940728487739
 30
0.0
 11
-80.000000000000597
 21
-414.63940728487717
 31
0.0
  0
LINE
  8
0
  6
CONTINUOUS
 62
               3
  5
263
 10
-0.0000000000005969
 20
-476.63940728487648
 30
0.0
 11
-78.999999999999517
 21
-476.63940728487739
 31
0.0
  0
LINE
  8
0
  6
CONTINUOUS
 62
               3
  5
264
 10
-0.0000000000005969
 20
-454.13940728487648
 30
0.0
 11
-79.999999999999744
 21
-454.13940728487717
 31
0.0
  0
ARC
  8
0
  6
CONTINUOUS
 62
               3
  5
265
 10
-82.000000000000483
 20
-414.63940728487717
 30
0.0
 40
1.9999999999999996
 50
0.0000000000016284
 51
89.999999999965809
  0
ARC
  8
0
  6
CONTINUOUS
 62
               3
  5
266
 10
-82.000000000000483
 20
-414.63940728487717
 30
0.0
 40
1.0000000000000004
 50
0.0
 51
89.999999999967429
  0
LINE
  8
0
  6
CONTINUOUS
 62
               3
  5
267
 10
-82.000000000000483
 20
-413.63940728487717
 30
0.0
 11
-145.0000000000006
 21
-413.63940728487762
 31
0.0
  0
LINE
  8
0
  6
CONTINUOUS
 62
               3
  5
268
 10
-80.000000000000171
 20
-369.6394072848783
 30
0.0
 11
-0.0000000000000284
 21
-369.6394072848783
 31
0.0
  0
LINE
  8
0
  6
CONTINUOUS
 62
               3
  5
269
 10
-77.000000000000199
 20
-369.6394072848783
 30
0.0
 11
-77.000000000000767
 21
-454.13940728487717
 31
0.0
  0
LINE
  8
0
  6
CONTINUOUS
 62
               3
  5
26A
 10
-145.0000000000006
 20
-411.63940728487762
 30
0.0
 11
-145.0000000000006
 21
-412.63940728487762
 31
0.0
  0
LINE
  8
0
  6
CONTINUOUS
 62
               3
  5
26B
 10
-145.0000000000006
 20
-413.63940728487762
 30
0.0
 11
-145.0000000000006
 21
-412.63940728487762
 31
0.0
  0
LINE
  8
0
  6
CONTINUOUS
 62
               3
  5
26C
 10
-87.25000000000054
 20
-410.13940728487717
 30
0.0
 11
-94.75000000000054
 21
-410.13940728487717
 31
0.0
  0
LINE
  8
0
  6
CONTINUOUS
 62
               3
  5
26D
 10
-87.25000000000054
 20
-415.13940728487717
 30
0.0
 11
-94.75000000000054
 21
-415.13940728487739
 31
0.0
  0
LINE
  8
0
  6
CONTINUOUS
 62
               3
  5
26E
 10
-87.25000000000054
 20
-410.13940728487717
 30
0.0
 11
-87.25000000000054
 21
-411.63940728487717
 31
0.0
  0
LINE
  8
0
  6
CONTINUOUS
 62
               3
  5
26F
 10
-87.25000000000054
 20
-413.63940728487717
 30
0.0
 11
-87.25000000000054
 21
-415.13940728487717
 31
0.0
  0
LINE
  8
0
  6
CONTINUOUS
 62
               3
  5
270
 10
-94.75000000000054
 20
-410.13940728487717
 30
0.0
 11
-94.75000000000054
 21
-411.63940728487717
 31
0.0
  0
LINE
  8
0
  6
CONTINUOUS
 62
               3
  5
271
 10
-94.75000000000054
 20
-413.63940728487739
 30
0.0
 11
-94.75000000000054
 21
-415.13940728487739
 31
0.0
  0
ARC
  8
0
  6
CONTINUOUS
 62
               3
  5
272
 10
75.999999999999773
 20
-350.6394072848783
 30
0.0
 40
4.0
 50
0.0000000000341973
 51
90.000000000000199
  0
ARC
  8
0
  6
CONTINUOUS
 62
               3
  5
273
 10
78.999999999999716
 20
-347.6394072848783
 30
0.0
 40
1.0000000000000004
 50
0.0000000000358258
 51
90.000000000001421
  0
LINE
  8
0
  6
CONTINUOUS
 62
               3
  5
274
 10
80.999999999999773
 20
-347.6394072848783
 30
0.0
 11
80.999999999999204
 21
-410.63940728487717
 31
0.0
  0
LINE
  8
0
  6
CONTINUOUS
 62
               3
  5
275
 10
79.999999999999943
 20
-347.6394072848783
 30
0.0
 11
79.999999999999375
 21
-410.63940728487717
 31
0.0
  0
ARC
  8
0
  6
CONTINUOUS
 62
               3
  5
276
 10
81.999999999999261
 20
-410.63940728487717
 30
0.0
 40
1.9999999999999996
 50
180.00000000003379
 51
269.99999999999937
  0
ARC
  8
0
  6
CONTINUOUS
 62
               3
  5
277
 10
81.999999999999261
 20
-410.63940728487717
 30
0.0
 40
1.0000000000000004
 50
180.00000000003541
 51
269.99999999999937
  0
LINE
  8
0
  6
CONTINUOUS
 62
               3
  5
278
 10
81.999999999999261
 20
-412.63940728487717
 30
0.0
 11
144.99999999999937
 21
-412.63940728487762
 31
0.0
  0
LINE
  8
0
  6
CONTINUOUS
 62
               3
  5
279
 10
81.999999999999261
 20
-411.63940728487717
 30
0.0
 11
144.99999999999937
 21
-411.63940728487762
 31
0.0
  0
LINE
  8
0
  6
CONTINUOUS
 62
               3
  5
27A
 10
-0.0000000000000284
 20
-346.63940728487762
 30
0.0
 11
78.999999999999716
 21
-346.6394072848783
 31
0.0
  0
LINE
  8
0
  6
CONTINUOUS
 62
               3
  5
27B
 10
64.999999999998238
 20
-477.63940728487717
 30
0.0
 11
78.999999999998295
 21
-477.63940728487739
 31
0.0
  0
ARC
  8
0
  6
CONTINUOUS
 62
               3
  5
27C
 10
78.999999999998295
 20
-475.63940728487739
 30
0.0
 40
1.0000000000000004
 50
269.99999999999937
 51
359.99999999996339
  0
ARC
  8
0
  6
CONTINUOUS
 62
               3
  5
27D
 10
78.999999999998295
 20
-475.63940728487739
 30
0.0
 40
1.9999999999999996
 50
269.99999999999858
 51
359.99999999996339
  0
ARC
  8
0
  6
CONTINUOUS
 62
               3
  5
27E
 10
75.999999999998352
 20
-472.63940728487739
 30
0.0
 40
4.0
 50
269.99999999999818
 51
359.99999999996419
  0
LINE
  8
0
  6
CONTINUOUS
 62
               3
  5
27F
 10
64.999999999998238
 20
-477.63940728487717
 30
0.0
 11
64.999999999998238
 21
-476.63940728487739
 31
0.0
  0
LINE
  8
0
  6
CONTINUOUS
 62
               3
  5
280
 10
80.999999999998181
 20
-475.63940728487739
 30
0.0
 11
80.999999999999204
 21
-414.63940728487717
 31
0.0
  0
LINE
  8
0
  6
CONTINUOUS
 62
               3
  5
281
 10
79.999999999998238
 20
-475.63940728487739
 30
0.0
 11
79.999999999999261
 21
-414.63940728487717
 31
0.0
  0
LINE
  8
0
  6
CONTINUOUS
 62
               3
  5
282
 10
-0.0000000000005969
 20
-476.63940728487648
 30
0.0
 11
78.999999999998295
 21
-476.63940728487739
 31
0.0
  0
LINE
  8
0
  6
CONTINUOUS
 62
               3
  5
283
 10
-0.0000000000005969
 20
-454.13940728487648
 30
0.0
 11
79.999999999998522
 21
-454.13940728487717
 31
0.0
  0
ARC
  8
0
  6
CONTINUOUS
 62
               3
  5
284
 10
81.999999999999261
 20
-414.63940728487717
 30
0.0
 40
1.9999999999999996
 50
89.999999999999801
 51
179.99999999996376
  0
ARC
  8
0
  6
CONTINUOUS
 62
               3
  5
285
 10
81.999999999999261
 20
-414.63940728487717
 30
0.0
 40
1.0000000000000004
 50
89.999999999998167
 51
179.99999999996376
  0
LINE
  8
0
  6
CONTINUOUS
 62
               3
  5
286
 10
81.999999999999261
 20
-413.63940728487717
 30
0.0
 11
144.99999999999937
 21
-413.63940728487762
 31
0.0
  0
LINE
  8
0
  6
CONTINUOUS
 62
               3
  5
287
 10
79.999999999999943
 20
-369.6394072848783
 30
0.0
 11
-0.0000000000000284
 21
-369.6394072848783
 31
0.0
  0
LINE
  8
0
  6
CONTINUOUS
 62
               3
  5
288
 10
76.999999999999829
 20
-369.6394072848783
 30
0.0
 11
76.999999999999261
 21
-454.13940728487717
 31
0.0
  0
LINE
  8
0
  6
CONTINUOUS
 62
               3
  5
289
 10
144.99999999999937
 20
-411.63940728487762
 30
0.0
 11
144.99999999999937
 21
-412.63940728487762
 31
0.0
  0
LINE
  8
0
  6
CONTINUOUS
 62
               3
  5
28A
 10
144.99999999999937
 20
-413.63940728487762
 30
0.0
 11
144.99999999999937
 21
-412.63940728487762
 31
0.0
  0
LINE
  8
0
  6
CONTINUOUS
 62
               3
  5
28B
 10
87.249999999999204
 20
-410.13940728487717
 30
0.0
 11
94.749999999999204
 21
-410.13940728487717
 31
0.0
  0
LINE
  8
0
  6
CONTINUOUS
 62
               3
  5
28C
 10
87.249999999999204
 20
-415.13940728487717
 30
0.0
 11
94.749999999999204
 21
-415.13940728487739
 31
0.0
  0
LINE
  8
0
  6
CONTINUOUS
 62
               3
  5
28D
 10
87.249999999999204
 20
-410.13940728487717
 30
0.0
 11
87.249999999999204
 21
-411.63940728487717
 31
0.0
  0
LINE
  8
0
  6
CONTINUOUS
 62
               3
  5
28E
 10
87.249999999999204
 20
-413.63940728487717
 30
0.0
 11
87.249999999999204
 21
-415.13940728487717
 31
0.0
  0
LINE
  8
0
  6
CONTINUOUS
 62
               3
  5
28F
 10
94.749999999999204
 20
-410.13940728487717
 30
0.0
 11
94.749999999999204
 21
-411.63940728487717
 31
0.0
  0
LINE
  8
0
  6
CONTINUOUS
 62
               3
  5
290
 10
94.749999999999204
 20
-413.63940728487739
 30
0.0
 11
94.749999999999204
 21
-415.13940728487739
 31
0.0
  0
LINE
  8
0
  6
CONTINUOUS
 62
               3
  5
291
 10
61.999999999999289
 20
-491.63940728487648
 30
0.0
 11
61.999999999999289
 21
-476.63940728487739
 31
0.0
  0
LINE
  8
0
  6
CONTINUOUS
 62
               3
  5
292
 10
-562.00000000000023
 20
-491.63940728487648
 30
0.0
 11
-562.00000000000023
 21
-476.63940728487739
 31
0.0
  0
LINE
  8
0
  6
CONTINUOUS
 62
               3
  5
293
 10
-565.0
 20
-491.63940728487648
 30
0.0
 11
-435.00000000000006
 21
-491.63940728487648
 31
0.0
  0
ARC
  8
0
  6
CONTINUOUS
 62
               3
  5
294
 10
-575.99999999999943
 20
-350.6394072848783
 30
0.0
 40
4.0
 50
89.999999999964786
 51
179.9999999999304
  0
LINE
  8
0
  6
CONTINUOUS
 62
               3
  5
295
 10
-579.99999999999943
 20
-350.63940728487592
 30
0.0
 11
-579.99999999999966
 21
-369.6394072848783
 31
0.0
  0
LINE
  8
0
  6
CONTINUOUS
 62
               3
  5
296
 10
-515.99999999999955
 20
-346.63940728487773
 30
0.0
 11
-575.99999999999955
 21
-346.6394072848783
 31
0.0
  0
LINE
  8
0
  6
CONTINUOUS
 62
               3
  5
297
 10
-515.99999999999955
 20
-477.63940728487637
 30
0.0
 11
-483.99999999999898
 21
-477.63940728487592
 31
0.0
  0
ARC
  8
0
  6
CONTINUOUS
 62
               3
  5
298
 10
-575.99999999999909
 20
-472.63940728487739
 30
0.0
 40
4.0
 50
179.99999999993119
 51
269.99999999989763
  0
LINE
  8
0
  6
CONTINUOUS
 62
               3
  5
299
 10
-579.9999999999992
 20
-472.63940728487739
 30
0.0
 11
-579.99999999999909
 21
-454.13940728487717
 31
0.0
  0
LINE
  8
0
  6
CONTINUOUS
 62
               3
  5
29A
 10
-515.99999999999955
 20
-476.63940728487671
 30
0.0
 11
-576.00000000000273
 21
-476.63940728487739
 31
0.0
  0
LINE
  8
0
  6
CONTINUOUS
 62
               3
  5
29B
 10
-515.99999999999955
 20
-454.1394072848766
 30
0.0
 11
-579.9999999999992
 21
-454.13940728487717
 31
0.0
  0
LINE
  8
0
  6
CONTINUOUS
 62
               3
  5
29C
 10
-579.99999999999966
 20
-369.6394072848783
 30
0.0
 11
-515.99999999999955
 21
-369.6394072848783
 31
0.0
  0
LINE
  8
0
  6
CONTINUOUS
 62
               3
  5
29D
 10
-576.99999999999966
 20
-369.6394072848783
 30
0.0
 11
-577.00000000000023
 21
-454.13940728487717
 31
0.0
  0
LINE
  8
0
  6
CONTINUOUS
 62
               3
  5
29E
 10
-483.99999999999949
 20
-346.63940728487773
 30
0.0
 11
-420.99999999999972
 21
-346.6394072848783
 31
0.0
  0
LINE
  8
0
  6
CONTINUOUS
 62
               3
  5
29F
 10
-483.99999999999898
 20
-476.63940728487671
 30
0.0
 11
-424.00000000000102
 21
-476.63940728487739
 31
0.0
  0
LINE
  8
0
  6
CONTINUOUS
 62
               3
  5
2A0
 10
-483.99999999999898
 20
-454.13940728487671
 30
0.0
 11
-420.00000000000091
 21
-454.13940728487717
 31
0.0
  0
LINE
  8
0
  6
CONTINUOUS
 62
               3
  5
2A1
 10
-419.99999999999949
 20
-369.6394072848783
 30
0.0
 11
-483.99999999999949
 21
-369.6394072848783
 31
0.0
  0
LINE
  8
0
  6
CONTINUOUS
 62
               3
  5
2A2
 10
-438.00000000000017
 20
-491.63940728487648
 30
0.0
 11
-438.00000000000017
 21
-476.63940728487739
 31
0.0
  0
LINE
  8
0
  6
CONTINUOUS
 62
               3
  5
2A3
 10
-515.99999999999955
 20
-412.63940728487717
 30
0.0
 11
-483.99999999999898
 21
-412.63940728487717
 31
0.0
  0
LINE
  8
0
  6
CONTINUOUS
 62
               3
  5
2A4
 10
-515.99999999999955
 20
-411.63940728487739
 30
0.0
 11
-483.99999999999898
 21
-411.63940728487739
 31
0.0
  0
LINE
  8
0
  6
CONTINUOUS
 62
               3
  5
2A5
 10
-515.99999999999955
 20
-413.63940728487739
 30
0.0
 11
-483.99999999999898
 21
-413.63940728487739
 31
0.0
  0
ARC
  8
0
  6
CONTINUOUS
 62
               3
  5
2A6
 10
-424.00000000000068
 20
-350.6394072848783
 30
0.0
 40
4.0
 50
0.0000000000341973
 51
89.999999999999801
  0
LINE
  8
0
  6
CONTINUOUS
 62
               3
  5
2A7
 10
-420.00000000000068
 20
-350.63940728487592
 30
0.0
 11
-420.00000000000045
 21
-369.6394072848783
 31
0.0
  0
ARC
  8
0
  6
CONTINUOUS
 62
               3
  5
2A8
 10
-424.00000000000097
 20
-472.63940728487739
 30
0.0
 40
4.0
 50
269.99999999999858
 51
359.99999999996419
  0
LINE
  8
0
  6
CONTINUOUS
 62
               3
  5
2A9
 10
-420.00000000000091
 20
-472.63940728487739
 30
0.0
 11
-420.00000000000102
 21
-454.13940728487717
 31
0.0
  0
LINE
  8
0
  6
CONTINUOUS
 62
               3
  5
2AA
 10
-423.00000000000045
 20
-369.6394072848783
 30
0.0
 11
-422.99999999999989
 21
-454.13940728487717
 31
0.0
  0
LINE
  8
0
  6
CONTINUOUS
 62
               3
  5
2AB
 10
437.99999999999977
 20
-491.63940728487648
 30
0.0
 11
437.99999999999977
 21
-476.63940728487739
 31
0.0
  0
LINE
  8
0
  6
CONTINUOUS
 62
               3
  5
2AC
 10
434.99999999999994
 20
-491.63940728487648
 30
0.0
 11
564.99999999999989
 21
-491.63940728487648
 31
0.0
  0
ARC
  8
0
  6
CONTINUOUS
 62
               3
  5
2AD
 10
424.00000000000057
 20
-350.6394072848783
 30
0.0
 40
4.0
 50
89.999999999964786
 51
179.9999999999304
  0
LINE
  8
0
  6
CONTINUOUS
 62
               3
  5
2AE
 10
420.00000000000057
 20
-350.63940728487592
 30
0.0
 11
420.00000000000034
 21
-369.6394072848783
 31
0.0
  0
LINE
  8
0
  6
CONTINUOUS
 62
               3
  5
2AF
 10
484.00000000000057
 20
-346.63940728487773
 30
0.0
 11
424.00000000000051
 21
-346.6394072848783
 31
0.0
  0
LINE
  8
0
  6
CONTINUOUS
 62
               3
  5
2B0
 10
484.00000000000057
 20
-477.63940728487637
 30
0.0
 11
516.00000000000102
 21
-477.63940728487592
 31
0.0
  0
ARC
  8
0
  6
CONTINUOUS
 62
               3
  5
2B1
 10
424.00000000000085
 20
-472.63940728487739
 30
0.0
 40
4.0
 50
179.99999999993119
 51
269.99999999989763
  0
LINE
  8
0
  6
CONTINUOUS
 62
               3
  5
2B2
 10
420.0000000000008
 20
-472.63940728487739
 30
0.0
 11
420.00000000000091
 21
-454.13940728487717
 31
0.0
  0
LINE
  8
0
  6
CONTINUOUS
 62
               3
  5
2B3
 10
484.00000000000057
 20
-476.63940728487671
 30
0.0
 11
423.99999999999733
 21
-476.63940728487739
 31
0.0
  0
LINE
  8
0
  6
CONTINUOUS
 62
               3
  5
2B4
 10
484.00000000000057
 20
-454.1394072848766
 30
0.0
 11
420.0000000000008
 21
-454.13940728487717
 31
0.0
  0
LINE
  8
0
  6
CONTINUOUS
 62
               3
  5
2B5
 10
420.00000000000034
 20
-369.6394072848783
 30
0.0
 11
484.00000000000057
 21
-369.6394072848783
 31
0.0
  0
LINE
  8
0
  6
CONTINUOUS
 62
               3
  5
2B6
 10
423.00000000000034
 20
-369.6394072848783
 30
0.0
 11
422.99999999999977
 21
-454.13940728487717
 31
0.0
  0
LINE
  8
0
  6
CONTINUOUS
 62
               3
  5
2B7
 10
516.00000000000057
 20
-346.63940728487773
 30
0.0
 11
579.00000000000034
 21
-346.6394072848783
 31
0.0
  0
LINE
  8
0
  6
CONTINUOUS
 62
               3
  5
2B8
 10
516.00000000000102
 20
-476.63940728487671
 30
0.0
 11
575.99999999999898
 21
-476.63940728487739
 31
0.0
  0
LINE
  8
0
  6
CONTINUOUS
 62
               3
  5
2B9
 10
516.00000000000102
 20
-454.13940728487671
 30
0.0
 11
579.99999999999909
 21
-454.13940728487717
 31
0.0
  0
LINE
  8
0
  6
CONTINUOUS
 62
               3
  5
2BA
 10
580.00000000000057
 20
-369.6394072848783
 30
0.0
 11
516.00000000000057
 21
-369.6394072848783
 31
0.0
  0
LINE
  8
0
  6
CONTINUOUS
 62
               3
  5
2BB
 10
561.99999999999989
 20
-491.63940728487648
 30
0.0
 11
561.99999999999989
 21
-476.63940728487739
 31
0.0
  0
LINE
  8
0
  6
CONTINUOUS
 62
               3
  5
2BC
 10
484.00000000000057
 20
-412.63940728487717
 30
0.0
 11
516.00000000000102
 21
-412.63940728487717
 31
0.0
  0
LINE
  8
0
  6
CONTINUOUS
 62
               3
  5
2BD
 10
484.00000000000057
 20
-411.63940728487739
 30
0.0
 11
516.00000000000102
 21
-411.63940728487739
 31
0.0
  0
LINE
  8
0
  6
CONTINUOUS
 62
               3
  5
2BE
 10
484.00000000000057
 20
-413.63940728487739
 30
0.0
 11
516.00000000000102
 21
-413.63940728487739
 31
0.0
  0
ARC
  8
0
  6
CONTINUOUS
 62
               3
  5
2BF
 10
575.99999999999932
 20
-350.6394072848783
 30
0.0
 40
4.0
 50
0.0000000000341973
 51
89.999999999999801
  0
LINE
  8
0
  6
CONTINUOUS
 62
               3
  5
2C0
 10
579.99999999999932
 20
-350.63940728487592
 30
0.0
 11
579.99999999999955
 21
-369.6394072848783
 31
0.0
  0
ARC
  8
0
  6
CONTINUOUS
 62
               3
  5
2C1
 10
575.99999999999898
 20
-472.63940728487739
 30
0.0
 40
4.0
 50
269.99999999999778
 51
359.99999999996419
  0
LINE
  8
0
  6
CONTINUOUS
 62
               3
  5
2C2
 10
579.99999999999909
 20
-472.63940728487739
 30
0.0
 11
579.99999999999898
 21
-454.13940728487717
 31
0.0
  0
LINE
  8
0
  6
CONTINUOUS
 62
               3
  5
2C3
 10
576.99999999999955
 20
-369.6394072848783
 30
0.0
 11
577.00000000000011
 21
-454.13940728487717
 31
0.0
  0
LINE
  8
0
  6
CONTINUOUS
 62
               3
  5
2C4
 10
-515.99999999999955
 20
-345.6394072848783
 30
0.0
 11
-515.99999999999955
 21
-477.63940728487637
 31
0.0
  0
LINE
  8
0
  6
CONTINUOUS
 62
               3
  5
2C5
 10
-516.0
 20
-345.6394072848783
 30
0.0
 11
-484.00000000000006
 21
-345.6394072848783
 31
0.0
  0
LINE
  8
0
  6
CONTINUOUS
 62
               3
  5
2C6
 10
-483.99999999999898
 20
-477.63940728487592
 30
0.0
 11
-483.99999999999949
 21
-345.6394072848783
 31
0.0
  0
LINE
  8
0
  6
CONTINUOUS
 62
               3
  5
2C7
 10
-515.99999999999955
 20
-477.63940728487637
 30
0.0
 11
-483.99999999999898
 21
-477.63940728487592
 31
0.0
  0
LINE
  8
0
  6
CONTINUOUS
 62
               3
  5
2C8
 10
484.00000000000057
 20
-345.6394072848783
 30
0.0
 11
484.00000000000057
 21
-477.63940728487637
 31
0.0
  0
LINE
  8
0
  6
CONTINUOUS
 62
               3
  5
2C9
 10
483.99999999999989
 20
-345.6394072848783
 30
0.0
 11
515.99999999999989
 21
-345.6394072848783
 31
0.0
  0
LINE
  8
0
  6
CONTINUOUS
 62
               3
  5
2CA
 10
516.00000000000102
 20
-477.63940728487592
 30
0.0
 11
516.00000000000057
 21
-345.6394072848783
 31
0.0
  0
CIRCLE
  8
0
  6
CONTINUOUS
 62
               3
  5
2CB
 10
-0.0000000000001279
 20
543.36059271512227
 30
0.0
 40
59.0
  0
CIRCLE
  8
0
  6
CONTINUOUS
 62
               3
  5
2CC
 10
609.28652321630773
 20
-995.82435262452168
 30
0.0
 40
75.0
  0
CIRCLE
  8
0
  6
CONTINUOUS
 62
               3
  5
2CD
 10
609.28652321630773
 20
-995.82435262452168
 30
0.0
 40
52.5
  0
LINE
  8
0
  6
CONTINUOUS
 62
               3
  5
2CE
 10
523.0760250156826
 20
-975.82435262452168
 30
0.0
 11
537.00236174230247
 21
-975.82435262452168
 31
0.0
  0
LINE
  8
0
  6
CONTINUOUS
 62
               3
  5
2CF
 10
537.00236174230247
 20
-1015.8243526245217
 30
0.0
 11
523.0760250156826
 21
-1015.8243526245217
 31
0.0
  0
ARC
  8
0
  6
CONTINUOUS
 62
               3
  5
2D0
 10
609.28652321630773
 20
-995.82435262452168
 30
0.0
 40
88.5
 50
166.93897588510336
 51
193.06102411468945
  0
LINE
  8
0
  6
CONTINUOUS
 62
               3
  5
2D1
 10
589.28652321630773
 20
-1082.0348508251466
 30
0.0
 11
589.28652321630773
 21
-1068.1085140985267
 31
0.0
  0
LINE
  8
0
  6
CONTINUOUS
 62
               3
  5
2D2
 10
629.28652321630773
 20
-1068.1085140985267
 30
0.0
 11
629.28652321630773
 21
-1082.0348508251466
 31
0.0
  0
ARC
  8
0
  6
CONTINUOUS
 62
               3
  5
2D3
 10
609.28652321630773
 20
-995.82435262452168
 30
0.0
 40
88.5
 50
256.93897588505166
 51
283.06102411463769
  0
LINE
  8
0
  6
CONTINUOUS
 62
               3
  5
2D4
 10
695.4970214169324
 20
-1015.8243526245217
 30
0.0
 11
681.57068469031208
 21
-1015.8243526245217
 31
0.0
  0
LINE
  8
0
  6
CONTINUOUS
 62
               3
  5
2D5
 10
681.57068469031208
 20
-975.82435262452168
 30
0.0
 11
695.4970214169324
 21
-975.82435262452168
 31
0.0
  0
ARC
  8
0
  6
CONTINUOUS
 62
               3
  5
2D6
 10
609.28652321630773
 20
-995.82435262452168
 30
0.0
 40
88.5
 50
346.93897588499982
 51
373.06102411458585
  0
LINE
  8
0
  6
CONTINUOUS
 62
               3
  5
2D7
 10
629.28652321630773
 20
-909.6138544238961
 30
0.0
 11
629.28652321630773
 21
-923.54019115051665
 31
0.0
  0
LINE
  8
0
  6
CONTINUOUS
 62
               3
  5
2D8
 10
589.28652321630773
 20
-923.54019115051665
 30
0.0
 11
589.28652321630773
 21
-909.6138544238961
 31
0.0
  0
ARC
  8
0
  6
CONTINUOUS
 62
               3
  5
2D9
 10
609.28652321630773
 20
-995.82435262452168
 30
0.0
 40
88.5
 50
76.938975885155216
 51
103.06102411474124
  0
LINE
  8
0
  6
CONTINUOUS
 62
               3
  5
2DA
 10
561.61839969544678
 20
-1017.8243526245221
 30
0.0
 11
656.95464673716776
 21
-1017.8243526245221
 31
0.0
  0
ARC
  8
0
  6
CONTINUOUS
 62
               3
  5
2DB
 10
621.79013486568886
 20
-987.11795499690265
 30
0.0
 40
54.763804151667173
 50
141.3859176367566
 51
145.15009542087031
  0
ARC
  8
0
  6
CONTINUOUS
 62
               3
  5
2DC
 10
609.28652321630773
 20
-995.82435262452168
 30
0.0
 40
51.5
 50
334.71098847326505
 51
410.95932736340404
  0
ARC
  8
0
  6
CONTINUOUS
 62
               3
  5
2DD
 10
609.28652321630773
 20
-995.82435262452168
 30
0.0
 40
51.5
 50
129.04067263628559
 51
205.28901152642416
  0
ARC
  8
0
  6
CONTINUOUS
 62
               3
  5
2DE
 10
609.28652321630773
 20
-995.82435262452168
 30
0.0
 40
77.5
 50
104.95524831658298
 51
128.57288309095932
  0
ARC
  8
0
  6
CONTINUOUS
 62
               3
  5
2DF
 10
609.28652321630773
 20
-995.82435262452168
 30
0.0
 40
77.5
 50
14.9552483166347
 51
75.044751683313535
  0
ARC
  8
0
  6
CONTINUOUS
 62
               3
  5
2E0
 10
609.28652321630773
 20
-995.82435262452168
 30
0.0
 40
77.5
 50
321.42711690878122
 51
345.04475168315804
  0
LINE
  8
0
  6
CONTINUOUS
 62
               3
  5
2E1
 10
469.28652321630778
 20
-1050.8243526245217
 30
0.0
 11
469.95807934227201
 21
-1050.8243526245217
 31
0.0
  0
LINE
  8
0
  6
CONTINUOUS
 62
               3
  5
2E2
 10
472.45807934227247
 20
-1053.3243526245217
 30
0.0
 11
469.95807934227201
 21
-1050.8243526245217
 31
0.0
  0
LINE
  8
0
  6
CONTINUOUS
 62
               3
  5
2E3
 10
469.28652321630778
 20
-940.82435262452168
 30
0.0
 11
469.95807934227201
 21
-940.82435262452168
 31
0.0
  0
LINE
  8
0
  6
CONTINUOUS
 62
               3
  5
2E4
 10
472.45807934227201
 20
-938.32435262452168
 30
0.0
 11
469.95807934227201
 21
-940.82435262452168
 31
0.0
  0
LINE
  8
0
  6
CONTINUOUS
 62
               3
  5
2E5
 10
469.95807934227201
 20
-940.82435262452168
 30
0.0
 11
469.95807934227201
 21
-1050.8243526245217
 31
0.0
  0
LINE
  8
0
  6
CONTINUOUS
 62
               3
  5
2E6
 10
563.79618742992977
 20
-935.13475560618008
 30
0.0
 11
472.45807934227201
 21
-938.32435262452168
 31
0.0
  0
LINE
  8
0
  6
CONTINUOUS
 62
               3
  5
2E7
 10
544.4500514997568
 20
-1055.8383676894894
 30
0.0
 11
472.45807934227258
 21
-1053.3243526245217
 31
0.0
  0
LINE
  8
0
  6
CONTINUOUS
 62
               3
  5
2E8
 10
464.28652321630778
 20
-940.9959087504858
 30
0.0
 11
464.28652321630778
 21
-1050.9243526245218
 31
0.0
  0
LINE
  8
0
  6
CONTINUOUS
 62
               3
  5
2E9
 10
469.28652321630778
 20
-1053.4243526245218
 30
0.0
 11
469.28652321630778
 21
-938.22435262452166
 31
0.0
  0
LINE
  8
0
  6
CONTINUOUS
 62
               3
  5
2EA
 10
469.28652321630778
 20
-938.22435262452166
 30
0.0
 11
466.78652321630778
 21
-938.22435262452166
 31
0.0
  0
LINE
  8
0
  6
CONTINUOUS
 62
               3
  5
2EB
 10
469.28652321630778
 20
-1053.4243526245218
 30
0.0
 11
466.78652321630778
 21
-1053.4243526245218
 31
0.0
  0
ARC
  8
0
  6
CONTINUOUS
 62
               3
  5
2EC
 10
466.78652321630778
 20
-1050.9243526245218
 30
0.0
 40
2.5
 50
179.99999999989538
 51
269.99999999984436
  0
ARC
  8
0
  6
CONTINUOUS
 62
               3
  5
2ED
 10
466.78652321630778
 20
-940.72435262452166
 30
0.0
 40
2.5
 50
89.999999999948997
 51
179.99999999989538
  0
LINE
  8
0
  6
CONTINUOUS
 62
               3
  5
2EE
 10
576.84812004969024
 20
-955.82435262452191
 30
0.0
 11
609.28652321630773
 21
-955.82435262452191
 31
0.0
  0
LINE
  8
0
  6
CONTINUOUS
 62
               3
  5
2EF
 10
609.28652321630773
 20
-955.82435262452191
 30
0.0
 11
643.29019948814641
 21
-955.82435262452191
 31
0.0
  0
LINE
  8
0
  6
CONTINUOUS
 62
               3
  5
2F0
 10
472.45807934227247
 20
-1053.3243526245217
 30
0.0
 11
472.45807934227201
 21
-938.32435262452168
 31
0.0
  0
ARC
  8
0
  6
CONTINUOUS
 62
               3
  5
2F1
 10
563.6216899464174
 20
-930.13780147108457
 30
0.0
 40
5.0
 50
271.99999999984402
 51
304.806757870252
  0
LINE
  8
0
  6
CONTINUOUS
 62
               3
  5
2F2
 10
664.28652321630773
 20
-1135.8243526245215
 30
0.0
 11
664.28652321630773
 21
-1135.1527964985571
 31
0.0
  0
LINE
  8
0
  6
CONTINUOUS
 62
               3
  5
2F3
 10
666.78652321630773
 20
-1132.6527964985567
 30
0.0
 11
664.28652321630773
 21
-1135.1527964985571
 31
0.0
  0
LINE
  8
0
  6
CONTINUOUS
 62
               3
  5
2F4
 10
554.28652321630773
 20
-1135.8243526245215
 30
0.0
 11
554.28652321630773
 21
-1135.1527964985571
 31
0.0
  0
LINE
  8
0
  6
CONTINUOUS
 62
               3
  5
2F5
 10
551.78652321630773
 20
-1132.6527964985571
 30
0.0
 11
554.28652321630773
 21
-1135.1527964985571
 31
0.0
  0
LINE
  8
0
  6
CONTINUOUS
 62
               3
  5
2F6
 10
554.28652321630773
 20
-1135.1527964985571
 30
0.0
 11
664.28652321630773
 21
-1135.1527964985571
 31
0.0
  0
LINE
  8
0
  6
CONTINUOUS
 62
               3
  5
2F7
 10
554.45807934227184
 20
-1140.8243526245215
 30
0.0
 11
664.38652321630764
 21
-1140.8243526245215
 31
0.0
  0
LINE
  8
0
  6
CONTINUOUS
 62
               3
  5
2F8
 10
666.88652321630764
 20
-1135.8243526245215
 30
0.0
 11
551.68652321630759
 21
-1135.8243526245215
 31
0.0
  0
LINE
  8
0
  6
CONTINUOUS
 62
               3
  5
2F9
 10
551.68652321630759
 20
-1135.8243526245215
 30
0.0
 11
551.68652321630759
 21
-1138.3243526245215
 31
0.0
  0
LINE
  8
0
  6
CONTINUOUS
 62
               3
  5
2FA
 10
666.88652321630764
 20
-1135.8243526245215
 30
0.0
 11
666.88652321630764
 21
-1138.3243526245215
 31
0.0
  0
ARC
  8
0
  6
CONTINUOUS
 62
               3
  5
2FB
 10
664.38652321630764
 20
-1138.3243526245215
 30
0.0
 40
2.5
 50
269.99999999984567
 51
359.99999999979076
  0
ARC
  8
0
  6
CONTINUOUS
 62
               3
  5
2FC
 10
554.18652321630759
 20
-1138.3243526245215
 30
0.0
 40
2.5
 50
179.99999999989538
 51
269.99999999984567
  0
LINE
  8
0
  6
CONTINUOUS
 62
               3
  5
2FD
 10
666.78652321630773
 20
-1132.6527964985567
 30
0.0
 11
551.78652321630773
 21
-1132.6527964985571
 31
0.0
  0
LINE
  8
0
  6
CONTINUOUS
 62
               3
  5
2FE
 10
669.97612023464887
 20
-1041.3146884109001
 30
0.0
 11
666.78652321630773
 21
-1132.6527964985567
 31
0.0
  0
ARC
  8
0
  6
CONTINUOUS
 62
               3
  5
2FF
 10
674.97307436974427
 20
-1041.4891858944127
 30
0.0
 40
5.0
 50
145.19324212948862
 51
177.99999999989819
  0
LINE
  8
0
  6
CONTINUOUS
 62
               3
  5
300
 10
549.27250815133959
 20
-1060.6608243410726
 30
0.0
 11
551.78652321630773
 21
-1132.6527964985571
 31
0.0
  0
ARC
  8
0
  6
CONTINUOUS
 62
               3
  5
301
 10
544.2755540162442
 20
-1060.8353218245848
 30
0.0
 40
5.0
 50
1.9999999999958187
 51
87.99999999994921
  0
LINE
  8
0
  6
CONTINUOUS
 62
               3
  5
302
 10
534.28652321630773
 20
-1304.323786373106
 30
0.0
 11
684.28652321630773
 21
-1304.323786373106
 31
0.0
  0
LINE
  8
0
  6
CONTINUOUS
 62
               3
  5
303
 10
520.78652321630761
 20
-1314.323786373106
 30
0.0
 11
520.78652321630761
 21
-1321.3237863731056
 31
0.0
  0
LINE
  8
0
  6
CONTINUOUS
 62
               3
  5
304
 10
520.78652321630761
 20
-1314.323786373106
 30
0.0
 11
534.28652321630773
 21
-1304.323786373106
 31
0.0
  0
ARC
  8
0
  6
CONTINUOUS
 62
               3
  5
305
 10
532.28652321630796
 20
-1325.9063620680613
 30
0.0
 40
4.9999999999999991
 50
0.0
 51
66.421821521760023
  0
LINE
  8
0
  6
CONTINUOUS
 62
               3
  5
306
 10
520.78652321630761
 20
-1321.3237863731056
 30
0.0
 11
697.7865232163075
 21
-1321.3237863731056
 31
0.0
  0
ARC
  8
0
  6
CONTINUOUS
 62
               3
  5
307
 10
554.28652321630773
 20
-1411.323786373106
 30
0.0
 40
19.999999999999996
 50
148.21166938286279
 51
167.26981986159123
  0
LINE
  8
0
  6
CONTINUOUS
 62
               3
  5
308
 10
537.28652321630796
 20
-1325.9063620680613
 30
0.0
 11
537.28652321630796
 21
-1400.7881326202532
 31
0.0
  0
LINE
  8
0
  6
CONTINUOUS
 62
               3
  5
309
 10
681.28652321630773
 20
-1395.7881326202528
 30
0.0
 11
681.28652321630773
 21
-1325.9063620680613
 31
0.0
  0
LINE
  8
0
  6
CONTINUOUS
 62
               3
  5
30A
 10
537.28652321630796
 20
-1400.7881326202532
 30
0.0
 11
680.78652321630818
 21
-1400.7881326202532
 31
0.0
  0
LINE
  8
0
  6
CONTINUOUS
 62
               3
  5
30B
 10
589.28652321630773
 20
-1321.3237863731056
 30
0.0
 11
589.28652321630773
 21
-1304.323786373106
 31
0.0
  0
LINE
  8
0
  6
CONTINUOUS
 62
               3
  5
30C
 10
629.28652321630773
 20
-1304.323786373106
 30
0.0
 11
629.28652321630773
 21
-1321.3237863731056
 31
0.0
  0
LINE
  8
0
  6
CONTINUOUS
 62
               3
  5
30D
 10
589.28652321630773
 20
-1314.323786373106
 30
0.0
 11
629.28652321630773
 21
-1314.323786373106
 31
0.0
  0
LINE
  8
0
  6
CONTINUOUS
 62
               3
  5
30E
 10
537.00236174230247
 20
-1304.323786373106
 30
0.0
 11
537.00236174230247
 21
-1321.3237863731056
 31
0.0
  0
LINE
  8
0
  6
CONTINUOUS
 62
               3
  5
30F
 10
523.0760250156826
 20
-1314.323786373106
 30
0.0
 11
523.0760250156826
 21
-1321.3237863731056
 31
0.0
  0
LINE
  8
0
  6
CONTINUOUS
 62
               3
  5
310
 10
520.78652321630761
 20
-1314.323786373106
 30
0.0
 11
523.0760250156826
 21
-1314.323786373106
 31
0.0
  0
LINE
  8
0
  6
CONTINUOUS
 62
               3
  5
311
 10
523.0760250156826
 20
-1314.323786373106
 30
0.0
 11
537.00236174230247
 21
-1304.323786373106
 31
0.0
  0
LINE
  8
0
  6
CONTINUOUS
 62
               3
  5
312
 10
697.7865232163075
 20
-1314.323786373106
 30
0.0
 11
697.7865232163075
 21
-1321.3237863731056
 31
0.0
  0
LINE
  8
0
  6
CONTINUOUS
 62
               3
  5
313
 10
697.7865232163075
 20
-1314.323786373106
 30
0.0
 11
684.28652321630773
 21
-1304.323786373106
 31
0.0
  0
ARC
  8
0
  6
CONTINUOUS
 62
               3
  5
314
 10
686.28652321630773
 20
-1325.9063620680613
 30
0.0
 40
4.9999999999999991
 50
113.57817847813573
 51
179.99999999989538
  0
LINE
  8
0
  6
CONTINUOUS
 62
               3
  5
315
 10
681.57068469031208
 20
-1304.323786373106
 30
0.0
 11
681.57068469031208
 21
-1321.3237863731056
 31
0.0
  0
LINE
  8
0
  6
CONTINUOUS
 62
               3
  5
316
 10
695.49702141693308
 20
-1314.323786373106
 30
0.0
 11
695.49702141693308
 21
-1321.3237863731056
 31
0.0
  0
LINE
  8
0
  6
CONTINUOUS
 62
               3
  5
317
 10
697.7865232163075
 20
-1314.323786373106
 30
0.0
 11
695.49702141693308
 21
-1314.323786373106
 31
0.0
  0
LINE
  8
0
  6
CONTINUOUS
 62
               3
  5
318
 10
695.49702141693308
 20
-1314.323786373106
 30
0.0
 11
681.57068469031208
 21
-1304.323786373106
 31
0.0
  0
ARC
  8
0
  6
CONTINUOUS
 62
               3
  5
319
 10
544.28652321630773
 20
-1532.823786373106
 30
0.0
 40
2.4999999999999996
 50
89.99999999994769
 51
269.99999999984567
  0
ARC
  8
0
  6
CONTINUOUS
 62
               3
  5
31A
 10
684.28652321630773
 20
-1532.823786373106
 30
0.0
 40
2.4999999999999996
 50
269.99999999984567
 51
449.99999999974102
  0
LINE
  8
0
  6
CONTINUOUS
 62
               3
  5
31B
 10
469.28652321630778
 20
-1525.323786373106
 30
0.0
 11
469.95807934227213
 21
-1525.323786373106
 31
0.0
  0
LINE
  8
0
  6
CONTINUOUS
 62
               3
  5
31C
 10
472.45807934227224
 20
-1527.8237863731051
 30
0.0
 11
469.95807934227213
 21
-1525.323786373106
 31
0.0
  0
LINE
  8
0
  6
CONTINUOUS
 62
               3
  5
31D
 10
472.45807934227304
 20
-1527.823786373106
 30
0.0
 11
514.62318959855043
 21
-1529.2962244689602
 31
0.0
  0
LINE
  8
0
  6
CONTINUOUS
 62
               3
  5
31E
 10
532.82205712224038
 20
-1545.5954757993918
 30
0.0
 11
517.9842260209706
 21
-1530.7576446981225
 31
0.0
  0
ARC
  8
0
  6
CONTINUOUS
 62
               3
  5
31F
 10
529.28652321630773
 20
-1549.1310097053251
 30
0.0
 40
4.9999999999999991
 50
0.0
 51
44.999999999973191
  0
LINE
  8
0
  6
CONTINUOUS
 62
               3
  5
320
 10
469.28652321630778
 20
-1415.323786373106
 30
0.0
 11
469.95807934227213
 21
-1415.323786373106
 31
0.0
  0
LINE
  8
0
  6
CONTINUOUS
 62
               3
  5
321
 10
472.45807934227224
 20
-1412.823786373106
 30
0.0
 11
469.95807934227213
 21
-1415.323786373106
 31
0.0
  0
LINE
  8
0
  6
CONTINUOUS
 62
               3
  5
322
 10
472.45807934227213
 20
-1412.823786373106
 30
0.0
 11
530.0755555444465
 21
-1410.8117397679534
 31
0.0
  0
LINE
  8
0
  6
CONTINUOUS
 62
               3
  5
323
 10
469.95807934227213
 20
-1415.323786373106
 30
0.0
 11
469.95807934227213
 21
-1525.323786373106
 31
0.0
  0
LINE
  8
0
  6
CONTINUOUS
 62
               3
  5
324
 10
469.28652321630778
 20
-1527.9237863731059
 30
0.0
 11
469.28652321630778
 21
-1412.7237863731061
 31
0.0
  0
LINE
  8
0
  6
CONTINUOUS
 62
               3
  5
325
 10
469.28652321630778
 20
-1412.7237863731061
 30
0.0
 11
466.78652321630778
 21
-1412.7237863731061
 31
0.0
  0
ARC
  8
0
  6
CONTINUOUS
 62
               3
  5
326
 10
466.78652321630778
 20
-1415.2237863731061
 30
0.0
 40
2.5
 50
89.999999999948997
 51
179.99999999989538
  0
LINE
  8
0
  6
CONTINUOUS
 62
               3
  5
327
 10
464.28652321630778
 20
-1415.2237863731061
 30
0.0
 11
464.28652321630778
 21
-1525.4237863731059
 31
0.0
  0
LINE
  8
0
  6
CONTINUOUS
 62
               3
  5
328
 10
469.28652321630778
 20
-1527.9237863731059
 30
0.0
 11
466.78652321630778
 21
-1527.9237863731059
 31
0.0
  0
ARC
  8
0
  6
CONTINUOUS
 62
               3
  5
329
 10
466.78652321630778
 20
-1525.4237863731059
 30
0.0
 40
2.5
 50
179.99999999989538
 51
269.99999999984436
  0
LINE
  8
0
  6
CONTINUOUS
 62
               3
  5
32A
 10
472.45807934227224
 20
-1412.823786373106
 30
0.0
 11
472.45807934227304
 21
-1527.823786373106
 31
0.0
  0
ARC
  8
0
  6
CONTINUOUS
 62
               3
  5
32B
 10
514.44869211503794
 20
-1534.2931786040554
 30
0.0
 40
5.0
 50
44.999999999975948
 51
87.999999999949253
  0
ARC
  8
0
  6
CONTINUOUS
 62
               3
  5
32C
 10
529.90105806093391
 20
-1405.8147856328583
 30
0.0
 40
5.0
 50
271.99999999984408
 51
347.26981986148661
  0
CIRCLE
  8
0
  6
CONTINUOUS
 62
               3
  5
32D
 10
609.28652321630773
 20
-1470.323786373106
 30
0.0
 40
48.5
  0
CIRCLE
  8
0
  6
CONTINUOUS
 62
               3
  5
32E
 10
609.28652321630773
 20
-1470.323786373106
 30
0.0
 40
47.299999999999997
  0
LINE
  8
0
  6
CONTINUOUS
 62
               3
  5
32F
 10
577.46671806291317
 20
-1502.1435915265006
 30
0.0
 11
575.84037246618402
 21
-1503.7699371232297
 31
0.0
  0
LINE
  8
0
  6
CONTINUOUS
 62
               3
  5
330
 10
641.10632836970251
 20
-1502.1435915265006
 30
0.0
 11
642.73267396643143
 21
-1503.7699371232297
 31
0.0
  0
ARC
  8
0
  6
CONTINUOUS
 62
               3
  5
331
 10
609.28652321630773
 20
-1470.323786373106
 30
0.0
 40
45.0
 50
224.99999999987043
 51
314.99999999981884
  0
CIRCLE
  8
0
  6
CONTINUOUS
 62
               3
  5
332
 10
609.28652321630773
 20
-1470.323786373106
 30
0.0
 40
57.600000000000001
  0
ARC
  8
0
  6
CONTINUOUS
 62
               3
  5
333
 10
586.78652321630841
 20
-1532.823786373106
 30
0.0
 40
2.4999999999999996
 50
269.99999999984567
 51
449.99999999974102
  0
ARC
  8
0
  6
CONTINUOUS
 62
               3
  5
334
 10
631.78652321630841
 20
-1532.823786373106
 30
0.0
 40
2.4999999999999996
 50
89.99999999994769
 51
269.99999999984567
  0
LINE
  8
0
  6
CONTINUOUS
 62
               3
  5
335
 10
544.28652321630773
 20
-1535.323786373106
 30
0.0
 11
586.78652321630841
 21
-1535.323786373106
 31
0.0
  0
LINE
  8
0
  6
CONTINUOUS
 62
               3
  5
336
 10
544.28652321630773
 20
-1530.323786373106
 30
0.0
 11
586.78652321630841
 21
-1530.323786373106
 31
0.0
  0
LINE
  8
0
  6
CONTINUOUS
 62
               3
  5
337
 10
631.78652321630841
 20
-1530.323786373106
 30
0.0
 11
684.28652321630773
 21
-1530.323786373106
 31
0.0
  0
LINE
  8
0
  6
CONTINUOUS
 62
               3
  5
338
 10
631.78652321630841
 20
-1535.323786373106
 30
0.0
 11
684.28652321630773
 21
-1535.323786373106
 31
0.0
  0
CIRCLE
  8
0
  6
CONTINUOUS
 62
               3
  5
339
 10
609.28652321630773
 20
-995.82435262452168
 30
0.0
 40
59.0
  0
LINE
  8
0
  6
DASHED2
 62
               4
  5
33A
 10
-56.999999999999929
 20
128.36059271512238
 30
0.0
 11
56.999999999999844
 21
128.36059271512238
 31
0.0
  0
LINE
  8
0
  6
DASHED2
 62
               4
  5
33B
 10
-557.00000000000045
 20
128.36059271512238
 30
0.0
 11
-443.00000000000074
 21
128.36059271512238
 31
0.0
  0
LINE
  8
0
  6
DASHED2
 62
               4
  5
33C
 10
443.0
 20
128.36059271512238
 30
0.0
 11
556.99999999999977
 21
128.36059271512238
 31
0.0
  0
LINE
  8
0
  6
DASHED2
 62
               4
  5
33D
 10
56.999999999999844
 20
-311.63940728487762
 30
0.0
 11
56.999999999999844
 21
-411.63940728487762
 31
0.0
  0
LINE
  8
0
  6
DASHED2
 62
               4
  5
33E
 10
-57.132845554131009
 20
-311.63940728487762
 30
0.0
 11
-57.132845554131009
 21
-411.73783503032882
 31
0.0
  0
LINE
  8
0
  6
DASHED2
 62
               4
  5
33F
 10
-443.00000000000017
 20
-311.63940728487762
 30
0.0
 11
-443.00000000000017
 21
-411.63940728487762
 31
0.0
  0
LINE
  8
0
  6
DASHED2
 62
               4
  5
340
 10
-557.13284555413111
 20
-311.63940728487762
 30
0.0
 11
-557.13284555413111
 21
-411.73783503032882
 31
0.0
  0
LINE
  8
0
  6
DASHED2
 62
               4
  5
341
 10
556.99999999999977
 20
-311.63940728487762
 30
0.0
 11
556.99999999999977
 21
-411.63940728487762
 31
0.0
  0
LINE
  8
0
  6
DASHED2
 62
               4
  5
342
 10
442.86715444586889
 20
-311.63940728487762
 30
0.0
 11
442.86715444586889
 21
-411.73783503032882
 31
0.0
  0
LINE
  8
0
  6
DASHED2
 62
               4
  5
343
 10
-57.500000000003013
 20
-426.63940728487876
 30
0.0
 11
-57.500000000003013
 21
-491.63940728487648
 31
0.0
  0
LINE
  8
0
  6
DASHED2
 62
               4
  5
344
 10
-0.0000000000000284
 20
-411.63940728487762
 30
0.0
 11
-57.000000000000199
 21
-411.63940728487762
 31
0.0
  0
LINE
  8
0
  6
DASHED2
 62
               4
  5
345
 10
-57.500000000003013
 20
-426.63940728487876
 30
0.0
 11
-0.0000000000011653
 21
-426.63940728487762
 31
0.0
  0
LINE
  8
0
  6
DASHED2
 62
               4
  5
346
 10
-0.0000000000000284
 20
-411.63940728487762
 30
0.0
 11
56.999999999999858
 21
-411.63940728487762
 31
0.0
  0
LINE
  8
0
  6
DASHED2
 62
               4
  5
347
 10
57.500000000001677
 20
-426.63940728487876
 30
0.0
 11
-0.0000000000000284
 21
-426.63940728487762
 31
0.0
  0
LINE
  8
0
  6
DASHED2
 62
               4
  5
348
 10
57.500000000001677
 20
-426.63940728487876
 30
0.0
 11
57.500000000001677
 21
-491.63940728487648
 31
0.0
  0
LINE
  8
0
  6
DASHED2
 62
               4
  5
349
 10
-136.76000000000076
 20
-411.63940728487717
 30
0.0
 11
-136.76000000000076
 21
-403.11327878556995
 31
0.0
  0
LINE
  8
0
  6
DASHED2
 62
               4
  5
34A
 10
-130.87102725426635
 20
-403.11327878556995
 30
0.0
 11
-130.87102725426635
 21
-411.63940728487717
 31
0.0
  0
LINE
  8
0
  6
DASHED2
 62
               4
  5
34B
 10
-133.81551362713341
 20
-402.03940728487703
 30
0.0
 11
-116.1844863728675
 21
-402.03940728487703
 31
0.0
  0
LINE
  8
0
  6
DASHED2
 62
               4
  5
34C
 10
-113.24000000000044
 20
-411.63940728487717
 30
0.0
 11
-113.24000000000044
 21
-403.11327878556995
 31
0.0
  0
LINE
  8
0
  6
DASHED2
 62
               4
  5
34D
 10
-119.12897274573513
 20
-411.63940728487717
 30
0.0
 11
-119.12897274573513
 21
-403.11327878556995
 31
0.0
  0
ARC
  8
0
  6
DASHED2
 62
               4
  5
34E
 10
-133.81551362713341
 20
-406.61313886899302
 30
0.0
 40
4.5737315841157447
 50
49.925579661602562
 51
130.07442033832857
  0
ARC
  8
0
  6
DASHED2
 62
               4
  5
34F
 10
-116.1844863728675
 20
-406.61313886899302
 30
0.0
 40
4.5737315841157686
 50
49.925579661602882
 51
130.07442033832876
  0
ARC
  8
0
  6
DASHED2
 62
               4
  5
350
 10
-125.0000000000006
 20
-418.62526555439752
 30
0.0
 40
16.58585826952007
 50
69.269184858534402
 51
110.73081514139702
  0
LINE
  8
0
  6
DASHED2
 62
               4
  5
351
 10
-136.76000000000218
 20
-413.63940728487751
 30
0.0
 11
-136.76000000000218
 21
-422.16553578418473
 31
0.0
  0
LINE
  8
0
  6
DASHED2
 62
               4
  5
352
 10
-130.87102725426777
 20
-422.16553578418473
 30
0.0
 11
-130.87102725426777
 21
-413.63940728487751
 31
0.0
  0
LINE
  8
0
  6
DASHED2
 62
               4
  5
353
 10
-133.81551362713483
 20
-423.2394072848773
 30
0.0
 11
-116.1844863728692
 21
-423.2394072848773
 31
0.0
  0
LINE
  8
0
  6
DASHED2
 62
               4
  5
354
 10
-113.24000000000186
 20
-413.63940728487751
 30
0.0
 11
-113.24000000000186
 21
-422.16553578418473
 31
0.0
  0
LINE
  8
0
  6
DASHED2
 62
               4
  5
355
 10
-119.12897274573626
 20
-413.63940728487751
 30
0.0
 11
-119.12897274573626
 21
-422.16553578418473
 31
0.0
  0
ARC
  8
0
  6
DASHED2
 62
               4
  5
356
 10
-133.81551362713483
 20
-418.66567570076188
 30
0.0
 40
4.5737315841157447
 50
229.92557966153424
 51
310.07442033826061
  0
ARC
  8
0
  6
DASHED2
 62
               4
  5
357
 10
-116.1844863728692
 20
-418.66567570076188
 30
0.0
 40
4.5737315841157686
 50
229.92557966153441
 51
310.07442033826021
  0
ARC
  8
0
  6
DASHED2
 62
               4
  5
358
 10
-125.00000000000202
 20
-406.65354901535738
 30
0.0
 40
16.58585826952007
 50
249.26918485846539
 51
290.73081514132792
  0
LINE
  8
0
  6
DASHED2
 62
               4
  5
359
 10
-131.00000000000054
 20
-423.2394072848773
 30
0.0
 11
-131.00000000000054
 21
-433.75877352720192
 31
0.0
  0
LINE
  8
0
  6
DASHED2
 62
               4
  5
35A
 10
-119.00000000000065
 20
-423.2394072848773
 30
0.0
 11
-119.00000000000065
 21
-433.75877352720192
 31
0.0
  0
LINE
  8
0
  6
DASHED2
 62
               4
  5
35B
 10
-129.80000000000078
 20
-434.95877352720231
 30
0.0
 11
-120.2000000000007
 21
-434.95877352720231
 31
0.0
  0
LINE
  8
0
  6
DASHED2
 62
               4
  5
35C
 10
-131.00000000000054
 20
-433.75877352720192
 30
0.0
 11
-129.80000000000078
 21
-434.95877352720231
 31
0.0
  0
LINE
  8
0
  6
DASHED2
 62
               4
  5
35D
 10
-119.00000000000065
 20
-433.75877352720192
 30
0.0
 11
-120.2000000000007
 21
-434.95877352720231
 31
0.0
  0
LINE
  8
0
  6
DASHED2
 62
               4
  5
35E
 10
-136.76000000000076
 20
-411.63940728487717
 30
0.0
 11
-113.24000000000044
 21
-411.63940728487717
 31
0.0
  0
LINE
  8
0
  6
DASHED2
 62
               4
  5
35F
 10
-113.24000000000186
 20
-413.63940728487751
 30
0.0
 11
-136.76000000000218
 21
-413.63940728487751
 31
0.0
  0
LINE
  8
0
  6
DASHED2
 62
               4
  5
360
 10
136.75999999999954
 20
-411.63940728487717
 30
0.0
 11
136.75999999999954
 21
-403.11327878556995
 31
0.0
  0
LINE
  8
0
  6
DASHED2
 62
               4
  5
361
 10
130.87102725426513
 20
-403.11327878556995
 30
0.0
 11
130.87102725426513
 21
-411.63940728487717
 31
0.0
  0
LINE
  8
0
  6
DASHED2
 62
               4
  5
362
 10
133.81551362713219
 20
-402.03940728487703
 30
0.0
 11
116.18448637286627
 21
-402.03940728487703
 31
0.0
  0
LINE
  8
0
  6
DASHED2
 62
               4
  5
363
 10
113.23999999999921
 20
-411.63940728487717
 30
0.0
 11
113.23999999999921
 21
-403.11327878556995
 31
0.0
  0
LINE
  8
0
  6
DASHED2
 62
               4
  5
364
 10
119.1289727457339
 20
-411.63940728487717
 30
0.0
 11
119.1289727457339
 21
-403.11327878556995
 31
0.0
  0
ARC
  8
0
  6
DASHED2
 62
               4
  5
365
 10
133.81551362713219
 20
-406.61313886899302
 30
0.0
 40
4.5737315841157447
 50
49.925579661636654
 51
130.0744203383627
  0
ARC
  8
0
  6
DASHED2
 62
               4
  5
366
 10
116.18448637286627
 20
-406.61313886899302
 30
0.0
 40
4.5737315841157686
 50
49.925579661636384
 51
130.07442033836222
  0
ARC
  8
0
  6
DASHED2
 62
               4
  5
367
 10
124.99999999999937
 20
-418.62526555439752
 30
0.0
 40
16.58585826952007
 50
69.26918485856821
 51
110.73081514143077
  0
LINE
  8
0
  6
DASHED2
 62
               4
  5
368
 10
136.76000000000096
 20
-413.63940728487751
 30
0.0
 11
136.76000000000096
 21
-422.16553578418473
 31
0.0
  0
LINE
  8
0
  6
DASHED2
 62
               4
  5
369
 10
130.87102725426655
 20
-422.16553578418473
 30
0.0
 11
130.87102725426655
 21
-413.63940728487751
 31
0.0
  0
LINE
  8
0
  6
DASHED2
 62
               4
  5
36A
 10
133.81551362713361
 20
-423.2394072848773
 30
0.0
 11
116.18448637286798
 21
-423.2394072848773
 31
0.0
  0
LINE
  8
0
  6
DASHED2
 62
               4
  5
36B
 10
113.24000000000063
 20
-413.63940728487751
 30
0.0
 11
113.24000000000063
 21
-422.16553578418473
 31
0.0
  0
LINE
  8
0
  6
DASHED2
 62
               4
  5
36C
 10
119.12897274573504
 20
-413.63940728487751
 30
0.0
 11
119.12897274573504
 21
-422.16553578418473
 31
0.0
  0
ARC
  8
0
  6
DASHED2
 62
               4
  5
36D
 10
133.81551362713361
 20
-418.66567570076188
 30
0.0
 40
4.5737315841157447
 50
229.9255796616352
 51
310.07442033836156
  0
ARC
  8
0
  6
DASHED2
 62
               4
  5
36E
 10
116.18448637286798
 20
-418.66567570076188
 30
0.0
 40
4.5737315841157686
 50
229.925579661635
 51
310.07442033836077
  0
ARC
  8
0
  6
DASHED2
 62
               4
  5
36F
 10
125.0000000000008
 20
-406.65354901535738
 30
0.0
 40
16.58585826952007
 50
249.26918485856763
 51
290.7308151414303
  0
LINE
  8
0
  6
DASHED2
 62
               4
  5
370
 10
130.99999999999932
 20
-423.2394072848773
 30
0.0
 11
130.99999999999932
 21
-433.75877352720192
 31
0.0
  0
LINE
  8
0
  6
DASHED2
 62
               4
  5
371
 10
118.99999999999943
 20
-423.2394072848773
 30
0.0
 11
118.99999999999943
 21
-433.75877352720192
 31
0.0
  0
LINE
  8
0
  6
DASHED2
 62
               4
  5
372
 10
129.79999999999956
 20
-434.95877352720231
 30
0.0
 11
120.19999999999948
 21
-434.95877352720231
 31
0.0
  0
LINE
  8
0
  6
DASHED2
 62
               4
  5
373
 10
130.99999999999932
 20
-433.75877352720192
 30
0.0
 11
129.79999999999956
 21
-434.95877352720231
 31
0.0
  0
LINE
  8
0
  6
DASHED2
 62
               4
  5
374
 10
118.99999999999943
 20
-433.75877352720192
 30
0.0
 11
120.19999999999948
 21
-434.95877352720231
 31
0.0
  0
LINE
  8
0
  6
DASHED2
 62
               4
  5
375
 10
136.75999999999954
 20
-411.63940728487717
 30
0.0
 11
113.23999999999921
 21
-411.63940728487717
 31
0.0
  0
LINE
  8
0
  6
DASHED2
 62
               4
  5
376
 10
113.24000000000063
 20
-413.63940728487751
 30
0.0
 11
136.76000000000096
 21
-413.63940728487751
 31
0.0
  0
LINE
  8
0
  6
DASHED2
 62
               4
  5
377
 10
-557.5000000000025
 20
-426.63940728487876
 30
0.0
 11
-557.5000000000025
 21
-491.63940728487648
 31
0.0
  0
LINE
  8
0
  6
DASHED2
 62
               4
  5
378
 10
-499.99999999999949
 20
-411.63940728487762
 30
0.0
 11
-556.99999999999966
 21
-411.63940728487762
 31
0.0
  0
LINE
  8
0
  6
DASHED2
 62
               4
  5
379
 10
-557.5000000000025
 20
-426.63940728487876
 30
0.0
 11
-500.00000000000063
 21
-426.63940728487762
 31
0.0
  0
LINE
  8
0
  6
DASHED2
 62
               4
  5
37A
 10
-499.99999999999949
 20
-411.63940728487762
 30
0.0
 11
-442.9999999999996
 21
-411.63940728487762
 31
0.0
  0
LINE
  8
0
  6
DASHED2
 62
               4
  5
37B
 10
-442.49999999999778
 20
-426.63940728487876
 30
0.0
 11
-499.99999999999949
 21
-426.63940728487762
 31
0.0
  0
LINE
  8
0
  6
DASHED2
 62
               4
  5
37C
 10
-442.49999999999778
 20
-426.63940728487876
 30
0.0
 11
-442.49999999999778
 21
-491.63940728487648
 31
0.0
  0
LINE
  8
0
  6
DASHED2
 62
               4
  5
37D
 10
-511.76000000000028
 20
-411.63940728487762
 30
0.0
 11
-511.76000000000028
 21
-403.1132787855704
 31
0.0
  0
LINE
  8
0
  6
DASHED2
 62
               4
  5
37E
 10
-505.87102725426581
 20
-403.1132787855704
 30
0.0
 11
-505.87102725426581
 21
-411.63940728487762
 31
0.0
  0
LINE
  8
0
  6
DASHED2
 62
               4
  5
37F
 10
-508.81551362713293
 20
-402.03940728487748
 30
0.0
 11
-491.18448637286696
 21
-402.03940728487748
 31
0.0
  0
LINE
  8
0
  6
DASHED2
 62
               4
  5
380
 10
-488.23999999999995
 20
-411.63940728487762
 30
0.0
 11
-488.23999999999995
 21
-403.1132787855704
 31
0.0
  0
LINE
  8
0
  6
DASHED2
 62
               4
  5
381
 10
-494.12897274573464
 20
-411.63940728487762
 30
0.0
 11
-494.12897274573464
 21
-403.1132787855704
 31
0.0
  0
ARC
  8
0
  6
DASHED2
 62
               4
  5
382
 10
-508.81551362713293
 20
-406.61313886899347
 30
0.0
 40
4.5737315841157447
 50
49.925579661602832
 51
130.07442033832857
  0
ARC
  8
0
  6
DASHED2
 62
               4
  5
383
 10
-491.18448637286696
 20
-406.61313886899347
 30
0.0
 40
4.5737315841157686
 50
49.925579661602747
 51
130.07442033832857
  0
ARC
  8
0
  6
DASHED2
 62
               4
  5
384
 10
-500.00000000000006
 20
-418.62526555439797
 30
0.0
 40
16.58585826952007
 50
69.269184858534501
 51
110.73081514139706
  0
LINE
  8
0
  6
DASHED2
 62
               4
  5
385
 10
-511.76000000000164
 20
-413.63940728487796
 30
0.0
 11
-511.76000000000164
 21
-422.16553578418518
 31
0.0
  0
LINE
  8
0
  6
DASHED2
 62
               4
  5
386
 10
-505.87102725426729
 20
-422.16553578418518
 30
0.0
 11
-505.87102725426729
 21
-413.63940728487796
 31
0.0
  0
LINE
  8
0
  6
DASHED2
 62
               4
  5
387
 10
-508.81551362713429
 20
-423.23940728487776
 30
0.0
 11
-491.18448637286866
 21
-423.23940728487776
 31
0.0
  0
LINE
  8
0
  6
DASHED2
 62
               4
  5
388
 10
-488.24000000000132
 20
-413.63940728487796
 30
0.0
 11
-488.24000000000132
 21
-422.16553578418518
 31
0.0
  0
LINE
  8
0
  6
DASHED2
 62
               4
  5
389
 10
-494.12897274573578
 20
-413.63940728487796
 30
0.0
 11
-494.12897274573578
 21
-422.16553578418518
 31
0.0
  0
ARC
  8
0
  6
DASHED2
 62
               4
  5
38A
 10
-508.81551362713429
 20
-418.66567570076234
 30
0.0
 40
4.5737315841157447
 50
229.92557966153416
 51
310.07442033826044
  0
ARC
  8
0
  6
DASHED2
 62
               4
  5
38B
 10
-491.18448637286866
 20
-418.66567570076234
 30
0.0
 40
4.5737315841157686
 50
229.92557966153416
 51
310.07442033825998
  0
ARC
  8
0
  6
DASHED2
 62
               4
  5
38C
 10
-500.00000000000153
 20
-406.65354901535784
 30
0.0
 40
16.58585826952007
 50
249.26918485846539
 51
290.73081514132798
  0
LINE
  8
0
  6
DASHED2
 62
               4
  5
38D
 10
-506.00000000000006
 20
-423.23940728487776
 30
0.0
 11
-506.00000000000006
 21
-433.75877352720238
 31
0.0
  0
LINE
  8
0
  6
DASHED2
 62
               4
  5
38E
 10
-494.00000000000017
 20
-423.23940728487776
 30
0.0
 11
-494.00000000000017
 21
-433.75877352720238
 31
0.0
  0
LINE
  8
0
  6
DASHED2
 62
               4
  5
38F
 10
-504.80000000000024
 20
-434.95877352720277
 30
0.0
 11
-495.20000000000022
 21
-434.95877352720277
 31
0.0
  0
LINE
  8
0
  6
DASHED2
 62
               4
  5
390
 10
-506.00000000000006
 20
-433.75877352720238
 30
0.0
 11
-504.80000000000024
 21
-434.95877352720277
 31
0.0
  0
LINE
  8
0
  6
DASHED2
 62
               4
  5
391
 10
-494.00000000000017
 20
-433.75877352720238
 30
0.0
 11
-495.20000000000022
 21
-434.95877352720277
 31
0.0
  0
LINE
  8
0
  6
DASHED2
 62
               4
  5
392
 10
-511.76000000000028
 20
-411.63940728487762
 30
0.0
 11
-488.23999999999995
 21
-411.63940728487762
 31
0.0
  0
LINE
  8
0
  6
DASHED2
 62
               4
  5
393
 10
-488.24000000000132
 20
-413.63940728487796
 30
0.0
 11
-511.76000000000164
 21
-413.63940728487796
 31
0.0
  0
LINE
  8
0
  6
DASHED2
 62
               4
  5
394
 10
442.49999999999756
 20
-426.63940728487876
 30
0.0
 11
442.49999999999756
 21
-491.63940728487648
 31
0.0
  0
LINE
  8
0
  6
DASHED2
 62
               4
  5
395
 10
500.00000000000057
 20
-411.63940728487762
 30
0.0
 11
443.00000000000034
 21
-411.63940728487762
 31
0.0
  0
LINE
  8
0
  6
DASHED2
 62
               4
  5
396
 10
442.49999999999756
 20
-426.63940728487876
 30
0.0
 11
499.99999999999943
 21
-426.63940728487762
 31
0.0
  0
LINE
  8
0
  6
DASHED2
 62
               4
  5
397
 10
500.00000000000057
 20
-411.63940728487762
 30
0.0
 11
557.00000000000034
 21
-411.63940728487762
 31
0.0
  0
LINE
  8
0
  6
DASHED2
 62
               4
  5
398
 10
557.50000000000216
 20
-426.63940728487876
 30
0.0
 11
500.00000000000057
 21
-426.63940728487762
 31
0.0
  0
LINE
  8
0
  6
DASHED2
 62
               4
  5
399
 10
557.50000000000216
 20
-426.63940728487876
 30
0.0
 11
557.50000000000216
 21
-491.63940728487648
 31
0.0
  0
LINE
  8
0
  6
DASHED2
 62
               4
  5
39A
 10
488.23999999999967
 20
-411.63940728487762
 30
0.0
 11
488.23999999999967
 21
-403.1132787855704
 31
0.0
  0
LINE
  8
0
  6
DASHED2
 62
               4
  5
39B
 10
494.12897274573413
 20
-403.1132787855704
 30
0.0
 11
494.12897274573413
 21
-411.63940728487762
 31
0.0
  0
LINE
  8
0
  6
DASHED2
 62
               4
  5
39C
 10
491.18448637286713
 20
-402.03940728487748
 30
0.0
 11
508.8155136271331
 21
-402.03940728487748
 31
0.0
  0
LINE
  8
0
  6
DASHED2
 62
               4
  5
39D
 10
511.7600000000001
 20
-411.63940728487762
 30
0.0
 11
511.7600000000001
 21
-403.1132787855704
 31
0.0
  0
LINE
  8
0
  6
DASHED2
 62
               4
  5
39E
 10
505.87102725426541
 20
-411.63940728487762
 30
0.0
 11
505.87102725426541
 21
-403.1132787855704
 31
0.0
  0
ARC
  8
0
  6
DASHED2
 62
               4
  5
39F
 10
491.18448637286713
 20
-406.61313886899347
 30
0.0
 40
4.5737315841157447
 50
49.925579661602285
 51
130.07442033832857
  0
ARC
  8
0
  6
DASHED2
 62
               4
  5
3A0
 10
508.8155136271331
 20
-406.61313886899347
 30
0.0
 40
4.5737315841157686
 50
49.925579661602747
 51
130.07442033832857
  0
ARC
  8
0
  6
DASHED2
 62
               4
  5
3A1
 10
499.99999999999989
 20
-418.62526555439797
 30
0.0
 40
16.58585826952007
 50
69.269184858534302
 51
110.73081514139687
  0
LINE
  8
0
  6
DASHED2
 62
               4
  5
3A2
 10
488.2399999999983
 20
-413.63940728487796
 30
0.0
 11
488.2399999999983
 21
-422.16553578418518
 31
0.0
  0
LINE
  8
0
  6
DASHED2
 62
               4
  5
3A3
 10
494.12897274573277
 20
-422.16553578418518
 30
0.0
 11
494.12897274573277
 21
-413.63940728487796
 31
0.0
  0
LINE
  8
0
  6
DASHED2
 62
               4
  5
3A4
 10
491.18448637286576
 20
-423.23940728487776
 30
0.0
 11
508.81551362713128
 21
-423.23940728487776
 31
0.0
  0
LINE
  8
0
  6
DASHED2
 62
               4
  5
3A5
 10
511.75999999999874
 20
-413.63940728487796
 30
0.0
 11
511.75999999999874
 21
-422.16553578418518
 31
0.0
  0
LINE
  8
0
  6
DASHED2
 62
               4
  5
3A6
 10
505.87102725426428
 20
-413.63940728487796
 30
0.0
 11
505.87102725426428
 21
-422.16553578418518
 31
0.0
  0
ARC
  8
0
  6
DASHED2
 62
               4
  5
3A7
 10
491.18448637286576
 20
-418.66567570076234
 30
0.0
 40
4.5737315841157447
 50
229.92557966153464
 51
310.07442033826101
  0
ARC
  8
0
  6
DASHED2
 62
               4
  5
3A8
 10
508.81551362713128
 20
-418.66567570076234
 30
0.0
 40
4.5737315841157686
 50
229.92557966153464
 51
310.07442033826055
  0
ARC
  8
0
  6
DASHED2
 62
               4
  5
3A9
 10
499.99999999999852
 20
-406.65354901535784
 30
0.0
 40
16.58585826952007
 50
249.26918485846539
 51
290.73081514132798
  0
LINE
  8
0
  6
DASHED2
 62
               4
  5
3AA
 10
493.99999999999989
 20
-423.23940728487776
 30
0.0
 11
493.99999999999989
 21
-433.75877352720238
 31
0.0
  0
LINE
  8
0
  6
DASHED2
 62
               4
  5
3AB
 10
505.99999999999989
 20
-423.23940728487776
 30
0.0
 11
505.99999999999989
 21
-433.75877352720238
 31
0.0
  0
LINE
  8
0
  6
DASHED2
 62
               4
  5
3AC
 10
495.1999999999997
 20
-434.95877352720277
 30
0.0
 11
504.79999999999984
 21
-434.95877352720277
 31
0.0
  0
LINE
  8
0
  6
DASHED2
 62
               4
  5
3AD
 10
493.99999999999989
 20
-433.75877352720238
 30
0.0
 11
495.1999999999997
 21
-434.95877352720277
 31
0.0
  0
LINE
  8
0
  6
DASHED2
 62
               4
  5
3AE
 10
505.99999999999989
 20
-433.75877352720238
 30
0.0
 11
504.79999999999984
 21
-434.95877352720277
 31
0.0
  0
LINE
  8
0
  6
DASHED2
 62
               4
  5
3AF
 10
488.23999999999967
 20
-411.63940728487762
 30
0.0
 11
511.7600000000001
 21
-411.63940728487762
 31
0.0
  0
LINE
  8
0
  6
DASHED2
 62
               4
  5
3B0
 10
511.75999999999874
 20
-413.63940728487796
 30
0.0
 11
488.2399999999983
 21
-413.63940728487796
 31
0.0
  0
LINE
  8
0
  6
DASHED2
 62
               4
  5
3B1
 10
-506.00000000000006
 20
-296.57582780894921
 30
0.0
 11
-506.00000000000006
 21
-402.03940728487788
 31
0.0
  0
LINE
  8
0
  6
DASHED2
 62
               4
  5
3B2
 10
-494.00000000000017
 20
-296.57582780894921
 30
0.0
 11
-494.00000000000017
 21
-402.03940728487788
 31
0.0
  0
LINE
  8
0
  6
DASHED2
 62
               4
  5
3B3
 10
-494.00000000000017
 20
-296.57582780894921
 30
0.0
 11
-506.00000000000006
 21
-296.57582780894921
 31
0.0
  0
LINE
  8
0
  6
DASHED2
 62
               4
  5
3B4
 10
118.99999999999943
 20
-296.57582780894836
 30
0.0
 11
118.99999999999943
 21
-402.03940728487703
 31
0.0
  0
LINE
  8
0
  6
DASHED2
 62
               4
  5
3B5
 10
130.99999999999932
 20
-296.57582780894836
 30
0.0
 11
130.99999999999932
 21
-402.03940728487703
 31
0.0
  0
LINE
  8
0
  6
DASHED2
 62
               4
  5
3B6
 10
118.99999999999943
 20
-296.57582780894836
 30
0.0
 11
130.99999999999932
 21
-296.57582780894836
 31
0.0
  0
LINE
  8
0
  6
DASHED2
 62
               4
  5
3B7
 10
-119.00000000000065
 20
-296.57582780894836
 30
0.0
 11
-131.00000000000054
 21
-296.57582780894836
 31
0.0
  0
LINE
  8
0
  6
DASHED2
 62
               4
  5
3B8
 10
-119.00000000000065
 20
-296.57582780894836
 30
0.0
 11
-119.00000000000065
 21
-402.03940728487703
 31
0.0
  0
LINE
  8
0
  6
DASHED2
 62
               4
  5
3B9
 10
-131.00000000000054
 20
-296.57582780894836
 30
0.0
 11
-131.00000000000054
 21
-402.03940728487703
 31
0.0
  0
LINE
  8
0
  6
DASHED2
 62
               4
  5
3BA
 10
505.99999999999977
 20
-296.57582780894882
 30
0.0
 11
505.99999999999977
 21
-402.03940728487748
 31
0.0
  0
LINE
  8
0
  6
DASHED2
 62
               4
  5
3BB
 10
493.99999999999977
 20
-296.57582780894882
 30
0.0
 11
493.99999999999977
 21
-402.03940728487748
 31
0.0
  0
LINE
  8
0
  6
DASHED2
 62
               4
  5
3BC
 10
505.99999999999977
 20
-296.57582780894882
 30
0.0
 11
493.99999999999977
 21
-296.57582780894882
 31
0.0
  0
LINE
  8
0
  6
DASHED2
 62
               4
  5
3BD
 10
552.28652321630796
 20
-1369.323786373106
 30
0.0
 11
666.28652321630773
 21
-1369.323786373106
 31
0.0
  0
LINE
  8
0
  6
DASHDOT
 62
               4
  5
3BE
 10
-0.0000000000002274
 20
651.86059271512227
 30
0.0
 11
-0.0000000000002132
 21
429.31314748308586
 31
0.0
  0
LINE
  8
0
  6
DASHDOT
 62
               4
  5
3BF
 10
-194.7604954140088
 20
543.36059271512227
 30
0.0
 11
199.21602649019354
 21
543.36059271512227
 31
0.0
  0
LINE
  8
0
  6
DASHDOT
 62
               4
  5
3C0
 10
174.24971798529705
 20
27.360592715122365
 30
0.0
 11
91.824425574425476
 21
27.360592715122365
 31
0.0
  0
LINE
  8
0
  6
DASHDOT
 62
               4
  5
3C1
 10
-174.24971798529714
 20
27.360592715122365
 30
0.0
 11
-91.824425574425561
 21
27.360592715122365
 31
0.0
  0
LINE
  8
0
  6
DASHDOT
 62
               4
  5
3C2
 10
-431.47477522477533
 20
27.360592715122365
 30
0.0
 11
-568.1755744255745
 21
27.360592715122365
 31
0.0
  0
LINE
  8
0
  6
DASHDOT
 62
               4
  5
3C3
 10
568.52522477522461
 20
27.360592715122351
 30
0.0
 11
431.82442557442539
 21
27.360592715122351
 31
0.0
  0
LINE
  8
0
  6
DASHDOT
 62
               4
  5
3C4
 10
500.0
 20
-651.86059271512227
 30
0.0
 11
500.0
 21
-411.63940728487739
 31
0.0
  0
LINE
  8
0
  6
DASHDOT
 62
               4
  5
3C5
 10
-0.0000000000000426
 20
-651.86059271512227
 30
0.0
 11
-0.0000000000000284
 21
-411.63940728487762
 31
0.0
  0
LINE
  8
0
  6
DASHDOT
 62
               4
  5
3C6
 10
-500.00000000000068
 20
-651.86059271512227
 30
0.0
 11
-500.00000000000153
 21
-406.65354901535784
 31
0.0
  0
LINE
  8
0
  6
DASHDOT
 62
               4
  5
3C7
 10
124.99999999999937
 20
-290.64930528687228
 30
0.0
 11
124.99999999999937
 21
-455.0276669063627
 31
0.0
  0
LINE
  8
0
  6
DASHDOT
 62
               4
  5
3C8
 10
-125.0000000000006
 20
-290.64930528687228
 30
0.0
 11
-125.0000000000006
 21
-455.0276669063627
 31
0.0
  0
LINE
  8
0
  6
DASHDOT
 62
               4
  5
3C9
 10
500.0
 20
213.36059271512238
 30
0.0
 11
500.0
 21
-411.63940728487762
 31
0.0
  0
LINE
  8
0
  6
DASHDOT
 62
               4
  5
3CA
 10
-0.0000000000000426
 20
213.36059271512238
 30
0.0
 11
-0.0000000000000426
 21
-411.63940728487762
 31
0.0
  0
LINE
  8
0
  6
DASHDOT
 62
               4
  5
3CB
 10
-500.00000000000006
 20
213.36059271512238
 30
0.0
 11
-500.00000000000153
 21
-406.65354901535784
 31
0.0
  0
LINE
  8
0
  6
DASHDOT
 62
               4
  5
3CC
 10
-392.13776905046876
 20
-1118.0087881963127
 30
0.0
 11
-392.13776905046865
 21
-989.00878819631271
 31
0.0
  0
LINE
  8
0
  6
DASHDOT
 62
               4
  5
3CD
 10
-450.13776905046876
 20
-1060.0087881963127
 30
0.0
 11
-334.13776905046876
 21
-1060.0087881963127
 31
0.0
  0
LINE
  8
0
  6
DASHDOT
 62
               4
  5
3CE
 10
-461.9409475345762
 20
-1053.5087881963127
 30
0.0
 11
-327.63776905046876
 21
-1053.5087881963127
 31
0.0
  0
LINE
  8
0
  6
DASHDOT
 62
               4
  5
3CF
 10
-268.23776905046867
 20
-1053.5087881963127
 30
0.0
 11
-169.63776905046876
 21
-1053.5087881963127
 31
0.0
  0
LINE
  8
0
  6
DASHDOT
 62
               4
  5
3D0
 10
-302.63776905046876
 20
-1060.0087881963127
 30
0.0
 11
-228.23776905046878
 21
-1060.0087881963127
 31
0.0
  0
LINE
  8
0
  6
DASHDOT
 62
               4
  5
3D1
 10
-516.03776905046868
 20
-1053.5087881963125
 30
0.0
 11
-614.63776905046882
 21
-1053.5087881963123
 31
0.0
  0
LINE
  8
0
  6
DASHDOT
 62
               4
  5
3D2
 10
-481.63776905046876
 20
-1060.0087881963125
 30
0.0
 11
-556.03776905046868
 21
-1060.0087881963125
 31
0.0
  0
LINE
  8
0
  6
DASHDOT
 62
               4
  5
3D3
 10
-394.08372644623529
 20
-956.5409041272776
 30
0.0
 11
-394.08372644623529
 21
-823.5409041272776
 31
0.0
  0
LINE
  8
0
  6
DASHDOT
 62
               4
  5
3D4
 10
221.63392368588092
 20
-1053.5087881963127
 30
0.0
 11
320.23392368588105
 21
-1053.5087881963127
 31
0.0
  0
LINE
  8
0
  6
DASHDOT
 62
               4
  5
3D5
 10
196.63392368588092
 20
-1068.0087881963127
 30
0.0
 11
261.63392368588092
 21
-1068.0087881963127
 31
0.0
  0
LINE
  8
0
  6
DASHDOT
 62
               4
  5
3D6
 10
70.877907460637928
 20
-1068.0087881963127
 30
0.0
 11
170.87790746063814
 21
-1068.0087881963127
 31
0.0
  0
LINE
  8
0
  6
DASHDOT
 62
               4
  5
3D7
 10
120.87790746063793
 20
-1118.0087881963127
 30
0.0
 11
120.87790746063816
 21
-989.00878819631271
 31
0.0
  0
LINE
  8
0
  6
DASHDOT
 62
               4
  5
3D8
 10
56.377907460637928
 20
-1053.5087881963127
 30
0.0
 11
190.92191724058915
 21
-1053.5087881963127
 31
0.0
  0
LINE
  8
0
  6
DASHDOT
 62
               4
  5
3D9
 10
20.121891235395154
 20
-1053.5087881963127
 30
0.0
 11
-78.478108764604869
 21
-1053.5087881963127
 31
0.0
  0
LINE
  8
0
  6
DASHDOT
 62
               4
  5
3DA
 10
45.121891235395154
 20
-1068.0087881963127
 30
0.0
 11
-19.878108764604846
 21
-1068.0087881963127
 31
0.0
  0
LINE
  8
0
  6
DASHDOT
 62
               4
  5
3DB
 10
120.87790746063816
 20
-967.25277197106993
 30
0.0
 11
120.87790746063816
 21
-843.6527719710698
 31
0.0
  0
LINE
  8
0
  6
DASHDOT
 62
               4
  5
3DC
 10
609.28652321630773
 20
-887.32435262452168
 30
0.0
 11
609.28652321630773
 21
-1157.8711394243478
 31
0.0
  0
LINE
  8
0
  6
DASHDOT
 62
               4
  5
3DD
 10
447.2865232163079
 20
-995.82435262452168
 30
0.0
 11
717.78652321630796
 21
-995.82435262452168
 31
0.0
  0
LINE
  8
0
  6
DASHDOT
 62
               4
  5
3DE
 10
677.81174799153257
 20
-1470.323786373106
 30
0.0
 11
447.55790992287956
 21
-1470.323786373106
 31
0.0
  0
LINE
  8
0
  6
DASHDOT
 62
               4
  5
3DF
 10
609.28652321630773
 20
-1284.323786373106
 30
0.0
 11
609.28652321630773
 21
-1535.323786373106
 31
0.0
  0
LINE
  8
0
  6
DASHDOT
 62
               4
  5
3E0
 10
559.28652321630773
 20
-1484.823786373106
 30
0.0
 11
659.28652321630796
 21
-1484.823786373106
 31
0.0
  0
LINE
  8
0
  6
DASHDOT
 62
               4
  5
3E1
 10
609.28652321630773
 20
-1186.4243526245218
 30
0.0
 11
609.28652321630773
 21
-1062.8243526245215
 31
0.0
  0
LINE
  8
0
  6
DASHDOT
 62
               4
  5
3E2
 10
409.28652321630778
 20
-1476.823786373106
 30
0.0
 11
483.68652321630776
 21
-1476.823786373106
 31
0.0
  0
LINE
  8
0
  6
DASHDOT
 62
               4
  5
3E3
 10
409.28652321630801
 20
-995.82435262452145
 30
0.0
 11
542.28652321630796
 21
-995.82435262452145
 31
0.0
  0
LINE
  8
0
  6
CONTINUOUS
 62
               4
  5
3E4
 10
-91.00000000000054
 20
-417.38462907220003
 30
0.0
 11
-91.00000000000054
 21
-407.51034286514425
 31
0.0
  0
LINE
  8
0
  6
CONTINUOUS
 62
               4
  5
3E5
 10
90.999999999999204
 20
-417.38462907220003
 30
0.0
 11
90.999999999999204
 21
-407.51034286514425
 31
0.0
  0
LINE
  8
0
  6
CONTINUOUS
 62
               4
  5
3E6
 10
-65.500000000001563
 20
-516.63940728487637
 30
0.0
 11
65.500000000000341
 21
-516.63940728487637
 31
0.0
  0
LINE
  8
0
  6
CONTINUOUS
 62
               4
  5
3E7
 10
-565.50000000000102
 20
-516.63940728487637
 30
0.0
 11
-434.49999999999909
 21
-516.63940728487637
 31
0.0
  0
LINE
  8
0
  6
CONTINUOUS
 62
               4
  5
3E8
 10
434.49999999999898
 20
-516.63940728487637
 30
0.0
 11
565.50000000000091
 21
-516.63940728487637
 31
0.0
  0
POINT
  8
0
  6
CONTINUOUS
 62
               4
  5
3E9
 10
-247.03776905046874
 20
-1009.0087881963127
 30
0.0
  0
POINT
  8
0
  6
CONTINUOUS
 62
               4
  5
3EA
 10
-537.23776905046873
 20
-1009.0087881963125
 30
0.0
  0
POINT
  8
0
  6
CONTINUOUS
 62
               4
  5
3EB
 10
-349.58372644623529
 20
-900.94090412727769
 30
0.0
  0
POINT
  8
0
  6
CONTINUOUS
 62
               4
  5
3EC
 10
242.83392368588096
 20
-1009.0087881963127
 30
0.0
  0
POINT
  8
0
  6
CONTINUOUS
 62
               4
  5
3ED
 10
-1.0781087646048917
 20
-1009.0087881963127
 30
0.0
  0
POINT
  8
0
  6
CONTINUOUS
 62
               4
  5
3EE
 10
165.37790746063814
 20
-921.05277197106989
 30
0.0
  0
LINE
  8
0
  6
CONTINUOUS
 62
               4
  5
3EF
 10
686.28652321630773
 20
-1400.7881326202532
 30
0.0
 11
681.28652321630773
 21
-1395.7881326202532
 31
0.0
  0
ARC
  8
0
  6
CONTINUOUS
 62
               4
  5
3F0
 10
663.78652321630773
 20
-1411.323786373106
 30
0.0
 40
19.999999999999996
 50
0.0
 51
31.78833061703342
  0
LINE
  8
0
  6
CONTINUOUS
 62
               4
  5
3F1
 10
680.78652321630818
 20
-1400.7881326202532
 30
0.0
 11
680.78652321630818
 21
-1395.7881326202528
 31
0.0
  0
LINE
  8
0
  6
CONTINUOUS
 62
               4
  5
3F2
 10
681.28652321630773
 20
-1395.7881326202532
 30
0.0
 11
680.78652321630818
 21
-1395.7881326202532
 31
0.0
  0
LINE
  8
0
  6
CONTINUOUS
 62
               4
  5
3F3
 10
686.03652321630796
 20
-1401.0381326202532
 30
0.0
 11
680.78652321630818
 21
-1395.7881326202532
 31
0.0
  0
LINE
  8
0
  6
CONTINUOUS
 62
               4
  5
3F4
 10
686.03652321630796
 20
-1401.0381326202532
 30
0.0
 11
686.28652321630773
 21
-1400.7881326202532
 31
0.0
  0
LINE
  8
0
  6
CONTINUOUS
 62
               4
  5
3F5
 10
686.28652321630773
 20
-1400.7881326202532
 30
0.0
 11
686.28652321630773
 21
-1531.4768099702228
 31
0.0
  0
LINE
  8
0
  6
CONTINUOUS
 62
               4
  5
3F6
 10
686.03652321630796
 20
-1401.0381326202532
 30
0.0
 11
686.03652321630796
 21
-1531.1914528630873
 31
0.0
  0
LINE
  8
0
  6
CONTINUOUS
 62
               4
  5
3F7
 10
683.78652321630773
 20
-1411.1707627759888
 30
0.0
 11
683.78652321630773
 21
-1530.323786373106
 31
0.0
  0
POINT
  8
0
  6
CONTINUOUS
 62
               4
  5
3F8
 10
653.78652321630773
 20
-1140.2243526245215
 30
0.0
  0
POINT
  8
0
  6
CONTINUOUS
 62
               4
  5
3F9
 10
464.88652321630781
 20
-1425.823786373106
 30
0.0
  0
POINT
  8
0
  6
CONTINUOUS
 62
               4
  5
3FA
 10
464.88652321630792
 20
-1040.3243526245215
 30
0.0
  0
ARC
  8
0
  6
DIVIDE
 62
               4
  5
3FB
 10
-28.50000000000054
 20
-658.57238858904611
 30
0.0
 40
55.0
 50
58.789629707478369
 51
121.21037029248673
  0
ARC
  8
0
  6
DIVIDE
 62
               4
  5
3FC
 10
-28.50000000000054
 20
-564.49263518800853
 30
0.0
 40
55.0
 50
238.78962970744368
 51
301.21037029245184
  0
ARC
  8
0
  6
DIVIDE
 62
               4
  5
3FD
 10
-32.500000000000597
 20
-634.03500932432394
 30
0.0
 40
65.0
 50
59.999999999988269
 51
119.99999999997692
  0
ARC
  8
0
  6
DIVIDE
 62
               4
  5
3FE
 10
28.499999999999488
 20
-564.49263518800876
 30
0.0
 40
55.0
 50
238.78962970744377
 51
301.21037029245201
  0
ARC
  8
0
  6
DIVIDE
 62
               4
  5
3FF
 10
32.499999999999403
 20
-521.45170683234687
 30
0.0
 40
65.0
 50
239.99999999995379
 51
299.99999999994202
  0
LINE
  8
0
  6
DIVIDE
 62
               4
  5
400
 10
-57.000000000000483
 20
-573.82911260315541
 30
0.0
 11
-57.000000000000483
 21
-611.53251188852732
 31
0.0
  0
LINE
  8
0
  6
DIVIDE
 62
               4
  5
401
 10
56.999999999999574
 20
-581.6576035535154
 30
0.0
 11
56.999999999999574
 21
-611.53251188852732
 31
0.0
  0
ARC
  8
0
  6
DIVIDE
 62
               4
  5
402
 10
-32.500000000000597
 20
-521.4517068323471
 30
0.0
 40
65.0
 50
239.99999999995339
 51
247.85677929850399
  0
LINE
  8
0
  6
DIVIDE
 62
               4
  5
403
 10
64.999999999999375
 20
-491.63940728487648
 30
0.0
 11
64.999999999999375
 21
-577.7433580783354
 31
0.0
  0
LINE
  8
0
  6
DIVIDE
 62
               4
  5
404
 10
-65.000000000000597
 20
-491.63940728487648
 30
0.0
 11
-65.000000000000597
 21
-577.7433580783354
 31
0.0
  0
ARC
  8
0
  6
DIVIDE
 62
               4
  5
405
 10
-528.5
 20
-658.57238858904611
 30
0.0
 40
55.0
 50
58.789629707478369
 51
121.21037029248674
  0
ARC
  8
0
  6
DIVIDE
 62
               4
  5
406
 10
-528.5
 20
-564.49263518800853
 30
0.0
 40
55.0
 50
238.78962970744368
 51
301.21037029245184
  0
ARC
  8
0
  6
DIVIDE
 62
               4
  5
407
 10
-532.5
 20
-634.03500932432394
 30
0.0
 40
65.0
 50
59.999999999988248
 51
119.99999999997692
  0
ARC
  8
0
  6
DIVIDE
 62
               4
  5
408
 10
-471.49999999999994
 20
-564.49263518800876
 30
0.0
 40
55.0
 50
238.78962970744377
 51
301.21037029245201
  0
ARC
  8
0
  6
DIVIDE
 62
               4
  5
409
 10
-467.50000000000006
 20
-521.45170683234687
 30
0.0
 40
65.0
 50
239.99999999995379
 51
299.99999999994202
  0
LINE
  8
0
  6
DIVIDE
 62
               4
  5
40A
 10
-557.0
 20
-573.82911260315541
 30
0.0
 11
-557.0
 21
-611.53251188852732
 31
0.0
  0
LINE
  8
0
  6
DIVIDE
 62
               4
  5
40B
 10
-442.99999999999989
 20
-581.6576035535154
 30
0.0
 11
-442.99999999999989
 21
-611.53251188852732
 31
0.0
  0
ARC
  8
0
  6
DIVIDE
 62
               4
  5
40C
 10
-532.5
 20
-521.4517068323471
 30
0.0
 40
65.0
 50
239.99999999995339
 51
247.85677929850399
  0
LINE
  8
0
  6
DIVIDE
 62
               4
  5
40D
 10
-435.00000000000006
 20
-491.63940728487648
 30
0.0
 11
-435.00000000000006
 21
-577.7433580783354
 31
0.0
  0
LINE
  8
0
  6
DIVIDE
 62
               4
  5
40E
 10
-565.0
 20
-491.63940728487648
 30
0.0
 11
-565.0
 21
-577.7433580783354
 31
0.0
  0
ARC
  8
0
  6
DIVIDE
 62
               4
  5
40F
 10
471.5
 20
-658.57238858904611
 30
0.0
 40
55.0
 50
58.789629707478369
 51
121.21037029248674
  0
ARC
  8
0
  6
DIVIDE
 62
               4
  5
410
 10
471.5
 20
-564.49263518800853
 30
0.0
 40
55.0
 50
238.78962970744368
 51
301.21037029245184
  0
ARC
  8
0
  6
DIVIDE
 62
               4
  5
411
 10
467.49999999999989
 20
-634.03500932432394
 30
0.0
 40
65.0
 50
59.999999999988297
 51
119.99999999997692
  0
ARC
  8
0
  6
DIVIDE
 62
               4
  5
412
 10
528.50000000000011
 20
-564.49263518800876
 30
0.0
 40
55.0
 50
238.78962970744377
 51
301.21037029245201
  0
ARC
  8
0
  6
DIVIDE
 62
               4
  5
413
 10
532.49999999999989
 20
-521.45170683234687
 30
0.0
 40
65.0
 50
239.99999999995379
 51
299.99999999994196
  0
LINE
  8
0
  6
DIVIDE
 62
               4
  5
414
 10
443.00000000000006
 20
-573.82911260315541
 30
0.0
 11
443.00000000000006
 21
-611.53251188852732
 31
0.0
  0
LINE
  8
0
  6
DIVIDE
 62
               4
  5
415
 10
557.00000000000011
 20
-581.6576035535154
 30
0.0
 11
557.00000000000011
 21
-611.53251188852732
 31
0.0
  0
ARC
  8
0
  6
DIVIDE
 62
               4
  5
416
 10
467.49999999999989
 20
-521.4517068323471
 30
0.0
 40
65.0
 50
239.99999999995339
 51
247.85677929850399
  0
LINE
  8
0
  6
DIVIDE
 62
               4
  5
417
 10
564.99999999999989
 20
-491.63940728487648
 30
0.0
 11
564.99999999999989
 21
-577.7433580783354
 31
0.0
  0
LINE
  8
0
  6
DIVIDE
 62
               4
  5
418
 10
434.99999999999994
 20
-491.63940728487648
 30
0.0
 11
434.99999999999994
 21
-577.7433580783354
 31
0.0
  0
POINT
  8
0
  6
DASHDOT
 62
               5
  5
419
 10
-0.0000000000001279
 20
543.36059271512227
 30
0.0
  0
POINT
  8
0
  6
CONTINUOUS
 62
               5
  5
41A
 10
-392.13776905046876
 20
-1053.5087881963127
 30
0.0
  0
POINT
  8
0
  6
CONTINUOUS
 62
               5
  5
41B
 10
-218.90769754050842
 20
-1054.7995822712016
 30
0.0
  0
POINT
  8
0
  6
CONTINUOUS
 62
               5
  5
41C
 10
-565.36784056042904
 20
-1054.7995822712014
 30
0.0
  0
POINT
  8
0
  6
CONTINUOUS
 62
               5
  5
41D
 10
-395.37452052112434
 20
-872.81083261731737
 30
0.0
  0
POINT
  8
0
  6
CONTINUOUS
 62
               5
  5
41E
 10
493.01659472626812
 20
-1471.6145804479947
 30
0.0
  0
POINT
  8
0
  6
CONTINUOUS
 62
               5
  5
41F
 10
493.01659472626824
 20
-994.53355854963252
 30
0.0
  0
CIRCLE
  8
0
  6
CONTINUOUS
 62
               7
  5
420
 10
-392.13776905046876
 20
-1060.0087881963127
 30
0.0
 40
38.0
  0
CIRCLE
  8
0
  6
CONTINUOUS
 62
               7
  5
421
 10
-392.13776905046876
 20
-1060.0087881963127
 30
0.0
 40
33.5
  0
LINE
  8
0
  6
CONTINUOUS
 62
               7
  5
422
 10
-247.63776905046876
 20
-1009.0087881963127
 30
0.0
 11
-247.63776905046876
 21
-1098.0035520756383
 31
0.0
  0
LINE
  8
0
  6
CONTINUOUS
 62
               7
  5
423
 10
-247.03776905046874
 20
-1009.0087881963127
 30
0.0
 11
-247.63776905046876
 21
-1009.0087881963127
 31
0.0
  0
LINE
  8
0
  6
CONTINUOUS
 62
               7
  5
424
 10
-282.63776905046876
 20
-1097.0087881963127
 30
0.0
 11
-282.63776905046876
 21
-1023.0087881963127
 31
0.0
  0
LINE
  8
0
  6
CONTINUOUS
 62
               7
  5
425
 10
-189.63776905046876
 20
-1097.0087881963127
 30
0.0
 11
-189.63776905046876
 21
-1010.0087881963127
 31
0.0
  0
LINE
  8
0
  6
CONTINUOUS
 62
               7
  5
426
 10
-247.63776905046876
 20
-1009.0087881963127
 30
0.0
 11
-190.63776905046876
 21
-1009.0087881963127
 31
0.0
  0
LINE
  8
0
  6
CONTINUOUS
 62
               7
  5
427
 10
-281.63776905046876
 20
-1098.0087881963127
 30
0.0
 11
-190.63776905046876
 21
-1098.0087881963127
 31
0.0
  0
LINE
  8
0
  6
CONTINUOUS
 62
               7
  5
428
 10
-190.63776905046876
 20
-1009.0087881963127
 30
0.0
 11
-189.63776905046876
 21
-1010.0087881963127
 31
0.0
  0
LINE
  8
0
  6
CONTINUOUS
 62
               7
  5
429
 10
-189.63776905046876
 20
-1097.0087881963127
 30
0.0
 11
-190.63776905046876
 21
-1098.0087881963127
 31
0.0
  0
LINE
  8
0
  6
CONTINUOUS
 62
               7
  5
42A
 10
-281.63776905046876
 20
-1022.0087881963127
 30
0.0
 11
-247.63776905046876
 21
-1022.0087881963127
 31
0.0
  0
CIRCLE
  8
0
  6
CONTINUOUS
 62
               7
  5
42B
 10
-392.13776905046876
 20
-1053.5087881963127
 30
0.0
 40
44.5
  0
LINE
  8
0
  6
CONTINUOUS
 62
               7
  5
42C
 10
-281.63776905046876
 20
-1022.0087881963127
 30
0.0
 11
-282.63776905046876
 21
-1023.0087881963127
 31
0.0
  0
LINE
  8
0
  6
CONTINUOUS
 62
               7
  5
42D
 10
-282.63776905046876
 20
-1097.0087881963127
 30
0.0
 11
-281.63776905046876
 21
-1098.0087881963127
 31
0.0
  0
LINE
  8
0
  6
CONTINUOUS
 62
               7
  5
42E
 10
-536.63776905046859
 20
-1009.0087881963125
 30
0.0
 11
-536.63776905046882
 21
-1098.003552075638
 31
0.0
  0
LINE
  8
0
  6
CONTINUOUS
 62
               7
  5
42F
 10
-537.23776905046873
 20
-1009.0087881963125
 30
0.0
 11
-536.63776905046859
 21
-1009.0087881963125
 31
0.0
  0
LINE
  8
0
  6
CONTINUOUS
 62
               7
  5
430
 10
-501.63776905046882
 20
-1097.0087881963125
 30
0.0
 11
-501.63776905046859
 21
-1023.0087881963125
 31
0.0
  0
LINE
  8
0
  6
CONTINUOUS
 62
               7
  5
431
 10
-594.63776905046882
 20
-1097.0087881963125
 30
0.0
 11
-594.63776905046859
 21
-1010.0087881963125
 31
0.0
  0
LINE
  8
0
  6
CONTINUOUS
 62
               7
  5
432
 10
-536.63776905046859
 20
-1009.0087881963125
 30
0.0
 11
-593.63776905046859
 21
-1009.0087881963125
 31
0.0
  0
LINE
  8
0
  6
CONTINUOUS
 62
               7
  5
433
 10
-502.63776905046882
 20
-1098.0087881963125
 30
0.0
 11
-593.63776905046882
 21
-1098.0087881963125
 31
0.0
  0
LINE
  8
0
  6
CONTINUOUS
 62
               7
  5
434
 10
-593.63776905046859
 20
-1009.0087881963125
 30
0.0
 11
-594.63776905046859
 21
-1010.0087881963125
 31
0.0
  0
LINE
  8
0
  6
CONTINUOUS
 62
               7
  5
435
 10
-594.63776905046882
 20
-1097.0087881963125
 30
0.0
 11
-593.63776905046882
 21
-1098.0087881963125
 31
0.0
  0
LINE
  8
0
  6
CONTINUOUS
 62
               7
  5
436
 10
-502.63776905046859
 20
-1022.0087881963125
 30
0.0
 11
-536.63776905046859
 21
-1022.0087881963125
 31
0.0
  0
LINE
  8
0
  6
CONTINUOUS
 62
               7
  5
437
 10
-502.63776905046859
 20
-1022.0087881963125
 30
0.0
 11
-501.63776905046859
 21
-1023.0087881963125
 31
0.0
  0
LINE
  8
0
  6
CONTINUOUS
 62
               7
  5
438
 10
-501.63776905046882
 20
-1097.0087881963125
 30
0.0
 11
-502.63776905046882
 21
-1098.0087881963125
 31
0.0
  0
LINE
  8
0
  6
CONTINUOUS
 62
               7
  5
439
 10
-349.58372644623529
 20
-901.54090412727783
 30
0.0
 11
-438.57849032556084
 21
-901.5409041272776
 31
0.0
  0
LINE
  8
0
  6
CONTINUOUS
 62
               7
  5
43A
 10
-349.58372644623529
 20
-900.94090412727769
 30
0.0
 11
-349.58372644623529
 21
-901.54090412727783
 31
0.0
  0
LINE
  8
0
  6
CONTINUOUS
 62
               7
  5
43B
 10
-431.08372644623529
 20
-936.5409041272776
 30
0.0
 11
-357.08372644623529
 21
-936.54090412727783
 31
0.0
  0
LINE
  8
0
  6
CONTINUOUS
 62
               7
  5
43C
 10
-437.58372644623518
 20
-843.5409041272776
 30
0.0
 11
-350.58372644623529
 21
-843.54090412727783
 31
0.0
  0
LINE
  8
0
  6
CONTINUOUS
 62
               7
  5
43D
 10
-349.58372644623529
 20
-901.54090412727783
 30
0.0
 11
-349.58372644623529
 21
-844.54090412727783
 31
0.0
  0
LINE
  8
0
  6
CONTINUOUS
 62
               7
  5
43E
 10
-432.08372644623529
 20
-935.5409041272776
 30
0.0
 11
-432.08372644623529
 21
-901.5409041272776
 31
0.0
  0
LINE
  8
0
  6
CONTINUOUS
 62
               7
  5
43F
 10
-349.58372644623529
 20
-844.54090412727783
 30
0.0
 11
-350.58372644623529
 21
-843.54090412727783
 31
0.0
  0
LINE
  8
0
  6
CONTINUOUS
 62
               7
  5
440
 10
-437.58372644623518
 20
-843.5409041272776
 30
0.0
 11
-438.58372644623518
 21
-844.5409041272776
 31
0.0
  0
LINE
  8
0
  6
CONTINUOUS
 62
               7
  5
441
 10
-356.08372644623529
 20
-935.54090412727783
 30
0.0
 11
-356.08372644623529
 21
-901.5409041272776
 31
0.0
  0
LINE
  8
0
  6
CONTINUOUS
 62
               7
  5
442
 10
-356.08372644623529
 20
-935.54090412727783
 30
0.0
 11
-357.08372644623529
 21
-936.54090412727783
 31
0.0
  0
LINE
  8
0
  6
CONTINUOUS
 62
               7
  5
443
 10
-431.08372644623529
 20
-936.5409041272776
 30
0.0
 11
-432.08372644623529
 21
-935.5409041272776
 31
0.0
  0
LINE
  8
0
  6
CONTINUOUS
 62
               7
  5
444
 10
-438.58372644623529
 20
-901.5409041272776
 30
0.0
 11
-438.58372644623529
 21
-844.5409041272776
 31
0.0
  0
LINE
  8
0
  6
CONTINUOUS
 62
               7
  5
445
 10
216.63392368588092
 20
-1097.0087881963127
 30
0.0
 11
216.63392368588092
 21
-1039.0087881963127
 31
0.0
  0
LINE
  8
0
  6
CONTINUOUS
 62
               7
  5
446
 10
242.23392368588082
 20
-1009.0087881963127
 30
0.0
 11
242.23392368588082
 21
-1098.0087881963127
 31
0.0
  0
LINE
  8
0
  6
CONTINUOUS
 62
               7
  5
447
 10
242.83392368588096
 20
-1009.0087881963127
 30
0.0
 11
242.23392368588082
 21
-1009.0087881963127
 31
0.0
  0
LINE
  8
0
  6
CONTINUOUS
 62
               7
  5
448
 10
300.23392368588105
 20
-1097.0087881963127
 30
0.0
 11
300.23392368588105
 21
-1010.0087881963127
 31
0.0
  0
CIRCLE
  8
0
  6
CONTINUOUS
 62
               7
  5
449
 10
120.87790746063793
 20
-1068.0087881963127
 30
0.0
 40
30.0
  0
CIRCLE
  8
0
  6
CONTINUOUS
 62
               7
  5
44A
 10
120.87790746063793
 20
-1068.0087881963127
 30
0.0
 40
25.5
  0
CIRCLE
  8
0
  6
CONTINUOUS
 62
               7
  5
44B
 10
120.87790746063793
 20
-1053.5087881963127
 30
0.0
 40
44.5
  0
LINE
  8
0
  6
CONTINUOUS
 62
               7
  5
44C
 10
242.36837543136124
 20
-1009.0087881963127
 30
0.0
 11
299.23392368588105
 21
-1009.0087881963127
 31
0.0
  0
LINE
  8
0
  6
CONTINUOUS
 62
               7
  5
44D
 10
217.63392368588092
 20
-1098.0087881963127
 30
0.0
 11
299.23392368588105
 21
-1098.0087881963127
 31
0.0
  0
LINE
  8
0
  6
CONTINUOUS
 62
               7
  5
44E
 10
217.63392368588092
 20
-1038.0087881963127
 30
0.0
 11
242.23392368588082
 21
-1038.0087881963127
 31
0.0
  0
LINE
  8
0
  6
CONTINUOUS
 62
               7
  5
44F
 10
217.63392368588092
 20
-1038.0087881963127
 30
0.0
 11
216.63392368588092
 21
-1039.0087881963127
 31
0.0
  0
LINE
  8
0
  6
CONTINUOUS
 62
               7
  5
450
 10
299.23392368588105
 20
-1009.0087881963127
 30
0.0
 11
300.23392368588105
 21
-1010.0087881963127
 31
0.0
  0
LINE
  8
0
  6
CONTINUOUS
 62
               7
  5
451
 10
216.63392368588092
 20
-1097.0087881963127
 30
0.0
 11
217.63392368588092
 21
-1098.0087881963127
 31
0.0
  0
LINE
  8
0
  6
CONTINUOUS
 62
               7
  5
452
 10
300.23392368588105
 20
-1097.0087881963127
 30
0.0
 11
299.23392368588105
 21
-1098.0087881963127
 31
0.0
  0
LINE
  8
0
  6
CONTINUOUS
 62
               7
  5
453
 10
25.121891235395154
 20
-1097.0087881963127
 30
0.0
 11
25.121891235395154
 21
-1039.0087881963127
 31
0.0
  0
LINE
  8
0
  6
CONTINUOUS
 62
               7
  5
454
 10
-0.478108764604869
 20
-1009.0087881963127
 30
0.0
 11
-0.478108764604869
 21
-1098.0087881963127
 31
0.0
  0
LINE
  8
0
  6
CONTINUOUS
 62
               7
  5
455
 10
-1.0781087646048917
 20
-1009.0087881963127
 30
0.0
 11
-0.478108764604869
 21
-1009.0087881963127
 31
0.0
  0
LINE
  8
0
  6
CONTINUOUS
 62
               7
  5
456
 10
-58.478108764604869
 20
-1097.0087881963127
 30
0.0
 11
-58.478108764604869
 21
-1010.0087881963127
 31
0.0
  0
LINE
  8
0
  6
CONTINUOUS
 62
               7
  5
457
 10
-0.6125605100851743
 20
-1009.0087881963127
 30
0.0
 11
-57.478108764604869
 21
-1009.0087881963127
 31
0.0
  0
LINE
  8
0
  6
CONTINUOUS
 62
               7
  5
458
 10
24.121891235395154
 20
-1098.0087881963127
 30
0.0
 11
-57.478108764604869
 21
-1098.0087881963127
 31
0.0
  0
LINE
  8
0
  6
CONTINUOUS
 62
               7
  5
459
 10
24.121891235395154
 20
-1038.0087881963127
 30
0.0
 11
-0.478108764604869
 21
-1038.0087881963127
 31
0.0
  0
LINE
  8
0
  6
CONTINUOUS
 62
               7
  5
45A
 10
24.121891235395154
 20
-1038.0087881963127
 30
0.0
 11
25.121891235395154
 21
-1039.0087881963127
 31
0.0
  0
LINE
  8
0
  6
CONTINUOUS
 62
               7
  5
45B
 10
-57.478108764604869
 20
-1009.0087881963127
 30
0.0
 11
-58.478108764604869
 21
-1010.0087881963127
 31
0.0
  0
LINE
  8
0
  6
CONTINUOUS
 62
               7
  5
45C
 10
25.121891235395154
 20
-1097.0087881963127
 30
0.0
 11
24.121891235395154
 21
-1098.0087881963127
 31
0.0
  0
LINE
  8
0
  6
CONTINUOUS
 62
               7
  5
45D
 10
-58.478108764604869
 20
-1097.0087881963127
 30
0.0
 11
-57.478108764604869
 21
-1098.0087881963127
 31
0.0
  0
LINE
  8
0
  6
CONTINUOUS
 62
               7
  5
45E
 10
91.877907460638156
 20
-947.25277197106993
 30
0.0
 11
149.87790746063814
 21
-947.25277197106993
 31
0.0
  0
LINE
  8
0
  6
CONTINUOUS
 62
               7
  5
45F
 10
165.37790746063814
 20
-921.6527719710698
 30
0.0
 11
76.377907460638156
 21
-921.6527719710698
 31
0.0
  0
LINE
  8
0
  6
CONTINUOUS
 62
               7
  5
460
 10
165.37790746063814
 20
-921.05277197106989
 30
0.0
 11
165.37790746063814
 21
-921.6527719710698
 31
0.0
  0
LINE
  8
0
  6
CONTINUOUS
 62
               7
  5
461
 10
77.377907460638156
 20
-863.6527719710698
 30
0.0
 11
164.37790746063814
 21
-863.6527719710698
 31
0.0
  0
LINE
  8
0
  6
CONTINUOUS
 62
               7
  5
462
 10
165.37790746063814
 20
-921.5183202255896
 30
0.0
 11
165.37790746063814
 21
-864.6527719710698
 31
0.0
  0
LINE
  8
0
  6
CONTINUOUS
 62
               7
  5
463
 10
90.877907460638156
 20
-946.25277197106993
 30
0.0
 11
90.877907460638156
 21
-921.6527719710698
 31
0.0
  0
LINE
  8
0
  6
CONTINUOUS
 62
               7
  5
464
 10
150.87790746063814
 20
-946.25277197106993
 30
0.0
 11
150.87790746063814
 21
-921.6527719710698
 31
0.0
  0
LINE
  8
0
  6
CONTINUOUS
 62
               7
  5
465
 10
150.87790746063814
 20
-946.25277197106993
 30
0.0
 11
149.87790746063814
 21
-947.25277197106993
 31
0.0
  0
LINE
  8
0
  6
CONTINUOUS
 62
               7
  5
466
 10
165.37790746063814
 20
-864.6527719710698
 30
0.0
 11
164.37790746063814
 21
-863.6527719710698
 31
0.0
  0
LINE
  8
0
  6
CONTINUOUS
 62
               7
  5
467
 10
91.877907460638156
 20
-947.25277197106993
 30
0.0
 11
90.877907460638156
 21
-946.25277197106993
 31
0.0
  0
LINE
  8
0
  6
CONTINUOUS
 62
               7
  5
468
 10
77.377907460638156
 20
-863.6527719710698
 30
0.0
 11
76.377907460638156
 21
-864.6527719710698
 31
0.0
  0
LINE
  8
0
  6
CONTINUOUS
 62
               7
  5
469
 10
76.377907460638156
 20
-921.51832022558938
 30
0.0
 11
76.377907460638156
 21
-864.6527719710698
 31
0.0
  0
CIRCLE
  8
0
  6
CONTINUOUS
 62
               7
  5
46A
 10
609.28652321630773
 20
-1484.823786373106
 30
0.0
 40
25.5
  0
CIRCLE
  8
0
  6
CONTINUOUS
 62
               7
  5
46B
 10
609.28652321630773
 20
-1470.323786373106
 30
0.0
 40
44.5
  0
CIRCLE
  8
0
  6
CONTINUOUS
 62
               7
  5
46C
 10
609.28652321630773
 20
-1484.823786373106
 30
0.0
 40
30.0
  0
LINE
  8
0
  6
CONTINUOUS
 62
               7
  5
46D
 10
580.28652321630773
 20
-1166.4243526245214
 30
0.0
 11
638.28652321630773
 21
-1166.4243526245214
 31
0.0
  0
LINE
  8
0
  6
CONTINUOUS
 62
               7
  5
46E
 10
653.78652321630773
 20
-1140.8243526245215
 30
0.0
 11
564.78652321630773
 21
-1140.8243526245215
 31
0.0
  0
LINE
  8
0
  6
CONTINUOUS
 62
               7
  5
46F
 10
653.78652321630773
 20
-1140.2243526245215
 30
0.0
 11
653.78652321630773
 21
-1140.8243526245215
 31
0.0
  0
LINE
  8
0
  6
CONTINUOUS
 62
               7
  5
470
 10
565.78652321630773
 20
-1082.8243526245215
 30
0.0
 11
652.78652321630773
 21
-1082.8243526245215
 31
0.0
  0
LINE
  8
0
  6
CONTINUOUS
 62
               7
  5
471
 10
653.78652321630773
 20
-1140.689900879041
 30
0.0
 11
653.78652321630773
 21
-1083.8243526245215
 31
0.0
  0
LINE
  8
0
  6
CONTINUOUS
 62
               7
  5
472
 10
579.28652321630773
 20
-1165.4243526245214
 30
0.0
 11
579.28652321630773
 21
-1140.8243526245215
 31
0.0
  0
LINE
  8
0
  6
CONTINUOUS
 62
               7
  5
473
 10
639.28652321630773
 20
-1165.4243526245214
 30
0.0
 11
639.28652321630773
 21
-1140.8243526245215
 31
0.0
  0
LINE
  8
0
  6
CONTINUOUS
 62
               7
  5
474
 10
639.28652321630773
 20
-1165.4243526245214
 30
0.0
 11
638.28652321630773
 21
-1166.4243526245214
 31
0.0
  0
LINE
  8
0
  6
CONTINUOUS
 62
               7
  5
475
 10
653.78652321630773
 20
-1083.8243526245215
 30
0.0
 11
652.78652321630773
 21
-1082.8243526245215
 31
0.0
  0
LINE
  8
0
  6
CONTINUOUS
 62
               7
  5
476
 10
580.28652321630773
 20
-1166.4243526245214
 30
0.0
 11
579.28652321630773
 21
-1165.4243526245214
 31
0.0
  0
LINE
  8
0
  6
CONTINUOUS
 62
               7
  5
477
 10
565.78652321630773
 20
-1082.8243526245215
 30
0.0
 11
564.78652321630773
 21
-1083.8243526245215
 31
0.0
  0
LINE
  8
0
  6
CONTINUOUS
 62
               7
  5
478
 10
564.78652321630773
 20
-1140.689900879041
 30
0.0
 11
564.78652321630773
 21
-1083.8243526245215
 31
0.0
  0
LINE
  8
0
  6
CONTINUOUS
 62
               7
  5
479
 10
464.28652321630778
 20
-1425.823786373106
 30
0.0
 11
464.28652321630778
 21
-1514.8185502524316
 31
0.0
  0
LINE
  8
0
  6
CONTINUOUS
 62
               7
  5
47A
 10
464.88652321630781
 20
-1425.823786373106
 30
0.0
 11
464.28652321630778
 21
-1425.823786373106
 31
0.0
  0
LINE
  8
0
  6
CONTINUOUS
 62
               7
  5
47B
 10
429.28652321630778
 20
-1513.823786373106
 30
0.0
 11
429.28652321630778
 21
-1439.823786373106
 31
0.0
  0
LINE
  8
0
  6
CONTINUOUS
 62
               7
  5
47C
 10
522.28652321630784
 20
-1513.823786373106
 30
0.0
 11
522.28652321630784
 21
-1426.823786373106
 31
0.0
  0
LINE
  8
0
  6
CONTINUOUS
 62
               7
  5
47D
 10
464.28652321630778
 20
-1425.823786373106
 30
0.0
 11
521.28652321630784
 21
-1425.823786373106
 31
0.0
  0
LINE
  8
0
  6
CONTINUOUS
 62
               7
  5
47E
 10
430.28652321630778
 20
-1514.823786373106
 30
0.0
 11
521.28652321630784
 21
-1514.823786373106
 31
0.0
  0
LINE
  8
0
  6
CONTINUOUS
 62
               7
  5
47F
 10
521.28652321630784
 20
-1425.823786373106
 30
0.0
 11
522.28652321630784
 21
-1426.823786373106
 31
0.0
  0
LINE
  8
0
  6
CONTINUOUS
 62
               7
  5
480
 10
522.28652321630784
 20
-1513.823786373106
 30
0.0
 11
521.28652321630784
 21
-1514.823786373106
 31
0.0
  0
LINE
  8
0
  6
CONTINUOUS
 62
               7
  5
481
 10
430.28652321630778
 20
-1438.823786373106
 30
0.0
 11
464.28652321630778
 21
-1438.823786373106
 31
0.0
  0
LINE
  8
0
  6
CONTINUOUS
 62
               7
  5
482
 10
430.28652321630778
 20
-1438.823786373106
 30
0.0
 11
429.28652321630778
 21
-1439.823786373106
 31
0.0
  0
LINE
  8
0
  6
CONTINUOUS
 62
               7
  5
483
 10
429.28652321630778
 20
-1513.823786373106
 30
0.0
 11
430.28652321630778
 21
-1514.823786373106
 31
0.0
  0
LINE
  8
0
  6
CONTINUOUS
 62
               7
  5
484
 10
464.28652321630778
 20
-1040.3243526245215
 30
0.0
 11
464.28652321630801
 21
-951.32958874519591
 31
0.0
  0
LINE
  8
0
  6
CONTINUOUS
 62
               7
  5
485
 10
464.88652321630792
 20
-1040.3243526245215
 30
0.0
 11
464.28652321630778
 21
-1040.3243526245215
 31
0.0
  0
LINE
  8
0
  6
CONTINUOUS
 62
               7
  5
486
 10
429.28652321630801
 20
-958.82435262452145
 30
0.0
 11
429.28652321630778
 21
-1032.8243526245215
 31
0.0
  0
LINE
  8
0
  6
CONTINUOUS
 62
               7
  5
487
 10
522.28652321630807
 20
-952.32435262452168
 30
0.0
 11
522.28652321630784
 21
-1039.3243526245215
 31
0.0
  0
LINE
  8
0
  6
CONTINUOUS
 62
               7
  5
488
 10
464.28652321630778
 20
-1040.3243526245215
 30
0.0
 11
521.28652321630784
 21
-1040.3243526245215
 31
0.0
  0
LINE
  8
0
  6
CONTINUOUS
 62
               7
  5
489
 10
430.28652321630801
 20
-957.82435262452145
 30
0.0
 11
464.28652321630801
 21
-957.82435262452145
 31
0.0
  0
LINE
  8
0
  6
CONTINUOUS
 62
               7
  5
48A
 10
521.28652321630784
 20
-1040.3243526245215
 30
0.0
 11
522.28652321630784
 21
-1039.3243526245215
 31
0.0
  0
LINE
  8
0
  6
CONTINUOUS
 62
               7
  5
48B
 10
522.28652321630807
 20
-952.32435262452168
 30
0.0
 11
521.28652321630807
 21
-951.32435262452168
 31
0.0
  0
LINE
  8
0
  6
CONTINUOUS
 62
               7
  5
48C
 10
430.28652321630778
 20
-1033.8243526245215
 30
0.0
 11
464.28652321630801
 21
-1033.8243526245215
 31
0.0
  0
LINE
  8
0
  6
CONTINUOUS
 62
               7
  5
48D
 10
430.28652321630778
 20
-1033.8243526245215
 30
0.0
 11
429.28652321630778
 21
-1032.8243526245215
 31
0.0
  0
LINE
  8
0
  6
CONTINUOUS
 62
               7
  5
48E
 10
429.28652321630801
 20
-958.82435262452145
 30
0.0
 11
430.28652321630801
 21
-957.82435262452145
 31
0.0
  0
LINE
  8
0
  6
CONTINUOUS
 62
               7
  5
48F
 10
464.28652321630801
 20
-951.32435262452145
 30
0.0
 11
521.28652321630807
 21
-951.32435262452145
 31
0.0
  0
CIRCLE
  8
0
  6
DASHED
 62
               7
  5
490
 10
-392.13776905046876
 20
-1053.5087881963127
 30
0.0
 40
40.0
  0
CIRCLE
  8
0
  6
DASHED
 62
               7
  5
491
 10
120.87790746063793
 20
-1053.5087881963127
 30
0.0
 40
40.0
  0
CIRCLE
  8
0
  6
DASHED
 62
               7
  5
492
 10
609.28652321630773
 20
-1470.323786373106
 30
0.0
 40
40.0
  0
TEXT
  8
0
 62
               3
  5
493
 10
-392.13776905046876
 20
-1138.0087881963123
 30
0.0
 40
40.0
  1
EMB_80×65
 41
0.8
 72
               1
 11
-392.13776905046876
 21
-1138.0087881963123
 31
0.0
 73
               3
  0
TEXT
  8
0
 62
               3
  5
494
 10
120.87790746063793
 20
-1138.0087881963127
 30
0.0
 40
40.0
  1
EMB_80×50
 41
0.8
 72
               1
 11
120.87790746063793
 21
-1138.0087881963127
 31
0.0
 73
               3
  0
TEXT
  8
0
 62
               3
  5
495
 10
605.58911923866742
 20
-816.37798411930237
 30
0.0
 40
40.0
  1
EMB使用例
 41
0.8
 72
               1
 11
605.58911923866742
 21
-816.37798411930237
 31
0.0
 73
               3
  0
TEXT
  8
0
 62
               3
  5
496
 10
-123.74270409089094
 20
-762.01784821896285
 30
0.0
 40
35.0
  1
横枝管に呼び６５、５０の管を接続するときは、EMBをご使用ください。
 41
0.8
 72
               1
 11
-123.74270409089094
 21
-762.01784821896285
 31
0.0
 73
               3
  0
ENDSEC
  0
EOF
