  0
SECTION
  2
HEADER
  9
$ACADVER
  1
AC1009
  9
$INSBASE
 10
0.0
 20
0.0
 30
0.0
  9
$EXTMIN
 10
-641.28625489580429
 20
-1572.4161993106077
 30
0.0
  9
$EXTMAX
 10
744.43500906164365
 20
695.47386314699929
 30
0.0
  9
$LIMMIN
 10
-684.59004439447449
 20
-1643.2877637624078
  9
$LIMMAX
 10
787.73879856031385
 20
766.34542759879946
  9
$ORTHOMODE
 70
               0
  9
$REGENMODE
 70
               1
  9
$FILLMODE
 70
               1
  9
$QTEXTMODE
 70
               0
  9
$MIRRTEXT
 70
               1
  9
$DRAGMODE
 70
               2
  9
$LTSCALE
 40
1.0
  9
$OSMODE
 70
               0
  9
$ATTMODE
 70
               1
  9
$TEXTSIZE
 40
0.2
  9
$TRACEWID
 40
0.05
  9
$TEXTSTYLE
  7
STANDARD
  9
$CLAYER
  8
0
  9
$CELTYPE
  6
CONTINUOUS
  9
$CECOLOR
 62
             256
  9
$DIMSCALE
 40
1.0
  9
$DIMASZ
 40
0.18
  9
$DIMEXO
 40
0.0625
  9
$DIMDLI
 40
0.38
  9
$DIMRND
 40
0.0
  9
$DIMDLE
 40
0.0
  9
$DIMEXE
 40
0.18
  9
$DIMTP
 40
0.0
  9
$DIMTM
 40
0.0
  9
$DIMTXT
 40
0.18
  9
$DIMCEN
 40
0.09
  9
$DIMTSZ
 40
0.0
  9
$DIMTOL
 70
               0
  9
$DIMLIM
 70
               0
  9
$DIMTIH
 70
               1
  9
$DIMTOH
 70
               1
  9
$DIMSE1
 70
               0
  9
$DIMSE2
 70
               0
  9
$DIMTAD
 70
               0
  9
$DIMZIN
 70
               0
  9
$DIMBLK
  1

  9
$DIMASO
 70
               1
  9
$DIMSHO
 70
               1
  9
$DIMPOST
  1

  9
$DIMAPOST
  1

  9
$DIMALT
 70
               0
  9
$DIMALTD
 70
               2
  9
$DIMALTF
 40
25.399999999999999
  9
$DIMLFAC
 40
1.0
  9
$DIMTOFL
 70
               0
  9
$DIMTVP
 40
0.0
  9
$DIMTIX
 70
               0
  9
$DIMSOXD
 70
               0
  9
$DIMSAH
 70
               0
  9
$DIMBLK1
  1

  9
$DIMBLK2
  1

  9
$DIMSTYLE
  2
STANDARD
  9
$DIMCLRD
 70
               0
  9
$DIMCLRE
 70
               0
  9
$DIMCLRT
 70
               0
  9
$DIMTFAC
 40
1.0
  9
$DIMGAP
 40
0.09
  9
$LUNITS
 70
               2
  9
$LUPREC
 70
               4
  9
$AXISMODE
 70
               0
  9
$AXISUNIT
 10
0.0
 20
0.0
  9
$SKETCHINC
 40
0.1
  9
$FILLETRAD
 40
0.0
  9
$AUNITS
 70
               0
  9
$AUPREC
 70
               0
  9
$MENU
  1
acad
  9
$ELEVATION
 40
0.0
  9
$PELEVATION
 40
0.0
  9
$THICKNESS
 40
0.0
  9
$LIMCHECK
 70
               0
  9
$BLIPMODE
 70
               1
  9
$CHAMFERA
 40
0.0
  9
$CHAMFERB
 40
0.0
  9
$SKPOLY
 70
               0
  9
$TDCREATE
 40
0.000000000
  9
$TDUPDATE
 40
0.000000000
  9
$TDINDWG
 40
0.0000000000
  9
$TDUSRTIMER
 40
0.0000000000
  9
$USRTIMER
 70
               1
  9
$ANGBASE
 50
0.0
  9
$ANGDIR
 70
               0
  9
$PDMODE
 70
               0
  9
$PDSIZE
 40
1.0
  9
$PLINEWID
 40
0.0
  9
$COORDS
 70
               1
  9
$SPLFRAME
 70
               0
  9
$SPLINETYPE
 70
               6
  9
$SPLINESEGS
 70
               8
  9
$ATTDIA
 70
               0
  9
$ATTREQ
 70
               1
  9
$HANDLING
 70
               1
  9
$HANDSEED
  5
47B
  9
$SURFTAB1
 70
               6
  9
$SURFTAB2
 70
               6
  9
$SURFTYPE
 70
               6
  9
$SURFU
 70
               6
  9
$SURFV
 70
               6
  9
$UCSNAME
  2

  9
$UCSORG
 10
0.0
 20
0.0
 30
0.0
  9
$UCSXDIR
 10
1.0
 20
0.0
 30
0.0
  9
$UCSYDIR
 10
0.0
 20
1.0
 30
0.0
  9
$PUCSNAME
  2

  9
$PUCSORG
 10
0.0
 20
0.0
 30
0.0
  9
$PUCSXDIR
 10
1.0
 20
0.0
 30
0.0
  9
$PUCSYDIR
 10
0.0
 20
1.0
 30
0.0
  9
$USERI1
 70
               0
  9
$USERI2
 70
               0
  9
$USERI3
 70
               0
  9
$USERI4
 70
               0
  9
$USERI5
 70
               0
  9
$USERR1
 40
0.0
  9
$USERR2
 40
0.0
  9
$USERR3
 40
0.0
  9
$USERR4
 40
0.0
  9
$USERR5
 40
0.0
  9
$WORLDVIEW
 70
               1
  9
$SHADEDGE
 70
               3
  9
$SHADEDIF
 70
              70
  9
$TILEMODE
 70
               1
  9
$MAXACTVP
 70
              16
  9
$PINSBASE
 10
0.0
 20
0.0
 30
0.0
  9
$PLIMCHECK
 70
               0
  9
$PEXTMIN
 10
1.0000000000000000E+20
 20
1.0000000000000000E+20
 30
1.0000000000000000E+20
  9
$PEXTMAX
 10
-1.0000000000000000E+20
 20
-1.0000000000000000E+20
 30
-1.0000000000000000E+20
  9
$PLIMMIN
 10
0.0
 20
0.0
  9
$PLIMMAX
 10
12.0
 20
9.0
  9
$UNITMODE
 70
               0
  9
$VISRETAIN
 70
               0
  9
$PLINEGEN
 70
               1
  9
$PSLTSCALE
 70
               0
  9
$TREEDEPTH
 70
            3020
  9
$DWGCODEPAGE
  3
dos932
  0
ENDSEC
  0
SECTION
  2
TABLES
  0
TABLE
  2
VPORT
 70
               1
  0
VPORT
  2
*ACTIVE
 70
               0
 10
0.0
 20
0.0
 11
1.0
 21
1.0
 12
51.574377082919682
 22
-438.47116808180419
 13
0.0
 23
0.0
 14
1.0
 24
1.0
 15
0.0
 25
0.0
 16
0.0
 26
0.0
 36
1.0
 17
0.0
 27
0.0
 37
0.0
 40
2409.6331913612075
 41
0.6110178296984141
 42
50.0
 43
0.0
 44
0.0
 50
0.0
 51
0.0
 71
               0
 72
             100
 73
               1
 74
               1
 75
               0
 76
               0
 77
               0
 78
               0
  0
ENDTAB
  0
TABLE
  2
LTYPE
 70
              26
  0
LTYPE
  2
CONTINUOUS
 70
               0
  3
Solid line
 72
              65
 73
               0
 40
0.0
  0
LTYPE
  2
HIDDENX2
 70
               0
  3
CADPAC FUSION LINETYPE
 72
              65
 73
               2
 40
47.560000000000002
 49
35.670000000000002
 49
-11.890000000000001
  0
LTYPE
  2
HIDDEN
 70
               0
  3
CADPAC FUSION LINETYPE
 72
              65
 73
               2
 40
35.670000000000002
 49
23.780000000000001
 49
-11.890000000000001
  0
LTYPE
  2
HIDDEN2
 70
               0
  3
CADPAC FUSION LINETYPE
 72
              65
 73
               2
 40
29.725000000000001
 49
17.835000000000001
 49
-11.890000000000001
  0
LTYPE
  2
DASHED
 70
               0
  3
CADPAC FUSION LINETYPE
 72
              65
 73
               2
 40
35.670000000000002
 49
23.780000000000001
 49
-11.890000000000001
  0
LTYPE
  2
DASHED2
 70
               0
  3
CADPAC FUSION LINETYPE
 72
              65
 73
               2
 40
26.752500000000001
 49
17.835000000000001
 49
-8.9175000000000004
  0
LTYPE
  2
DASHEDX2
 70
               0
  3
CADPAC FUSION LINETYPE
 72
              65
 73
               2
 40
53.505000000000003
 49
35.670000000000002
 49
-17.835000000000001
  0
LTYPE
  2
DOTX2
 70
               0
  3
CADPAC FUSION LINETYPE
 72
              65
 73
               2
 40
14.862500000000001
 49
0.0
 49
-14.862500000000001
  0
LTYPE
  2
DOT
 70
               0
  3
CADPAC FUSION LINETYPE
 72
              65
 73
               2
 40
11.890000000000001
 49
0.0
 49
-11.890000000000001
  0
LTYPE
  2
DOTS
 70
               0
  3
CADPAC FUSION LINETYPE
 72
              65
 73
               2
 40
11.890000000000001
 49
0.0
 49
-11.890000000000001
  0
LTYPE
  2
DOT2
 70
               0
  3
CADPAC FUSION LINETYPE
 72
              65
 73
               2
 40
8.9175000000000004
 49
0.0
 49
-8.9175000000000004
  0
LTYPE
  2
CENTERX2
 70
               0
  3
CADPAC FUSION LINETYPE
 72
              65
 73
               4
 40
71.340000000000003
 49
29.725000000000001
 49
-14.862500000000001
 49
11.890000000000001
 49
-14.862500000000001
  0
LTYPE
  2
CENTER
 70
               0
  3
CADPAC FUSION LINETYPE
 72
              65
 73
               4
 40
54.694000000000003
 49
23.780000000000001
 49
-11.890000000000001
 49
7.1340000000000003
 49
-11.890000000000001
  0
LTYPE
  2
CENTER2
 70
               0
  3
CADPAC FUSION LINETYPE
 72
              65
 73
               4
 40
38.048000000000002
 49
17.835000000000001
 49
-8.9175000000000004
 49
2.3780000000000001
 49
-8.9175000000000004
  0
LTYPE
  2
DASHDOTX2
 70
               0
  3
CADPAC FUSION LINETYPE
 72
              65
 73
               4
 40
59.450000000000003
 49
29.725000000000001
 49
-14.862500000000001
 49
0.0
 49
-14.862500000000001
  0
LTYPE
  2
DASHDOT
 70
               0
  3
CADPAC FUSION LINETYPE
 72
              65
 73
               4
 40
47.560000000000002
 49
23.780000000000001
 49
-11.890000000000001
 49
0.0
 49
-11.890000000000001
  0
LTYPE
  2
DASHDOT2
 70
               0
  3
CADPAC FUSION LINETYPE
 72
              65
 73
               4
 40
35.670000000000002
 49
17.835000000000001
 49
-8.9175000000000004
 49
0.0
 49
-8.9175000000000004
  0
LTYPE
  2
DIVIDEX2
 70
               0
  3
CADPAC FUSION LINETYPE
 72
              65
 73
               6
 40
74.3125
 49
29.725000000000001
 49
-14.862500000000001
 49
0.0
 49
-14.862500000000001
 49
0.0
 49
-14.862500000000001
  0
LTYPE
  2
DIVIDE
 70
               0
  3
CADPAC FUSION LINETYPE
 72
              65
 73
               6
 40
59.450000000000003
 49
23.780000000000001
 49
-11.890000000000001
 49
0.0
 49
-11.890000000000001
 49
0.0
 49
-11.890000000000001
  0
LTYPE
  2
DIVIDE2
 70
               0
  3
CADPAC FUSION LINETYPE
 72
              65
 73
               6
 40
44.587500000000006
 49
17.835000000000001
 49
-8.9175000000000004
 49
0.0
 49
-8.9175000000000004
 49
0.0
 49
-8.9175000000000004
  0
LTYPE
  2
BORDERX2
 70
               0
  3
CADPAC FUSION LINETYPE
 72
              65
 73
               6
 40
104.03750000000001
 49
29.725000000000001
 49
-14.862500000000001
 49
29.725000000000001
 49
-14.862500000000001
 49
0.0
 49
-14.862500000000001
  0
LTYPE
  2
BORDER
 70
               0
  3
CADPAC FUSION LINETYPE
 72
              65
 73
               6
 40
83.230000000000004
 49
23.780000000000001
 49
-11.890000000000001
 49
23.780000000000001
 49
-11.890000000000001
 49
0.0
 49
-11.890000000000001
  0
LTYPE
  2
BORDER2
 70
               0
  3
CADPAC FUSION LINETYPE
 72
              65
 73
               6
 40
62.422499999999999
 49
17.835000000000001
 49
-8.9175000000000004
 49
17.835000000000001
 49
-8.9175000000000004
 49
0.0
 49
-8.9175000000000004
  0
LTYPE
  2
PHANTOMX2
 70
               0
  3
CADPAC FUSION LINETYPE
 72
              65
 73
               6
 40
89.175000000000011
 49
29.725000000000001
 49
-11.890000000000001
 49
11.890000000000001
 49
-11.890000000000001
 49
11.890000000000001
 49
-11.890000000000001
  0
LTYPE
  2
PHANTOM
 70
               0
  3
CADPAC FUSION LINETYPE
 72
              65
 73
               6
 40
73.718000000000004
 49
23.780000000000001
 49
-11.890000000000001
 49
7.1340000000000003
 49
-11.890000000000001
 49
7.1340000000000003
 49
-11.890000000000001
  0
LTYPE
  2
PHANTOM2
 70
               0
  3
CADPAC FUSION LINETYPE
 72
              65
 73
               6
 40
63.017000000000003
 49
17.835000000000001
 49
-11.890000000000001
 49
4.7560000000000002
 49
-11.890000000000001
 49
4.7560000000000002
 49
-11.890000000000001
  0
ENDTAB
  0
TABLE
  2
LAYER
 70
             256
  0
LAYER
  2
0
 70
               0
 62
               7
  6
CONTINUOUS
  0
LAYER
  2
LAYER001
 70
               0
 62
               7
  6
CONTINUOUS
  0
LAYER
  2
LAYER002
 70
               0
 62
               7
  6
CONTINUOUS
  0
LAYER
  2
LAYER003
 70
               0
 62
               7
  6
CONTINUOUS
  0
LAYER
  2
LAYER004
 70
               0
 62
               7
  6
CONTINUOUS
  0
LAYER
  2
LAYER005
 70
               0
 62
               7
  6
CONTINUOUS
  0
LAYER
  2
LAYER006
 70
               0
 62
               7
  6
CONTINUOUS
  0
LAYER
  2
LAYER007
 70
               0
 62
               7
  6
CONTINUOUS
  0
LAYER
  2
LAYER008
 70
               0
 62
               7
  6
CONTINUOUS
  0
LAYER
  2
LAYER009
 70
               0
 62
               7
  6
CONTINUOUS
  0
LAYER
  2
LAYER010
 70
               0
 62
               7
  6
CONTINUOUS
  0
LAYER
  2
LAYER011
 70
               0
 62
               7
  6
CONTINUOUS
  0
LAYER
  2
LAYER012
 70
               0
 62
               7
  6
CONTINUOUS
  0
LAYER
  2
LAYER013
 70
               0
 62
               7
  6
CONTINUOUS
  0
LAYER
  2
LAYER014
 70
               0
 62
               7
  6
CONTINUOUS
  0
LAYER
  2
LAYER015
 70
               0
 62
               7
  6
CONTINUOUS
  0
LAYER
  2
LAYER016
 70
               0
 62
               7
  6
CONTINUOUS
  0
LAYER
  2
LAYER017
 70
               0
 62
               7
  6
CONTINUOUS
  0
LAYER
  2
LAYER018
 70
               0
 62
               7
  6
CONTINUOUS
  0
LAYER
  2
LAYER019
 70
               0
 62
               7
  6
CONTINUOUS
  0
LAYER
  2
LAYER020
 70
               0
 62
               7
  6
CONTINUOUS
  0
LAYER
  2
LAYER021
 70
               0
 62
               7
  6
CONTINUOUS
  0
LAYER
  2
LAYER022
 70
               0
 62
               7
  6
CONTINUOUS
  0
LAYER
  2
LAYER023
 70
               0
 62
               7
  6
CONTINUOUS
  0
LAYER
  2
LAYER024
 70
               0
 62
               7
  6
CONTINUOUS
  0
LAYER
  2
LAYER025
 70
               0
 62
               7
  6
CONTINUOUS
  0
LAYER
  2
LAYER026
 70
               0
 62
               7
  6
CONTINUOUS
  0
LAYER
  2
LAYER027
 70
               0
 62
               7
  6
CONTINUOUS
  0
LAYER
  2
LAYER028
 70
               0
 62
               7
  6
CONTINUOUS
  0
LAYER
  2
LAYER029
 70
               0
 62
               7
  6
CONTINUOUS
  0
LAYER
  2
LAYER030
 70
               0
 62
               7
  6
CONTINUOUS
  0
LAYER
  2
LAYER031
 70
               0
 62
               7
  6
CONTINUOUS
  0
LAYER
  2
LAYER032
 70
               0
 62
               7
  6
CONTINUOUS
  0
LAYER
  2
LAYER033
 70
               0
 62
               7
  6
CONTINUOUS
  0
LAYER
  2
LAYER034
 70
               0
 62
               7
  6
CONTINUOUS
  0
LAYER
  2
LAYER035
 70
               0
 62
               7
  6
CONTINUOUS
  0
LAYER
  2
LAYER036
 70
               0
 62
               7
  6
CONTINUOUS
  0
LAYER
  2
LAYER037
 70
               0
 62
               7
  6
CONTINUOUS
  0
LAYER
  2
LAYER038
 70
               0
 62
               7
  6
CONTINUOUS
  0
LAYER
  2
LAYER039
 70
               0
 62
               7
  6
CONTINUOUS
  0
LAYER
  2
LAYER040
 70
               0
 62
               7
  6
CONTINUOUS
  0
LAYER
  2
LAYER041
 70
               0
 62
               7
  6
CONTINUOUS
  0
LAYER
  2
LAYER042
 70
               0
 62
               7
  6
CONTINUOUS
  0
LAYER
  2
LAYER043
 70
               0
 62
               7
  6
CONTINUOUS
  0
LAYER
  2
LAYER044
 70
               0
 62
               7
  6
CONTINUOUS
  0
LAYER
  2
LAYER045
 70
               0
 62
               7
  6
CONTINUOUS
  0
LAYER
  2
LAYER046
 70
               0
 62
               7
  6
CONTINUOUS
  0
LAYER
  2
LAYER047
 70
               0
 62
               7
  6
CONTINUOUS
  0
LAYER
  2
LAYER048
 70
               0
 62
               7
  6
CONTINUOUS
  0
LAYER
  2
LAYER049
 70
               0
 62
               7
  6
CONTINUOUS
  0
LAYER
  2
LAYER050
 70
               0
 62
               7
  6
CONTINUOUS
  0
LAYER
  2
LAYER051
 70
               0
 62
               7
  6
CONTINUOUS
  0
LAYER
  2
LAYER052
 70
               0
 62
               7
  6
CONTINUOUS
  0
LAYER
  2
LAYER053
 70
               0
 62
               7
  6
CONTINUOUS
  0
LAYER
  2
LAYER054
 70
               0
 62
               7
  6
CONTINUOUS
  0
LAYER
  2
LAYER055
 70
               0
 62
               7
  6
CONTINUOUS
  0
LAYER
  2
LAYER056
 70
               0
 62
               7
  6
CONTINUOUS
  0
LAYER
  2
LAYER057
 70
               0
 62
               7
  6
CONTINUOUS
  0
LAYER
  2
LAYER058
 70
               0
 62
               7
  6
CONTINUOUS
  0
LAYER
  2
LAYER059
 70
               0
 62
               7
  6
CONTINUOUS
  0
LAYER
  2
LAYER060
 70
               0
 62
               7
  6
CONTINUOUS
  0
LAYER
  2
LAYER061
 70
               0
 62
               7
  6
CONTINUOUS
  0
LAYER
  2
LAYER062
 70
               0
 62
               7
  6
CONTINUOUS
  0
LAYER
  2
LAYER063
 70
               0
 62
               7
  6
CONTINUOUS
  0
LAYER
  2
LAYER064
 70
               0
 62
               7
  6
CONTINUOUS
  0
LAYER
  2
LAYER065
 70
               0
 62
               7
  6
CONTINUOUS
  0
LAYER
  2
LAYER066
 70
               0
 62
               7
  6
CONTINUOUS
  0
LAYER
  2
LAYER067
 70
               0
 62
               7
  6
CONTINUOUS
  0
LAYER
  2
LAYER068
 70
               0
 62
               7
  6
CONTINUOUS
  0
LAYER
  2
LAYER069
 70
               0
 62
               7
  6
CONTINUOUS
  0
LAYER
  2
LAYER070
 70
               0
 62
               7
  6
CONTINUOUS
  0
LAYER
  2
LAYER071
 70
               0
 62
               7
  6
CONTINUOUS
  0
LAYER
  2
LAYER072
 70
               0
 62
               7
  6
CONTINUOUS
  0
LAYER
  2
LAYER073
 70
               0
 62
               7
  6
CONTINUOUS
  0
LAYER
  2
LAYER074
 70
               0
 62
               7
  6
CONTINUOUS
  0
LAYER
  2
LAYER075
 70
               0
 62
               7
  6
CONTINUOUS
  0
LAYER
  2
LAYER076
 70
               0
 62
               7
  6
CONTINUOUS
  0
LAYER
  2
LAYER077
 70
               0
 62
               7
  6
CONTINUOUS
  0
LAYER
  2
LAYER078
 70
               0
 62
               7
  6
CONTINUOUS
  0
LAYER
  2
LAYER079
 70
               0
 62
               7
  6
CONTINUOUS
  0
LAYER
  2
LAYER080
 70
               0
 62
               7
  6
CONTINUOUS
  0
LAYER
  2
LAYER081
 70
               0
 62
               7
  6
CONTINUOUS
  0
LAYER
  2
LAYER082
 70
               0
 62
               7
  6
CONTINUOUS
  0
LAYER
  2
LAYER083
 70
               0
 62
               7
  6
CONTINUOUS
  0
LAYER
  2
LAYER084
 70
               0
 62
               7
  6
CONTINUOUS
  0
LAYER
  2
LAYER085
 70
               0
 62
               7
  6
CONTINUOUS
  0
LAYER
  2
LAYER086
 70
               0
 62
               7
  6
CONTINUOUS
  0
LAYER
  2
LAYER087
 70
               0
 62
               7
  6
CONTINUOUS
  0
LAYER
  2
LAYER088
 70
               0
 62
               7
  6
CONTINUOUS
  0
LAYER
  2
LAYER089
 70
               0
 62
               7
  6
CONTINUOUS
  0
LAYER
  2
LAYER090
 70
               0
 62
               7
  6
CONTINUOUS
  0
LAYER
  2
LAYER091
 70
               0
 62
               7
  6
CONTINUOUS
  0
LAYER
  2
LAYER092
 70
               0
 62
               7
  6
CONTINUOUS
  0
LAYER
  2
LAYER093
 70
               0
 62
               7
  6
CONTINUOUS
  0
LAYER
  2
LAYER094
 70
               0
 62
               7
  6
CONTINUOUS
  0
LAYER
  2
LAYER095
 70
               0
 62
               7
  6
CONTINUOUS
  0
LAYER
  2
LAYER096
 70
               0
 62
               7
  6
CONTINUOUS
  0
LAYER
  2
LAYER097
 70
               0
 62
               7
  6
CONTINUOUS
  0
LAYER
  2
LAYER098
 70
               0
 62
               7
  6
CONTINUOUS
  0
LAYER
  2
LAYER099
 70
               0
 62
               7
  6
CONTINUOUS
  0
LAYER
  2
LAYER100
 70
               0
 62
               7
  6
CONTINUOUS
  0
LAYER
  2
LAYER101
 70
               0
 62
               7
  6
CONTINUOUS
  0
LAYER
  2
LAYER102
 70
               0
 62
               7
  6
CONTINUOUS
  0
LAYER
  2
LAYER103
 70
               0
 62
               7
  6
CONTINUOUS
  0
LAYER
  2
LAYER104
 70
               0
 62
               7
  6
CONTINUOUS
  0
LAYER
  2
LAYER105
 70
               0
 62
               7
  6
CONTINUOUS
  0
LAYER
  2
LAYER106
 70
               0
 62
               7
  6
CONTINUOUS
  0
LAYER
  2
LAYER107
 70
               0
 62
               7
  6
CONTINUOUS
  0
LAYER
  2
LAYER108
 70
               0
 62
               7
  6
CONTINUOUS
  0
LAYER
  2
LAYER109
 70
               0
 62
               7
  6
CONTINUOUS
  0
LAYER
  2
LAYER110
 70
               0
 62
               7
  6
CONTINUOUS
  0
LAYER
  2
LAYER111
 70
               0
 62
               7
  6
CONTINUOUS
  0
LAYER
  2
LAYER112
 70
               0
 62
               7
  6
CONTINUOUS
  0
LAYER
  2
LAYER113
 70
               0
 62
               7
  6
CONTINUOUS
  0
LAYER
  2
LAYER114
 70
               0
 62
               7
  6
CONTINUOUS
  0
LAYER
  2
LAYER115
 70
               0
 62
               7
  6
CONTINUOUS
  0
LAYER
  2
LAYER116
 70
               0
 62
               7
  6
CONTINUOUS
  0
LAYER
  2
LAYER117
 70
               0
 62
               7
  6
CONTINUOUS
  0
LAYER
  2
LAYER118
 70
               0
 62
               7
  6
CONTINUOUS
  0
LAYER
  2
LAYER119
 70
               0
 62
               7
  6
CONTINUOUS
  0
LAYER
  2
LAYER120
 70
               0
 62
               7
  6
CONTINUOUS
  0
LAYER
  2
LAYER121
 70
               0
 62
               7
  6
CONTINUOUS
  0
LAYER
  2
LAYER122
 70
               0
 62
               7
  6
CONTINUOUS
  0
LAYER
  2
LAYER123
 70
               0
 62
               7
  6
CONTINUOUS
  0
LAYER
  2
LAYER124
 70
               0
 62
               7
  6
CONTINUOUS
  0
LAYER
  2
LAYER125
 70
               0
 62
               7
  6
CONTINUOUS
  0
LAYER
  2
LAYER126
 70
               0
 62
               7
  6
CONTINUOUS
  0
LAYER
  2
LAYER127
 70
               0
 62
               7
  6
CONTINUOUS
  0
LAYER
  2
LAYER128
 70
               0
 62
               7
  6
CONTINUOUS
  0
LAYER
  2
LAYER129
 70
               0
 62
               7
  6
CONTINUOUS
  0
LAYER
  2
LAYER130
 70
               0
 62
               7
  6
CONTINUOUS
  0
LAYER
  2
LAYER131
 70
               0
 62
               7
  6
CONTINUOUS
  0
LAYER
  2
LAYER132
 70
               0
 62
               7
  6
CONTINUOUS
  0
LAYER
  2
LAYER133
 70
               0
 62
               7
  6
CONTINUOUS
  0
LAYER
  2
LAYER134
 70
               0
 62
               7
  6
CONTINUOUS
  0
LAYER
  2
LAYER135
 70
               0
 62
               7
  6
CONTINUOUS
  0
LAYER
  2
LAYER136
 70
               0
 62
               7
  6
CONTINUOUS
  0
LAYER
  2
LAYER137
 70
               0
 62
               7
  6
CONTINUOUS
  0
LAYER
  2
LAYER138
 70
               0
 62
               7
  6
CONTINUOUS
  0
LAYER
  2
LAYER139
 70
               0
 62
               7
  6
CONTINUOUS
  0
LAYER
  2
LAYER140
 70
               0
 62
               7
  6
CONTINUOUS
  0
LAYER
  2
LAYER141
 70
               0
 62
               7
  6
CONTINUOUS
  0
LAYER
  2
LAYER142
 70
               0
 62
               7
  6
CONTINUOUS
  0
LAYER
  2
LAYER143
 70
               0
 62
               7
  6
CONTINUOUS
  0
LAYER
  2
LAYER144
 70
               0
 62
               7
  6
CONTINUOUS
  0
LAYER
  2
LAYER145
 70
               0
 62
               7
  6
CONTINUOUS
  0
LAYER
  2
LAYER146
 70
               0
 62
               7
  6
CONTINUOUS
  0
LAYER
  2
LAYER147
 70
               0
 62
               7
  6
CONTINUOUS
  0
LAYER
  2
LAYER148
 70
               0
 62
               7
  6
CONTINUOUS
  0
LAYER
  2
LAYER149
 70
               0
 62
               7
  6
CONTINUOUS
  0
LAYER
  2
LAYER150
 70
               0
 62
               7
  6
CONTINUOUS
  0
LAYER
  2
LAYER151
 70
               0
 62
               7
  6
CONTINUOUS
  0
LAYER
  2
LAYER152
 70
               0
 62
               7
  6
CONTINUOUS
  0
LAYER
  2
LAYER153
 70
               0
 62
               7
  6
CONTINUOUS
  0
LAYER
  2
LAYER154
 70
               0
 62
               7
  6
CONTINUOUS
  0
LAYER
  2
LAYER155
 70
               0
 62
               7
  6
CONTINUOUS
  0
LAYER
  2
LAYER156
 70
               0
 62
               7
  6
CONTINUOUS
  0
LAYER
  2
LAYER157
 70
               0
 62
               7
  6
CONTINUOUS
  0
LAYER
  2
LAYER158
 70
               0
 62
               7
  6
CONTINUOUS
  0
LAYER
  2
LAYER159
 70
               0
 62
               7
  6
CONTINUOUS
  0
LAYER
  2
LAYER160
 70
               0
 62
               7
  6
CONTINUOUS
  0
LAYER
  2
LAYER161
 70
               0
 62
               7
  6
CONTINUOUS
  0
LAYER
  2
LAYER162
 70
               0
 62
               7
  6
CONTINUOUS
  0
LAYER
  2
LAYER163
 70
               0
 62
               7
  6
CONTINUOUS
  0
LAYER
  2
LAYER164
 70
               0
 62
               7
  6
CONTINUOUS
  0
LAYER
  2
LAYER165
 70
               0
 62
               7
  6
CONTINUOUS
  0
LAYER
  2
LAYER166
 70
               0
 62
               7
  6
CONTINUOUS
  0
LAYER
  2
LAYER167
 70
               0
 62
               7
  6
CONTINUOUS
  0
LAYER
  2
LAYER168
 70
               0
 62
               7
  6
CONTINUOUS
  0
LAYER
  2
LAYER169
 70
               0
 62
               7
  6
CONTINUOUS
  0
LAYER
  2
LAYER170
 70
               0
 62
               7
  6
CONTINUOUS
  0
LAYER
  2
LAYER171
 70
               0
 62
               7
  6
CONTINUOUS
  0
LAYER
  2
LAYER172
 70
               0
 62
               7
  6
CONTINUOUS
  0
LAYER
  2
LAYER173
 70
               0
 62
               7
  6
CONTINUOUS
  0
LAYER
  2
LAYER174
 70
               0
 62
               7
  6
CONTINUOUS
  0
LAYER
  2
LAYER175
 70
               0
 62
               7
  6
CONTINUOUS
  0
LAYER
  2
LAYER176
 70
               0
 62
               7
  6
CONTINUOUS
  0
LAYER
  2
LAYER177
 70
               0
 62
               7
  6
CONTINUOUS
  0
LAYER
  2
LAYER178
 70
               0
 62
               7
  6
CONTINUOUS
  0
LAYER
  2
LAYER179
 70
               0
 62
               7
  6
CONTINUOUS
  0
LAYER
  2
LAYER180
 70
               0
 62
               7
  6
CONTINUOUS
  0
LAYER
  2
LAYER181
 70
               0
 62
               7
  6
CONTINUOUS
  0
LAYER
  2
LAYER182
 70
               0
 62
               7
  6
CONTINUOUS
  0
LAYER
  2
LAYER183
 70
               0
 62
               7
  6
CONTINUOUS
  0
LAYER
  2
LAYER184
 70
               0
 62
               7
  6
CONTINUOUS
  0
LAYER
  2
LAYER185
 70
               0
 62
               7
  6
CONTINUOUS
  0
LAYER
  2
LAYER186
 70
               0
 62
               7
  6
CONTINUOUS
  0
LAYER
  2
LAYER187
 70
               0
 62
               7
  6
CONTINUOUS
  0
LAYER
  2
LAYER188
 70
               0
 62
               7
  6
CONTINUOUS
  0
LAYER
  2
LAYER189
 70
               0
 62
               7
  6
CONTINUOUS
  0
LAYER
  2
LAYER190
 70
               0
 62
               7
  6
CONTINUOUS
  0
LAYER
  2
LAYER191
 70
               0
 62
               7
  6
CONTINUOUS
  0
LAYER
  2
LAYER192
 70
               0
 62
               7
  6
CONTINUOUS
  0
LAYER
  2
LAYER193
 70
               0
 62
               7
  6
CONTINUOUS
  0
LAYER
  2
LAYER194
 70
               0
 62
               7
  6
CONTINUOUS
  0
LAYER
  2
LAYER195
 70
               0
 62
               7
  6
CONTINUOUS
  0
LAYER
  2
LAYER196
 70
               0
 62
               7
  6
CONTINUOUS
  0
LAYER
  2
LAYER197
 70
               0
 62
               7
  6
CONTINUOUS
  0
LAYER
  2
LAYER198
 70
               0
 62
               7
  6
CONTINUOUS
  0
LAYER
  2
LAYER199
 70
               0
 62
               7
  6
CONTINUOUS
  0
LAYER
  2
LAYER200
 70
               0
 62
               7
  6
CONTINUOUS
  0
LAYER
  2
LAYER201
 70
               0
 62
               7
  6
CONTINUOUS
  0
LAYER
  2
LAYER202
 70
               0
 62
               7
  6
CONTINUOUS
  0
LAYER
  2
LAYER203
 70
               0
 62
               7
  6
CONTINUOUS
  0
LAYER
  2
LAYER204
 70
               0
 62
               7
  6
CONTINUOUS
  0
LAYER
  2
LAYER205
 70
               0
 62
               7
  6
CONTINUOUS
  0
LAYER
  2
LAYER206
 70
               0
 62
               7
  6
CONTINUOUS
  0
LAYER
  2
LAYER207
 70
               0
 62
               7
  6
CONTINUOUS
  0
LAYER
  2
LAYER208
 70
               0
 62
               7
  6
CONTINUOUS
  0
LAYER
  2
LAYER209
 70
               0
 62
               7
  6
CONTINUOUS
  0
LAYER
  2
LAYER210
 70
               0
 62
               7
  6
CONTINUOUS
  0
LAYER
  2
LAYER211
 70
               0
 62
               7
  6
CONTINUOUS
  0
LAYER
  2
LAYER212
 70
               0
 62
               7
  6
CONTINUOUS
  0
LAYER
  2
LAYER213
 70
               0
 62
               7
  6
CONTINUOUS
  0
LAYER
  2
LAYER214
 70
               0
 62
               7
  6
CONTINUOUS
  0
LAYER
  2
LAYER215
 70
               0
 62
               7
  6
CONTINUOUS
  0
LAYER
  2
LAYER216
 70
               0
 62
               7
  6
CONTINUOUS
  0
LAYER
  2
LAYER217
 70
               0
 62
               7
  6
CONTINUOUS
  0
LAYER
  2
LAYER218
 70
               0
 62
               7
  6
CONTINUOUS
  0
LAYER
  2
LAYER219
 70
               0
 62
               7
  6
CONTINUOUS
  0
LAYER
  2
LAYER220
 70
               0
 62
               7
  6
CONTINUOUS
  0
LAYER
  2
LAYER221
 70
               0
 62
               7
  6
CONTINUOUS
  0
LAYER
  2
LAYER222
 70
               0
 62
               7
  6
CONTINUOUS
  0
LAYER
  2
LAYER223
 70
               0
 62
               7
  6
CONTINUOUS
  0
LAYER
  2
LAYER224
 70
               0
 62
               7
  6
CONTINUOUS
  0
LAYER
  2
LAYER225
 70
               0
 62
               7
  6
CONTINUOUS
  0
LAYER
  2
LAYER226
 70
               0
 62
               7
  6
CONTINUOUS
  0
LAYER
  2
LAYER227
 70
               0
 62
               7
  6
CONTINUOUS
  0
LAYER
  2
LAYER228
 70
               0
 62
               7
  6
CONTINUOUS
  0
LAYER
  2
LAYER229
 70
               0
 62
               7
  6
CONTINUOUS
  0
LAYER
  2
LAYER230
 70
               0
 62
               7
  6
CONTINUOUS
  0
LAYER
  2
LAYER231
 70
               0
 62
               7
  6
CONTINUOUS
  0
LAYER
  2
LAYER232
 70
               0
 62
               7
  6
CONTINUOUS
  0
LAYER
  2
LAYER233
 70
               0
 62
               7
  6
CONTINUOUS
  0
LAYER
  2
LAYER234
 70
               0
 62
               7
  6
CONTINUOUS
  0
LAYER
  2
LAYER235
 70
               0
 62
               7
  6
CONTINUOUS
  0
LAYER
  2
LAYER236
 70
               0
 62
               7
  6
CONTINUOUS
  0
LAYER
  2
LAYER237
 70
               0
 62
               7
  6
CONTINUOUS
  0
LAYER
  2
LAYER238
 70
               0
 62
               7
  6
CONTINUOUS
  0
LAYER
  2
LAYER239
 70
               0
 62
               7
  6
CONTINUOUS
  0
LAYER
  2
LAYER240
 70
               0
 62
               7
  6
CONTINUOUS
  0
LAYER
  2
LAYER241
 70
               0
 62
               7
  6
CONTINUOUS
  0
LAYER
  2
LAYER242
 70
               0
 62
               7
  6
CONTINUOUS
  0
LAYER
  2
LAYER243
 70
               0
 62
               7
  6
CONTINUOUS
  0
LAYER
  2
LAYER244
 70
               0
 62
               7
  6
CONTINUOUS
  0
LAYER
  2
LAYER245
 70
               0
 62
               7
  6
CONTINUOUS
  0
LAYER
  2
LAYER246
 70
               0
 62
               7
  6
CONTINUOUS
  0
LAYER
  2
LAYER247
 70
               0
 62
               7
  6
CONTINUOUS
  0
LAYER
  2
LAYER248
 70
               0
 62
               7
  6
CONTINUOUS
  0
LAYER
  2
LAYER249
 70
               0
 62
               7
  6
CONTINUOUS
  0
LAYER
  2
LAYER250
 70
               0
 62
               7
  6
CONTINUOUS
  0
LAYER
  2
LAYER251
 70
               0
 62
               7
  6
CONTINUOUS
  0
LAYER
  2
LAYER252
 70
               0
 62
               7
  6
CONTINUOUS
  0
LAYER
  2
LAYER253
 70
               0
 62
               7
  6
CONTINUOUS
  0
LAYER
  2
LAYER254
 70
               0
 62
               7
  6
CONTINUOUS
  0
LAYER
  2
LAYER255
 70
               0
 62
               7
  6
CONTINUOUS
  0
ENDTAB
  0
TABLE
  2
STYLE
 70
               1
  0
STYLE
  2
STANDARD
 70
               0
 40
0.0
 41
0.8
 50
0.0
 71
               0
 42
40.0
  3
MS PGothic.ttf
  4

  0
ENDTAB
  0
TABLE
  2
VIEW
 70
               0
  0
VIEW
  2
QQQQ
 70
               0
 40
2409.6331913612075
 10
51.574377082919682
 20
-438.47116808180419
 41
1472.3288429547883
 11
0.0
 21
0.0
 31
1.0
 12
100.0
 22
100.0
 32
0.0
 42
50.0
 43
0.0
 44
0.0
 50
0.0
 71
               0
  0
ENDTAB
  0
TABLE
  2
UCS
 70
               0
  0
ENDTAB
  0
TABLE
  2
APPID
 70
               1
  0
APPID
  2
ACAD
 70
               0
  0
ENDTAB
  0
TABLE
  2
DIMSTYLE
 70
               1
  0
DIMSTYLE
  2
STANDARD
 70
               0
  3

  4

  5

  6

  7

 40
1.0
 41
0.18
 42
0.0625
 43
0.38
 44
0.18
 45
0.0
 46
0.0
 47
0.0
 48
0.0
140
0.18
141
0.09
142
0.0
143
25.399999999999999
144
1.0
145
0.0
146
1.0
147
0.09
 71
               0
 72
               0
 73
               1
 74
               1
 75
               0
 76
               0
 77
               0
 78
               0
170
               0
171
               2
172
               0
173
               0
174
               0
175
               0
176
               0
177
               0
178
               0
  0
ENDTAB
  0
ENDSEC
  0
SECTION
  2
BLOCKS
  0
ENDSEC
  0
SECTION
  2
ENTITIES
  0
LINE
  8
0
  6
CONTINUOUS
 62
               3
  5
136
 10
-58.000000000000156
 20
-299.6394072848779
 30
0.0
 11
-75.000000000000043
 21
-150.63940728487745
 31
0.0
  0
LINE
  8
0
  6
CONTINUOUS
 62
               3
  5
137
 10
-75.000000000000043
 20
-150.63940728487745
 30
0.0
 11
-46.368107792056932
 21
-150.63940728487745
 31
0.0
  0
LINE
  8
0
  6
CONTINUOUS
 62
               3
  5
138
 10
-1.9728332801509367
 20
-150.63940728487745
 30
0.0
 11
74.496765133649717
 21
-150.63940728487745
 31
0.0
  0
LINE
  8
0
  6
CONTINUOUS
 62
               3
  5
139
 10
76.999999999999829
 20
-36.639407284877407
 30
0.0
 11
76.999999999999829
 21
-150.75297551513268
 31
0.0
  0
LINE
  8
0
  6
CONTINUOUS
 62
               3
  5
13A
 10
76.999999999999829
 20
-150.75297551513268
 30
0.0
 11
60.271775600348818
 21
-297.36763168452887
 31
0.0
  0
LINE
  8
0
  6
CONTINUOUS
 62
               3
  5
13B
 10
58.000000000000071
 20
-299.63940728487734
 30
0.0
 11
60.271775600348818
 21
-297.36763168452887
 31
0.0
  0
LINE
  8
0
  6
CONTINUOUS
 62
               3
  5
13C
 10
74.499999999999829
 20
-37.639407284877635
 30
0.0
 11
74.499999999999829
 21
-150.61101522731315
 31
0.0
  0
LINE
  8
0
  6
CONTINUOUS
 62
               3
  5
13D
 10
76.750000000000057
 20
-36.924764392013472
 30
0.0
 11
76.750000000000057
 21
-150.73877948635067
 31
0.0
  0
LINE
  8
0
  6
CONTINUOUS
 62
               3
  5
13E
 10
74.499999999999829
 20
-150.61101522731315
 30
0.0
 11
57.496765133650413
 21
-299.6394072848779
 31
0.0
  0
LINE
  8
0
  6
CONTINUOUS
 62
               3
  5
13F
 10
74.496765133649717
 20
-150.63940728487745
 30
0.0
 11
76.999999999999829
 21
-150.75297551513268
 31
0.0
  0
LINE
  8
0
  6
CONTINUOUS
 62
               3
  5
140
 10
76.750000000000057
 20
-150.73877948635067
 30
0.0
 11
59.99427455367875
 21
-297.59480924456375
 31
0.0
  0
LINE
  8
0
  6
CONTINUOUS
 62
               3
  5
141
 10
57.496765133650413
 20
-299.6394072848779
 30
0.0
 11
60.271775600348818
 21
-297.36763168452887
 31
0.0
  0
LINE
  8
0
  6
CONTINUOUS
 62
               3
  5
142
 10
58.14113258650589
 20
-204.27089274396025
 30
0.0
 11
-65.512000000000555
 21
-100.51359479670744
 31
0.0
  0
ARC
  8
0
  6
CONTINUOUS
 62
               3
  5
143
 10
-914.27232010053967
 20
-1245.072011923656
 30
0.0
 40
1424.9238755783815
 50
50.189956146237648
 51
53.440796050701131
  0
ARC
  8
0
  6
CONTINUOUS
 62
               3
  5
144
 10
63.579388837032923
 20
-79.713724772914318
 30
0.0
 40
130.75634311527989
 50
189.15312334019521
 51
212.76918311263057
  0
ARC
  8
0
  6
CONTINUOUS
 62
               3
  5
145
 10
61.364025499551033
 20
-69.579704021674004
 30
0.0
 40
134.72974192119386
 50
216.90649751121279
 51
268.62928723395265
  0
ARC
  8
0
  6
CONTINUOUS
 62
               3
  5
146
 10
-733.63034809850842
 20
-1028.7330545987693
 30
0.0
 40
1143.0835201141012
 50
46.158732653398935
 51
50.202696616627449
  0
LINE
  8
0
  6
CONTINUOUS
 62
               3
  5
147
 10
-575.0
 20
253.36059271512238
 30
0.0
 11
-425.00000000000063
 21
253.36059271512238
 31
0.0
  0
LINE
  8
0
  6
CONTINUOUS
 62
               3
  5
148
 10
-588.50000000000023
 20
243.36059271512238
 30
0.0
 11
-588.50000000000023
 21
236.36059271512272
 31
0.0
  0
LINE
  8
0
  6
CONTINUOUS
 62
               3
  5
149
 10
-588.50000000000023
 20
243.36059271512238
 30
0.0
 11
-575.0
 21
253.36059271512238
 31
0.0
  0
ARC
  8
0
  6
CONTINUOUS
 62
               3
  5
14A
 10
-577.0
 20
231.778017020167
 30
0.0
 40
4.9999999999999991
 50
0.0
 51
66.421821521734117
  0
LINE
  8
0
  6
CONTINUOUS
 62
               3
  5
14B
 10
-588.50000000000023
 20
236.36059271512272
 30
0.0
 11
-411.5000000000004
 21
236.36059271512272
 31
0.0
  0
LINE
  8
0
  6
CONTINUOUS
 62
               3
  5
14C
 10
-572.0
 20
231.778017020167
 30
0.0
 11
-572.0
 21
156.89624646797517
 31
0.0
  0
LINE
  8
0
  6
CONTINUOUS
 62
               3
  5
14D
 10
-428.00000000000017
 20
156.89624646797517
 30
0.0
 11
-428.00000000000017
 21
231.778017020167
 31
0.0
  0
LINE
  8
0
  6
CONTINUOUS
 62
               3
  5
14E
 10
-558.00000000000023
 20
-299.6394072848779
 30
0.0
 11
-575.0
 21
-150.63940728487745
 31
0.0
  0
LINE
  8
0
  6
CONTINUOUS
 62
               3
  5
14F
 10
-575.0
 20
-37.639407284877635
 30
0.0
 11
-575.0
 21
-150.63940728487745
 31
0.0
  0
LINE
  8
0
  6
CONTINUOUS
 62
               3
  5
150
 10
-520.0
 20
236.36059271512272
 30
0.0
 11
-520.0
 21
253.36059271512238
 31
0.0
  0
LINE
  8
0
  6
CONTINUOUS
 62
               3
  5
151
 10
-480.00000000000063
 20
253.36059271512238
 30
0.0
 11
-480.00000000000063
 21
236.36059271512272
 31
0.0
  0
LINE
  8
0
  6
CONTINUOUS
 62
               3
  5
152
 10
-520.0
 20
243.36059271512238
 30
0.0
 11
-480.00000000000063
 21
243.36059271512238
 31
0.0
  0
LINE
  8
0
  6
CONTINUOUS
 62
               3
  5
153
 10
-572.28416147400435
 20
253.36059271512238
 30
0.0
 11
-572.28416147400435
 21
236.36059271512272
 31
0.0
  0
LINE
  8
0
  6
CONTINUOUS
 62
               3
  5
154
 10
-586.21049820062524
 20
243.36059271512238
 30
0.0
 11
-586.21049820062524
 21
236.36059271512272
 31
0.0
  0
LINE
  8
0
  6
CONTINUOUS
 62
               3
  5
155
 10
-588.50000000000023
 20
243.36059271512238
 30
0.0
 11
-586.21049820062524
 21
243.36059271512238
 31
0.0
  0
LINE
  8
0
  6
CONTINUOUS
 62
               3
  5
156
 10
-586.21049820062524
 20
243.36059271512238
 30
0.0
 11
-572.28416147400435
 21
253.36059271512238
 31
0.0
  0
LINE
  8
0
  6
CONTINUOUS
 62
               3
  5
157
 10
-411.5000000000004
 20
243.36059271512238
 30
0.0
 11
-411.5000000000004
 21
236.36059271512272
 31
0.0
  0
LINE
  8
0
  6
CONTINUOUS
 62
               3
  5
158
 10
-411.5000000000004
 20
243.36059271512238
 30
0.0
 11
-425.00000000000063
 21
253.36059271512238
 31
0.0
  0
ARC
  8
0
  6
CONTINUOUS
 62
               3
  5
159
 10
-423.00000000000017
 20
231.778017020167
 30
0.0
 40
4.9999999999999991
 50
113.57817847809294
 51
179.99999999982697
  0
LINE
  8
0
  6
CONTINUOUS
 62
               3
  5
15A
 10
-427.71583852599525
 20
253.36059271512238
 30
0.0
 11
-427.71583852599525
 21
236.36059271512272
 31
0.0
  0
LINE
  8
0
  6
CONTINUOUS
 62
               3
  5
15B
 10
-413.78950179937482
 20
243.36059271512238
 30
0.0
 11
-413.78950179937482
 21
236.36059271512272
 31
0.0
  0
LINE
  8
0
  6
CONTINUOUS
 62
               3
  5
15C
 10
-411.5000000000004
 20
243.36059271512238
 30
0.0
 11
-413.78950179937482
 21
243.36059271512238
 31
0.0
  0
LINE
  8
0
  6
CONTINUOUS
 62
               3
  5
15D
 10
-413.78950179937482
 20
243.36059271512238
 30
0.0
 11
-427.71583852599525
 21
253.36059271512238
 31
0.0
  0
LINE
  8
0
  6
CONTINUOUS
 62
               3
  5
15E
 10
-425.00000000000063
 20
-150.63940728487745
 30
0.0
 11
-425.00000000000119
 21
-37.639407284877635
 31
0.0
  0
LINE
  8
0
  6
CONTINUOUS
 62
               3
  5
15F
 10
-441.99999999999994
 20
-299.6394072848779
 30
0.0
 11
-429.45190901929948
 21
-189.6590804540279
 31
0.0
  0
LINE
  8
0
  6
CONTINUOUS
 62
               3
  5
160
 10
-575.0
 20
-150.50788368776062
 30
0.0
 11
-441.05099999999993
 21
-150.50788368776028
 31
0.0
  0
ARC
  8
0
  6
CONTINUOUS
 62
               3
  5
161
 10
-778.92922884912491
 20
-272.18028209922318
 30
0.0
 40
359.11818398045398
 50
13.303286818132314
 51
28.55244350160207
  0
ARC
  8
0
  6
CONTINUOUS
 62
               3
  5
162
 10
-500.33118646999412
 20
-163.93360619665395
 30
0.0
 40
73.327111796148202
 50
342.62945642111072
 51
419.83689160537818
  0
LINE
  8
0
  6
CONTINUOUS
 62
               3
  5
163
 10
-428.24363345646077
 20
-150.50788368776028
 30
0.0
 11
-425.00000000000057
 21
-150.50788368776028
 31
0.0
  0
LINE
  8
0
  6
CONTINUOUS
 62
               3
  5
164
 10
-427.47543193129047
 20
-172.23447090829632
 30
0.0
 11
-425.00000000000057
 21
-150.50788368776062
 31
0.0
  0
LINE
  8
0
  6
CONTINUOUS
 62
               3
  5
165
 10
575.0
 20
253.36059271512238
 30
0.0
 11
425.0
 21
253.36059271512238
 31
0.0
  0
LINE
  8
0
  6
CONTINUOUS
 62
               3
  5
166
 10
588.50000000000023
 20
243.36059271512238
 30
0.0
 11
588.50000000000023
 21
236.36059271512272
 31
0.0
  0
LINE
  8
0
  6
CONTINUOUS
 62
               3
  5
167
 10
588.50000000000023
 20
243.36059271512238
 30
0.0
 11
575.0
 21
253.36059271512238
 31
0.0
  0
ARC
  8
0
  6
CONTINUOUS
 62
               3
  5
168
 10
576.99999999999977
 20
231.778017020167
 30
0.0
 40
4.9999999999999991
 50
113.57817847809353
 51
179.99999999982697
  0
LINE
  8
0
  6
CONTINUOUS
 62
               3
  5
169
 10
588.50000000000023
 20
236.36059271512272
 30
0.0
 11
411.49999999999977
 21
236.36059271512272
 31
0.0
  0
ARC
  8
0
  6
CONTINUOUS
 62
               3
  5
16A
 10
555.0
 20
146.36059271512238
 30
0.0
 40
19.999999999999996
 50
0.0
 51
31.788330617021341
  0
LINE
  8
0
  6
CONTINUOUS
 62
               3
  5
16B
 10
571.99999999999977
 20
231.778017020167
 30
0.0
 11
571.99999999999977
 21
156.89624646797517
 31
0.0
  0
ARC
  8
0
  6
CONTINUOUS
 62
               3
  5
16C
 10
445.0
 20
146.36059271512238
 30
0.0
 40
19.999999999999996
 50
148.21166938280624
 51
179.99999999982765
  0
LINE
  8
0
  6
CONTINUOUS
 62
               3
  5
16D
 10
428.0
 20
156.89624646797517
 30
0.0
 11
428.0
 21
231.778017020167
 31
0.0
  0
LINE
  8
0
  6
CONTINUOUS
 62
               3
  5
16E
 10
520.0
 20
236.36059271512272
 30
0.0
 11
520.0
 21
253.36059271512238
 31
0.0
  0
LINE
  8
0
  6
CONTINUOUS
 62
               3
  5
16F
 10
480.0
 20
253.36059271512238
 30
0.0
 11
480.0
 21
236.36059271512272
 31
0.0
  0
LINE
  8
0
  6
CONTINUOUS
 62
               3
  5
170
 10
520.0
 20
243.36059271512238
 30
0.0
 11
480.0
 21
243.36059271512238
 31
0.0
  0
LINE
  8
0
  6
CONTINUOUS
 62
               3
  5
171
 10
572.2841614740048
 20
253.36059271512238
 30
0.0
 11
572.2841614740048
 21
236.36059271512272
 31
0.0
  0
LINE
  8
0
  6
CONTINUOUS
 62
               3
  5
172
 10
586.21049820062512
 20
243.36059271512238
 30
0.0
 11
586.21049820062512
 21
236.36059271512272
 31
0.0
  0
LINE
  8
0
  6
CONTINUOUS
 62
               3
  5
173
 10
588.50000000000023
 20
243.36059271512238
 30
0.0
 11
586.21049820062512
 21
243.36059271512238
 31
0.0
  0
LINE
  8
0
  6
CONTINUOUS
 62
               3
  5
174
 10
586.21049820062512
 20
243.36059271512238
 30
0.0
 11
572.2841614740048
 21
253.36059271512238
 31
0.0
  0
LINE
  8
0
  6
CONTINUOUS
 62
               3
  5
175
 10
411.49999999999977
 20
243.36059271512238
 30
0.0
 11
411.49999999999977
 21
236.36059271512272
 31
0.0
  0
LINE
  8
0
  6
CONTINUOUS
 62
               3
  5
176
 10
411.49999999999977
 20
243.36059271512238
 30
0.0
 11
425.0
 21
253.36059271512238
 31
0.0
  0
ARC
  8
0
  6
CONTINUOUS
 62
               3
  5
177
 10
423.0
 20
231.778017020167
 30
0.0
 40
4.9999999999999991
 50
0.0
 51
66.421821521734117
  0
LINE
  8
0
  6
CONTINUOUS
 62
               3
  5
178
 10
427.7158385259952
 20
253.36059271512238
 30
0.0
 11
427.7158385259952
 21
236.36059271512272
 31
0.0
  0
LINE
  8
0
  6
CONTINUOUS
 62
               3
  5
179
 10
413.78950179937465
 20
243.36059271512238
 30
0.0
 11
413.78950179937465
 21
236.36059271512272
 31
0.0
  0
LINE
  8
0
  6
CONTINUOUS
 62
               3
  5
17A
 10
411.49999999999977
 20
243.36059271512238
 30
0.0
 11
413.78950179937465
 21
243.36059271512238
 31
0.0
  0
LINE
  8
0
  6
CONTINUOUS
 62
               3
  5
17B
 10
413.78950179937465
 20
243.36059271512238
 30
0.0
 11
427.7158385259952
 21
253.36059271512238
 31
0.0
  0
LINE
  8
0
  6
CONTINUOUS
 62
               3
  5
17C
 10
571.99999999999977
 20
156.89624646797517
 30
0.0
 11
511.72700000000009
 21
156.89624646797517
 31
0.0
  0
LINE
  8
0
  6
CONTINUOUS
 62
               3
  5
17D
 10
488.27299999999968
 20
156.89624646797517
 30
0.0
 11
428.0
 21
156.89624646797517
 31
0.0
  0
ARC
  8
0
  6
CONTINUOUS
 62
               3
  5
17E
 10
575.0
 20
-35.139407284877635
 30
0.0
 40
2.4999999999999996
 50
269.99999999974142
 51
449.99999999956907
  0
LINE
  8
0
  6
CONTINUOUS
 62
               3
  5
17F
 10
425.0
 20
-32.639407284877635
 30
0.0
 11
491.78299999999967
 21
-32.639407284877635
 31
0.0
  0
LINE
  8
0
  6
CONTINUOUS
 62
               3
  5
180
 10
508.21699999999964
 20
-32.639407284877635
 30
0.0
 11
575.0
 21
-32.639407284877635
 31
0.0
  0
LINE
  8
0
  6
CONTINUOUS
 62
               3
  5
181
 10
575.0
 20
146.36059271512238
 30
0.0
 11
575.0
 21
-32.639407284877635
 31
0.0
  0
ARC
  8
0
  6
CONTINUOUS
 62
               3
  5
182
 10
425.0
 20
-35.139407284877635
 30
0.0
 40
2.4999999999999996
 50
89.999999999913825
 51
269.99999999974017
  0
LINE
  8
0
  6
CONTINUOUS
 62
               3
  5
183
 10
425.0
 20
-32.639407284877635
 30
0.0
 11
425.0
 21
146.36059271512238
 31
0.0
  0
LINE
  8
0
  6
CONTINUOUS
 62
               3
  5
184
 10
425.0
 20
-150.48638368776028
 30
0.0
 11
425.0
 21
-37.639407284877635
 31
0.0
  0
LINE
  8
0
  6
CONTINUOUS
 62
               3
  5
185
 10
491.78299999999967
 20
-37.639407284877635
 30
0.0
 11
491.78299999999967
 21
-299.69346875454954
 31
0.0
  0
LINE
  8
0
  6
CONTINUOUS
 62
               3
  5
186
 10
508.21699999999964
 20
-37.725327436411035
 30
0.0
 11
508.21699999999964
 21
-299.69346875454954
 31
0.0
  0
LINE
  8
0
  6
CONTINUOUS
 62
               3
  5
187
 10
493.99999999999977
 20
-36.639407284877407
 30
0.0
 11
493.99999999999977
 21
-297.42169315420051
 31
0.0
  0
LINE
  8
0
  6
CONTINUOUS
 62
               3
  5
188
 10
505.99999999999955
 20
-297.42169315420051
 30
0.0
 11
505.99999999999955
 21
-36.639407284877407
 31
0.0
  0
LINE
  8
0
  6
CONTINUOUS
 62
               3
  5
189
 10
493.99999999999977
 20
-297.42169315420051
 30
0.0
 11
505.99999999999955
 21
-297.42169315420051
 31
0.0
  0
LINE
  8
0
  6
CONTINUOUS
 62
               3
  5
18A
 10
491.78299999999967
 20
-299.69346875454954
 30
0.0
 11
493.99999999999977
 21
-297.42169315420051
 31
0.0
  0
LINE
  8
0
  6
CONTINUOUS
 62
               3
  5
18B
 10
505.99999999999955
 20
-297.42169315420051
 30
0.0
 11
508.21699999999964
 21
-299.69346875454954
 31
0.0
  0
ARC
  8
0
  6
CONTINUOUS
 62
               3
  5
18C
 10
360.6812911765046
 20
-227.27213506728498
 30
0.0
 40
204.24864340422488
 50
353.49999999979656
 51
373.43680216726273
  0
ARC
  8
0
  6
CONTINUOUS
 62
               3
  5
18D
 10
398.37230094456572
 20
-224.98771799787727
 30
0.0
 40
167.18634723772169
 50
351.25933879873276
 51
375.67746336832698
  0
ARC
  8
0
  6
CONTINUOUS
 62
               3
  5
18E
 10
485.02192705347215
 20
-154.78363334134201
 30
0.0
 40
59.149634972654262
 50
186.49999999989257
 51
236.78754046655169
  0
ARC
  8
0
  6
CONTINUOUS
 62
               3
  5
18F
 10
505.92691953069379
 20
-142.93461624259032
 30
0.0
 40
81.261593956721953
 50
186.49999999989257
 51
229.00792456441033
  0
LINE
  8
0
  6
CONTINUOUS
 62
               3
  5
190
 10
575.0
 20
-150.48638368776028
 30
0.0
 11
425.0
 21
-150.48638368776028
 31
0.0
  0
LINE
  8
0
  6
CONTINUOUS
 62
               3
  5
191
 10
575.0
 20
-37.639407284877635
 30
0.0
 11
575.0
 21
-150.48638368776028
 31
0.0
  0
LINE
  8
0
  6
CONTINUOUS
 62
               3
  5
192
 10
558.0
 20
-299.69346875454954
 30
0.0
 11
575.0
 21
-150.48638368776028
 31
0.0
  0
LINE
  8
0
  6
CONTINUOUS
 62
               3
  5
193
 10
441.99999999999989
 20
-299.69346875454954
 30
0.0
 11
425.0
 21
-150.48638368776028
 31
0.0
  0
LINE
  8
0
  6
CONTINUOUS
 62
               3
  5
194
 10
-57.132845554131009
 20
-311.63940728487762
 30
0.0
 11
56.999999999999844
 21
-311.63940728487762
 31
0.0
  0
LINE
  8
0
  6
CONTINUOUS
 62
               3
  5
195
 10
56.999999999999844
 20
-311.63940728487762
 30
0.0
 11
58.000000000000071
 21
-310.63940728487739
 31
0.0
  0
LINE
  8
0
  6
CONTINUOUS
 62
               3
  5
196
 10
-57.132845554131009
 20
-311.63940728487762
 30
0.0
 11
-58.000000000000156
 21
-310.77225283900844
 31
0.0
  0
LINE
  8
0
  6
CONTINUOUS
 62
               3
  5
197
 10
58.000000000000071
 20
-310.63940728487739
 30
0.0
 11
58.000000000000071
 21
-299.63940728487785
 31
0.0
  0
LINE
  8
0
  6
CONTINUOUS
 62
               3
  5
198
 10
-58.000000000000156
 20
-310.77225283900844
 30
0.0
 11
-58.000000000000156
 21
-299.6394072848779
 31
0.0
  0
LINE
  8
0
  6
CONTINUOUS
 62
               3
  5
199
 10
-557.13284555413111
 20
-311.63940728487762
 30
0.0
 11
-443.00000000000017
 21
-311.63940728487762
 31
0.0
  0
LINE
  8
0
  6
CONTINUOUS
 62
               3
  5
19A
 10
-443.00000000000017
 20
-311.63940728487762
 30
0.0
 11
-441.99999999999994
 21
-310.63940728487739
 31
0.0
  0
LINE
  8
0
  6
CONTINUOUS
 62
               3
  5
19B
 10
-557.13284555413111
 20
-311.63940728487762
 30
0.0
 11
-558.00000000000023
 21
-310.7722528390085
 31
0.0
  0
LINE
  8
0
  6
CONTINUOUS
 62
               3
  5
19C
 10
-558.00000000000023
 20
-310.7722528390085
 30
0.0
 11
-558.00000000000023
 21
-299.63940728487785
 31
0.0
  0
LINE
  8
0
  6
CONTINUOUS
 62
               3
  5
19D
 10
-441.99999999999994
 20
-310.63940728487739
 30
0.0
 11
-441.99999999999994
 21
-299.63940728487785
 31
0.0
  0
LINE
  8
0
  6
CONTINUOUS
 62
               3
  5
19E
 10
442.86715444586889
 20
-311.63940728487762
 30
0.0
 11
556.99999999999977
 21
-311.63940728487762
 31
0.0
  0
LINE
  8
0
  6
CONTINUOUS
 62
               3
  5
19F
 10
556.99999999999977
 20
-311.63940728487762
 30
0.0
 11
558.0
 21
-310.63940728487739
 31
0.0
  0
LINE
  8
0
  6
CONTINUOUS
 62
               3
  5
1A0
 10
442.86715444586889
 20
-311.63940728487762
 30
0.0
 11
441.99999999999977
 21
-310.7722528390085
 31
0.0
  0
LINE
  8
0
  6
CONTINUOUS
 62
               3
  5
1A1
 10
441.99999999999977
 20
-310.7722528390085
 30
0.0
 11
441.99999999999977
 21
-299.63940728487785
 31
0.0
  0
LINE
  8
0
  6
CONTINUOUS
 62
               3
  5
1A2
 10
558.0
 20
-310.63940728487739
 30
0.0
 11
558.0
 21
-299.63940728487785
 31
0.0
  0
CIRCLE
  8
0
  6
CONTINUOUS
 62
               3
  5
1A3
 10
-0.0000000000002274
 20
543.36059271512227
 30
0.0
 40
75.0
  0
CIRCLE
  8
0
  6
CONTINUOUS
 62
               3
  5
1A4
 10
-0.0000000000002274
 20
543.36059271512227
 30
0.0
 40
52.5
  0
LINE
  8
0
  6
CONTINUOUS
 62
               3
  5
1A5
 10
-86.210498200625466
 20
563.36059271512227
 30
0.0
 11
-72.2841614740056
 21
563.36059271512227
 31
0.0
  0
LINE
  8
0
  6
CONTINUOUS
 62
               3
  5
1A6
 10
-72.2841614740056
 20
523.36059271512227
 30
0.0
 11
-86.210498200625466
 21
523.36059271512227
 31
0.0
  0
ARC
  8
0
  6
CONTINUOUS
 62
               3
  5
1A7
 10
-0.0000000000002274
 20
543.36059271512227
 30
0.0
 40
88.5
 50
166.93897588503955
 51
193.06102411461566
  0
LINE
  8
0
  6
CONTINUOUS
 62
               3
  5
1A8
 10
-20.000000000000227
 20
457.15009451449743
 30
0.0
 11
-20.000000000000227
 21
471.07643124111729
 31
0.0
  0
LINE
  8
0
  6
CONTINUOUS
 62
               3
  5
1A9
 10
19.999999999999773
 20
471.07643124111729
 30
0.0
 11
19.999999999999773
 21
457.15009451449743
 31
0.0
  0
ARC
  8
0
  6
CONTINUOUS
 62
               3
  5
1AA
 10
-0.0000000000002274
 20
543.36059271512227
 30
0.0
 40
88.5
 50
256.93897588495361
 51
283.06102411452946
  0
LINE
  8
0
  6
CONTINUOUS
 62
               3
  5
1AB
 10
86.210498200624443
 20
523.36059271512227
 30
0.0
 11
72.284161474004009
 21
523.36059271512227
 31
0.0
  0
LINE
  8
0
  6
CONTINUOUS
 62
               3
  5
1AC
 10
72.284161474004009
 20
563.36059271512227
 30
0.0
 11
86.210498200624443
 21
563.36059271512227
 31
0.0
  0
ARC
  8
0
  6
CONTINUOUS
 62
               3
  5
1AD
 10
-0.0000000000002274
 20
543.36059271512227
 30
0.0
 40
88.5
 50
346.9389758848672
 51
373.06102411444323
  0
LINE
  8
0
  6
CONTINUOUS
 62
               3
  5
1AE
 10
19.999999999999773
 20
629.57109091574785
 30
0.0
 11
19.999999999999773
 21
615.6447541891273
 31
0.0
  0
LINE
  8
0
  6
CONTINUOUS
 62
               3
  5
1AF
 10
-20.000000000000227
 20
615.6447541891273
 30
0.0
 11
-20.000000000000227
 21
629.57109091574785
 31
0.0
  0
ARC
  8
0
  6
CONTINUOUS
 62
               3
  5
1B0
 10
-0.0000000000002274
 20
543.36059271512227
 30
0.0
 40
88.5
 50
76.938975885125814
 51
103.06102411470188
  0
LINE
  8
0
  6
CONTINUOUS
 62
               3
  5
1B1
 10
-47.668123520861286
 20
521.36059271512181
 30
0.0
 11
47.668123520859695
 21
521.36059271512181
 31
0.0
  0
ARC
  8
0
  6
CONTINUOUS
 62
               3
  5
1B2
 10
12.5036116493809
 20
552.06699034274129
 30
0.0
 40
54.763804151667173
 50
141.38591763670263
 51
145.15009542081498
  0
ARC
  8
0
  6
CONTINUOUS
 62
               3
  5
1B3
 10
-0.0000000000002274
 20
543.36059271512227
 30
0.0
 40
51.5
 50
334.71098847313709
 51
410.95932736324704
  0
ARC
  8
0
  6
CONTINUOUS
 62
               3
  5
1B4
 10
-0.0000000000002274
 20
543.36059271512227
 30
0.0
 40
51.5
 50
129.04067263623628
 51
205.2890115263458
  0
ARC
  8
0
  6
CONTINUOUS
 62
               3
  5
1B5
 10
-0.0000000000002274
 20
543.36059271512227
 30
0.0
 40
77.5
 50
14.95524831662895
 51
75.044751683284829
  0
ARC
  8
0
  6
CONTINUOUS
 62
               3
  5
1B6
 10
-0.0000000000002274
 20
543.36059271512227
 30
0.0
 40
77.5
 50
284.95524831637061
 51
345.04475168302622
  0
LINE
  8
0
  6
CONTINUOUS
 62
               3
  5
1B7
 10
-32.438403166617832
 20
583.36059271512204
 30
0.0
 11
-0.0000000000002274
 21
583.36059271512204
 31
0.0
  0
LINE
  8
0
  6
CONTINUOUS
 62
               3
  5
1B8
 10
-0.0000000000002274
 20
583.36059271512204
 30
0.0
 11
34.003676271838458
 21
583.36059271512204
 31
0.0
  0
LINE
  8
0
  6
CONTINUOUS
 62
               3
  5
1B9
 10
-140.00000000000023
 20
488.36059271512232
 30
0.0
 11
-139.328443874036
 21
488.36059271512232
 31
0.0
  0
LINE
  8
0
  6
CONTINUOUS
 62
               3
  5
1BA
 10
-136.82844387403554
 20
485.86059271512232
 30
0.0
 11
-139.328443874036
 21
488.36059271512232
 31
0.0
  0
LINE
  8
0
  6
CONTINUOUS
 62
               3
  5
1BB
 10
-140.00000000000023
 20
598.36059271512227
 30
0.0
 11
-139.328443874036
 21
598.36059271512227
 31
0.0
  0
LINE
  8
0
  6
CONTINUOUS
 62
               3
  5
1BC
 10
-136.828443874036
 20
600.86059271512227
 30
0.0
 11
-139.328443874036
 21
598.36059271512227
 31
0.0
  0
LINE
  8
0
  6
CONTINUOUS
 62
               3
  5
1BD
 10
-139.328443874036
 20
598.36059271512227
 30
0.0
 11
-139.328443874036
 21
488.36059271512232
 31
0.0
  0
LINE
  8
0
  6
CONTINUOUS
 62
               3
  5
1BE
 10
-145.00000000000023
 20
598.46059271512536
 30
0.0
 11
-145.00000000000023
 21
488.2605927151223
 31
0.0
  0
LINE
  8
0
  6
CONTINUOUS
 62
               3
  5
1BF
 10
-140.00000000000023
 20
485.7605927151223
 30
0.0
 11
-140.00000000000023
 21
600.9605927151224
 31
0.0
  0
LINE
  8
0
  6
CONTINUOUS
 62
               3
  5
1C0
 10
-140.00000000000023
 20
600.9605927151224
 30
0.0
 11
-142.50000000000023
 21
600.9605927151224
 31
0.0
  0
LINE
  8
0
  6
CONTINUOUS
 62
               3
  5
1C1
 10
-140.00000000000023
 20
485.7605927151223
 30
0.0
 11
-142.50000000000023
 21
485.7605927151223
 31
0.0
  0
ARC
  8
0
  6
CONTINUOUS
 62
               3
  5
1C2
 10
-142.50000000000023
 20
488.2605927151223
 30
0.0
 40
2.5
 50
179.99999999982893
 51
269.9999999997421
  0
ARC
  8
0
  6
CONTINUOUS
 62
               3
  5
1C3
 10
-142.50000000000023
 20
598.4605927151224
 30
0.0
 40
2.5
 50
89.999999999914465
 51
179.99999999982765
  0
LINE
  8
0
  6
CONTINUOUS
 62
               3
  5
1C4
 10
-136.82844387403554
 20
485.86059271512232
 30
0.0
 11
-136.828443874036
 21
600.86059271512227
 31
0.0
  0
LINE
  8
0
  6
CONTINUOUS
 62
               3
  5
1C5
 10
-45.490335786378822
 20
482.67099569678118
 30
0.0
 11
-136.82844387403549
 21
485.86059271512232
 31
0.0
  0
LINE
  8
0
  6
CONTINUOUS
 62
               3
  5
1C6
 10
-45.490335786378139
 20
604.05018973346387
 30
0.0
 11
-136.828443874036
 21
600.86059271512227
 31
0.0
  0
ARC
  8
0
  6
CONTINUOUS
 62
               3
  5
1C7
 10
-45.664833269890657
 20
609.04714386855949
 30
0.0
 40
5.0
 50
271.99999999973966
 51
304.8067578701357
  0
ARC
  8
0
  6
CONTINUOUS
 62
               3
  5
1C8
 10
-45.664833269891311
 20
477.67404156168567
 30
0.0
 40
5.0
 50
55.193242129519312
 51
87.999999999915985
  0
ARC
  8
0
  6
CONTINUOUS
 62
               3
  5
1C9
 10
-0.0000000000002274
 20
543.36059271512227
 30
0.0
 40
77.5
 50
104.95524831654282
 51
128.57288309095938
  0
ARC
  8
0
  6
CONTINUOUS
 62
               3
  5
1CA
 10
-0.0000000000002274
 20
543.36059271512227
 30
0.0
 40
77.5
 50
231.427116908833
 51
255.04475168311245
  0
LINE
  8
0
  6
CONTINUOUS
 62
               3
  5
1CB
 10
-75.000000000000028
 20
-37.63940728487762
 30
0.0
 11
-75.000000000000043
 21
-150.63940728487745
 31
0.0
  0
ARC
  8
0
  6
CONTINUOUS
 62
               3
  5
1CC
 10
-555.0
 20
146.36059271512238
 30
0.0
 40
19.999999999999996
 50
148.21166938280641
 51
179.99999999982765
  0
ARC
  8
0
  6
CONTINUOUS
 62
               3
  5
1CD
 10
-445.00000000000063
 20
146.36059271512238
 30
0.0
 40
19.999999999999996
 50
0.0
 51
31.788330617021341
  0
LINE
  8
0
  6
CONTINUOUS
 62
               3
  5
1CE
 10
-572.0
 20
156.89624646797517
 30
0.0
 11
-428.00000000000017
 21
156.89624646797517
 31
0.0
  0
ARC
  8
0
  6
CONTINUOUS
 62
               3
  5
1CF
 10
-575.0
 20
-35.13940728487762
 30
0.0
 40
2.4999999999999996
 50
89.999999999911211
 51
269.99999999974142
  0
LINE
  8
0
  6
CONTINUOUS
 62
               3
  5
1D0
 10
-575.0
 20
146.36059271512238
 30
0.0
 11
-575.0
 21
-32.63940728487762
 31
0.0
  0
ARC
  8
0
  6
CONTINUOUS
 62
               3
  5
1D1
 10
-425.00000000000119
 20
-35.13940728487762
 30
0.0
 40
2.4999999999999996
 50
269.99999999974017
 51
449.99999999956907
  0
LINE
  8
0
  6
CONTINUOUS
 62
               3
  5
1D2
 10
-425.00000000000119
 20
-32.63940728487762
 30
0.0
 11
-425.00000000000063
 21
146.36059271512238
 31
0.0
  0
CIRCLE
  8
0
  6
CONTINUOUS
 62
               3
  5
1D3
 10
-500.00000000000006
 20
87.36059271512238
 30
0.0
 40
57.600000000000001
  0
LINE
  8
0
  6
CONTINUOUS
 62
               3
  5
1D4
 10
-473.2126429075206
 20
115.36059271512227
 30
0.0
 11
-526.78735709247951
 21
115.36059271512227
 31
0.0
  0
CIRCLE
  8
0
  6
CONTINUOUS
 62
               3
  5
1D5
 10
-500.00000000000006
 20
87.36059271512238
 30
0.0
 40
48.5
  0
CIRCLE
  8
0
  6
CONTINUOUS
 62
               3
  5
1D6
 10
-500.00000000000006
 20
87.36059271512238
 30
0.0
 40
38.75
  0
CIRCLE
  8
0
  6
CONTINUOUS
 62
               3
  5
1D7
 10
-500.00000000000006
 20
87.36059271512238
 30
0.0
 40
47.299999999999997
  0
LINE
  8
0
  6
CONTINUOUS
 62
               3
  5
1D8
 10
-531.81980515339467
 20
55.540787561727825
 30
0.0
 11
-533.44615075012371
 21
53.914441964998673
 31
0.0
  0
LINE
  8
0
  6
CONTINUOUS
 62
               3
  5
1D9
 10
-468.18019484660539
 20
55.540787561727825
 30
0.0
 11
-466.55384924987629
 21
53.914441964998787
 31
0.0
  0
ARC
  8
0
  6
CONTINUOUS
 62
               3
  5
1DA
 10
-500.00000000000006
 20
87.36059271512238
 30
0.0
 40
45.0
 50
224.99999999978442
 51
314.99999999969833
  0
CIRCLE
  8
0
  6
CONTINUOUS
 62
               3
  5
1DB
 10
-500.00000000000006
 20
87.36059271512238
 30
0.0
 40
43.0
  0
LINE
  8
0
  6
CONTINUOUS
 62
               3
  5
1DC
 10
-477.50000000000006
 20
-32.63940728487762
 30
0.0
 11
-425.00000000000119
 21
-32.63940728487762
 31
0.0
  0
LINE
  8
0
  6
CONTINUOUS
 62
               3
  5
1DD
 10
-575.0
 20
-32.63940728487762
 30
0.0
 11
-477.50000000000006
 21
-32.63940728487762
 31
0.0
  0
LINE
  8
0
  6
CONTINUOUS
 62
               3
  5
1DE
 10
-575.24584199750166
 20
-37.627290262886113
 30
0.0
 11
-522.5
 21
-37.627290262886113
 31
0.0
  0
LINE
  8
0
  6
CONTINUOUS
 62
               3
  5
1DF
 10
-522.5
 20
-37.63940728487762
 30
0.0
 11
-425.00000000000568
 21
-37.63940728487762
 31
0.0
  0
LINE
  8
0
  6
CONTINUOUS
 62
               3
  5
1E0
 10
508.21699999999998
 20
-37.720495703082086
 30
0.0
 11
575.00000000000034
 21
-37.720495703082086
 31
0.0
  0
LINE
  8
0
  6
CONTINUOUS
 62
               3
  5
1E1
 10
425.0
 20
-37.639407284877635
 30
0.0
 11
491.78300000000036
 21
-37.639407284877635
 31
0.0
  0
LINE
  8
0
  6
CONTINUOUS
 62
               3
  5
1E2
 10
56.999999999999844
 20
-311.63940728487762
 30
0.0
 11
56.999999999999844
 21
-362.63940728487762
 31
0.0
  0
LINE
  8
0
  6
CONTINUOUS
 62
               3
  5
1E3
 10
-57.132845554131009
 20
-311.63940728487762
 30
0.0
 11
-57.132845554131009
 21
-362.63940728487762
 31
0.0
  0
LINE
  8
0
  6
CONTINUOUS
 62
               3
  5
1E4
 10
-557.13284555413111
 20
-311.63940728487762
 30
0.0
 11
-557.13284555413111
 21
-362.63940728487762
 31
0.0
  0
LINE
  8
0
  6
CONTINUOUS
 62
               3
  5
1E5
 10
-443.00000000000017
 20
-311.63940728487762
 30
0.0
 11
-443.00000000000017
 21
-362.63940728487762
 31
0.0
  0
LINE
  8
0
  6
CONTINUOUS
 62
               3
  5
1E6
 10
556.99999999999977
 20
-311.63940728487762
 30
0.0
 11
556.99999999999977
 21
-362.63940728487762
 31
0.0
  0
LINE
  8
0
  6
CONTINUOUS
 62
               3
  5
1E7
 10
442.86715444586889
 20
-311.63940728487762
 30
0.0
 11
442.86715444586889
 21
-362.63940728487762
 31
0.0
  0
LINE
  8
0
  6
CONTINUOUS
 62
               3
  5
1E8
 10
491.78299999999967
 20
-299.69346875454954
 30
0.0
 11
508.21699999999964
 21
-299.69346875454954
 31
0.0
  0
LINE
  8
0
  6
CONTINUOUS
 62
               3
  5
1E9
 10
57.496765133650413
 20
-299.6394072848779
 30
0.0
 11
58.000000000000071
 21
-299.63940728487785
 31
0.0
  0
LINE
  8
0
  6
CONTINUOUS
 62
               3
  5
1EA
 10
-62.000000000000767
 20
-491.63940728487648
 30
0.0
 11
-62.000000000000767
 21
-476.63940728487739
 31
0.0
  0
LINE
  8
0
  6
CONTINUOUS
 62
               3
  5
1EB
 10
-65.000000000000597
 20
-491.63940728487648
 30
0.0
 11
64.999999999999375
 21
-491.63940728487648
 31
0.0
  0
ARC
  8
0
  6
CONTINUOUS
 62
               3
  5
1EC
 10
-75.999999999999972
 20
-350.6394072848783
 30
0.0
 40
4.0
 50
89.999999999930594
 51
179.99999999986198
  0
ARC
  8
0
  6
CONTINUOUS
 62
               3
  5
1ED
 10
-78.999999999999943
 20
-347.6394072848783
 30
0.0
 40
1.0000000000000004
 50
89.99999999992977
 51
179.99999999985954
  0
LINE
  8
0
  6
CONTINUOUS
 62
               3
  5
1EE
 10
-80.999999999999972
 20
-347.6394072848783
 30
0.0
 11
-81.00000000000054
 21
-410.63940728487717
 31
0.0
  0
LINE
  8
0
  6
CONTINUOUS
 62
               3
  5
1EF
 10
-80.000000000000171
 20
-347.6394072848783
 30
0.0
 11
-80.000000000000739
 21
-410.63940728487717
 31
0.0
  0
ARC
  8
0
  6
CONTINUOUS
 62
               3
  5
1F0
 10
-82.000000000000483
 20
-410.63940728487717
 30
0.0
 40
1.9999999999999996
 50
269.99999999979258
 51
359.99999999972562
  0
ARC
  8
0
  6
CONTINUOUS
 62
               3
  5
1F1
 10
-82.000000000000483
 20
-410.63940728487717
 30
0.0
 40
1.0000000000000004
 50
269.99999999979258
 51
359.99999999972562
  0
LINE
  8
0
  6
CONTINUOUS
 62
               3
  5
1F2
 10
-82.000000000000483
 20
-412.63940728487717
 30
0.0
 11
-145.0000000000006
 21
-412.63940728487762
 31
0.0
  0
LINE
  8
0
  6
CONTINUOUS
 62
               3
  5
1F3
 10
-82.000000000000483
 20
-411.63940728487717
 30
0.0
 11
-145.0000000000006
 21
-411.63940728487762
 31
0.0
  0
LINE
  8
0
  6
CONTINUOUS
 62
               3
  5
1F4
 10
-0.0000000000000284
 20
-346.63940728487762
 30
0.0
 11
-78.999999999999943
 21
-346.6394072848783
 31
0.0
  0
LINE
  8
0
  6
CONTINUOUS
 62
               3
  5
1F5
 10
-64.999999999999602
 20
-477.63940728487717
 30
0.0
 11
-78.999999999999517
 21
-477.63940728487739
 31
0.0
  0
ARC
  8
0
  6
CONTINUOUS
 62
               3
  5
1F6
 10
-78.999999999999517
 20
-475.63940728487739
 30
0.0
 40
1.0000000000000004
 50
179.99999999985954
 51
269.99999999979258
  0
ARC
  8
0
  6
CONTINUOUS
 62
               3
  5
1F7
 10
-78.999999999999517
 20
-475.63940728487739
 30
0.0
 40
1.9999999999999996
 50
179.99999999986281
 51
269.99999999979423
  0
ARC
  8
0
  6
CONTINUOUS
 62
               3
  5
1F8
 10
-75.999999999999687
 20
-472.63940728487739
 30
0.0
 40
4.0
 50
179.99999999986281
 51
269.99999999979423
  0
LINE
  8
0
  6
CONTINUOUS
 62
               3
  5
1F9
 10
-64.999999999999602
 20
-477.63940728487717
 30
0.0
 11
-64.999999999999602
 21
-476.63940728487739
 31
0.0
  0
LINE
  8
0
  6
CONTINUOUS
 62
               3
  5
1FA
 10
-80.999999999999687
 20
-475.63940728487739
 30
0.0
 11
-81.00000000000054
 21
-414.63940728487717
 31
0.0
  0
LINE
  8
0
  6
CONTINUOUS
 62
               3
  5
1FB
 10
-79.999999999999602
 20
-475.63940728487739
 30
0.0
 11
-80.000000000000597
 21
-414.63940728487717
 31
0.0
  0
LINE
  8
0
  6
CONTINUOUS
 62
               3
  5
1FC
 10
-0.0000000000005969
 20
-476.63940728487648
 30
0.0
 11
-78.999999999999517
 21
-476.63940728487739
 31
0.0
  0
LINE
  8
0
  6
CONTINUOUS
 62
               3
  5
1FD
 10
-0.0000000000005969
 20
-454.13940728487648
 30
0.0
 11
-79.999999999999744
 21
-454.13940728487717
 31
0.0
  0
ARC
  8
0
  6
CONTINUOUS
 62
               3
  5
1FE
 10
-82.000000000000483
 20
-414.63940728487717
 30
0.0
 40
1.9999999999999996
 50
0.0000000000016284
 51
89.999999999931404
  0
ARC
  8
0
  6
CONTINUOUS
 62
               3
  5
1FF
 10
-82.000000000000483
 20
-414.63940728487717
 30
0.0
 40
1.0000000000000004
 50
0.0
 51
89.999999999933038
  0
LINE
  8
0
  6
CONTINUOUS
 62
               3
  5
200
 10
-82.000000000000483
 20
-413.63940728487717
 30
0.0
 11
-145.0000000000006
 21
-413.63940728487762
 31
0.0
  0
LINE
  8
0
  6
CONTINUOUS
 62
               3
  5
201
 10
-80.000000000000171
 20
-369.6394072848783
 30
0.0
 11
-0.0000000000000284
 21
-369.6394072848783
 31
0.0
  0
LINE
  8
0
  6
CONTINUOUS
 62
               3
  5
202
 10
-77.000000000000199
 20
-369.6394072848783
 30
0.0
 11
-77.000000000000767
 21
-454.13940728487717
 31
0.0
  0
LINE
  8
0
  6
CONTINUOUS
 62
               3
  5
203
 10
-145.0000000000006
 20
-411.63940728487762
 30
0.0
 11
-145.0000000000006
 21
-412.63940728487762
 31
0.0
  0
LINE
  8
0
  6
CONTINUOUS
 62
               3
  5
204
 10
-145.0000000000006
 20
-413.63940728487762
 30
0.0
 11
-145.0000000000006
 21
-412.63940728487762
 31
0.0
  0
LINE
  8
0
  6
CONTINUOUS
 62
               3
  5
205
 10
-87.25000000000054
 20
-410.13940728487717
 30
0.0
 11
-94.75000000000054
 21
-410.13940728487717
 31
0.0
  0
LINE
  8
0
  6
CONTINUOUS
 62
               3
  5
206
 10
-87.25000000000054
 20
-415.13940728487717
 30
0.0
 11
-94.75000000000054
 21
-415.13940728487739
 31
0.0
  0
LINE
  8
0
  6
CONTINUOUS
 62
               3
  5
207
 10
-87.25000000000054
 20
-410.13940728487717
 30
0.0
 11
-87.25000000000054
 21
-411.63940728487717
 31
0.0
  0
LINE
  8
0
  6
CONTINUOUS
 62
               3
  5
208
 10
-87.25000000000054
 20
-413.63940728487717
 30
0.0
 11
-87.25000000000054
 21
-415.13940728487717
 31
0.0
  0
LINE
  8
0
  6
CONTINUOUS
 62
               3
  5
209
 10
-94.75000000000054
 20
-410.13940728487717
 30
0.0
 11
-94.75000000000054
 21
-411.63940728487717
 31
0.0
  0
LINE
  8
0
  6
CONTINUOUS
 62
               3
  5
20A
 10
-94.75000000000054
 20
-413.63940728487739
 30
0.0
 11
-94.75000000000054
 21
-415.13940728487739
 31
0.0
  0
ARC
  8
0
  6
CONTINUOUS
 62
               3
  5
20B
 10
75.999999999999773
 20
-350.6394072848783
 30
0.0
 40
4.0
 50
0.0000000000341973
 51
89.999999999965596
  0
ARC
  8
0
  6
CONTINUOUS
 62
               3
  5
20C
 10
78.999999999999716
 20
-347.6394072848783
 30
0.0
 40
1.0000000000000004
 50
0.0000000000358258
 51
89.99999999996723
  0
LINE
  8
0
  6
CONTINUOUS
 62
               3
  5
20D
 10
80.999999999999773
 20
-347.6394072848783
 30
0.0
 11
80.999999999999204
 21
-410.63940728487717
 31
0.0
  0
LINE
  8
0
  6
CONTINUOUS
 62
               3
  5
20E
 10
79.999999999999943
 20
-347.6394072848783
 30
0.0
 11
79.999999999999375
 21
-410.63940728487717
 31
0.0
  0
ARC
  8
0
  6
CONTINUOUS
 62
               3
  5
20F
 10
81.999999999999261
 20
-410.63940728487717
 30
0.0
 40
1.9999999999999996
 50
179.99999999996541
 51
269.99999999989598
  0
ARC
  8
0
  6
CONTINUOUS
 62
               3
  5
210
 10
81.999999999999261
 20
-410.63940728487717
 30
0.0
 40
1.0000000000000004
 50
179.99999999996376
 51
269.99999999989683
  0
LINE
  8
0
  6
CONTINUOUS
 62
               3
  5
211
 10
81.999999999999261
 20
-412.63940728487717
 30
0.0
 11
144.99999999999937
 21
-412.63940728487762
 31
0.0
  0
LINE
  8
0
  6
CONTINUOUS
 62
               3
  5
212
 10
81.999999999999261
 20
-411.63940728487717
 30
0.0
 11
144.99999999999937
 21
-411.63940728487762
 31
0.0
  0
LINE
  8
0
  6
CONTINUOUS
 62
               3
  5
213
 10
-0.0000000000000284
 20
-346.63940728487762
 30
0.0
 11
78.999999999999716
 21
-346.6394072848783
 31
0.0
  0
LINE
  8
0
  6
CONTINUOUS
 62
               3
  5
214
 10
64.999999999998238
 20
-477.63940728487717
 30
0.0
 11
78.999999999998295
 21
-477.63940728487739
 31
0.0
  0
ARC
  8
0
  6
CONTINUOUS
 62
               3
  5
215
 10
78.999999999998295
 20
-475.63940728487739
 30
0.0
 40
1.0000000000000004
 50
269.99999999989683
 51
359.99999999982657
  0
ARC
  8
0
  6
CONTINUOUS
 62
               3
  5
216
 10
78.999999999998295
 20
-475.63940728487739
 30
0.0
 40
1.9999999999999996
 50
269.99999999989518
 51
359.99999999982657
  0
ARC
  8
0
  6
CONTINUOUS
 62
               3
  5
217
 10
75.999999999998352
 20
-472.63940728487739
 30
0.0
 40
4.0
 50
269.99999999989478
 51
359.99999999982737
  0
LINE
  8
0
  6
CONTINUOUS
 62
               3
  5
218
 10
64.999999999998238
 20
-477.63940728487717
 30
0.0
 11
64.999999999998238
 21
-476.63940728487739
 31
0.0
  0
LINE
  8
0
  6
CONTINUOUS
 62
               3
  5
219
 10
80.999999999998181
 20
-475.63940728487739
 30
0.0
 11
80.999999999999204
 21
-414.63940728487717
 31
0.0
  0
LINE
  8
0
  6
CONTINUOUS
 62
               3
  5
21A
 10
79.999999999998238
 20
-475.63940728487739
 30
0.0
 11
79.999999999999261
 21
-414.63940728487717
 31
0.0
  0
LINE
  8
0
  6
CONTINUOUS
 62
               3
  5
21B
 10
-0.0000000000005969
 20
-476.63940728487648
 30
0.0
 11
78.999999999998295
 21
-476.63940728487739
 31
0.0
  0
LINE
  8
0
  6
CONTINUOUS
 62
               3
  5
21C
 10
-0.0000000000005969
 20
-454.13940728487648
 30
0.0
 11
79.999999999998522
 21
-454.13940728487717
 31
0.0
  0
ARC
  8
0
  6
CONTINUOUS
 62
               3
  5
21D
 10
81.999999999999261
 20
-414.63940728487717
 30
0.0
 40
1.9999999999999996
 50
89.999999999965596
 51
179.99999999989538
  0
ARC
  8
0
  6
CONTINUOUS
 62
               3
  5
21E
 10
81.999999999999261
 20
-414.63940728487717
 30
0.0
 40
1.0000000000000004
 50
89.999999999963975
 51
179.99999999989211
  0
LINE
  8
0
  6
CONTINUOUS
 62
               3
  5
21F
 10
81.999999999999261
 20
-413.63940728487717
 30
0.0
 11
144.99999999999937
 21
-413.63940728487762
 31
0.0
  0
LINE
  8
0
  6
CONTINUOUS
 62
               3
  5
220
 10
79.999999999999943
 20
-369.6394072848783
 30
0.0
 11
-0.0000000000000284
 21
-369.6394072848783
 31
0.0
  0
LINE
  8
0
  6
CONTINUOUS
 62
               3
  5
221
 10
76.999999999999829
 20
-369.6394072848783
 30
0.0
 11
76.999999999999261
 21
-454.13940728487717
 31
0.0
  0
LINE
  8
0
  6
CONTINUOUS
 62
               3
  5
222
 10
144.99999999999937
 20
-411.63940728487762
 30
0.0
 11
144.99999999999937
 21
-412.63940728487762
 31
0.0
  0
LINE
  8
0
  6
CONTINUOUS
 62
               3
  5
223
 10
144.99999999999937
 20
-413.63940728487762
 30
0.0
 11
144.99999999999937
 21
-412.63940728487762
 31
0.0
  0
LINE
  8
0
  6
CONTINUOUS
 62
               3
  5
224
 10
87.249999999999204
 20
-410.13940728487717
 30
0.0
 11
94.749999999999204
 21
-410.13940728487717
 31
0.0
  0
LINE
  8
0
  6
CONTINUOUS
 62
               3
  5
225
 10
87.249999999999204
 20
-415.13940728487717
 30
0.0
 11
94.749999999999204
 21
-415.13940728487739
 31
0.0
  0
LINE
  8
0
  6
CONTINUOUS
 62
               3
  5
226
 10
87.249999999999204
 20
-410.13940728487717
 30
0.0
 11
87.249999999999204
 21
-411.63940728487717
 31
0.0
  0
LINE
  8
0
  6
CONTINUOUS
 62
               3
  5
227
 10
87.249999999999204
 20
-413.63940728487717
 30
0.0
 11
87.249999999999204
 21
-415.13940728487717
 31
0.0
  0
LINE
  8
0
  6
CONTINUOUS
 62
               3
  5
228
 10
94.749999999999204
 20
-410.13940728487717
 30
0.0
 11
94.749999999999204
 21
-411.63940728487717
 31
0.0
  0
LINE
  8
0
  6
CONTINUOUS
 62
               3
  5
229
 10
94.749999999999204
 20
-413.63940728487739
 30
0.0
 11
94.749999999999204
 21
-415.13940728487739
 31
0.0
  0
LINE
  8
0
  6
CONTINUOUS
 62
               3
  5
22A
 10
61.999999999999289
 20
-491.63940728487648
 30
0.0
 11
61.999999999999289
 21
-476.63940728487739
 31
0.0
  0
LINE
  8
0
  6
CONTINUOUS
 62
               3
  5
22B
 10
-562.00000000000023
 20
-491.63940728487648
 30
0.0
 11
-562.00000000000023
 21
-476.63940728487739
 31
0.0
  0
LINE
  8
0
  6
CONTINUOUS
 62
               3
  5
22C
 10
-565.0
 20
-491.63940728487648
 30
0.0
 11
-435.00000000000006
 21
-491.63940728487648
 31
0.0
  0
ARC
  8
0
  6
CONTINUOUS
 62
               3
  5
22D
 10
-575.99999999999943
 20
-350.6394072848783
 30
0.0
 40
4.0
 50
89.99999999992977
 51
179.99999999986198
  0
LINE
  8
0
  6
CONTINUOUS
 62
               3
  5
22E
 10
-579.99999999999943
 20
-350.63940728487592
 30
0.0
 11
-579.99999999999966
 21
-369.6394072848783
 31
0.0
  0
LINE
  8
0
  6
CONTINUOUS
 62
               3
  5
22F
 10
-515.99999999999955
 20
-346.63940728487773
 30
0.0
 11
-575.99999999999955
 21
-346.6394072848783
 31
0.0
  0
LINE
  8
0
  6
CONTINUOUS
 62
               3
  5
230
 10
-515.99999999999955
 20
-477.63940728487637
 30
0.0
 11
-483.99999999999898
 21
-477.63940728487592
 31
0.0
  0
ARC
  8
0
  6
CONTINUOUS
 62
               3
  5
231
 10
-575.99999999999909
 20
-472.63940728487739
 30
0.0
 40
4.0
 50
179.99999999986281
 51
269.99999999979423
  0
LINE
  8
0
  6
CONTINUOUS
 62
               3
  5
232
 10
-579.9999999999992
 20
-472.63940728487739
 30
0.0
 11
-579.99999999999909
 21
-454.13940728487717
 31
0.0
  0
LINE
  8
0
  6
CONTINUOUS
 62
               3
  5
233
 10
-515.99999999999955
 20
-476.63940728487671
 30
0.0
 11
-576.00000000000273
 21
-476.63940728487739
 31
0.0
  0
LINE
  8
0
  6
CONTINUOUS
 62
               3
  5
234
 10
-515.99999999999955
 20
-454.1394072848766
 30
0.0
 11
-579.9999999999992
 21
-454.13940728487717
 31
0.0
  0
LINE
  8
0
  6
CONTINUOUS
 62
               3
  5
235
 10
-579.99999999999966
 20
-369.6394072848783
 30
0.0
 11
-515.99999999999955
 21
-369.6394072848783
 31
0.0
  0
LINE
  8
0
  6
CONTINUOUS
 62
               3
  5
236
 10
-576.99999999999966
 20
-369.6394072848783
 30
0.0
 11
-577.00000000000023
 21
-454.13940728487717
 31
0.0
  0
LINE
  8
0
  6
CONTINUOUS
 62
               3
  5
237
 10
-483.99999999999949
 20
-346.63940728487773
 30
0.0
 11
-420.99999999999972
 21
-346.6394072848783
 31
0.0
  0
LINE
  8
0
  6
CONTINUOUS
 62
               3
  5
238
 10
-483.99999999999898
 20
-476.63940728487671
 30
0.0
 11
-424.00000000000102
 21
-476.63940728487739
 31
0.0
  0
LINE
  8
0
  6
CONTINUOUS
 62
               3
  5
239
 10
-483.99999999999898
 20
-454.13940728487671
 30
0.0
 11
-420.00000000000091
 21
-454.13940728487717
 31
0.0
  0
LINE
  8
0
  6
CONTINUOUS
 62
               3
  5
23A
 10
-419.99999999999949
 20
-369.6394072848783
 30
0.0
 11
-483.99999999999949
 21
-369.6394072848783
 31
0.0
  0
LINE
  8
0
  6
CONTINUOUS
 62
               3
  5
23B
 10
-438.00000000000017
 20
-491.63940728487648
 30
0.0
 11
-438.00000000000017
 21
-476.63940728487739
 31
0.0
  0
LINE
  8
0
  6
CONTINUOUS
 62
               3
  5
23C
 10
-515.99999999999955
 20
-412.63940728487717
 30
0.0
 11
-483.99999999999898
 21
-412.63940728487717
 31
0.0
  0
LINE
  8
0
  6
CONTINUOUS
 62
               3
  5
23D
 10
-515.99999999999955
 20
-411.63940728487739
 30
0.0
 11
-483.99999999999898
 21
-411.63940728487739
 31
0.0
  0
LINE
  8
0
  6
CONTINUOUS
 62
               3
  5
23E
 10
-515.99999999999955
 20
-413.63940728487739
 30
0.0
 11
-483.99999999999898
 21
-413.63940728487739
 31
0.0
  0
ARC
  8
0
  6
CONTINUOUS
 62
               3
  5
23F
 10
-424.00000000000068
 20
-350.6394072848783
 30
0.0
 40
4.0
 50
0.0000000000341973
 51
89.999999999965596
  0
LINE
  8
0
  6
CONTINUOUS
 62
               3
  5
240
 10
-420.00000000000068
 20
-350.63940728487592
 30
0.0
 11
-420.00000000000045
 21
-369.6394072848783
 31
0.0
  0
ARC
  8
0
  6
CONTINUOUS
 62
               3
  5
241
 10
-424.00000000000097
 20
-472.63940728487739
 30
0.0
 40
4.0
 50
269.99999999989598
 51
359.99999999982737
  0
LINE
  8
0
  6
CONTINUOUS
 62
               3
  5
242
 10
-420.00000000000091
 20
-472.63940728487739
 30
0.0
 11
-420.00000000000102
 21
-454.13940728487717
 31
0.0
  0
LINE
  8
0
  6
CONTINUOUS
 62
               3
  5
243
 10
-423.00000000000045
 20
-369.6394072848783
 30
0.0
 11
-422.99999999999989
 21
-454.13940728487717
 31
0.0
  0
LINE
  8
0
  6
CONTINUOUS
 62
               3
  5
244
 10
437.99999999999977
 20
-491.63940728487648
 30
0.0
 11
437.99999999999977
 21
-476.63940728487739
 31
0.0
  0
LINE
  8
0
  6
CONTINUOUS
 62
               3
  5
245
 10
434.99999999999994
 20
-491.63940728487648
 30
0.0
 11
564.99999999999989
 21
-491.63940728487648
 31
0.0
  0
ARC
  8
0
  6
CONTINUOUS
 62
               3
  5
246
 10
424.00000000000057
 20
-350.6394072848783
 30
0.0
 40
4.0
 50
89.999999999930594
 51
179.99999999986198
  0
LINE
  8
0
  6
CONTINUOUS
 62
               3
  5
247
 10
420.00000000000057
 20
-350.63940728487592
 30
0.0
 11
420.00000000000034
 21
-369.6394072848783
 31
0.0
  0
LINE
  8
0
  6
CONTINUOUS
 62
               3
  5
248
 10
484.00000000000057
 20
-346.63940728487773
 30
0.0
 11
424.00000000000051
 21
-346.6394072848783
 31
0.0
  0
LINE
  8
0
  6
CONTINUOUS
 62
               3
  5
249
 10
484.00000000000057
 20
-477.63940728487637
 30
0.0
 11
516.00000000000102
 21
-477.63940728487592
 31
0.0
  0
ARC
  8
0
  6
CONTINUOUS
 62
               3
  5
24A
 10
424.00000000000085
 20
-472.63940728487739
 30
0.0
 40
4.0
 50
179.99999999986281
 51
269.99999999979502
  0
LINE
  8
0
  6
CONTINUOUS
 62
               3
  5
24B
 10
420.0000000000008
 20
-472.63940728487739
 30
0.0
 11
420.00000000000091
 21
-454.13940728487717
 31
0.0
  0
LINE
  8
0
  6
CONTINUOUS
 62
               3
  5
24C
 10
484.00000000000057
 20
-476.63940728487671
 30
0.0
 11
423.99999999999733
 21
-476.63940728487739
 31
0.0
  0
LINE
  8
0
  6
CONTINUOUS
 62
               3
  5
24D
 10
484.00000000000057
 20
-454.1394072848766
 30
0.0
 11
420.0000000000008
 21
-454.13940728487717
 31
0.0
  0
LINE
  8
0
  6
CONTINUOUS
 62
               3
  5
24E
 10
420.00000000000034
 20
-369.6394072848783
 30
0.0
 11
484.00000000000057
 21
-369.6394072848783
 31
0.0
  0
LINE
  8
0
  6
CONTINUOUS
 62
               3
  5
24F
 10
423.00000000000034
 20
-369.6394072848783
 30
0.0
 11
422.99999999999977
 21
-454.13940728487717
 31
0.0
  0
LINE
  8
0
  6
CONTINUOUS
 62
               3
  5
250
 10
516.00000000000057
 20
-346.63940728487773
 30
0.0
 11
579.00000000000034
 21
-346.6394072848783
 31
0.0
  0
LINE
  8
0
  6
CONTINUOUS
 62
               3
  5
251
 10
516.00000000000102
 20
-476.63940728487671
 30
0.0
 11
575.99999999999898
 21
-476.63940728487739
 31
0.0
  0
LINE
  8
0
  6
CONTINUOUS
 62
               3
  5
252
 10
516.00000000000102
 20
-454.13940728487671
 30
0.0
 11
579.99999999999909
 21
-454.13940728487717
 31
0.0
  0
LINE
  8
0
  6
CONTINUOUS
 62
               3
  5
253
 10
580.00000000000057
 20
-369.6394072848783
 30
0.0
 11
516.00000000000057
 21
-369.6394072848783
 31
0.0
  0
LINE
  8
0
  6
CONTINUOUS
 62
               3
  5
254
 10
561.99999999999989
 20
-491.63940728487648
 30
0.0
 11
561.99999999999989
 21
-476.63940728487739
 31
0.0
  0
LINE
  8
0
  6
CONTINUOUS
 62
               3
  5
255
 10
484.00000000000057
 20
-412.63940728487717
 30
0.0
 11
516.00000000000102
 21
-412.63940728487717
 31
0.0
  0
LINE
  8
0
  6
CONTINUOUS
 62
               3
  5
256
 10
484.00000000000057
 20
-411.63940728487739
 30
0.0
 11
516.00000000000102
 21
-411.63940728487739
 31
0.0
  0
LINE
  8
0
  6
CONTINUOUS
 62
               3
  5
257
 10
484.00000000000057
 20
-413.63940728487739
 30
0.0
 11
516.00000000000102
 21
-413.63940728487739
 31
0.0
  0
ARC
  8
0
  6
CONTINUOUS
 62
               3
  5
258
 10
575.99999999999932
 20
-350.6394072848783
 30
0.0
 40
4.0
 50
0.0000000000341973
 51
89.999999999963975
  0
LINE
  8
0
  6
CONTINUOUS
 62
               3
  5
259
 10
579.99999999999932
 20
-350.63940728487592
 30
0.0
 11
579.99999999999955
 21
-369.6394072848783
 31
0.0
  0
ARC
  8
0
  6
CONTINUOUS
 62
               3
  5
25A
 10
575.99999999999898
 20
-472.63940728487739
 30
0.0
 40
4.0
 50
269.99999999989353
 51
359.99999999982737
  0
LINE
  8
0
  6
CONTINUOUS
 62
               3
  5
25B
 10
579.99999999999909
 20
-472.63940728487739
 30
0.0
 11
579.99999999999898
 21
-454.13940728487717
 31
0.0
  0
LINE
  8
0
  6
CONTINUOUS
 62
               3
  5
25C
 10
576.99999999999955
 20
-369.6394072848783
 30
0.0
 11
577.00000000000011
 21
-454.13940728487717
 31
0.0
  0
LINE
  8
0
  6
CONTINUOUS
 62
               3
  5
25D
 10
-515.99999999999955
 20
-345.6394072848783
 30
0.0
 11
-515.99999999999955
 21
-477.63940728487637
 31
0.0
  0
LINE
  8
0
  6
CONTINUOUS
 62
               3
  5
25E
 10
-516.0
 20
-345.6394072848783
 30
0.0
 11
-484.00000000000006
 21
-345.6394072848783
 31
0.0
  0
LINE
  8
0
  6
CONTINUOUS
 62
               3
  5
25F
 10
-483.99999999999898
 20
-477.63940728487592
 30
0.0
 11
-483.99999999999949
 21
-345.6394072848783
 31
0.0
  0
LINE
  8
0
  6
CONTINUOUS
 62
               3
  5
260
 10
-515.99999999999955
 20
-477.63940728487637
 30
0.0
 11
-483.99999999999898
 21
-477.63940728487592
 31
0.0
  0
LINE
  8
0
  6
CONTINUOUS
 62
               3
  5
261
 10
484.00000000000057
 20
-345.6394072848783
 30
0.0
 11
484.00000000000057
 21
-477.63940728487637
 31
0.0
  0
LINE
  8
0
  6
CONTINUOUS
 62
               3
  5
262
 10
483.99999999999989
 20
-345.6394072848783
 30
0.0
 11
515.99999999999989
 21
-345.6394072848783
 31
0.0
  0
LINE
  8
0
  6
CONTINUOUS
 62
               3
  5
263
 10
516.00000000000102
 20
-477.63940728487592
 30
0.0
 11
516.00000000000057
 21
-345.6394072848783
 31
0.0
  0
ARC
  8
0
  6
CONTINUOUS
 62
               3
  5
264
 10
-55.000000000000043
 20
146.36059271512238
 30
0.0
 40
19.999999999999996
 50
148.21166938280629
 51
167.26981986152728
  0
LINE
  8
0
  6
CONTINUOUS
 62
               3
  5
265
 10
-140.00000000000006
 20
32.36059271512238
 30
0.0
 11
-139.32844387403566
 21
32.36059271512238
 31
0.0
  0
LINE
  8
0
  6
CONTINUOUS
 62
               3
  5
266
 10
-136.8284438740356
 20
29.860592715123119
 30
0.0
 11
-139.32844387403566
 21
32.36059271512238
 31
0.0
  0
LINE
  8
0
  6
CONTINUOUS
 62
               3
  5
267
 10
-136.82844387403486
 20
29.86059271512238
 30
0.0
 11
-94.663333617757431
 21
28.388154619268334
 31
0.0
  0
LINE
  8
0
  6
CONTINUOUS
 62
               3
  5
268
 10
-76.464466094067546
 20
12.088903288836377
 30
0.0
 11
-91.302297195337289
 21
26.926734390105651
 31
0.0
  0
ARC
  8
0
  6
CONTINUOUS
 62
               3
  5
269
 10
-80.000000000000028
 20
8.55336938290327
 30
0.0
 40
4.9999999999999991
 50
0.0
 51
44.999999999956081
  0
LINE
  8
0
  6
CONTINUOUS
 62
               3
  5
26A
 10
-140.00000000000006
 20
142.36059271512227
 30
0.0
 11
-139.32844387403566
 21
142.36059271512227
 31
0.0
  0
LINE
  8
0
  6
CONTINUOUS
 62
               3
  5
26B
 10
-136.8284438740356
 20
144.86059271512249
 30
0.0
 11
-139.32844387403566
 21
142.36059271512227
 31
0.0
  0
LINE
  8
0
  6
CONTINUOUS
 62
               3
  5
26C
 10
-136.82844387403566
 20
144.86059271512244
 30
0.0
 11
-79.210967671861354
 21
146.87263932027469
 31
0.0
  0
LINE
  8
0
  6
CONTINUOUS
 62
               3
  5
26D
 10
-139.32844387403566
 20
142.36059271512227
 30
0.0
 11
-139.32844387403566
 21
32.36059271512238
 31
0.0
  0
LINE
  8
0
  6
CONTINUOUS
 62
               3
  5
26E
 10
-140.00000000000006
 20
29.760592715122385
 30
0.0
 11
-140.00000000000006
 21
144.9605927151224
 31
0.0
  0
LINE
  8
0
  6
CONTINUOUS
 62
               3
  5
26F
 10
-140.00000000000006
 20
144.9605927151224
 30
0.0
 11
-142.50000000000006
 21
144.9605927151224
 31
0.0
  0
ARC
  8
0
  6
CONTINUOUS
 62
               3
  5
270
 10
-142.50000000000006
 20
142.46059271512237
 30
0.0
 40
2.5
 50
89.999999999914465
 51
179.99999999982697
  0
LINE
  8
0
  6
CONTINUOUS
 62
               3
  5
271
 10
-145.00000000000006
 20
142.46059271512237
 30
0.0
 11
-145.00000000000006
 21
32.260592715122385
 31
0.0
  0
LINE
  8
0
  6
CONTINUOUS
 62
               3
  5
272
 10
-140.00000000000006
 20
29.760592715122385
 30
0.0
 11
-142.50000000000006
 21
29.760592715122385
 31
0.0
  0
ARC
  8
0
  6
CONTINUOUS
 62
               3
  5
273
 10
-142.50000000000006
 20
32.260592715122385
 30
0.0
 40
2.5
 50
179.99999999982731
 51
269.9999999997421
  0
LINE
  8
0
  6
CONTINUOUS
 62
               3
  5
274
 10
-136.8284438740356
 20
144.86059271512249
 30
0.0
 11
-136.82844387403486
 21
29.86059271512238
 31
0.0
  0
ARC
  8
0
  6
CONTINUOUS
 62
               3
  5
275
 10
-94.83783110126997
 20
23.391200484172884
 30
0.0
 40
5.0
 50
44.999999999957723
 51
87.999999999915332
  0
ARC
  8
0
  6
CONTINUOUS
 62
               3
  5
276
 10
-79.385465155373851
 20
151.86959345537014
 30
0.0
 40
5.0
 50
271.99999999973937
 51
347.26981986135343
  0
LINE
  8
0
  6
CONTINUOUS
 62
               3
  5
277
 10
-75.000000000000043
 20
253.36059271512238
 30
0.0
 11
74.999999999999957
 21
253.36059271512238
 31
0.0
  0
LINE
  8
0
  6
CONTINUOUS
 62
               3
  5
278
 10
-88.50000000000027
 20
243.36059271512238
 30
0.0
 11
-88.50000000000027
 21
236.36059271512272
 31
0.0
  0
LINE
  8
0
  6
CONTINUOUS
 62
               3
  5
279
 10
-88.50000000000027
 20
243.36059271512238
 30
0.0
 11
-75.000000000000043
 21
253.36059271512238
 31
0.0
  0
ARC
  8
0
  6
CONTINUOUS
 62
               3
  5
27A
 10
-76.999999999999929
 20
231.778017020167
 30
0.0
 40
4.9999999999999991
 50
0.0
 51
66.421821521734557
  0
LINE
  8
0
  6
CONTINUOUS
 62
               3
  5
27B
 10
-88.50000000000027
 20
236.36059271512272
 30
0.0
 11
88.499999999999616
 21
236.36059271512272
 31
0.0
  0
LINE
  8
0
  6
CONTINUOUS
 62
               3
  5
27C
 10
-71.999999999999929
 20
231.778017020167
 30
0.0
 11
-71.999999999999929
 21
156.89624646797517
 31
0.0
  0
LINE
  8
0
  6
CONTINUOUS
 62
               3
  5
27D
 10
71.999999999999844
 20
161.89624646797574
 30
0.0
 11
71.999999999999844
 21
231.778017020167
 31
0.0
  0
LINE
  8
0
  6
CONTINUOUS
 62
               3
  5
27E
 10
-71.999999999999929
 20
156.89624646797517
 30
0.0
 11
71.500000000000298
 21
156.89624646797517
 31
0.0
  0
LINE
  8
0
  6
CONTINUOUS
 62
               3
  5
27F
 10
-20.000000000000046
 20
236.36059271512272
 30
0.0
 11
-20.000000000000046
 21
253.36059271512238
 31
0.0
  0
LINE
  8
0
  6
CONTINUOUS
 62
               3
  5
280
 10
19.999999999999957
 20
253.36059271512238
 30
0.0
 11
19.999999999999957
 21
236.36059271512272
 31
0.0
  0
LINE
  8
0
  6
CONTINUOUS
 62
               3
  5
281
 10
-20.000000000000046
 20
243.36059271512238
 30
0.0
 11
19.999999999999957
 21
243.36059271512238
 31
0.0
  0
LINE
  8
0
  6
CONTINUOUS
 62
               3
  5
282
 10
-72.284161474005415
 20
253.36059271512238
 30
0.0
 11
-72.284161474005415
 21
236.36059271512272
 31
0.0
  0
LINE
  8
0
  6
CONTINUOUS
 62
               3
  5
283
 10
-86.210498200625281
 20
243.36059271512238
 30
0.0
 11
-86.210498200625281
 21
236.36059271512272
 31
0.0
  0
LINE
  8
0
  6
CONTINUOUS
 62
               3
  5
284
 10
-88.50000000000027
 20
243.36059271512238
 30
0.0
 11
-86.210498200625281
 21
243.36059271512238
 31
0.0
  0
LINE
  8
0
  6
CONTINUOUS
 62
               3
  5
285
 10
-86.210498200625281
 20
243.36059271512238
 30
0.0
 11
-72.284161474005415
 21
253.36059271512238
 31
0.0
  0
LINE
  8
0
  6
CONTINUOUS
 62
               3
  5
286
 10
88.499999999999616
 20
243.36059271512238
 30
0.0
 11
88.499999999999616
 21
236.36059271512272
 31
0.0
  0
LINE
  8
0
  6
CONTINUOUS
 62
               3
  5
287
 10
88.499999999999616
 20
243.36059271512238
 30
0.0
 11
74.999999999999957
 21
253.36059271512238
 31
0.0
  0
ARC
  8
0
  6
CONTINUOUS
 62
               3
  5
288
 10
76.999999999999844
 20
231.778017020167
 30
0.0
 40
4.9999999999999991
 50
113.57817847809295
 51
179.99999999982731
  0
LINE
  8
0
  6
CONTINUOUS
 62
               3
  5
289
 10
72.284161474004193
 20
253.36059271512238
 30
0.0
 11
72.284161474004193
 21
236.36059271512272
 31
0.0
  0
LINE
  8
0
  6
CONTINUOUS
 62
               3
  5
28A
 10
86.210498200625196
 20
243.36059271512238
 30
0.0
 11
86.210498200625196
 21
236.36059271512272
 31
0.0
  0
LINE
  8
0
  6
CONTINUOUS
 62
               3
  5
28B
 10
88.499999999999616
 20
243.36059271512238
 30
0.0
 11
86.210498200625196
 21
243.36059271512238
 31
0.0
  0
LINE
  8
0
  6
CONTINUOUS
 62
               3
  5
28C
 10
86.210498200625196
 20
243.36059271512238
 30
0.0
 11
72.284161474004193
 21
253.36059271512238
 31
0.0
  0
ARC
  8
0
  6
CONTINUOUS
 62
               3
  5
28D
 10
74.999999999999957
 20
-35.13940728487762
 30
0.0
 40
2.4999999999999996
 50
269.99999999974182
 51
449.99999999956907
  0
ARC
  8
0
  6
CONTINUOUS
 62
               3
  5
28E
 10
-75.000000000000028
 20
-35.13940728487762
 30
0.0
 40
2.4999999999999996
 50
89.999999999913484
 51
269.99999999974182
  0
LINE
  8
0
  6
CONTINUOUS
 62
               3
  5
28F
 10
-75.000000000000028
 20
-37.63940728487762
 30
0.0
 11
22.500000000000526
 21
-37.63940728487762
 31
0.0
  0
LINE
  8
0
  6
CONTINUOUS
 62
               3
  5
290
 10
22.500000000000526
 20
-37.63940728487762
 30
0.0
 11
74.999999999999957
 21
-37.63940728487762
 31
0.0
  0
LINE
  8
0
  6
CONTINUOUS
 62
               3
  5
291
 10
-75.000000000000028
 20
-32.63940728487762
 30
0.0
 11
22.500000000000526
 21
-32.63940728487762
 31
0.0
  0
LINE
  8
0
  6
CONTINUOUS
 62
               3
  5
292
 10
22.500000000000526
 20
-32.63940728487762
 30
0.0
 11
74.999999999999957
 21
-32.63940728487762
 31
0.0
  0
LINE
  8
0
  6
CONTINUOUS
 62
               3
  5
293
 10
-75.000000000000028
 20
8.55336938290327
 30
0.0
 11
-75.000000000000028
 21
-32.63940728487762
 31
0.0
  0
CIRCLE
  8
0
  6
CONTINUOUS
 62
               3
  5
294
 10
-0.0000000000002274
 20
543.36059271512227
 30
0.0
 40
60.0
  0
CIRCLE
  8
0
  6
CONTINUOUS
 62
               3
  5
295
 10
609.28652321630784
 20
-975.49627179792731
 30
0.0
 40
75.0
  0
CIRCLE
  8
0
  6
CONTINUOUS
 62
               3
  5
296
 10
609.28652321630784
 20
-975.49627179792731
 30
0.0
 40
52.5
  0
LINE
  8
0
  6
CONTINUOUS
 62
               3
  5
297
 10
523.0760250156826
 20
-955.49627179792731
 30
0.0
 11
537.00236174230247
 21
-955.49627179792731
 31
0.0
  0
LINE
  8
0
  6
CONTINUOUS
 62
               3
  5
298
 10
537.00236174230247
 20
-995.49627179792731
 30
0.0
 11
523.0760250156826
 21
-995.49627179792731
 31
0.0
  0
ARC
  8
0
  6
CONTINUOUS
 62
               3
  5
299
 10
609.28652321630784
 20
-975.49627179792731
 30
0.0
 40
88.5
 50
166.93897588510336
 51
193.06102411468945
  0
LINE
  8
0
  6
CONTINUOUS
 62
               3
  5
29A
 10
589.28652321630784
 20
-1061.7067699985523
 30
0.0
 11
589.28652321630784
 21
-1047.7804332719325
 31
0.0
  0
LINE
  8
0
  6
CONTINUOUS
 62
               3
  5
29B
 10
629.28652321630784
 20
-1047.7804332719325
 30
0.0
 11
629.28652321630784
 21
-1061.7067699985523
 31
0.0
  0
ARC
  8
0
  6
CONTINUOUS
 62
               3
  5
29C
 10
609.28652321630784
 20
-975.49627179792731
 30
0.0
 40
88.5
 50
256.93897588505166
 51
283.06102411463769
  0
LINE
  8
0
  6
CONTINUOUS
 62
               3
  5
29D
 10
695.49702141693251
 20
-995.49627179792731
 30
0.0
 11
681.57068469031196
 21
-995.49627179792731
 31
0.0
  0
LINE
  8
0
  6
CONTINUOUS
 62
               3
  5
29E
 10
681.57068469031196
 20
-955.49627179792731
 30
0.0
 11
695.49702141693251
 21
-955.49627179792731
 31
0.0
  0
ARC
  8
0
  6
CONTINUOUS
 62
               3
  5
29F
 10
609.28652321630784
 20
-975.49627179792731
 30
0.0
 40
88.5
 50
346.93897588499982
 51
373.06102411458585
  0
LINE
  8
0
  6
CONTINUOUS
 62
               3
  5
2A0
 10
629.28652321630784
 20
-889.28577359730173
 30
0.0
 11
629.28652321630784
 21
-903.21211032392227
 31
0.0
  0
LINE
  8
0
  6
CONTINUOUS
 62
               3
  5
2A1
 10
589.28652321630784
 20
-903.21211032392227
 30
0.0
 11
589.28652321630784
 21
-889.28577359730173
 31
0.0
  0
ARC
  8
0
  6
CONTINUOUS
 62
               3
  5
2A2
 10
609.28652321630784
 20
-975.49627179792731
 30
0.0
 40
88.5
 50
76.938975885155216
 51
103.06102411474124
  0
LINE
  8
0
  6
CONTINUOUS
 62
               3
  5
2A3
 10
561.61839969544678
 20
-997.49627179792776
 30
0.0
 11
656.95464673716765
 21
-997.49627179792776
 31
0.0
  0
ARC
  8
0
  6
CONTINUOUS
 62
               3
  5
2A4
 10
621.79013486568897
 20
-966.78987417030828
 30
0.0
 40
54.763804151667173
 50
141.3859176367566
 51
145.15009542087031
  0
ARC
  8
0
  6
CONTINUOUS
 62
               3
  5
2A5
 10
609.28652321630784
 20
-975.49627179792731
 30
0.0
 40
51.5
 50
334.71098847326505
 51
410.95932736340404
  0
ARC
  8
0
  6
CONTINUOUS
 62
               3
  5
2A6
 10
609.28652321630784
 20
-975.49627179792731
 30
0.0
 40
51.5
 50
129.04067263628559
 51
205.28901152642416
  0
ARC
  8
0
  6
CONTINUOUS
 62
               3
  5
2A7
 10
609.28652321630784
 20
-975.49627179792731
 30
0.0
 40
77.5
 50
104.95524831658301
 51
128.57288309095932
  0
ARC
  8
0
  6
CONTINUOUS
 62
               3
  5
2A8
 10
609.28652321630784
 20
-975.49627179792731
 30
0.0
 40
77.5
 50
14.9552483166347
 51
75.044751683313535
  0
ARC
  8
0
  6
CONTINUOUS
 62
               3
  5
2A9
 10
609.28652321630784
 20
-975.49627179792731
 30
0.0
 40
77.5
 50
321.42711690878122
 51
345.04475168315804
  0
LINE
  8
0
  6
CONTINUOUS
 62
               3
  5
2AA
 10
469.28652321630778
 20
-1030.4962717979274
 30
0.0
 11
469.95807934227201
 21
-1030.4962717979274
 31
0.0
  0
LINE
  8
0
  6
CONTINUOUS
 62
               3
  5
2AB
 10
472.45807934227247
 20
-1032.9962717979274
 30
0.0
 11
469.95807934227201
 21
-1030.4962717979274
 31
0.0
  0
LINE
  8
0
  6
CONTINUOUS
 62
               3
  5
2AC
 10
469.28652321630778
 20
-920.49627179792731
 30
0.0
 11
469.95807934227201
 21
-920.49627179792731
 31
0.0
  0
LINE
  8
0
  6
CONTINUOUS
 62
               3
  5
2AD
 10
472.45807934227201
 20
-917.99627179792731
 30
0.0
 11
469.95807934227201
 21
-920.49627179792731
 31
0.0
  0
LINE
  8
0
  6
CONTINUOUS
 62
               3
  5
2AE
 10
469.95807934227201
 20
-920.49627179792731
 30
0.0
 11
469.95807934227201
 21
-1030.4962717979274
 31
0.0
  0
LINE
  8
0
  6
CONTINUOUS
 62
               3
  5
2AF
 10
563.79618742992989
 20
-914.80667477958571
 30
0.0
 11
472.45807934227201
 21
-917.99627179792731
 31
0.0
  0
LINE
  8
0
  6
CONTINUOUS
 62
               3
  5
2B0
 10
544.4500514997568
 20
-1035.5102868628951
 30
0.0
 11
472.45807934227258
 21
-1032.9962717979274
 31
0.0
  0
LINE
  8
0
  6
CONTINUOUS
 62
               3
  5
2B1
 10
464.28652321630778
 20
-920.66782792389142
 30
0.0
 11
464.28652321630778
 21
-1030.5962717979273
 31
0.0
  0
LINE
  8
0
  6
CONTINUOUS
 62
               3
  5
2B2
 10
469.28652321630778
 20
-1033.0962717979273
 30
0.0
 11
469.28652321630778
 21
-917.89627179792717
 31
0.0
  0
LINE
  8
0
  6
CONTINUOUS
 62
               3
  5
2B3
 10
469.28652321630778
 20
-917.89627179792717
 30
0.0
 11
466.78652321630778
 21
-917.89627179792717
 31
0.0
  0
LINE
  8
0
  6
CONTINUOUS
 62
               3
  5
2B4
 10
469.28652321630778
 20
-1033.0962717979273
 30
0.0
 11
466.78652321630778
 21
-1033.0962717979273
 31
0.0
  0
ARC
  8
0
  6
CONTINUOUS
 62
               3
  5
2B5
 10
466.78652321630778
 20
-1030.5962717979273
 30
0.0
 40
2.5
 50
179.99999999989538
 51
269.99999999984436
  0
ARC
  8
0
  6
CONTINUOUS
 62
               3
  5
2B6
 10
466.78652321630778
 20
-920.39627179792717
 30
0.0
 40
2.5
 50
89.999999999948997
 51
179.99999999989538
  0
LINE
  8
0
  6
CONTINUOUS
 62
               3
  5
2B7
 10
576.84812004969024
 20
-935.49627179792753
 30
0.0
 11
609.28652321630784
 21
-935.49627179792753
 31
0.0
  0
LINE
  8
0
  6
CONTINUOUS
 62
               3
  5
2B8
 10
609.28652321630784
 20
-935.49627179792753
 30
0.0
 11
643.29019948814653
 21
-935.49627179792753
 31
0.0
  0
LINE
  8
0
  6
CONTINUOUS
 62
               3
  5
2B9
 10
472.45807934227247
 20
-1032.9962717979274
 30
0.0
 11
472.45807934227201
 21
-917.99627179792731
 31
0.0
  0
ARC
  8
0
  6
CONTINUOUS
 62
               3
  5
2BA
 10
563.6216899464174
 20
-909.80972064449008
 30
0.0
 40
5.0
 50
271.99999999984402
 51
304.806757870252
  0
LINE
  8
0
  6
CONTINUOUS
 62
               3
  5
2BB
 10
664.28652321630761
 20
-1115.4962717979274
 30
0.0
 11
664.28652321630761
 21
-1114.8247156719631
 31
0.0
  0
LINE
  8
0
  6
CONTINUOUS
 62
               3
  5
2BC
 10
666.78652321630761
 20
-1112.3247156719626
 30
0.0
 11
664.28652321630761
 21
-1114.8247156719631
 31
0.0
  0
LINE
  8
0
  6
CONTINUOUS
 62
               3
  5
2BD
 10
554.28652321630773
 20
-1115.4962717979274
 30
0.0
 11
554.28652321630773
 21
-1114.8247156719631
 31
0.0
  0
LINE
  8
0
  6
CONTINUOUS
 62
               3
  5
2BE
 10
551.78652321630773
 20
-1112.3247156719631
 30
0.0
 11
554.28652321630773
 21
-1114.8247156719631
 31
0.0
  0
LINE
  8
0
  6
CONTINUOUS
 62
               3
  5
2BF
 10
554.28652321630773
 20
-1114.8247156719631
 30
0.0
 11
664.28652321630761
 21
-1114.8247156719631
 31
0.0
  0
LINE
  8
0
  6
CONTINUOUS
 62
               3
  5
2C0
 10
554.45807934227184
 20
-1120.4962717979274
 30
0.0
 11
664.38652321630775
 21
-1120.4962717979274
 31
0.0
  0
LINE
  8
0
  6
CONTINUOUS
 62
               3
  5
2C1
 10
666.88652321630775
 20
-1115.4962717979274
 30
0.0
 11
551.68652321630771
 21
-1115.4962717979274
 31
0.0
  0
LINE
  8
0
  6
CONTINUOUS
 62
               3
  5
2C2
 10
551.68652321630771
 20
-1115.4962717979274
 30
0.0
 11
551.68652321630771
 21
-1117.9962717979274
 31
0.0
  0
LINE
  8
0
  6
CONTINUOUS
 62
               3
  5
2C3
 10
666.88652321630775
 20
-1115.4962717979274
 30
0.0
 11
666.88652321630775
 21
-1117.9962717979274
 31
0.0
  0
ARC
  8
0
  6
CONTINUOUS
 62
               3
  5
2C4
 10
664.38652321630775
 20
-1117.9962717979274
 30
0.0
 40
2.5
 50
269.99999999984567
 51
359.99999999979337
  0
ARC
  8
0
  6
CONTINUOUS
 62
               3
  5
2C5
 10
554.18652321630771
 20
-1117.9962717979274
 30
0.0
 40
2.5
 50
179.99999999989538
 51
269.99999999984567
  0
LINE
  8
0
  6
CONTINUOUS
 62
               3
  5
2C6
 10
666.78652321630761
 20
-1112.3247156719626
 30
0.0
 11
551.78652321630773
 21
-1112.3247156719631
 31
0.0
  0
LINE
  8
0
  6
CONTINUOUS
 62
               3
  5
2C7
 10
669.97612023464876
 20
-1020.9866075843055
 30
0.0
 11
666.78652321630761
 21
-1112.3247156719626
 31
0.0
  0
ARC
  8
0
  6
CONTINUOUS
 62
               3
  5
2C8
 10
674.97307436974438
 20
-1021.1611050678183
 30
0.0
 40
5.0
 50
145.19324212948862
 51
177.99999999989819
  0
LINE
  8
0
  6
CONTINUOUS
 62
               3
  5
2C9
 10
549.27250815133971
 20
-1040.3327435144784
 30
0.0
 11
551.78652321630773
 21
-1112.3247156719631
 31
0.0
  0
ARC
  8
0
  6
CONTINUOUS
 62
               3
  5
2CA
 10
544.27555401624431
 20
-1040.5072409979903
 30
0.0
 40
5.0
 50
1.9999999999958187
 51
87.99999999994921
  0
LINE
  8
0
  6
CONTINUOUS
 62
               3
  5
2CB
 10
534.28652321630784
 20
-1283.9957055465115
 30
0.0
 11
684.28652321630784
 21
-1283.9957055465115
 31
0.0
  0
LINE
  8
0
  6
CONTINUOUS
 62
               3
  5
2CC
 10
520.78652321630761
 20
-1293.9957055465115
 30
0.0
 11
520.78652321630761
 21
-1300.9957055465111
 31
0.0
  0
LINE
  8
0
  6
CONTINUOUS
 62
               3
  5
2CD
 10
520.78652321630761
 20
-1293.9957055465115
 30
0.0
 11
534.28652321630784
 21
-1283.9957055465115
 31
0.0
  0
ARC
  8
0
  6
CONTINUOUS
 62
               3
  5
2CE
 10
532.28652321630796
 20
-1305.5782812414668
 30
0.0
 40
4.9999999999999991
 50
0.0
 51
66.421821521760023
  0
LINE
  8
0
  6
CONTINUOUS
 62
               3
  5
2CF
 10
520.78652321630761
 20
-1300.9957055465111
 30
0.0
 11
697.78652321630739
 21
-1300.9957055465111
 31
0.0
  0
ARC
  8
0
  6
CONTINUOUS
 62
               3
  5
2D0
 10
554.28652321630784
 20
-1390.9957055465115
 30
0.0
 40
19.999999999999996
 50
148.21166938286279
 51
167.26981986159123
  0
LINE
  8
0
  6
CONTINUOUS
 62
               3
  5
2D1
 10
537.28652321630796
 20
-1305.5782812414668
 30
0.0
 11
537.28652321630796
 21
-1380.4600517936587
 31
0.0
  0
LINE
  8
0
  6
CONTINUOUS
 62
               3
  5
2D2
 10
681.28652321630761
 20
-1375.4600517936583
 30
0.0
 11
681.28652321630761
 21
-1305.5782812414668
 31
0.0
  0
LINE
  8
0
  6
CONTINUOUS
 62
               3
  5
2D3
 10
537.28652321630796
 20
-1380.4600517936587
 30
0.0
 11
680.78652321630807
 21
-1380.4600517936587
 31
0.0
  0
LINE
  8
0
  6
CONTINUOUS
 62
               3
  5
2D4
 10
589.28652321630784
 20
-1300.9957055465111
 30
0.0
 11
589.28652321630784
 21
-1283.9957055465115
 31
0.0
  0
LINE
  8
0
  6
CONTINUOUS
 62
               3
  5
2D5
 10
629.28652321630784
 20
-1283.9957055465115
 30
0.0
 11
629.28652321630784
 21
-1300.9957055465111
 31
0.0
  0
LINE
  8
0
  6
CONTINUOUS
 62
               3
  5
2D6
 10
589.28652321630784
 20
-1293.9957055465115
 30
0.0
 11
629.28652321630784
 21
-1293.9957055465115
 31
0.0
  0
LINE
  8
0
  6
CONTINUOUS
 62
               3
  5
2D7
 10
537.00236174230247
 20
-1283.9957055465115
 30
0.0
 11
537.00236174230247
 21
-1300.9957055465111
 31
0.0
  0
LINE
  8
0
  6
CONTINUOUS
 62
               3
  5
2D8
 10
523.0760250156826
 20
-1293.9957055465115
 30
0.0
 11
523.0760250156826
 21
-1300.9957055465111
 31
0.0
  0
LINE
  8
0
  6
CONTINUOUS
 62
               3
  5
2D9
 10
520.78652321630761
 20
-1293.9957055465115
 30
0.0
 11
523.0760250156826
 21
-1293.9957055465115
 31
0.0
  0
LINE
  8
0
  6
CONTINUOUS
 62
               3
  5
2DA
 10
523.0760250156826
 20
-1293.9957055465115
 30
0.0
 11
537.00236174230247
 21
-1283.9957055465115
 31
0.0
  0
LINE
  8
0
  6
CONTINUOUS
 62
               3
  5
2DB
 10
697.78652321630739
 20
-1293.9957055465115
 30
0.0
 11
697.78652321630739
 21
-1300.9957055465111
 31
0.0
  0
LINE
  8
0
  6
CONTINUOUS
 62
               3
  5
2DC
 10
697.78652321630739
 20
-1293.9957055465115
 30
0.0
 11
684.28652321630784
 21
-1283.9957055465115
 31
0.0
  0
ARC
  8
0
  6
CONTINUOUS
 62
               3
  5
2DD
 10
686.28652321630761
 20
-1305.5782812414668
 30
0.0
 40
4.9999999999999991
 50
113.57817847813573
 51
179.99999999989538
  0
LINE
  8
0
  6
CONTINUOUS
 62
               3
  5
2DE
 10
681.57068469031196
 20
-1283.9957055465115
 30
0.0
 11
681.57068469031196
 21
-1300.9957055465111
 31
0.0
  0
LINE
  8
0
  6
CONTINUOUS
 62
               3
  5
2DF
 10
695.49702141693297
 20
-1293.9957055465115
 30
0.0
 11
695.49702141693297
 21
-1300.9957055465111
 31
0.0
  0
LINE
  8
0
  6
CONTINUOUS
 62
               3
  5
2E0
 10
697.78652321630739
 20
-1293.9957055465115
 30
0.0
 11
695.49702141693297
 21
-1293.9957055465115
 31
0.0
  0
LINE
  8
0
  6
CONTINUOUS
 62
               3
  5
2E1
 10
695.49702141693297
 20
-1293.9957055465115
 30
0.0
 11
681.57068469031196
 21
-1283.9957055465115
 31
0.0
  0
ARC
  8
0
  6
CONTINUOUS
 62
               3
  5
2E2
 10
544.28652321630784
 20
-1512.4957055465115
 30
0.0
 40
2.4999999999999996
 50
89.99999999994769
 51
269.99999999984567
  0
ARC
  8
0
  6
CONTINUOUS
 62
               3
  5
2E3
 10
684.28652321630784
 20
-1512.4957055465115
 30
0.0
 40
2.4999999999999996
 50
269.99999999984567
 51
449.99999999974102
  0
LINE
  8
0
  6
CONTINUOUS
 62
               3
  5
2E4
 10
469.28652321630778
 20
-1504.9957055465115
 30
0.0
 11
469.95807934227213
 21
-1504.9957055465115
 31
0.0
  0
LINE
  8
0
  6
CONTINUOUS
 62
               3
  5
2E5
 10
472.45807934227224
 20
-1507.4957055465111
 30
0.0
 11
469.95807934227213
 21
-1504.9957055465115
 31
0.0
  0
LINE
  8
0
  6
CONTINUOUS
 62
               3
  5
2E6
 10
472.45807934227304
 20
-1507.4957055465115
 30
0.0
 11
514.62318959855043
 21
-1508.9681436423657
 31
0.0
  0
LINE
  8
0
  6
CONTINUOUS
 62
               3
  5
2E7
 10
532.82205712224038
 20
-1525.2673949727978
 30
0.0
 11
517.9842260209706
 21
-1510.4295638715284
 31
0.0
  0
ARC
  8
0
  6
CONTINUOUS
 62
               3
  5
2E8
 10
529.28652321630784
 20
-1528.8029288787307
 30
0.0
 40
4.9999999999999991
 50
0.0
 51
44.999999999973191
  0
LINE
  8
0
  6
CONTINUOUS
 62
               3
  5
2E9
 10
469.28652321630778
 20
-1394.9957055465115
 30
0.0
 11
469.95807934227213
 21
-1394.9957055465115
 31
0.0
  0
LINE
  8
0
  6
CONTINUOUS
 62
               3
  5
2EA
 10
472.45807934227224
 20
-1392.4957055465115
 30
0.0
 11
469.95807934227213
 21
-1394.9957055465115
 31
0.0
  0
LINE
  8
0
  6
CONTINUOUS
 62
               3
  5
2EB
 10
472.45807934227213
 20
-1392.4957055465115
 30
0.0
 11
530.0755555444465
 21
-1390.4836589413594
 31
0.0
  0
LINE
  8
0
  6
CONTINUOUS
 62
               3
  5
2EC
 10
469.95807934227213
 20
-1394.9957055465115
 30
0.0
 11
469.95807934227213
 21
-1504.9957055465115
 31
0.0
  0
LINE
  8
0
  6
CONTINUOUS
 62
               3
  5
2ED
 10
469.28652321630778
 20
-1507.5957055465115
 30
0.0
 11
469.28652321630778
 21
-1392.3957055465116
 31
0.0
  0
LINE
  8
0
  6
CONTINUOUS
 62
               3
  5
2EE
 10
469.28652321630778
 20
-1392.3957055465116
 30
0.0
 11
466.78652321630778
 21
-1392.3957055465116
 31
0.0
  0
ARC
  8
0
  6
CONTINUOUS
 62
               3
  5
2EF
 10
466.78652321630778
 20
-1394.8957055465116
 30
0.0
 40
2.5
 50
89.999999999948997
 51
179.99999999989538
  0
LINE
  8
0
  6
CONTINUOUS
 62
               3
  5
2F0
 10
464.28652321630778
 20
-1394.8957055465116
 30
0.0
 11
464.28652321630778
 21
-1505.0957055465115
 31
0.0
  0
LINE
  8
0
  6
CONTINUOUS
 62
               3
  5
2F1
 10
469.28652321630778
 20
-1507.5957055465115
 30
0.0
 11
466.78652321630778
 21
-1507.5957055465115
 31
0.0
  0
ARC
  8
0
  6
CONTINUOUS
 62
               3
  5
2F2
 10
466.78652321630778
 20
-1505.0957055465115
 30
0.0
 40
2.5
 50
179.99999999989538
 51
269.99999999984436
  0
LINE
  8
0
  6
CONTINUOUS
 62
               3
  5
2F3
 10
472.45807934227224
 20
-1392.4957055465115
 30
0.0
 11
472.45807934227304
 21
-1507.4957055465115
 31
0.0
  0
ARC
  8
0
  6
CONTINUOUS
 62
               3
  5
2F4
 10
514.44869211503794
 20
-1513.9650977774613
 30
0.0
 40
5.0
 50
44.999999999975948
 51
87.999999999949253
  0
ARC
  8
0
  6
CONTINUOUS
 62
               3
  5
2F5
 10
529.90105806093402
 20
-1385.4867048062638
 30
0.0
 40
5.0
 50
271.99999999984408
 51
347.26981986148661
  0
CIRCLE
  8
0
  6
CONTINUOUS
 62
               3
  5
2F6
 10
609.28652321630784
 20
-1449.9957055465115
 30
0.0
 40
48.5
  0
CIRCLE
  8
0
  6
CONTINUOUS
 62
               3
  5
2F7
 10
609.28652321630784
 20
-1449.9957055465115
 30
0.0
 40
47.299999999999997
  0
LINE
  8
0
  6
CONTINUOUS
 62
               3
  5
2F8
 10
577.46671806291329
 20
-1481.8155106999061
 30
0.0
 11
575.84037246618414
 21
-1483.4418562966353
 31
0.0
  0
LINE
  8
0
  6
CONTINUOUS
 62
               3
  5
2F9
 10
641.1063283697024
 20
-1481.8155106999061
 30
0.0
 11
642.73267396643155
 21
-1483.4418562966353
 31
0.0
  0
ARC
  8
0
  6
CONTINUOUS
 62
               3
  5
2FA
 10
609.28652321630784
 20
-1449.9957055465115
 30
0.0
 40
45.0
 50
224.99999999987043
 51
314.99999999981884
  0
CIRCLE
  8
0
  6
CONTINUOUS
 62
               3
  5
2FB
 10
609.28652321630784
 20
-1449.9957055465115
 30
0.0
 40
57.600000000000001
  0
ARC
  8
0
  6
CONTINUOUS
 62
               3
  5
2FC
 10
586.78652321630841
 20
-1512.4957055465115
 30
0.0
 40
2.4999999999999996
 50
269.99999999984567
 51
449.99999999974102
  0
ARC
  8
0
  6
CONTINUOUS
 62
               3
  5
2FD
 10
631.7865232163083
 20
-1512.4957055465115
 30
0.0
 40
2.4999999999999996
 50
89.99999999994769
 51
269.99999999984567
  0
LINE
  8
0
  6
CONTINUOUS
 62
               3
  5
2FE
 10
544.28652321630784
 20
-1514.9957055465115
 30
0.0
 11
586.78652321630841
 21
-1514.9957055465115
 31
0.0
  0
LINE
  8
0
  6
CONTINUOUS
 62
               3
  5
2FF
 10
544.28652321630784
 20
-1509.9957055465115
 30
0.0
 11
586.78652321630841
 21
-1509.9957055465115
 31
0.0
  0
LINE
  8
0
  6
CONTINUOUS
 62
               3
  5
300
 10
631.7865232163083
 20
-1509.9957055465115
 30
0.0
 11
684.28652321630784
 21
-1509.9957055465115
 31
0.0
  0
LINE
  8
0
  6
CONTINUOUS
 62
               3
  5
301
 10
631.7865232163083
 20
-1514.9957055465115
 30
0.0
 11
684.28652321630784
 21
-1514.9957055465115
 31
0.0
  0
CIRCLE
  8
0
  6
CONTINUOUS
 62
               3
  5
302
 10
609.28652321630784
 20
-975.49627179792731
 30
0.0
 40
59.0
  0
LINE
  8
0
  6
DASHED2
 62
               4
  5
303
 10
-557.00000000000045
 20
188.36059271512238
 30
0.0
 11
-443.00000000000074
 21
188.36059271512238
 31
0.0
  0
LINE
  8
0
  6
DASHED2
 62
               4
  5
304
 10
443.0
 20
188.36059271512238
 30
0.0
 11
556.99999999999977
 21
188.36059271512238
 31
0.0
  0
LINE
  8
0
  6
DASHED2
 62
               4
  5
305
 10
56.999999999999844
 20
-311.63940728487762
 30
0.0
 11
56.999999999999844
 21
-411.63940728487762
 31
0.0
  0
LINE
  8
0
  6
DASHED2
 62
               4
  5
306
 10
-57.132845554131009
 20
-311.63940728487762
 30
0.0
 11
-57.132845554131009
 21
-411.73783503032882
 31
0.0
  0
LINE
  8
0
  6
DASHED2
 62
               4
  5
307
 10
-443.00000000000017
 20
-311.63940728487762
 30
0.0
 11
-443.00000000000017
 21
-411.63940728487762
 31
0.0
  0
LINE
  8
0
  6
DASHED2
 62
               4
  5
308
 10
-557.13284555413111
 20
-311.63940728487762
 30
0.0
 11
-557.13284555413111
 21
-411.73783503032882
 31
0.0
  0
LINE
  8
0
  6
DASHED2
 62
               4
  5
309
 10
556.99999999999977
 20
-311.63940728487762
 30
0.0
 11
556.99999999999977
 21
-411.63940728487762
 31
0.0
  0
LINE
  8
0
  6
DASHED2
 62
               4
  5
30A
 10
442.86715444586889
 20
-311.63940728487762
 30
0.0
 11
442.86715444586889
 21
-411.73783503032882
 31
0.0
  0
LINE
  8
0
  6
DASHED2
 62
               4
  5
30B
 10
-57.500000000003013
 20
-426.63940728487876
 30
0.0
 11
-57.500000000003013
 21
-491.63940728487648
 31
0.0
  0
LINE
  8
0
  6
DASHED2
 62
               4
  5
30C
 10
-0.0000000000000284
 20
-411.63940728487762
 30
0.0
 11
-57.000000000000199
 21
-411.63940728487762
 31
0.0
  0
LINE
  8
0
  6
DASHED2
 62
               4
  5
30D
 10
-57.500000000003013
 20
-426.63940728487876
 30
0.0
 11
-0.0000000000011653
 21
-426.63940728487762
 31
0.0
  0
LINE
  8
0
  6
DASHED2
 62
               4
  5
30E
 10
-0.0000000000000284
 20
-411.63940728487762
 30
0.0
 11
56.999999999999858
 21
-411.63940728487762
 31
0.0
  0
LINE
  8
0
  6
DASHED2
 62
               4
  5
30F
 10
57.500000000001677
 20
-426.63940728487876
 30
0.0
 11
-0.0000000000000284
 21
-426.63940728487762
 31
0.0
  0
LINE
  8
0
  6
DASHED2
 62
               4
  5
310
 10
57.500000000001677
 20
-426.63940728487876
 30
0.0
 11
57.500000000001677
 21
-491.63940728487648
 31
0.0
  0
LINE
  8
0
  6
DASHED2
 62
               4
  5
311
 10
-136.76000000000076
 20
-411.63940728487717
 30
0.0
 11
-136.76000000000076
 21
-403.11327878556995
 31
0.0
  0
LINE
  8
0
  6
DASHED2
 62
               4
  5
312
 10
-130.87102725426635
 20
-403.11327878556995
 30
0.0
 11
-130.87102725426635
 21
-411.63940728487717
 31
0.0
  0
LINE
  8
0
  6
DASHED2
 62
               4
  5
313
 10
-133.81551362713341
 20
-402.03940728487703
 30
0.0
 11
-116.1844863728675
 21
-402.03940728487703
 31
0.0
  0
LINE
  8
0
  6
DASHED2
 62
               4
  5
314
 10
-113.24000000000044
 20
-411.63940728487717
 30
0.0
 11
-113.24000000000044
 21
-403.11327878556995
 31
0.0
  0
LINE
  8
0
  6
DASHED2
 62
               4
  5
315
 10
-119.12897274573513
 20
-411.63940728487717
 30
0.0
 11
-119.12897274573513
 21
-403.11327878556995
 31
0.0
  0
ARC
  8
0
  6
DASHED2
 62
               4
  5
316
 10
-133.81551362713341
 20
-406.61313886899302
 30
0.0
 40
4.5737315841157447
 50
49.925579661583591
 51
130.0744203382788
  0
ARC
  8
0
  6
DASHED2
 62
               4
  5
317
 10
-116.1844863728675
 20
-406.61313886899302
 30
0.0
 40
4.5737315841157686
 50
49.925579661583917
 51
130.07442033827908
  0
ARC
  8
0
  6
DASHED2
 62
               4
  5
318
 10
-125.0000000000006
 20
-418.62526555439752
 30
0.0
 40
16.58585826952007
 50
69.269184858507927
 51
110.73081514135468
  0
LINE
  8
0
  6
DASHED2
 62
               4
  5
319
 10
-136.76000000000218
 20
-413.63940728487751
 30
0.0
 11
-136.76000000000218
 21
-422.16553578418473
 31
0.0
  0
LINE
  8
0
  6
DASHED2
 62
               4
  5
31A
 10
-130.87102725426777
 20
-422.16553578418473
 30
0.0
 11
-130.87102725426777
 21
-413.63940728487751
 31
0.0
  0
LINE
  8
0
  6
DASHED2
 62
               4
  5
31B
 10
-133.81551362713483
 20
-423.2394072848773
 30
0.0
 11
-116.1844863728692
 21
-423.2394072848773
 31
0.0
  0
LINE
  8
0
  6
DASHED2
 62
               4
  5
31C
 10
-113.24000000000186
 20
-413.63940728487751
 30
0.0
 11
-113.24000000000186
 21
-422.16553578418473
 31
0.0
  0
LINE
  8
0
  6
DASHED2
 62
               4
  5
31D
 10
-119.12897274573626
 20
-413.63940728487751
 30
0.0
 11
-119.12897274573626
 21
-422.16553578418473
 31
0.0
  0
ARC
  8
0
  6
DASHED2
 62
               4
  5
31E
 10
-133.81551362713483
 20
-418.66567570076188
 30
0.0
 40
4.5737315841157447
 50
229.92557966144622
 51
310.07442033814215
  0
ARC
  8
0
  6
DASHED2
 62
               4
  5
31F
 10
-116.1844863728692
 20
-418.66567570076188
 30
0.0
 40
4.5737315841157686
 50
229.92557966144673
 51
310.07442033814186
  0
ARC
  8
0
  6
DASHED2
 62
               4
  5
320
 10
-125.00000000000202
 20
-406.65354901535738
 30
0.0
 40
16.58585826952007
 50
249.26918485837012
 51
290.73081514121674
  0
LINE
  8
0
  6
DASHED2
 62
               4
  5
321
 10
-131.00000000000054
 20
-423.2394072848773
 30
0.0
 11
-131.00000000000054
 21
-433.75877352720192
 31
0.0
  0
LINE
  8
0
  6
DASHED2
 62
               4
  5
322
 10
-119.00000000000065
 20
-423.2394072848773
 30
0.0
 11
-119.00000000000065
 21
-433.75877352720192
 31
0.0
  0
LINE
  8
0
  6
DASHED2
 62
               4
  5
323
 10
-129.80000000000078
 20
-434.95877352720231
 30
0.0
 11
-120.2000000000007
 21
-434.95877352720231
 31
0.0
  0
LINE
  8
0
  6
DASHED2
 62
               4
  5
324
 10
-131.00000000000054
 20
-433.75877352720192
 30
0.0
 11
-129.80000000000078
 21
-434.95877352720231
 31
0.0
  0
LINE
  8
0
  6
DASHED2
 62
               4
  5
325
 10
-119.00000000000065
 20
-433.75877352720192
 30
0.0
 11
-120.2000000000007
 21
-434.95877352720231
 31
0.0
  0
LINE
  8
0
  6
DASHED2
 62
               4
  5
326
 10
-136.76000000000076
 20
-411.63940728487717
 30
0.0
 11
-113.24000000000044
 21
-411.63940728487717
 31
0.0
  0
LINE
  8
0
  6
DASHED2
 62
               4
  5
327
 10
-113.24000000000186
 20
-413.63940728487751
 30
0.0
 11
-136.76000000000218
 21
-413.63940728487751
 31
0.0
  0
LINE
  8
0
  6
DASHED2
 62
               4
  5
328
 10
136.75999999999954
 20
-411.63940728487717
 30
0.0
 11
136.75999999999954
 21
-403.11327878556995
 31
0.0
  0
LINE
  8
0
  6
DASHED2
 62
               4
  5
329
 10
130.87102725426513
 20
-403.11327878556995
 30
0.0
 11
130.87102725426513
 21
-411.63940728487717
 31
0.0
  0
LINE
  8
0
  6
DASHED2
 62
               4
  5
32A
 10
133.81551362713219
 20
-402.03940728487703
 30
0.0
 11
116.18448637286627
 21
-402.03940728487703
 31
0.0
  0
LINE
  8
0
  6
DASHED2
 62
               4
  5
32B
 10
113.23999999999921
 20
-411.63940728487717
 30
0.0
 11
113.23999999999921
 21
-403.11327878556995
 31
0.0
  0
LINE
  8
0
  6
DASHED2
 62
               4
  5
32C
 10
119.1289727457339
 20
-411.63940728487717
 30
0.0
 11
119.1289727457339
 21
-403.11327878556995
 31
0.0
  0
ARC
  8
0
  6
DASHED2
 62
               4
  5
32D
 10
133.81551362713219
 20
-406.61313886899302
 30
0.0
 40
4.5737315841157447
 50
49.925579661616972
 51
130.0744203383129
  0
ARC
  8
0
  6
DASHED2
 62
               4
  5
32E
 10
116.18448637286627
 20
-406.61313886899302
 30
0.0
 40
4.5737315841157686
 50
49.925579661617284
 51
130.07442033831256
  0
ARC
  8
0
  6
DASHED2
 62
               4
  5
32F
 10
124.99999999999937
 20
-418.62526555439752
 30
0.0
 40
16.58585826952007
 50
69.269184858541735
 51
110.73081514138849
  0
LINE
  8
0
  6
DASHED2
 62
               4
  5
330
 10
136.76000000000096
 20
-413.63940728487751
 30
0.0
 11
136.76000000000096
 21
-422.16553578418473
 31
0.0
  0
LINE
  8
0
  6
DASHED2
 62
               4
  5
331
 10
130.87102725426655
 20
-422.16553578418473
 30
0.0
 11
130.87102725426655
 21
-413.63940728487751
 31
0.0
  0
LINE
  8
0
  6
DASHED2
 62
               4
  5
332
 10
133.81551362713361
 20
-423.2394072848773
 30
0.0
 11
116.18448637286798
 21
-423.2394072848773
 31
0.0
  0
LINE
  8
0
  6
DASHED2
 62
               4
  5
333
 10
113.24000000000063
 20
-413.63940728487751
 30
0.0
 11
113.24000000000063
 21
-422.16553578418473
 31
0.0
  0
LINE
  8
0
  6
DASHED2
 62
               4
  5
334
 10
119.12897274573504
 20
-413.63940728487751
 30
0.0
 11
119.12897274573504
 21
-422.16553578418473
 31
0.0
  0
ARC
  8
0
  6
DASHED2
 62
               4
  5
335
 10
133.81551362713361
 20
-418.66567570076188
 30
0.0
 40
4.5737315841157447
 50
229.92557966154681
 51
310.07442033824327
  0
ARC
  8
0
  6
DASHED2
 62
               4
  5
336
 10
116.18448637286798
 20
-418.66567570076188
 30
0.0
 40
4.5737315841157686
 50
229.92557966154737
 51
310.07442033824242
  0
ARC
  8
0
  6
DASHED2
 62
               4
  5
337
 10
125.0000000000008
 20
-406.65354901535738
 30
0.0
 40
16.58585826952007
 50
249.26918485847236
 51
290.73081514131917
  0
LINE
  8
0
  6
DASHED2
 62
               4
  5
338
 10
130.99999999999932
 20
-423.2394072848773
 30
0.0
 11
130.99999999999932
 21
-433.75877352720192
 31
0.0
  0
LINE
  8
0
  6
DASHED2
 62
               4
  5
339
 10
118.99999999999943
 20
-423.2394072848773
 30
0.0
 11
118.99999999999943
 21
-433.75877352720192
 31
0.0
  0
LINE
  8
0
  6
DASHED2
 62
               4
  5
33A
 10
129.79999999999956
 20
-434.95877352720231
 30
0.0
 11
120.19999999999948
 21
-434.95877352720231
 31
0.0
  0
LINE
  8
0
  6
DASHED2
 62
               4
  5
33B
 10
130.99999999999932
 20
-433.75877352720192
 30
0.0
 11
129.79999999999956
 21
-434.95877352720231
 31
0.0
  0
LINE
  8
0
  6
DASHED2
 62
               4
  5
33C
 10
118.99999999999943
 20
-433.75877352720192
 30
0.0
 11
120.19999999999948
 21
-434.95877352720231
 31
0.0
  0
LINE
  8
0
  6
DASHED2
 62
               4
  5
33D
 10
136.75999999999954
 20
-411.63940728487717
 30
0.0
 11
113.23999999999921
 21
-411.63940728487717
 31
0.0
  0
LINE
  8
0
  6
DASHED2
 62
               4
  5
33E
 10
113.24000000000063
 20
-413.63940728487751
 30
0.0
 11
136.76000000000096
 21
-413.63940728487751
 31
0.0
  0
LINE
  8
0
  6
DASHED2
 62
               4
  5
33F
 10
-557.5000000000025
 20
-426.63940728487876
 30
0.0
 11
-557.5000000000025
 21
-491.63940728487648
 31
0.0
  0
LINE
  8
0
  6
DASHED2
 62
               4
  5
340
 10
-499.99999999999949
 20
-411.63940728487762
 30
0.0
 11
-556.99999999999966
 21
-411.63940728487762
 31
0.0
  0
LINE
  8
0
  6
DASHED2
 62
               4
  5
341
 10
-557.5000000000025
 20
-426.63940728487876
 30
0.0
 11
-500.00000000000063
 21
-426.63940728487762
 31
0.0
  0
LINE
  8
0
  6
DASHED2
 62
               4
  5
342
 10
-499.99999999999949
 20
-411.63940728487762
 30
0.0
 11
-442.9999999999996
 21
-411.63940728487762
 31
0.0
  0
LINE
  8
0
  6
DASHED2
 62
               4
  5
343
 10
-442.49999999999778
 20
-426.63940728487876
 30
0.0
 11
-499.99999999999949
 21
-426.63940728487762
 31
0.0
  0
LINE
  8
0
  6
DASHED2
 62
               4
  5
344
 10
-442.49999999999778
 20
-426.63940728487876
 30
0.0
 11
-442.49999999999778
 21
-491.63940728487648
 31
0.0
  0
LINE
  8
0
  6
DASHED2
 62
               4
  5
345
 10
-511.76000000000028
 20
-411.63940728487762
 30
0.0
 11
-511.76000000000028
 21
-403.1132787855704
 31
0.0
  0
LINE
  8
0
  6
DASHED2
 62
               4
  5
346
 10
-505.87102725426581
 20
-403.1132787855704
 30
0.0
 11
-505.87102725426581
 21
-411.63940728487762
 31
0.0
  0
LINE
  8
0
  6
DASHED2
 62
               4
  5
347
 10
-508.81551362713293
 20
-402.03940728487748
 30
0.0
 11
-491.18448637286696
 21
-402.03940728487748
 31
0.0
  0
LINE
  8
0
  6
DASHED2
 62
               4
  5
348
 10
-488.23999999999995
 20
-411.63940728487762
 30
0.0
 11
-488.23999999999995
 21
-403.1132787855704
 31
0.0
  0
LINE
  8
0
  6
DASHED2
 62
               4
  5
349
 10
-494.12897274573464
 20
-411.63940728487762
 30
0.0
 11
-494.12897274573464
 21
-403.1132787855704
 31
0.0
  0
ARC
  8
0
  6
DASHED2
 62
               4
  5
34A
 10
-508.81551362713293
 20
-406.61313886899347
 30
0.0
 40
4.5737315841157447
 50
49.925579661583591
 51
130.07442033827851
  0
ARC
  8
0
  6
DASHED2
 62
               4
  5
34B
 10
-491.18448637286696
 20
-406.61313886899347
 30
0.0
 40
4.5737315841157686
 50
49.925579661583591
 51
130.07442033827908
  0
ARC
  8
0
  6
DASHED2
 62
               4
  5
34C
 10
-500.00000000000006
 20
-418.62526555439797
 30
0.0
 40
16.58585826952007
 50
69.269184858508027
 51
110.73081514135468
  0
LINE
  8
0
  6
DASHED2
 62
               4
  5
34D
 10
-511.76000000000164
 20
-413.63940728487796
 30
0.0
 11
-511.76000000000164
 21
-422.16553578418518
 31
0.0
  0
LINE
  8
0
  6
DASHED2
 62
               4
  5
34E
 10
-505.87102725426729
 20
-422.16553578418518
 30
0.0
 11
-505.87102725426729
 21
-413.63940728487796
 31
0.0
  0
LINE
  8
0
  6
DASHED2
 62
               4
  5
34F
 10
-508.81551362713429
 20
-423.23940728487776
 30
0.0
 11
-491.18448637286866
 21
-423.23940728487776
 31
0.0
  0
LINE
  8
0
  6
DASHED2
 62
               4
  5
350
 10
-488.24000000000132
 20
-413.63940728487796
 30
0.0
 11
-488.24000000000132
 21
-422.16553578418518
 31
0.0
  0
LINE
  8
0
  6
DASHED2
 62
               4
  5
351
 10
-494.12897274573578
 20
-413.63940728487796
 30
0.0
 11
-494.12897274573578
 21
-422.16553578418518
 31
0.0
  0
ARC
  8
0
  6
DASHED2
 62
               4
  5
352
 10
-508.81551362713429
 20
-418.66567570076234
 30
0.0
 40
4.5737315841157447
 50
229.92557966144622
 51
310.07442033814215
  0
ARC
  8
0
  6
DASHED2
 62
               4
  5
353
 10
-491.18448637286866
 20
-418.66567570076234
 30
0.0
 40
4.5737315841157686
 50
229.92557966144673
 51
310.07442033814067
  0
ARC
  8
0
  6
DASHED2
 62
               4
  5
354
 10
-500.00000000000153
 20
-406.65354901535784
 30
0.0
 40
16.58585826952007
 50
249.26918485837012
 51
290.73081514121674
  0
LINE
  8
0
  6
DASHED2
 62
               4
  5
355
 10
-506.00000000000006
 20
-423.23940728487776
 30
0.0
 11
-506.00000000000006
 21
-433.75877352720238
 31
0.0
  0
LINE
  8
0
  6
DASHED2
 62
               4
  5
356
 10
-494.00000000000017
 20
-423.23940728487776
 30
0.0
 11
-494.00000000000017
 21
-433.75877352720238
 31
0.0
  0
LINE
  8
0
  6
DASHED2
 62
               4
  5
357
 10
-504.80000000000024
 20
-434.95877352720277
 30
0.0
 11
-495.20000000000022
 21
-434.95877352720277
 31
0.0
  0
LINE
  8
0
  6
DASHED2
 62
               4
  5
358
 10
-506.00000000000006
 20
-433.75877352720238
 30
0.0
 11
-504.80000000000024
 21
-434.95877352720277
 31
0.0
  0
LINE
  8
0
  6
DASHED2
 62
               4
  5
359
 10
-494.00000000000017
 20
-433.75877352720238
 30
0.0
 11
-495.20000000000022
 21
-434.95877352720277
 31
0.0
  0
LINE
  8
0
  6
DASHED2
 62
               4
  5
35A
 10
-511.76000000000028
 20
-411.63940728487762
 30
0.0
 11
-488.23999999999995
 21
-411.63940728487762
 31
0.0
  0
LINE
  8
0
  6
DASHED2
 62
               4
  5
35B
 10
-488.24000000000132
 20
-413.63940728487796
 30
0.0
 11
-511.76000000000164
 21
-413.63940728487796
 31
0.0
  0
LINE
  8
0
  6
DASHED2
 62
               4
  5
35C
 10
442.49999999999756
 20
-426.63940728487876
 30
0.0
 11
442.49999999999756
 21
-491.63940728487648
 31
0.0
  0
LINE
  8
0
  6
DASHED2
 62
               4
  5
35D
 10
500.00000000000057
 20
-411.63940728487762
 30
0.0
 11
443.00000000000034
 21
-411.63940728487762
 31
0.0
  0
LINE
  8
0
  6
DASHED2
 62
               4
  5
35E
 10
442.49999999999756
 20
-426.63940728487876
 30
0.0
 11
499.99999999999943
 21
-426.63940728487762
 31
0.0
  0
LINE
  8
0
  6
DASHED2
 62
               4
  5
35F
 10
500.00000000000057
 20
-411.63940728487762
 30
0.0
 11
557.00000000000034
 21
-411.63940728487762
 31
0.0
  0
LINE
  8
0
  6
DASHED2
 62
               4
  5
360
 10
557.50000000000216
 20
-426.63940728487876
 30
0.0
 11
500.00000000000057
 21
-426.63940728487762
 31
0.0
  0
LINE
  8
0
  6
DASHED2
 62
               4
  5
361
 10
557.50000000000216
 20
-426.63940728487876
 30
0.0
 11
557.50000000000216
 21
-491.63940728487648
 31
0.0
  0
LINE
  8
0
  6
DASHED2
 62
               4
  5
362
 10
488.23999999999967
 20
-411.63940728487762
 30
0.0
 11
488.23999999999967
 21
-403.1132787855704
 31
0.0
  0
LINE
  8
0
  6
DASHED2
 62
               4
  5
363
 10
494.12897274573413
 20
-403.1132787855704
 30
0.0
 11
494.12897274573413
 21
-411.63940728487762
 31
0.0
  0
LINE
  8
0
  6
DASHED2
 62
               4
  5
364
 10
491.18448637286713
 20
-402.03940728487748
 30
0.0
 11
508.8155136271331
 21
-402.03940728487748
 31
0.0
  0
LINE
  8
0
  6
DASHED2
 62
               4
  5
365
 10
511.7600000000001
 20
-411.63940728487762
 30
0.0
 11
511.7600000000001
 21
-403.1132787855704
 31
0.0
  0
LINE
  8
0
  6
DASHED2
 62
               4
  5
366
 10
505.87102725426541
 20
-411.63940728487762
 30
0.0
 11
505.87102725426541
 21
-403.1132787855704
 31
0.0
  0
ARC
  8
0
  6
DASHED2
 62
               4
  5
367
 10
491.18448637286713
 20
-406.61313886899347
 30
0.0
 40
4.5737315841157447
 50
49.925579661583591
 51
130.07442033827851
  0
ARC
  8
0
  6
DASHED2
 62
               4
  5
368
 10
508.8155136271331
 20
-406.61313886899347
 30
0.0
 40
4.5737315841157686
 50
49.925579661583591
 51
130.07442033827908
  0
ARC
  8
0
  6
DASHED2
 62
               4
  5
369
 10
499.99999999999989
 20
-418.62526555439797
 30
0.0
 40
16.58585826952007
 50
69.269184858507828
 51
110.7308151413545
  0
LINE
  8
0
  6
DASHED2
 62
               4
  5
36A
 10
488.2399999999983
 20
-413.63940728487796
 30
0.0
 11
488.2399999999983
 21
-422.16553578418518
 31
0.0
  0
LINE
  8
0
  6
DASHED2
 62
               4
  5
36B
 10
494.12897274573277
 20
-422.16553578418518
 30
0.0
 11
494.12897274573277
 21
-413.63940728487796
 31
0.0
  0
LINE
  8
0
  6
DASHED2
 62
               4
  5
36C
 10
491.18448637286576
 20
-423.23940728487776
 30
0.0
 11
508.81551362713128
 21
-423.23940728487776
 31
0.0
  0
LINE
  8
0
  6
DASHED2
 62
               4
  5
36D
 10
511.75999999999874
 20
-413.63940728487796
 30
0.0
 11
511.75999999999874
 21
-422.16553578418518
 31
0.0
  0
LINE
  8
0
  6
DASHED2
 62
               4
  5
36E
 10
505.87102725426428
 20
-413.63940728487796
 30
0.0
 11
505.87102725426428
 21
-422.16553578418518
 31
0.0
  0
ARC
  8
0
  6
DASHED2
 62
               4
  5
36F
 10
491.18448637286576
 20
-418.66567570076234
 30
0.0
 40
4.5737315841157447
 50
229.92557966144673
 51
310.07442033814272
  0
ARC
  8
0
  6
DASHED2
 62
               4
  5
370
 10
508.81551362713128
 20
-418.66567570076234
 30
0.0
 40
4.5737315841157686
 50
229.92557966144673
 51
310.07442033814169
  0
ARC
  8
0
  6
DASHED2
 62
               4
  5
371
 10
499.99999999999852
 20
-406.65354901535784
 30
0.0
 40
16.58585826952007
 50
249.26918485837012
 51
290.73081514121674
  0
LINE
  8
0
  6
DASHED2
 62
               4
  5
372
 10
493.99999999999989
 20
-423.23940728487776
 30
0.0
 11
493.99999999999989
 21
-433.75877352720238
 31
0.0
  0
LINE
  8
0
  6
DASHED2
 62
               4
  5
373
 10
505.99999999999989
 20
-423.23940728487776
 30
0.0
 11
505.99999999999989
 21
-433.75877352720238
 31
0.0
  0
LINE
  8
0
  6
DASHED2
 62
               4
  5
374
 10
495.1999999999997
 20
-434.95877352720277
 30
0.0
 11
504.79999999999984
 21
-434.95877352720277
 31
0.0
  0
LINE
  8
0
  6
DASHED2
 62
               4
  5
375
 10
493.99999999999989
 20
-433.75877352720238
 30
0.0
 11
495.1999999999997
 21
-434.95877352720277
 31
0.0
  0
LINE
  8
0
  6
DASHED2
 62
               4
  5
376
 10
505.99999999999989
 20
-433.75877352720238
 30
0.0
 11
504.79999999999984
 21
-434.95877352720277
 31
0.0
  0
LINE
  8
0
  6
DASHED2
 62
               4
  5
377
 10
488.23999999999967
 20
-411.63940728487762
 30
0.0
 11
511.7600000000001
 21
-411.63940728487762
 31
0.0
  0
LINE
  8
0
  6
DASHED2
 62
               4
  5
378
 10
511.75999999999874
 20
-413.63940728487796
 30
0.0
 11
488.2399999999983
 21
-413.63940728487796
 31
0.0
  0
LINE
  8
0
  6
DASHED2
 62
               4
  5
379
 10
-506.00000000000006
 20
-296.57582780894921
 30
0.0
 11
-506.00000000000006
 21
-402.03940728487788
 31
0.0
  0
LINE
  8
0
  6
DASHED2
 62
               4
  5
37A
 10
-494.00000000000017
 20
-296.57582780894921
 30
0.0
 11
-494.00000000000017
 21
-402.03940728487788
 31
0.0
  0
LINE
  8
0
  6
DASHED2
 62
               4
  5
37B
 10
-494.00000000000017
 20
-296.57582780894921
 30
0.0
 11
-506.00000000000006
 21
-296.57582780894921
 31
0.0
  0
LINE
  8
0
  6
DASHED2
 62
               4
  5
37C
 10
118.99999999999943
 20
-296.57582780894836
 30
0.0
 11
118.99999999999943
 21
-402.03940728487703
 31
0.0
  0
LINE
  8
0
  6
DASHED2
 62
               4
  5
37D
 10
130.99999999999932
 20
-296.57582780894836
 30
0.0
 11
130.99999999999932
 21
-402.03940728487703
 31
0.0
  0
LINE
  8
0
  6
DASHED2
 62
               4
  5
37E
 10
118.99999999999943
 20
-296.57582780894836
 30
0.0
 11
130.99999999999932
 21
-296.57582780894836
 31
0.0
  0
LINE
  8
0
  6
DASHED2
 62
               4
  5
37F
 10
-119.00000000000065
 20
-296.57582780894836
 30
0.0
 11
-131.00000000000054
 21
-296.57582780894836
 31
0.0
  0
LINE
  8
0
  6
DASHED2
 62
               4
  5
380
 10
-119.00000000000065
 20
-296.57582780894836
 30
0.0
 11
-119.00000000000065
 21
-402.03940728487703
 31
0.0
  0
LINE
  8
0
  6
DASHED2
 62
               4
  5
381
 10
-131.00000000000054
 20
-296.57582780894836
 30
0.0
 11
-131.00000000000054
 21
-402.03940728487703
 31
0.0
  0
LINE
  8
0
  6
DASHED2
 62
               4
  5
382
 10
505.99999999999977
 20
-296.57582780894882
 30
0.0
 11
505.99999999999977
 21
-402.03940728487748
 31
0.0
  0
LINE
  8
0
  6
DASHED2
 62
               4
  5
383
 10
493.99999999999977
 20
-296.57582780894882
 30
0.0
 11
493.99999999999977
 21
-402.03940728487748
 31
0.0
  0
LINE
  8
0
  6
DASHED2
 62
               4
  5
384
 10
505.99999999999977
 20
-296.57582780894882
 30
0.0
 11
493.99999999999977
 21
-296.57582780894882
 31
0.0
  0
LINE
  8
0
  6
DASHED2
 62
               4
  5
385
 10
-56.999999999999929
 20
188.36059271512238
 30
0.0
 11
56.999999999999837
 21
188.36059271512238
 31
0.0
  0
LINE
  8
0
  6
DASHED2
 62
               4
  5
386
 10
552.28652321630796
 20
-1348.9957055465115
 30
0.0
 11
666.28652321630761
 21
-1348.9957055465115
 31
0.0
  0
LINE
  8
0
  6
DASHDOT
 62
               4
  5
387
 10
-0.0000000000000426
 20
213.36059271512238
 30
0.0
 11
-0.0000000000000426
 21
-411.63940728487762
 31
0.0
  0
LINE
  8
0
  6
DASHDOT
 62
               4
  5
388
 10
-500.00000000000006
 20
273.36059271512238
 30
0.0
 11
-500.00000000000006
 21
-411.63940728487762
 31
0.0
  0
LINE
  8
0
  6
DASHDOT
 62
               4
  5
389
 10
500.0
 20
273.36059271512238
 30
0.0
 11
500.0
 21
-411.63940728487762
 31
0.0
  0
LINE
  8
0
  6
DASHDOT
 62
               4
  5
38A
 10
-0.0000000000002274
 20
651.86059271512227
 30
0.0
 11
-0.0000000000002274
 21
434.86059271512232
 31
0.0
  0
LINE
  8
0
  6
DASHDOT
 62
               4
  5
38B
 10
-162.00000000000011
 20
543.36059271512227
 30
0.0
 11
108.5
 21
543.36059271512227
 31
0.0
  0
LINE
  8
0
  6
DASHDOT
 62
               4
  5
38C
 10
-431.47477522477533
 20
87.36059271512238
 30
0.0
 11
-568.1755744255745
 21
87.36059271512238
 31
0.0
  0
LINE
  8
0
  6
DASHDOT
 62
               4
  5
38D
 10
500.0
 20
-651.86059271512227
 30
0.0
 11
500.0
 21
-362.63940728487762
 31
0.0
  0
LINE
  8
0
  6
DASHDOT
 62
               4
  5
38E
 10
-0.0000000000000426
 20
-651.86059271512227
 30
0.0
 11
-0.0000000000000426
 21
-362.63940728487762
 31
0.0
  0
LINE
  8
0
  6
DASHDOT
 62
               4
  5
38F
 10
-500.00000000000068
 20
-651.86059271512227
 30
0.0
 11
-500.00000000000153
 21
-406.65354901535784
 31
0.0
  0
LINE
  8
0
  6
DASHDOT
 62
               4
  5
390
 10
124.99999999999937
 20
-290.64930528687228
 30
0.0
 11
124.99999999999937
 21
-455.0276669063627
 31
0.0
  0
LINE
  8
0
  6
DASHDOT
 62
               4
  5
391
 10
-125.0000000000006
 20
-290.64930528687228
 30
0.0
 11
-125.0000000000006
 21
-455.0276669063627
 31
0.0
  0
LINE
  8
0
  6
DASHDOT
 62
               4
  5
392
 10
-161.99999999999994
 20
87.36059271512238
 30
0.0
 11
-61.999999999999915
 21
87.36059271512238
 31
0.0
  0
LINE
  8
0
  6
DASHDOT
 62
               4
  5
393
 10
-392.13776905046876
 20
-1097.6807073697182
 30
0.0
 11
-392.13776905046865
 21
-968.68070736971833
 31
0.0
  0
LINE
  8
0
  6
DASHDOT
 62
               4
  5
394
 10
-450.13776905046871
 20
-1039.6807073697182
 30
0.0
 11
-334.13776905046876
 21
-1039.6807073697182
 31
0.0
  0
LINE
  8
0
  6
DASHDOT
 62
               4
  5
395
 10
-461.94094753457625
 20
-1033.1807073697182
 30
0.0
 11
-327.63776905046876
 21
-1033.1807073697182
 31
0.0
  0
LINE
  8
0
  6
DASHDOT
 62
               4
  5
396
 10
-268.23776905046867
 20
-1033.1807073697182
 30
0.0
 11
-169.63776905046876
 21
-1033.1807073697182
 31
0.0
  0
LINE
  8
0
  6
DASHDOT
 62
               4
  5
397
 10
-302.63776905046876
 20
-1039.6807073697182
 30
0.0
 11
-228.23776905046878
 21
-1039.6807073697182
 31
0.0
  0
LINE
  8
0
  6
DASHDOT
 62
               4
  5
398
 10
-516.03776905046857
 20
-1033.1807073697182
 30
0.0
 11
-614.63776905046871
 21
-1033.1807073697178
 31
0.0
  0
LINE
  8
0
  6
DASHDOT
 62
               4
  5
399
 10
-481.63776905046871
 20
-1039.6807073697182
 30
0.0
 11
-556.03776905046857
 21
-1039.6807073697182
 31
0.0
  0
LINE
  8
0
  6
DASHDOT
 62
               4
  5
39A
 10
-394.08372644623529
 20
-936.21282330068323
 30
0.0
 11
-394.08372644623529
 21
-803.21282330068323
 31
0.0
  0
LINE
  8
0
  6
DASHDOT
 62
               4
  5
39B
 10
221.63392368588092
 20
-1033.1807073697182
 30
0.0
 11
320.23392368588105
 21
-1033.1807073697182
 31
0.0
  0
LINE
  8
0
  6
DASHDOT
 62
               4
  5
39C
 10
196.63392368588092
 20
-1047.6807073697182
 30
0.0
 11
261.63392368588092
 21
-1047.6807073697182
 31
0.0
  0
LINE
  8
0
  6
DASHDOT
 62
               4
  5
39D
 10
70.877907460637928
 20
-1047.6807073697182
 30
0.0
 11
170.87790746063814
 21
-1047.6807073697182
 31
0.0
  0
LINE
  8
0
  6
DASHDOT
 62
               4
  5
39E
 10
120.87790746063793
 20
-1097.6807073697182
 30
0.0
 11
120.87790746063816
 21
-968.68070736971833
 31
0.0
  0
LINE
  8
0
  6
DASHDOT
 62
               4
  5
39F
 10
56.377907460637928
 20
-1033.1807073697182
 30
0.0
 11
190.92191724058915
 21
-1033.1807073697182
 31
0.0
  0
LINE
  8
0
  6
DASHDOT
 62
               4
  5
3A0
 10
20.121891235395154
 20
-1033.1807073697182
 30
0.0
 11
-78.478108764604869
 21
-1033.1807073697182
 31
0.0
  0
LINE
  8
0
  6
DASHDOT
 62
               4
  5
3A1
 10
45.121891235395154
 20
-1047.6807073697182
 30
0.0
 11
-19.878108764604846
 21
-1047.6807073697182
 31
0.0
  0
LINE
  8
0
  6
DASHDOT
 62
               4
  5
3A2
 10
120.87790746063816
 20
-946.92469114447556
 30
0.0
 11
120.87790746063816
 21
-823.32469114447542
 31
0.0
  0
LINE
  8
0
  6
DASHDOT
 62
               4
  5
3A3
 10
609.28652321630784
 20
-866.99627179792731
 30
0.0
 11
609.28652321630784
 21
-1137.5430585977538
 31
0.0
  0
LINE
  8
0
  6
DASHDOT
 62
               4
  5
3A4
 10
447.2865232163079
 20
-975.49627179792731
 30
0.0
 11
717.78652321630807
 21
-975.49627179792731
 31
0.0
  0
LINE
  8
0
  6
DASHDOT
 62
               4
  5
3A5
 10
677.81174799153246
 20
-1449.9957055465115
 30
0.0
 11
447.55790992287956
 21
-1449.9957055465115
 31
0.0
  0
LINE
  8
0
  6
DASHDOT
 62
               4
  5
3A6
 10
609.28652321630784
 20
-1263.9957055465115
 30
0.0
 11
609.28652321630784
 21
-1514.9957055465115
 31
0.0
  0
LINE
  8
0
  6
DASHDOT
 62
               4
  5
3A7
 10
559.28652321630784
 20
-1464.4957055465115
 30
0.0
 11
659.28652321630807
 21
-1464.4957055465115
 31
0.0
  0
LINE
  8
0
  6
DASHDOT
 62
               4
  5
3A8
 10
609.28652321630784
 20
-1166.0962717979273
 30
0.0
 11
609.28652321630784
 21
-1042.496271797927
 31
0.0
  0
LINE
  8
0
  6
DASHDOT
 62
               4
  5
3A9
 10
409.28652321630778
 20
-1456.4957055465115
 30
0.0
 11
483.68652321630776
 21
-1456.4957055465115
 31
0.0
  0
LINE
  8
0
  6
DASHDOT
 62
               4
  5
3AA
 10
409.28652321630801
 20
-975.49627179792708
 30
0.0
 11
542.28652321630807
 21
-975.49627179792708
 31
0.0
  0
ARC
  8
0
  6
CONTINUOUS
 62
               4
  5
3AB
 10
474.21603418803375
 20
146.36059271512238
 30
0.0
 40
17.566965811965957
 50
0.0
 51
36.851448659195675
  0
LINE
  8
0
  6
CONTINUOUS
 62
               4
  5
3AC
 10
511.72700000000009
 20
161.89624646797517
 30
0.0
 11
488.27299999999968
 21
161.89624646797517
 31
0.0
  0
ARC
  8
0
  6
CONTINUOUS
 62
               4
  5
3AD
 10
525.78396581196557
 20
146.36059271512238
 30
0.0
 40
17.566965811965957
 50
143.14855134063194
 51
179.99999999982765
  0
LINE
  8
0
  6
CONTINUOUS
 62
               4
  5
3AE
 10
488.27299999999968
 20
156.89624646797517
 30
0.0
 11
488.27299999999968
 21
161.89624646797517
 31
0.0
  0
LINE
  8
0
  6
CONTINUOUS
 62
               4
  5
3AF
 10
511.72700000000009
 20
156.89624646797517
 30
0.0
 11
511.72700000000009
 21
161.89624646797517
 31
0.0
  0
LINE
  8
0
  6
CONTINUOUS
 62
               4
  5
3B0
 10
488.27299999999968
 20
161.89624646797517
 30
0.0
 11
493.99999999999977
 21
156.89624646797517
 31
0.0
  0
LINE
  8
0
  6
CONTINUOUS
 62
               4
  5
3B1
 10
505.99999999999955
 20
156.89624646797517
 30
0.0
 11
511.72700000000009
 21
161.89624646797517
 31
0.0
  0
LINE
  8
0
  6
CONTINUOUS
 62
               4
  5
3B2
 10
493.99999999999977
 20
156.89624646797517
 30
0.0
 11
505.99999999999955
 21
156.89624646797517
 31
0.0
  0
LINE
  8
0
  6
CONTINUOUS
 62
               4
  5
3B3
 10
505.99999999999955
 20
-33.639407284877521
 30
0.0
 11
493.99999999999977
 21
-33.639407284877521
 31
0.0
  0
ARC
  8
0
  6
CONTINUOUS
 62
               4
  5
3B4
 10
491.93835546658465
 20
-35.053487133344234
 30
0.0
 40
2.4999999999999996
 50
34.446185822111403
 51
93.562780573704416
  0
ARC
  8
0
  6
CONTINUOUS
 62
               4
  5
3B5
 10
508.06164453341512
 20
-35.053487133344234
 30
0.0
 40
2.4999999999999996
 50
86.437219426120279
 51
145.55381417771531
  0
LINE
  8
0
  6
CONTINUOUS
 62
               4
  5
3B6
 10
491.78299999999967
 20
146.36059271512238
 30
0.0
 11
491.78299999999967
 21
-32.639407284877635
 31
0.0
  0
LINE
  8
0
  6
CONTINUOUS
 62
               4
  5
3B7
 10
508.21699999999964
 20
146.36059271512238
 30
0.0
 11
508.21699999999964
 21
-32.639407284877635
 31
0.0
  0
LINE
  8
0
  6
CONTINUOUS
 62
               4
  5
3B8
 10
505.99999999999955
 20
-33.639407284877521
 30
0.0
 11
505.99999999999955
 21
156.89624646797517
 31
0.0
  0
LINE
  8
0
  6
CONTINUOUS
 62
               4
  5
3B9
 10
493.99999999999977
 20
156.89624646797517
 30
0.0
 11
493.99999999999977
 21
-33.639407284877521
 31
0.0
  0
LINE
  8
0
  6
CONTINUOUS
 62
               4
  5
3BA
 10
505.99999999999955
 20
-36.639407284877407
 30
0.0
 11
493.99999999999977
 21
-36.639407284877407
 31
0.0
  0
ARC
  8
0
  6
CONTINUOUS
 62
               4
  5
3BB
 10
491.93835546658465
 20
-35.225327436411035
 30
0.0
 40
2.4999999999999996
 50
266.43721942605197
 51
325.55381417766841
  0
ARC
  8
0
  6
CONTINUOUS
 62
               4
  5
3BC
 10
508.06164453341512
 20
-35.225327436411035
 30
0.0
 40
2.4999999999999996
 50
214.44618582202156
 51
273.56278057363869
  0
LINE
  8
0
  6
CONTINUOUS
 62
               4
  5
3BD
 10
-91.00000000000054
 20
-417.38462907220003
 30
0.0
 11
-91.00000000000054
 21
-407.51034286514425
 31
0.0
  0
LINE
  8
0
  6
CONTINUOUS
 62
               4
  5
3BE
 10
90.999999999999204
 20
-417.38462907220003
 30
0.0
 11
90.999999999999204
 21
-407.51034286514425
 31
0.0
  0
LINE
  8
0
  6
CONTINUOUS
 62
               4
  5
3BF
 10
-65.500000000001563
 20
-516.63940728487637
 30
0.0
 11
65.500000000000341
 21
-516.63940728487637
 31
0.0
  0
LINE
  8
0
  6
CONTINUOUS
 62
               4
  5
3C0
 10
-565.50000000000102
 20
-516.63940728487637
 30
0.0
 11
-434.49999999999909
 21
-516.63940728487637
 31
0.0
  0
LINE
  8
0
  6
CONTINUOUS
 62
               4
  5
3C1
 10
434.49999999999898
 20
-516.63940728487637
 30
0.0
 11
565.50000000000091
 21
-516.63940728487637
 31
0.0
  0
LINE
  8
0
  6
CONTINUOUS
 62
               4
  5
3C2
 10
76.999999999999844
 20
156.89624646797517
 30
0.0
 11
71.999999999999844
 21
161.89624646797517
 31
0.0
  0
ARC
  8
0
  6
CONTINUOUS
 62
               4
  5
3C3
 10
54.499999999999837
 20
146.36059271512238
 30
0.0
 40
19.999999999999996
 50
0.0
 51
31.788330617021373
  0
LINE
  8
0
  6
CONTINUOUS
 62
               4
  5
3C4
 10
71.500000000000298
 20
156.89624646797517
 30
0.0
 11
71.500000000000298
 21
161.89624646797574
 31
0.0
  0
LINE
  8
0
  6
CONTINUOUS
 62
               4
  5
3C5
 10
71.999999999999844
 20
161.89624646797517
 30
0.0
 11
71.500000000000298
 21
161.89624646797517
 31
0.0
  0
LINE
  8
0
  6
CONTINUOUS
 62
               4
  5
3C6
 10
76.750000000000071
 20
156.64624646797517
 30
0.0
 11
71.500000000000298
 21
161.89624646797517
 31
0.0
  0
LINE
  8
0
  6
CONTINUOUS
 62
               4
  5
3C7
 10
76.750000000000071
 20
156.64624646797517
 30
0.0
 11
76.999999999999844
 21
156.89624646797517
 31
0.0
  0
LINE
  8
0
  6
CONTINUOUS
 62
               4
  5
3C8
 10
76.999999999999844
 20
156.89624646797517
 30
0.0
 11
76.999999999999844
 21
-33.792430881994619
 31
0.0
  0
LINE
  8
0
  6
CONTINUOUS
 62
               4
  5
3C9
 10
76.750000000000071
 20
156.64624646797517
 30
0.0
 11
76.750000000000071
 21
-33.507073774859123
 31
0.0
  0
LINE
  8
0
  6
CONTINUOUS
 62
               4
  5
3CA
 10
74.499999999999844
 20
146.51361631223949
 30
0.0
 11
74.499999999999844
 21
-32.63940728487762
 31
0.0
  0
POINT
  8
0
  6
CONTINUOUS
 62
               4
  5
3CB
 10
-247.03776905046874
 20
-988.68070736971811
 30
0.0
  0
POINT
  8
0
  6
CONTINUOUS
 62
               4
  5
3CC
 10
-537.23776905046861
 20
-988.68070736971811
 30
0.0
  0
POINT
  8
0
  6
CONTINUOUS
 62
               4
  5
3CD
 10
-349.58372644623529
 20
-880.61282330068332
 30
0.0
  0
POINT
  8
0
  6
CONTINUOUS
 62
               4
  5
3CE
 10
242.83392368588096
 20
-988.68070736971811
 30
0.0
  0
POINT
  8
0
  6
CONTINUOUS
 62
               4
  5
3CF
 10
-1.0781087646048917
 20
-988.68070736971811
 30
0.0
  0
POINT
  8
0
  6
CONTINUOUS
 62
               4
  5
3D0
 10
165.37790746063814
 20
-900.72469114447551
 30
0.0
  0
LINE
  8
0
  6
CONTINUOUS
 62
               4
  5
3D1
 10
686.28652321630761
 20
-1380.4600517936587
 30
0.0
 11
681.28652321630761
 21
-1375.4600517936587
 31
0.0
  0
ARC
  8
0
  6
CONTINUOUS
 62
               4
  5
3D2
 10
663.78652321630761
 20
-1390.9957055465115
 30
0.0
 40
19.999999999999996
 50
0.0
 51
31.78833061703342
  0
LINE
  8
0
  6
CONTINUOUS
 62
               4
  5
3D3
 10
680.78652321630807
 20
-1380.4600517936587
 30
0.0
 11
680.78652321630807
 21
-1375.4600517936583
 31
0.0
  0
LINE
  8
0
  6
CONTINUOUS
 62
               4
  5
3D4
 10
681.28652321630761
 20
-1375.4600517936587
 30
0.0
 11
680.78652321630807
 21
-1375.4600517936587
 31
0.0
  0
LINE
  8
0
  6
CONTINUOUS
 62
               4
  5
3D5
 10
686.03652321630784
 20
-1380.7100517936587
 30
0.0
 11
680.78652321630807
 21
-1375.4600517936587
 31
0.0
  0
LINE
  8
0
  6
CONTINUOUS
 62
               4
  5
3D6
 10
686.03652321630784
 20
-1380.7100517936587
 30
0.0
 11
686.28652321630761
 21
-1380.4600517936587
 31
0.0
  0
LINE
  8
0
  6
CONTINUOUS
 62
               4
  5
3D7
 10
686.28652321630761
 20
-1380.4600517936587
 30
0.0
 11
686.28652321630761
 21
-1511.1487291436288
 31
0.0
  0
LINE
  8
0
  6
CONTINUOUS
 62
               4
  5
3D8
 10
686.03652321630784
 20
-1380.7100517936587
 30
0.0
 11
686.03652321630784
 21
-1510.8633720364933
 31
0.0
  0
LINE
  8
0
  6
CONTINUOUS
 62
               4
  5
3D9
 10
683.78652321630761
 20
-1390.8426819493943
 30
0.0
 11
683.78652321630761
 21
-1509.9957055465115
 31
0.0
  0
POINT
  8
0
  6
CONTINUOUS
 62
               4
  5
3DA
 10
653.78652321630784
 20
-1119.8962717979275
 30
0.0
  0
POINT
  8
0
  6
CONTINUOUS
 62
               4
  5
3DB
 10
464.88652321630781
 20
-1405.4957055465115
 30
0.0
  0
POINT
  8
0
  6
CONTINUOUS
 62
               4
  5
3DC
 10
464.88652321630792
 20
-1019.9962717979269
 30
0.0
  0
ARC
  8
0
  6
DIVIDE
 62
               4
  5
3DD
 10
-28.50000000000054
 20
-658.57238858904611
 30
0.0
 40
55.0
 50
58.789629707455902
 51
121.21037029244039
  0
ARC
  8
0
  6
DIVIDE
 62
               4
  5
3DE
 10
-28.50000000000054
 20
-564.49263518800853
 30
0.0
 40
55.0
 50
238.78962970735242
 51
301.21037029233673
  0
ARC
  8
0
  6
DIVIDE
 62
               4
  5
3DF
 10
-32.500000000000597
 20
-634.03500932432394
 30
0.0
 40
65.0
 50
59.999999999965368
 51
119.99999999993111
  0
ARC
  8
0
  6
DIVIDE
 62
               4
  5
3E0
 10
28.499999999999488
 20
-564.49263518800876
 30
0.0
 40
55.0
 50
238.78962970735247
 51
301.2103702923369
  0
ARC
  8
0
  6
DIVIDE
 62
               4
  5
3E1
 10
32.499999999999403
 20
-521.45170683234687
 30
0.0
 40
65.0
 50
239.99999999986198
 51
299.99999999982737
  0
LINE
  8
0
  6
DIVIDE
 62
               4
  5
3E2
 10
-57.000000000000483
 20
-573.82911260315541
 30
0.0
 11
-57.000000000000483
 21
-611.53251188852732
 31
0.0
  0
LINE
  8
0
  6
DIVIDE
 62
               4
  5
3E3
 10
56.999999999999574
 20
-581.6576035535154
 30
0.0
 11
56.999999999999574
 21
-611.53251188852732
 31
0.0
  0
ARC
  8
0
  6
DIVIDE
 62
               4
  5
3E4
 10
-32.500000000000597
 20
-521.4517068323471
 30
0.0
 40
65.0
 50
239.99999999986159
 51
247.85677929840926
  0
LINE
  8
0
  6
DIVIDE
 62
               4
  5
3E5
 10
64.999999999999375
 20
-491.63940728487648
 30
0.0
 11
64.999999999999375
 21
-577.7433580783354
 31
0.0
  0
LINE
  8
0
  6
DIVIDE
 62
               4
  5
3E6
 10
-65.000000000000597
 20
-491.63940728487648
 30
0.0
 11
-65.000000000000597
 21
-577.7433580783354
 31
0.0
  0
ARC
  8
0
  6
DIVIDE
 62
               4
  5
3E7
 10
-528.5
 20
-658.57238858904611
 30
0.0
 40
55.0
 50
58.789629707455944
 51
121.21037029244046
  0
ARC
  8
0
  6
DIVIDE
 62
               4
  5
3E8
 10
-528.5
 20
-564.49263518800853
 30
0.0
 40
55.0
 50
238.78962970735236
 51
301.21037029233673
  0
ARC
  8
0
  6
DIVIDE
 62
               4
  5
3E9
 10
-532.5
 20
-634.03500932432394
 30
0.0
 40
65.0
 50
59.999999999965361
 51
119.99999999993112
  0
ARC
  8
0
  6
DIVIDE
 62
               4
  5
3EA
 10
-471.49999999999994
 20
-564.49263518800876
 30
0.0
 40
55.0
 50
238.78962970735236
 51
301.21037029233696
  0
ARC
  8
0
  6
DIVIDE
 62
               4
  5
3EB
 10
-467.50000000000006
 20
-521.45170683234687
 30
0.0
 40
65.0
 50
239.99999999986204
 51
299.99999999982737
  0
LINE
  8
0
  6
DIVIDE
 62
               4
  5
3EC
 10
-557.0
 20
-573.82911260315541
 30
0.0
 11
-557.0
 21
-611.53251188852732
 31
0.0
  0
LINE
  8
0
  6
DIVIDE
 62
               4
  5
3ED
 10
-442.99999999999989
 20
-581.6576035535154
 30
0.0
 11
-442.99999999999989
 21
-611.53251188852732
 31
0.0
  0
ARC
  8
0
  6
DIVIDE
 62
               4
  5
3EE
 10
-532.5
 20
-521.4517068323471
 30
0.0
 40
65.0
 50
239.99999999986179
 51
247.85677929840924
  0
LINE
  8
0
  6
DIVIDE
 62
               4
  5
3EF
 10
-435.00000000000006
 20
-491.63940728487648
 30
0.0
 11
-435.00000000000006
 21
-577.7433580783354
 31
0.0
  0
LINE
  8
0
  6
DIVIDE
 62
               4
  5
3F0
 10
-565.0
 20
-491.63940728487648
 30
0.0
 11
-565.0
 21
-577.7433580783354
 31
0.0
  0
ARC
  8
0
  6
DIVIDE
 62
               4
  5
3F1
 10
471.5
 20
-658.57238858904611
 30
0.0
 40
55.0
 50
58.789629707455944
 51
121.21037029244046
  0
ARC
  8
0
  6
DIVIDE
 62
               4
  5
3F2
 10
471.5
 20
-564.49263518800853
 30
0.0
 40
55.0
 50
238.78962970735236
 51
301.21037029233673
  0
ARC
  8
0
  6
DIVIDE
 62
               4
  5
3F3
 10
467.49999999999989
 20
-634.03500932432394
 30
0.0
 40
65.0
 50
59.999999999965397
 51
119.99999999993112
  0
ARC
  8
0
  6
DIVIDE
 62
               4
  5
3F4
 10
528.50000000000011
 20
-564.49263518800876
 30
0.0
 40
55.0
 50
238.78962970735236
 51
301.21037029233702
  0
ARC
  8
0
  6
DIVIDE
 62
               4
  5
3F5
 10
532.49999999999989
 20
-521.45170683234687
 30
0.0
 40
65.0
 50
239.99999999986204
 51
299.99999999982737
  0
LINE
  8
0
  6
DIVIDE
 62
               4
  5
3F6
 10
443.00000000000006
 20
-573.82911260315541
 30
0.0
 11
443.00000000000006
 21
-611.53251188852732
 31
0.0
  0
LINE
  8
0
  6
DIVIDE
 62
               4
  5
3F7
 10
557.00000000000011
 20
-581.6576035535154
 30
0.0
 11
557.00000000000011
 21
-611.53251188852732
 31
0.0
  0
ARC
  8
0
  6
DIVIDE
 62
               4
  5
3F8
 10
467.49999999999989
 20
-521.4517068323471
 30
0.0
 40
65.0
 50
239.99999999986164
 51
247.85677929840926
  0
LINE
  8
0
  6
DIVIDE
 62
               4
  5
3F9
 10
564.99999999999989
 20
-491.63940728487648
 30
0.0
 11
564.99999999999989
 21
-577.7433580783354
 31
0.0
  0
LINE
  8
0
  6
DIVIDE
 62
               4
  5
3FA
 10
434.99999999999994
 20
-491.63940728487648
 30
0.0
 11
434.99999999999994
 21
-577.7433580783354
 31
0.0
  0
POINT
  8
0
  6
DASHDOT
 62
               5
  5
3FB
 10
-0.0000000000001279
 20
543.36059271512227
 30
0.0
  0
POINT
  8
0
  6
CONTINUOUS
 62
               5
  5
3FC
 10
-392.13776905046876
 20
-1033.1807073697182
 30
0.0
  0
POINT
  8
0
  6
CONTINUOUS
 62
               5
  5
3FD
 10
-218.90769754050842
 20
-1034.4715014446074
 30
0.0
  0
POINT
  8
0
  6
CONTINUOUS
 62
               5
  5
3FE
 10
-565.36784056042893
 20
-1034.4715014446069
 30
0.0
  0
POINT
  8
0
  6
CONTINUOUS
 62
               5
  5
3FF
 10
-395.37452052112434
 20
-852.482751790723
 30
0.0
  0
POINT
  8
0
  6
CONTINUOUS
 62
               5
  5
400
 10
493.01659472626812
 20
-1451.2864996214007
 30
0.0
  0
POINT
  8
0
  6
CONTINUOUS
 62
               5
  5
401
 10
493.01659472626824
 20
-974.20547772303814
 30
0.0
  0
CIRCLE
  8
0
  6
CONTINUOUS
 62
               7
  5
402
 10
-392.13776905046876
 20
-1039.6807073697182
 30
0.0
 40
38.0
  0
CIRCLE
  8
0
  6
CONTINUOUS
 62
               7
  5
403
 10
-392.13776905046876
 20
-1039.6807073697182
 30
0.0
 40
33.5
  0
LINE
  8
0
  6
CONTINUOUS
 62
               7
  5
404
 10
-247.63776905046876
 20
-988.68070736971811
 30
0.0
 11
-247.63776905046876
 21
-1077.6754712490438
 31
0.0
  0
LINE
  8
0
  6
CONTINUOUS
 62
               7
  5
405
 10
-247.03776905046874
 20
-988.68070736971811
 30
0.0
 11
-247.63776905046876
 21
-988.68070736971811
 31
0.0
  0
LINE
  8
0
  6
CONTINUOUS
 62
               7
  5
406
 10
-282.63776905046876
 20
-1076.6807073697182
 30
0.0
 11
-282.63776905046876
 21
-1002.6807073697181
 31
0.0
  0
LINE
  8
0
  6
CONTINUOUS
 62
               7
  5
407
 10
-189.63776905046876
 20
-1076.6807073697182
 30
0.0
 11
-189.63776905046876
 21
-989.68070736971811
 31
0.0
  0
LINE
  8
0
  6
CONTINUOUS
 62
               7
  5
408
 10
-247.63776905046876
 20
-988.68070736971811
 30
0.0
 11
-190.63776905046876
 21
-988.68070736971811
 31
0.0
  0
LINE
  8
0
  6
CONTINUOUS
 62
               7
  5
409
 10
-281.63776905046876
 20
-1077.6807073697182
 30
0.0
 11
-190.63776905046876
 21
-1077.6807073697182
 31
0.0
  0
LINE
  8
0
  6
CONTINUOUS
 62
               7
  5
40A
 10
-190.63776905046876
 20
-988.68070736971811
 30
0.0
 11
-189.63776905046876
 21
-989.68070736971811
 31
0.0
  0
LINE
  8
0
  6
CONTINUOUS
 62
               7
  5
40B
 10
-189.63776905046876
 20
-1076.6807073697182
 30
0.0
 11
-190.63776905046876
 21
-1077.6807073697182
 31
0.0
  0
LINE
  8
0
  6
CONTINUOUS
 62
               7
  5
40C
 10
-281.63776905046876
 20
-1001.6807073697181
 30
0.0
 11
-247.63776905046876
 21
-1001.6807073697181
 31
0.0
  0
CIRCLE
  8
0
  6
CONTINUOUS
 62
               7
  5
40D
 10
-392.13776905046876
 20
-1033.1807073697182
 30
0.0
 40
44.5
  0
LINE
  8
0
  6
CONTINUOUS
 62
               7
  5
40E
 10
-281.63776905046876
 20
-1001.6807073697181
 30
0.0
 11
-282.63776905046876
 21
-1002.6807073697181
 31
0.0
  0
LINE
  8
0
  6
CONTINUOUS
 62
               7
  5
40F
 10
-282.63776905046876
 20
-1076.6807073697182
 30
0.0
 11
-281.63776905046876
 21
-1077.6807073697182
 31
0.0
  0
LINE
  8
0
  6
CONTINUOUS
 62
               7
  5
410
 10
-536.63776905046871
 20
-988.68070736971811
 30
0.0
 11
-536.63776905046871
 21
-1077.6754712490438
 31
0.0
  0
LINE
  8
0
  6
CONTINUOUS
 62
               7
  5
411
 10
-537.23776905046861
 20
-988.68070736971811
 30
0.0
 11
-536.63776905046871
 21
-988.68070736971811
 31
0.0
  0
LINE
  8
0
  6
CONTINUOUS
 62
               7
  5
412
 10
-501.63776905046871
 20
-1076.6807073697182
 30
0.0
 11
-501.63776905046871
 21
-1002.6807073697181
 31
0.0
  0
LINE
  8
0
  6
CONTINUOUS
 62
               7
  5
413
 10
-594.63776905046871
 20
-1076.6807073697182
 30
0.0
 11
-594.63776905046871
 21
-989.68070736971811
 31
0.0
  0
LINE
  8
0
  6
CONTINUOUS
 62
               7
  5
414
 10
-536.63776905046871
 20
-988.68070736971811
 30
0.0
 11
-593.63776905046871
 21
-988.68070736971811
 31
0.0
  0
LINE
  8
0
  6
CONTINUOUS
 62
               7
  5
415
 10
-502.63776905046871
 20
-1077.6807073697182
 30
0.0
 11
-593.63776905046871
 21
-1077.6807073697182
 31
0.0
  0
LINE
  8
0
  6
CONTINUOUS
 62
               7
  5
416
 10
-593.63776905046871
 20
-988.68070736971811
 30
0.0
 11
-594.63776905046871
 21
-989.68070736971811
 31
0.0
  0
LINE
  8
0
  6
CONTINUOUS
 62
               7
  5
417
 10
-594.63776905046871
 20
-1076.6807073697182
 30
0.0
 11
-593.63776905046871
 21
-1077.6807073697182
 31
0.0
  0
LINE
  8
0
  6
CONTINUOUS
 62
               7
  5
418
 10
-502.63776905046871
 20
-1001.6807073697181
 30
0.0
 11
-536.63776905046871
 21
-1001.6807073697181
 31
0.0
  0
LINE
  8
0
  6
CONTINUOUS
 62
               7
  5
419
 10
-502.63776905046871
 20
-1001.6807073697181
 30
0.0
 11
-501.63776905046871
 21
-1002.6807073697181
 31
0.0
  0
LINE
  8
0
  6
CONTINUOUS
 62
               7
  5
41A
 10
-501.63776905046871
 20
-1076.6807073697182
 30
0.0
 11
-502.63776905046871
 21
-1077.6807073697182
 31
0.0
  0
LINE
  8
0
  6
CONTINUOUS
 62
               7
  5
41B
 10
-349.58372644623529
 20
-881.21282330068345
 30
0.0
 11
-438.57849032556078
 21
-881.21282330068323
 31
0.0
  0
LINE
  8
0
  6
CONTINUOUS
 62
               7
  5
41C
 10
-349.58372644623529
 20
-880.61282330068332
 30
0.0
 11
-349.58372644623529
 21
-881.21282330068345
 31
0.0
  0
LINE
  8
0
  6
CONTINUOUS
 62
               7
  5
41D
 10
-431.08372644623523
 20
-916.21282330068323
 30
0.0
 11
-357.08372644623529
 21
-916.21282330068345
 31
0.0
  0
LINE
  8
0
  6
CONTINUOUS
 62
               7
  5
41E
 10
-437.58372644623523
 20
-823.21282330068323
 30
0.0
 11
-350.58372644623529
 21
-823.21282330068345
 31
0.0
  0
LINE
  8
0
  6
CONTINUOUS
 62
               7
  5
41F
 10
-349.58372644623529
 20
-881.21282330068345
 30
0.0
 11
-349.58372644623529
 21
-824.21282330068345
 31
0.0
  0
LINE
  8
0
  6
CONTINUOUS
 62
               7
  5
420
 10
-432.08372644623523
 20
-915.21282330068323
 30
0.0
 11
-432.08372644623523
 21
-881.21282330068323
 31
0.0
  0
LINE
  8
0
  6
CONTINUOUS
 62
               7
  5
421
 10
-349.58372644623529
 20
-824.21282330068345
 30
0.0
 11
-350.58372644623529
 21
-823.21282330068345
 31
0.0
  0
LINE
  8
0
  6
CONTINUOUS
 62
               7
  5
422
 10
-437.58372644623523
 20
-823.21282330068323
 30
0.0
 11
-438.58372644623523
 21
-824.21282330068323
 31
0.0
  0
LINE
  8
0
  6
CONTINUOUS
 62
               7
  5
423
 10
-356.08372644623529
 20
-915.21282330068345
 30
0.0
 11
-356.08372644623529
 21
-881.21282330068323
 31
0.0
  0
LINE
  8
0
  6
CONTINUOUS
 62
               7
  5
424
 10
-356.08372644623529
 20
-915.21282330068345
 30
0.0
 11
-357.08372644623529
 21
-916.21282330068345
 31
0.0
  0
LINE
  8
0
  6
CONTINUOUS
 62
               7
  5
425
 10
-431.08372644623523
 20
-916.21282330068323
 30
0.0
 11
-432.08372644623523
 21
-915.21282330068323
 31
0.0
  0
LINE
  8
0
  6
CONTINUOUS
 62
               7
  5
426
 10
-438.58372644623523
 20
-881.21282330068323
 30
0.0
 11
-438.58372644623523
 21
-824.21282330068323
 31
0.0
  0
LINE
  8
0
  6
CONTINUOUS
 62
               7
  5
427
 10
216.63392368588092
 20
-1076.6807073697182
 30
0.0
 11
216.63392368588092
 21
-1018.6807073697181
 31
0.0
  0
LINE
  8
0
  6
CONTINUOUS
 62
               7
  5
428
 10
242.23392368588082
 20
-988.68070736971811
 30
0.0
 11
242.23392368588082
 21
-1077.6807073697182
 31
0.0
  0
LINE
  8
0
  6
CONTINUOUS
 62
               7
  5
429
 10
242.83392368588096
 20
-988.68070736971811
 30
0.0
 11
242.23392368588082
 21
-988.68070736971811
 31
0.0
  0
LINE
  8
0
  6
CONTINUOUS
 62
               7
  5
42A
 10
300.23392368588105
 20
-1076.6807073697182
 30
0.0
 11
300.23392368588105
 21
-989.68070736971811
 31
0.0
  0
CIRCLE
  8
0
  6
CONTINUOUS
 62
               7
  5
42B
 10
120.87790746063793
 20
-1047.6807073697182
 30
0.0
 40
30.0
  0
CIRCLE
  8
0
  6
CONTINUOUS
 62
               7
  5
42C
 10
120.87790746063793
 20
-1047.6807073697182
 30
0.0
 40
25.5
  0
CIRCLE
  8
0
  6
CONTINUOUS
 62
               7
  5
42D
 10
120.87790746063793
 20
-1033.1807073697182
 30
0.0
 40
44.5
  0
LINE
  8
0
  6
CONTINUOUS
 62
               7
  5
42E
 10
242.36837543136124
 20
-988.68070736971811
 30
0.0
 11
299.23392368588105
 21
-988.68070736971811
 31
0.0
  0
LINE
  8
0
  6
CONTINUOUS
 62
               7
  5
42F
 10
217.63392368588092
 20
-1077.6807073697182
 30
0.0
 11
299.23392368588105
 21
-1077.6807073697182
 31
0.0
  0
LINE
  8
0
  6
CONTINUOUS
 62
               7
  5
430
 10
217.63392368588092
 20
-1017.6807073697181
 30
0.0
 11
242.23392368588082
 21
-1017.6807073697181
 31
0.0
  0
LINE
  8
0
  6
CONTINUOUS
 62
               7
  5
431
 10
217.63392368588092
 20
-1017.6807073697181
 30
0.0
 11
216.63392368588092
 21
-1018.6807073697181
 31
0.0
  0
LINE
  8
0
  6
CONTINUOUS
 62
               7
  5
432
 10
299.23392368588105
 20
-988.68070736971811
 30
0.0
 11
300.23392368588105
 21
-989.68070736971811
 31
0.0
  0
LINE
  8
0
  6
CONTINUOUS
 62
               7
  5
433
 10
216.63392368588092
 20
-1076.6807073697182
 30
0.0
 11
217.63392368588092
 21
-1077.6807073697182
 31
0.0
  0
LINE
  8
0
  6
CONTINUOUS
 62
               7
  5
434
 10
300.23392368588105
 20
-1076.6807073697182
 30
0.0
 11
299.23392368588105
 21
-1077.6807073697182
 31
0.0
  0
LINE
  8
0
  6
CONTINUOUS
 62
               7
  5
435
 10
25.121891235395154
 20
-1076.6807073697182
 30
0.0
 11
25.121891235395154
 21
-1018.6807073697181
 31
0.0
  0
LINE
  8
0
  6
CONTINUOUS
 62
               7
  5
436
 10
-0.478108764604869
 20
-988.68070736971811
 30
0.0
 11
-0.478108764604869
 21
-1077.6807073697182
 31
0.0
  0
LINE
  8
0
  6
CONTINUOUS
 62
               7
  5
437
 10
-1.0781087646048917
 20
-988.68070736971811
 30
0.0
 11
-0.478108764604869
 21
-988.68070736971811
 31
0.0
  0
LINE
  8
0
  6
CONTINUOUS
 62
               7
  5
438
 10
-58.478108764604869
 20
-1076.6807073697182
 30
0.0
 11
-58.478108764604869
 21
-989.68070736971811
 31
0.0
  0
LINE
  8
0
  6
CONTINUOUS
 62
               7
  5
439
 10
-0.6125605100851743
 20
-988.68070736971811
 30
0.0
 11
-57.478108764604869
 21
-988.68070736971811
 31
0.0
  0
LINE
  8
0
  6
CONTINUOUS
 62
               7
  5
43A
 10
24.121891235395154
 20
-1077.6807073697182
 30
0.0
 11
-57.478108764604869
 21
-1077.6807073697182
 31
0.0
  0
LINE
  8
0
  6
CONTINUOUS
 62
               7
  5
43B
 10
24.121891235395154
 20
-1017.6807073697181
 30
0.0
 11
-0.478108764604869
 21
-1017.6807073697181
 31
0.0
  0
LINE
  8
0
  6
CONTINUOUS
 62
               7
  5
43C
 10
24.121891235395154
 20
-1017.6807073697181
 30
0.0
 11
25.121891235395154
 21
-1018.6807073697181
 31
0.0
  0
LINE
  8
0
  6
CONTINUOUS
 62
               7
  5
43D
 10
-57.478108764604869
 20
-988.68070736971811
 30
0.0
 11
-58.478108764604869
 21
-989.68070736971811
 31
0.0
  0
LINE
  8
0
  6
CONTINUOUS
 62
               7
  5
43E
 10
25.121891235395154
 20
-1076.6807073697182
 30
0.0
 11
24.121891235395154
 21
-1077.6807073697182
 31
0.0
  0
LINE
  8
0
  6
CONTINUOUS
 62
               7
  5
43F
 10
-58.478108764604869
 20
-1076.6807073697182
 30
0.0
 11
-57.478108764604869
 21
-1077.6807073697182
 31
0.0
  0
LINE
  8
0
  6
CONTINUOUS
 62
               7
  5
440
 10
91.877907460638156
 20
-926.92469114447556
 30
0.0
 11
149.87790746063814
 21
-926.92469114447556
 31
0.0
  0
LINE
  8
0
  6
CONTINUOUS
 62
               7
  5
441
 10
165.37790746063814
 20
-901.32469114447542
 30
0.0
 11
76.377907460638156
 21
-901.32469114447542
 31
0.0
  0
LINE
  8
0
  6
CONTINUOUS
 62
               7
  5
442
 10
165.37790746063814
 20
-900.72469114447551
 30
0.0
 11
165.37790746063814
 21
-901.32469114447542
 31
0.0
  0
LINE
  8
0
  6
CONTINUOUS
 62
               7
  5
443
 10
77.377907460638156
 20
-843.32469114447542
 30
0.0
 11
164.37790746063814
 21
-843.32469114447542
 31
0.0
  0
LINE
  8
0
  6
CONTINUOUS
 62
               7
  5
444
 10
165.37790746063814
 20
-901.19023939899523
 30
0.0
 11
165.37790746063814
 21
-844.32469114447542
 31
0.0
  0
LINE
  8
0
  6
CONTINUOUS
 62
               7
  5
445
 10
90.877907460638156
 20
-925.92469114447556
 30
0.0
 11
90.877907460638156
 21
-901.32469114447542
 31
0.0
  0
LINE
  8
0
  6
CONTINUOUS
 62
               7
  5
446
 10
150.87790746063814
 20
-925.92469114447556
 30
0.0
 11
150.87790746063814
 21
-901.32469114447542
 31
0.0
  0
LINE
  8
0
  6
CONTINUOUS
 62
               7
  5
447
 10
150.87790746063814
 20
-925.92469114447556
 30
0.0
 11
149.87790746063814
 21
-926.92469114447556
 31
0.0
  0
LINE
  8
0
  6
CONTINUOUS
 62
               7
  5
448
 10
165.37790746063814
 20
-844.32469114447542
 30
0.0
 11
164.37790746063814
 21
-843.32469114447542
 31
0.0
  0
LINE
  8
0
  6
CONTINUOUS
 62
               7
  5
449
 10
91.877907460638156
 20
-926.92469114447556
 30
0.0
 11
90.877907460638156
 21
-925.92469114447556
 31
0.0
  0
LINE
  8
0
  6
CONTINUOUS
 62
               7
  5
44A
 10
77.377907460638156
 20
-843.32469114447542
 30
0.0
 11
76.377907460638156
 21
-844.32469114447542
 31
0.0
  0
LINE
  8
0
  6
CONTINUOUS
 62
               7
  5
44B
 10
76.377907460638156
 20
-901.190239398995
 30
0.0
 11
76.377907460638156
 21
-844.32469114447542
 31
0.0
  0
CIRCLE
  8
0
  6
CONTINUOUS
 62
               7
  5
44C
 10
609.28652321630784
 20
-1464.4957055465115
 30
0.0
 40
25.5
  0
CIRCLE
  8
0
  6
CONTINUOUS
 62
               7
  5
44D
 10
609.28652321630784
 20
-1449.9957055465115
 30
0.0
 40
44.5
  0
CIRCLE
  8
0
  6
CONTINUOUS
 62
               7
  5
44E
 10
609.28652321630784
 20
-1464.4957055465115
 30
0.0
 40
30.0
  0
LINE
  8
0
  6
CONTINUOUS
 62
               7
  5
44F
 10
580.28652321630784
 20
-1146.0962717979273
 30
0.0
 11
638.28652321630784
 21
-1146.0962717979273
 31
0.0
  0
LINE
  8
0
  6
CONTINUOUS
 62
               7
  5
450
 10
653.78652321630784
 20
-1120.4962717979274
 30
0.0
 11
564.78652321630784
 21
-1120.4962717979274
 31
0.0
  0
LINE
  8
0
  6
CONTINUOUS
 62
               7
  5
451
 10
653.78652321630784
 20
-1119.8962717979275
 30
0.0
 11
653.78652321630784
 21
-1120.4962717979274
 31
0.0
  0
LINE
  8
0
  6
CONTINUOUS
 62
               7
  5
452
 10
565.78652321630784
 20
-1062.496271797927
 30
0.0
 11
652.78652321630784
 21
-1062.496271797927
 31
0.0
  0
LINE
  8
0
  6
CONTINUOUS
 62
               7
  5
453
 10
653.78652321630784
 20
-1120.361820052447
 30
0.0
 11
653.78652321630784
 21
-1063.496271797927
 31
0.0
  0
LINE
  8
0
  6
CONTINUOUS
 62
               7
  5
454
 10
579.28652321630784
 20
-1145.0962717979273
 30
0.0
 11
579.28652321630784
 21
-1120.4962717979274
 31
0.0
  0
LINE
  8
0
  6
CONTINUOUS
 62
               7
  5
455
 10
639.28652321630784
 20
-1145.0962717979273
 30
0.0
 11
639.28652321630784
 21
-1120.4962717979274
 31
0.0
  0
LINE
  8
0
  6
CONTINUOUS
 62
               7
  5
456
 10
639.28652321630784
 20
-1145.0962717979273
 30
0.0
 11
638.28652321630784
 21
-1146.0962717979273
 31
0.0
  0
LINE
  8
0
  6
CONTINUOUS
 62
               7
  5
457
 10
653.78652321630784
 20
-1063.496271797927
 30
0.0
 11
652.78652321630784
 21
-1062.496271797927
 31
0.0
  0
LINE
  8
0
  6
CONTINUOUS
 62
               7
  5
458
 10
580.28652321630784
 20
-1146.0962717979273
 30
0.0
 11
579.28652321630784
 21
-1145.0962717979273
 31
0.0
  0
LINE
  8
0
  6
CONTINUOUS
 62
               7
  5
459
 10
565.78652321630784
 20
-1062.496271797927
 30
0.0
 11
564.78652321630784
 21
-1063.496271797927
 31
0.0
  0
LINE
  8
0
  6
CONTINUOUS
 62
               7
  5
45A
 10
564.78652321630784
 20
-1120.361820052447
 30
0.0
 11
564.78652321630784
 21
-1063.496271797927
 31
0.0
  0
LINE
  8
0
  6
CONTINUOUS
 62
               7
  5
45B
 10
464.28652321630778
 20
-1405.4957055465115
 30
0.0
 11
464.28652321630778
 21
-1494.4904694258371
 31
0.0
  0
LINE
  8
0
  6
CONTINUOUS
 62
               7
  5
45C
 10
464.88652321630781
 20
-1405.4957055465115
 30
0.0
 11
464.28652321630778
 21
-1405.4957055465115
 31
0.0
  0
LINE
  8
0
  6
CONTINUOUS
 62
               7
  5
45D
 10
429.28652321630778
 20
-1493.4957055465115
 30
0.0
 11
429.28652321630778
 21
-1419.4957055465115
 31
0.0
  0
LINE
  8
0
  6
CONTINUOUS
 62
               7
  5
45E
 10
522.28652321630784
 20
-1493.4957055465115
 30
0.0
 11
522.28652321630784
 21
-1406.4957055465115
 31
0.0
  0
LINE
  8
0
  6
CONTINUOUS
 62
               7
  5
45F
 10
464.28652321630778
 20
-1405.4957055465115
 30
0.0
 11
521.28652321630784
 21
-1405.4957055465115
 31
0.0
  0
LINE
  8
0
  6
CONTINUOUS
 62
               7
  5
460
 10
430.28652321630778
 20
-1494.4957055465115
 30
0.0
 11
521.28652321630784
 21
-1494.4957055465115
 31
0.0
  0
LINE
  8
0
  6
CONTINUOUS
 62
               7
  5
461
 10
521.28652321630784
 20
-1405.4957055465115
 30
0.0
 11
522.28652321630784
 21
-1406.4957055465115
 31
0.0
  0
LINE
  8
0
  6
CONTINUOUS
 62
               7
  5
462
 10
522.28652321630784
 20
-1493.4957055465115
 30
0.0
 11
521.28652321630784
 21
-1494.4957055465115
 31
0.0
  0
LINE
  8
0
  6
CONTINUOUS
 62
               7
  5
463
 10
430.28652321630778
 20
-1418.4957055465115
 30
0.0
 11
464.28652321630778
 21
-1418.4957055465115
 31
0.0
  0
LINE
  8
0
  6
CONTINUOUS
 62
               7
  5
464
 10
430.28652321630778
 20
-1418.4957055465115
 30
0.0
 11
429.28652321630778
 21
-1419.4957055465115
 31
0.0
  0
LINE
  8
0
  6
CONTINUOUS
 62
               7
  5
465
 10
429.28652321630778
 20
-1493.4957055465115
 30
0.0
 11
430.28652321630778
 21
-1494.4957055465115
 31
0.0
  0
LINE
  8
0
  6
CONTINUOUS
 62
               7
  5
466
 10
464.28652321630778
 20
-1019.9962717979269
 30
0.0
 11
464.28652321630801
 21
-931.00150791860153
 31
0.0
  0
LINE
  8
0
  6
CONTINUOUS
 62
               7
  5
467
 10
464.88652321630792
 20
-1019.9962717979269
 30
0.0
 11
464.28652321630778
 21
-1019.9962717979269
 31
0.0
  0
LINE
  8
0
  6
CONTINUOUS
 62
               7
  5
468
 10
429.28652321630801
 20
-938.49627179792708
 30
0.0
 11
429.28652321630778
 21
-1012.4962717979269
 31
0.0
  0
LINE
  8
0
  6
CONTINUOUS
 62
               7
  5
469
 10
522.28652321630807
 20
-931.99627179792731
 30
0.0
 11
522.28652321630784
 21
-1018.9962717979269
 31
0.0
  0
LINE
  8
0
  6
CONTINUOUS
 62
               7
  5
46A
 10
464.28652321630778
 20
-1019.9962717979269
 30
0.0
 11
521.28652321630784
 21
-1019.9962717979269
 31
0.0
  0
LINE
  8
0
  6
CONTINUOUS
 62
               7
  5
46B
 10
430.28652321630801
 20
-937.49627179792708
 30
0.0
 11
464.28652321630801
 21
-937.49627179792708
 31
0.0
  0
LINE
  8
0
  6
CONTINUOUS
 62
               7
  5
46C
 10
521.28652321630784
 20
-1019.9962717979269
 30
0.0
 11
522.28652321630784
 21
-1018.9962717979269
 31
0.0
  0
LINE
  8
0
  6
CONTINUOUS
 62
               7
  5
46D
 10
522.28652321630807
 20
-931.99627179792731
 30
0.0
 11
521.28652321630807
 21
-930.99627179792731
 31
0.0
  0
LINE
  8
0
  6
CONTINUOUS
 62
               7
  5
46E
 10
430.28652321630778
 20
-1013.4962717979269
 30
0.0
 11
464.28652321630801
 21
-1013.4962717979269
 31
0.0
  0
LINE
  8
0
  6
CONTINUOUS
 62
               7
  5
46F
 10
430.28652321630778
 20
-1013.4962717979269
 30
0.0
 11
429.28652321630778
 21
-1012.4962717979269
 31
0.0
  0
LINE
  8
0
  6
CONTINUOUS
 62
               7
  5
470
 10
429.28652321630801
 20
-938.49627179792708
 30
0.0
 11
430.28652321630801
 21
-937.49627179792708
 31
0.0
  0
LINE
  8
0
  6
CONTINUOUS
 62
               7
  5
471
 10
464.28652321630801
 20
-930.99627179792708
 30
0.0
 11
521.28652321630807
 21
-930.99627179792708
 31
0.0
  0
CIRCLE
  8
0
  6
DASHED
 62
               7
  5
472
 10
-392.13776905046876
 20
-1033.1807073697182
 30
0.0
 40
40.0
  0
CIRCLE
  8
0
  6
DASHED
 62
               7
  5
473
 10
120.87790746063793
 20
-1033.1807073697182
 30
0.0
 40
40.0
  0
CIRCLE
  8
0
  6
DASHED
 62
               7
  5
474
 10
609.28652321630784
 20
-1449.9957055465115
 30
0.0
 40
40.0
  0
TEXT
  8
0
 62
               3
  5
475
 10
-392.13776905046876
 20
-1117.6807073697182
 30
0.0
 40
40.0
  1
EMB_80×65
 41
0.8
 72
               1
 11
-392.13776905046876
 21
-1117.6807073697182
 31
0.0
 73
               3
  0
TEXT
  8
0
 62
               3
  5
476
 10
120.87790746063793
 20
-1117.6807073697182
 30
0.0
 40
40.0
  1
EMB_80×50
 41
0.8
 72
               1
 11
120.87790746063793
 21
-1117.6807073697182
 31
0.0
 73
               3
  0
TEXT
  8
0
 62
               3
  5
477
 10
605.58911923866754
 20
-796.04990329270788
 30
0.0
 40
40.0
  1
EMB使用例
 41
0.8
 72
               1
 11
605.58911923866754
 21
-796.04990329270788
 31
0.0
 73
               3
  0
TEXT
  8
0
 62
               3
  5
478
 10
-123.74270409089094
 20
-741.68976739236848
 30
0.0
 40
35.0
  1
横枝管に呼び６５、５０の管を接続するときは、EMBをご使用ください。
 41
0.8
 72
               1
 11
-123.74270409089094
 21
-741.68976739236848
 31
0.0
 73
               3
  0
ENDSEC
  0
EOF
