  0
SECTION
  2
HEADER
  9
$ACADVER
  1
AC1009
  9
$INSBASE
 10
0.0
 20
0.0
 30
0.0
  9
$EXTMIN
 10
-794.08242028232848
 20
-1763.641507341966
 30
0.0
  9
$EXTMAX
 10
849.11757971767213
 20
869.22898585495966
 30
0.0
  9
$LIMMIN
 10
-845.43242028232851
 20
-1845.9187102543699
  9
$LIMMAX
 10
900.46757971767215
 20
951.5061887673636
  9
$ORTHOMODE
 70
               0
  9
$REGENMODE
 70
               1
  9
$FILLMODE
 70
               1
  9
$QTEXTMODE
 70
               0
  9
$MIRRTEXT
 70
               1
  9
$DRAGMODE
 70
               2
  9
$LTSCALE
 40
1.0
  9
$OSMODE
 70
               0
  9
$ATTMODE
 70
               1
  9
$TEXTSIZE
 40
0.2
  9
$TRACEWID
 40
0.05
  9
$TEXTSTYLE
  7
STANDARD
  9
$CLAYER
  8
0
  9
$CELTYPE
  6
CONTINUOUS
  9
$CECOLOR
 62
             256
  9
$DIMSCALE
 40
1.0
  9
$DIMASZ
 40
0.18
  9
$DIMEXO
 40
0.0625
  9
$DIMDLI
 40
0.38
  9
$DIMRND
 40
0.0
  9
$DIMDLE
 40
0.0
  9
$DIMEXE
 40
0.18
  9
$DIMTP
 40
0.0
  9
$DIMTM
 40
0.0
  9
$DIMTXT
 40
0.18
  9
$DIMCEN
 40
0.09
  9
$DIMTSZ
 40
0.0
  9
$DIMTOL
 70
               0
  9
$DIMLIM
 70
               0
  9
$DIMTIH
 70
               1
  9
$DIMTOH
 70
               1
  9
$DIMSE1
 70
               0
  9
$DIMSE2
 70
               0
  9
$DIMTAD
 70
               0
  9
$DIMZIN
 70
               0
  9
$DIMBLK
  1

  9
$DIMASO
 70
               1
  9
$DIMSHO
 70
               1
  9
$DIMPOST
  1

  9
$DIMAPOST
  1

  9
$DIMALT
 70
               0
  9
$DIMALTD
 70
               2
  9
$DIMALTF
 40
25.399999999999999
  9
$DIMLFAC
 40
1.0
  9
$DIMTOFL
 70
               0
  9
$DIMTVP
 40
0.0
  9
$DIMTIX
 70
               0
  9
$DIMSOXD
 70
               0
  9
$DIMSAH
 70
               0
  9
$DIMBLK1
  1

  9
$DIMBLK2
  1

  9
$DIMSTYLE
  2
STANDARD
  9
$DIMCLRD
 70
               0
  9
$DIMCLRE
 70
               0
  9
$DIMCLRT
 70
               0
  9
$DIMTFAC
 40
1.0
  9
$DIMGAP
 40
0.09
  9
$LUNITS
 70
               2
  9
$LUPREC
 70
               4
  9
$AXISMODE
 70
               0
  9
$AXISUNIT
 10
0.0
 20
0.0
  9
$SKETCHINC
 40
0.1
  9
$FILLETRAD
 40
0.0
  9
$AUNITS
 70
               0
  9
$AUPREC
 70
               0
  9
$MENU
  1
acad
  9
$ELEVATION
 40
0.0
  9
$PELEVATION
 40
0.0
  9
$THICKNESS
 40
0.0
  9
$LIMCHECK
 70
               0
  9
$BLIPMODE
 70
               1
  9
$CHAMFERA
 40
0.0
  9
$CHAMFERB
 40
0.0
  9
$SKPOLY
 70
               0
  9
$TDCREATE
 40
0.000000000
  9
$TDUPDATE
 40
0.000000000
  9
$TDINDWG
 40
0.0000000000
  9
$TDUSRTIMER
 40
0.0000000000
  9
$USRTIMER
 70
               1
  9
$ANGBASE
 50
0.0
  9
$ANGDIR
 70
               0
  9
$PDMODE
 70
               0
  9
$PDSIZE
 40
1.0
  9
$PLINEWID
 40
0.0
  9
$COORDS
 70
               1
  9
$SPLFRAME
 70
               0
  9
$SPLINETYPE
 70
               6
  9
$SPLINESEGS
 70
               8
  9
$ATTDIA
 70
               0
  9
$ATTREQ
 70
               1
  9
$HANDLING
 70
               1
  9
$HANDSEED
  5
5DC
  9
$SURFTAB1
 70
               6
  9
$SURFTAB2
 70
               6
  9
$SURFTYPE
 70
               6
  9
$SURFU
 70
               6
  9
$SURFV
 70
               6
  9
$UCSNAME
  2

  9
$UCSORG
 10
0.0
 20
0.0
 30
0.0
  9
$UCSXDIR
 10
1.0
 20
0.0
 30
0.0
  9
$UCSYDIR
 10
0.0
 20
1.0
 30
0.0
  9
$PUCSNAME
  2

  9
$PUCSORG
 10
0.0
 20
0.0
 30
0.0
  9
$PUCSXDIR
 10
1.0
 20
0.0
 30
0.0
  9
$PUCSYDIR
 10
0.0
 20
1.0
 30
0.0
  9
$USERI1
 70
               0
  9
$USERI2
 70
               0
  9
$USERI3
 70
               0
  9
$USERI4
 70
               0
  9
$USERI5
 70
               0
  9
$USERR1
 40
0.0
  9
$USERR2
 40
0.0
  9
$USERR3
 40
0.0
  9
$USERR4
 40
0.0
  9
$USERR5
 40
0.0
  9
$WORLDVIEW
 70
               1
  9
$SHADEDGE
 70
               3
  9
$SHADEDIF
 70
              70
  9
$TILEMODE
 70
               1
  9
$MAXACTVP
 70
              16
  9
$PINSBASE
 10
0.0
 20
0.0
 30
0.0
  9
$PLIMCHECK
 70
               0
  9
$PEXTMIN
 10
1.0000000000000000E+20
 20
1.0000000000000000E+20
 30
1.0000000000000000E+20
  9
$PEXTMAX
 10
-1.0000000000000000E+20
 20
-1.0000000000000000E+20
 30
-1.0000000000000000E+20
  9
$PLIMMIN
 10
0.0
 20
0.0
  9
$PLIMMAX
 10
12.0
 20
9.0
  9
$UNITMODE
 70
               0
  9
$VISRETAIN
 70
               0
  9
$PLINEGEN
 70
               1
  9
$PSLTSCALE
 70
               0
  9
$TREEDEPTH
 70
            3020
  9
$DWGCODEPAGE
  3
dos932
  0
ENDSEC
  0
SECTION
  2
TABLES
  0
TABLE
  2
VPORT
 70
               1
  0
VPORT
  2
*ACTIVE
 70
               0
 10
0.0
 20
0.0
 11
1.0
 21
1.0
 12
27.517579717671822
 22
-447.20626074350315
 13
0.0
 23
0.0
 14
1.0
 24
1.0
 15
0.0
 25
0.0
 16
0.0
 26
0.0
 36
1.0
 17
0.0
 27
0.0
 37
0.0
 40
2797.4248990217334
 41
0.6241096948163099
 42
50.0
 43
0.0
 44
0.0
 50
0.0
 51
0.0
 71
               0
 72
             100
 73
               1
 74
               1
 75
               0
 76
               0
 77
               0
 78
               0
  0
ENDTAB
  0
TABLE
  2
LTYPE
 70
              26
  0
LTYPE
  2
CONTINUOUS
 70
               0
  3
Solid line
 72
              65
 73
               0
 40
0.0
  0
LTYPE
  2
HIDDENX2
 70
               0
  3
CADPAC FUSION LINETYPE
 72
              65
 73
               2
 40
80.0
 49
60.0
 49
-20.0
  0
LTYPE
  2
HIDDEN
 70
               0
  3
CADPAC FUSION LINETYPE
 72
              65
 73
               2
 40
60.0
 49
40.0
 49
-20.0
  0
LTYPE
  2
HIDDEN2
 70
               0
  3
CADPAC FUSION LINETYPE
 72
              65
 73
               2
 40
50.0
 49
30.0
 49
-20.0
  0
LTYPE
  2
DASHED
 70
               0
  3
CADPAC FUSION LINETYPE
 72
              65
 73
               2
 40
60.0
 49
40.0
 49
-20.0
  0
LTYPE
  2
DASHED2
 70
               0
  3
CADPAC FUSION LINETYPE
 72
              65
 73
               2
 40
45.0
 49
30.0
 49
-15.0
  0
LTYPE
  2
DASHEDX2
 70
               0
  3
CADPAC FUSION LINETYPE
 72
              65
 73
               2
 40
90.0
 49
60.0
 49
-30.0
  0
LTYPE
  2
DOTX2
 70
               0
  3
CADPAC FUSION LINETYPE
 72
              65
 73
               2
 40
25.0
 49
0.0
 49
-25.0
  0
LTYPE
  2
DOT
 70
               0
  3
CADPAC FUSION LINETYPE
 72
              65
 73
               2
 40
20.0
 49
0.0
 49
-20.0
  0
LTYPE
  2
DOTS
 70
               0
  3
CADPAC FUSION LINETYPE
 72
              65
 73
               2
 40
20.0
 49
0.0
 49
-20.0
  0
LTYPE
  2
DOT2
 70
               0
  3
CADPAC FUSION LINETYPE
 72
              65
 73
               2
 40
15.0
 49
0.0
 49
-15.0
  0
LTYPE
  2
CENTERX2
 70
               0
  3
CADPAC FUSION LINETYPE
 72
              65
 73
               4
 40
120.0
 49
50.0
 49
-25.0
 49
20.0
 49
-25.0
  0
LTYPE
  2
CENTER
 70
               0
  3
CADPAC FUSION LINETYPE
 72
              65
 73
               4
 40
92.0
 49
40.0
 49
-20.0
 49
12.0
 49
-20.0
  0
LTYPE
  2
CENTER2
 70
               0
  3
CADPAC FUSION LINETYPE
 72
              65
 73
               4
 40
64.0
 49
30.0
 49
-15.0
 49
4.0
 49
-15.0
  0
LTYPE
  2
DASHDOTX2
 70
               0
  3
CADPAC FUSION LINETYPE
 72
              65
 73
               4
 40
100.0
 49
50.0
 49
-25.0
 49
0.0
 49
-25.0
  0
LTYPE
  2
DASHDOT
 70
               0
  3
CADPAC FUSION LINETYPE
 72
              65
 73
               4
 40
80.0
 49
40.0
 49
-20.0
 49
0.0
 49
-20.0
  0
LTYPE
  2
DASHDOT2
 70
               0
  3
CADPAC FUSION LINETYPE
 72
              65
 73
               4
 40
60.0
 49
30.0
 49
-15.0
 49
0.0
 49
-15.0
  0
LTYPE
  2
DIVIDEX2
 70
               0
  3
CADPAC FUSION LINETYPE
 72
              65
 73
               6
 40
125.0
 49
50.0
 49
-25.0
 49
0.0
 49
-25.0
 49
0.0
 49
-25.0
  0
LTYPE
  2
DIVIDE
 70
               0
  3
CADPAC FUSION LINETYPE
 72
              65
 73
               6
 40
100.0
 49
40.0
 49
-20.0
 49
0.0
 49
-20.0
 49
0.0
 49
-20.0
  0
LTYPE
  2
DIVIDE2
 70
               0
  3
CADPAC FUSION LINETYPE
 72
              65
 73
               6
 40
75.0
 49
30.0
 49
-15.0
 49
0.0
 49
-15.0
 49
0.0
 49
-15.0
  0
LTYPE
  2
BORDERX2
 70
               0
  3
CADPAC FUSION LINETYPE
 72
              65
 73
               6
 40
175.0
 49
50.0
 49
-25.0
 49
50.0
 49
-25.0
 49
0.0
 49
-25.0
  0
LTYPE
  2
BORDER
 70
               0
  3
CADPAC FUSION LINETYPE
 72
              65
 73
               6
 40
140.0
 49
40.0
 49
-20.0
 49
40.0
 49
-20.0
 49
0.0
 49
-20.0
  0
LTYPE
  2
BORDER2
 70
               0
  3
CADPAC FUSION LINETYPE
 72
              65
 73
               6
 40
105.0
 49
30.0
 49
-15.0
 49
30.0
 49
-15.0
 49
0.0
 49
-15.0
  0
LTYPE
  2
PHANTOMX2
 70
               0
  3
CADPAC FUSION LINETYPE
 72
              65
 73
               6
 40
150.0
 49
50.0
 49
-20.0
 49
20.0
 49
-20.0
 49
20.0
 49
-20.0
  0
LTYPE
  2
PHANTOM
 70
               0
  3
CADPAC FUSION LINETYPE
 72
              65
 73
               6
 40
124.0
 49
40.0
 49
-20.0
 49
12.0
 49
-20.0
 49
12.0
 49
-20.0
  0
LTYPE
  2
PHANTOM2
 70
               0
  3
CADPAC FUSION LINETYPE
 72
              65
 73
               6
 40
106.0
 49
30.0
 49
-20.0
 49
8.0
 49
-20.0
 49
8.0
 49
-20.0
  0
ENDTAB
  0
TABLE
  2
LAYER
 70
             256
  0
LAYER
  2
0
 70
               0
 62
               7
  6
CONTINUOUS
  0
LAYER
  2
LAYER001
 70
               0
 62
               7
  6
CONTINUOUS
  0
LAYER
  2
LAYER002
 70
               0
 62
               7
  6
CONTINUOUS
  0
LAYER
  2
LAYER003
 70
               0
 62
               7
  6
CONTINUOUS
  0
LAYER
  2
LAYER004
 70
               0
 62
               7
  6
CONTINUOUS
  0
LAYER
  2
LAYER005
 70
               0
 62
               7
  6
CONTINUOUS
  0
LAYER
  2
LAYER006
 70
               0
 62
               7
  6
CONTINUOUS
  0
LAYER
  2
LAYER007
 70
               0
 62
               7
  6
CONTINUOUS
  0
LAYER
  2
LAYER008
 70
               0
 62
               7
  6
CONTINUOUS
  0
LAYER
  2
LAYER009
 70
               0
 62
               7
  6
CONTINUOUS
  0
LAYER
  2
LAYER010
 70
               0
 62
               7
  6
CONTINUOUS
  0
LAYER
  2
LAYER011
 70
               0
 62
               7
  6
CONTINUOUS
  0
LAYER
  2
LAYER012
 70
               0
 62
               7
  6
CONTINUOUS
  0
LAYER
  2
LAYER013
 70
               0
 62
               7
  6
CONTINUOUS
  0
LAYER
  2
LAYER014
 70
               0
 62
               7
  6
CONTINUOUS
  0
LAYER
  2
LAYER015
 70
               0
 62
               7
  6
CONTINUOUS
  0
LAYER
  2
LAYER016
 70
               0
 62
               7
  6
CONTINUOUS
  0
LAYER
  2
LAYER017
 70
               0
 62
               7
  6
CONTINUOUS
  0
LAYER
  2
LAYER018
 70
               0
 62
               7
  6
CONTINUOUS
  0
LAYER
  2
LAYER019
 70
               0
 62
               7
  6
CONTINUOUS
  0
LAYER
  2
LAYER020
 70
               0
 62
               7
  6
CONTINUOUS
  0
LAYER
  2
LAYER021
 70
               0
 62
               7
  6
CONTINUOUS
  0
LAYER
  2
LAYER022
 70
               0
 62
               7
  6
CONTINUOUS
  0
LAYER
  2
LAYER023
 70
               0
 62
               7
  6
CONTINUOUS
  0
LAYER
  2
LAYER024
 70
               0
 62
               7
  6
CONTINUOUS
  0
LAYER
  2
LAYER025
 70
               0
 62
               7
  6
CONTINUOUS
  0
LAYER
  2
LAYER026
 70
               0
 62
               7
  6
CONTINUOUS
  0
LAYER
  2
LAYER027
 70
               0
 62
               7
  6
CONTINUOUS
  0
LAYER
  2
LAYER028
 70
               0
 62
               7
  6
CONTINUOUS
  0
LAYER
  2
LAYER029
 70
               0
 62
               7
  6
CONTINUOUS
  0
LAYER
  2
LAYER030
 70
               0
 62
               7
  6
CONTINUOUS
  0
LAYER
  2
LAYER031
 70
               0
 62
               7
  6
CONTINUOUS
  0
LAYER
  2
LAYER032
 70
               0
 62
               7
  6
CONTINUOUS
  0
LAYER
  2
LAYER033
 70
               0
 62
               7
  6
CONTINUOUS
  0
LAYER
  2
LAYER034
 70
               0
 62
               7
  6
CONTINUOUS
  0
LAYER
  2
LAYER035
 70
               0
 62
               7
  6
CONTINUOUS
  0
LAYER
  2
LAYER036
 70
               0
 62
               7
  6
CONTINUOUS
  0
LAYER
  2
LAYER037
 70
               0
 62
               7
  6
CONTINUOUS
  0
LAYER
  2
LAYER038
 70
               0
 62
               7
  6
CONTINUOUS
  0
LAYER
  2
LAYER039
 70
               0
 62
               7
  6
CONTINUOUS
  0
LAYER
  2
LAYER040
 70
               0
 62
               7
  6
CONTINUOUS
  0
LAYER
  2
LAYER041
 70
               0
 62
               7
  6
CONTINUOUS
  0
LAYER
  2
LAYER042
 70
               0
 62
               7
  6
CONTINUOUS
  0
LAYER
  2
LAYER043
 70
               0
 62
               7
  6
CONTINUOUS
  0
LAYER
  2
LAYER044
 70
               0
 62
               7
  6
CONTINUOUS
  0
LAYER
  2
LAYER045
 70
               0
 62
               7
  6
CONTINUOUS
  0
LAYER
  2
LAYER046
 70
               0
 62
               7
  6
CONTINUOUS
  0
LAYER
  2
LAYER047
 70
               0
 62
               7
  6
CONTINUOUS
  0
LAYER
  2
LAYER048
 70
               0
 62
               7
  6
CONTINUOUS
  0
LAYER
  2
LAYER049
 70
               0
 62
               7
  6
CONTINUOUS
  0
LAYER
  2
LAYER050
 70
               0
 62
               7
  6
CONTINUOUS
  0
LAYER
  2
LAYER051
 70
               0
 62
               7
  6
CONTINUOUS
  0
LAYER
  2
LAYER052
 70
               0
 62
               7
  6
CONTINUOUS
  0
LAYER
  2
LAYER053
 70
               0
 62
               7
  6
CONTINUOUS
  0
LAYER
  2
LAYER054
 70
               0
 62
               7
  6
CONTINUOUS
  0
LAYER
  2
LAYER055
 70
               0
 62
               7
  6
CONTINUOUS
  0
LAYER
  2
LAYER056
 70
               0
 62
               7
  6
CONTINUOUS
  0
LAYER
  2
LAYER057
 70
               0
 62
               7
  6
CONTINUOUS
  0
LAYER
  2
LAYER058
 70
               0
 62
               7
  6
CONTINUOUS
  0
LAYER
  2
LAYER059
 70
               0
 62
               7
  6
CONTINUOUS
  0
LAYER
  2
LAYER060
 70
               0
 62
               7
  6
CONTINUOUS
  0
LAYER
  2
LAYER061
 70
               0
 62
               7
  6
CONTINUOUS
  0
LAYER
  2
LAYER062
 70
               0
 62
               7
  6
CONTINUOUS
  0
LAYER
  2
LAYER063
 70
               0
 62
               7
  6
CONTINUOUS
  0
LAYER
  2
LAYER064
 70
               0
 62
               7
  6
CONTINUOUS
  0
LAYER
  2
LAYER065
 70
               0
 62
               7
  6
CONTINUOUS
  0
LAYER
  2
LAYER066
 70
               0
 62
               7
  6
CONTINUOUS
  0
LAYER
  2
LAYER067
 70
               0
 62
               7
  6
CONTINUOUS
  0
LAYER
  2
LAYER068
 70
               0
 62
               7
  6
CONTINUOUS
  0
LAYER
  2
LAYER069
 70
               0
 62
               7
  6
CONTINUOUS
  0
LAYER
  2
LAYER070
 70
               0
 62
               7
  6
CONTINUOUS
  0
LAYER
  2
LAYER071
 70
               0
 62
               7
  6
CONTINUOUS
  0
LAYER
  2
LAYER072
 70
               0
 62
               7
  6
CONTINUOUS
  0
LAYER
  2
LAYER073
 70
               0
 62
               7
  6
CONTINUOUS
  0
LAYER
  2
LAYER074
 70
               0
 62
               7
  6
CONTINUOUS
  0
LAYER
  2
LAYER075
 70
               0
 62
               7
  6
CONTINUOUS
  0
LAYER
  2
LAYER076
 70
               0
 62
               7
  6
CONTINUOUS
  0
LAYER
  2
LAYER077
 70
               0
 62
               7
  6
CONTINUOUS
  0
LAYER
  2
LAYER078
 70
               0
 62
               7
  6
CONTINUOUS
  0
LAYER
  2
LAYER079
 70
               0
 62
               7
  6
CONTINUOUS
  0
LAYER
  2
LAYER080
 70
               0
 62
               7
  6
CONTINUOUS
  0
LAYER
  2
LAYER081
 70
               0
 62
               7
  6
CONTINUOUS
  0
LAYER
  2
LAYER082
 70
               0
 62
               7
  6
CONTINUOUS
  0
LAYER
  2
LAYER083
 70
               0
 62
               7
  6
CONTINUOUS
  0
LAYER
  2
LAYER084
 70
               0
 62
               7
  6
CONTINUOUS
  0
LAYER
  2
LAYER085
 70
               0
 62
               7
  6
CONTINUOUS
  0
LAYER
  2
LAYER086
 70
               0
 62
               7
  6
CONTINUOUS
  0
LAYER
  2
LAYER087
 70
               0
 62
               7
  6
CONTINUOUS
  0
LAYER
  2
LAYER088
 70
               0
 62
               7
  6
CONTINUOUS
  0
LAYER
  2
LAYER089
 70
               0
 62
               7
  6
CONTINUOUS
  0
LAYER
  2
LAYER090
 70
               0
 62
               7
  6
CONTINUOUS
  0
LAYER
  2
LAYER091
 70
               0
 62
               7
  6
CONTINUOUS
  0
LAYER
  2
LAYER092
 70
               0
 62
               7
  6
CONTINUOUS
  0
LAYER
  2
LAYER093
 70
               0
 62
               7
  6
CONTINUOUS
  0
LAYER
  2
LAYER094
 70
               0
 62
               7
  6
CONTINUOUS
  0
LAYER
  2
LAYER095
 70
               0
 62
               7
  6
CONTINUOUS
  0
LAYER
  2
LAYER096
 70
               0
 62
               7
  6
CONTINUOUS
  0
LAYER
  2
LAYER097
 70
               0
 62
               7
  6
CONTINUOUS
  0
LAYER
  2
LAYER098
 70
               0
 62
               7
  6
CONTINUOUS
  0
LAYER
  2
LAYER099
 70
               0
 62
               7
  6
CONTINUOUS
  0
LAYER
  2
LAYER100
 70
               0
 62
               7
  6
CONTINUOUS
  0
LAYER
  2
LAYER101
 70
               0
 62
               7
  6
CONTINUOUS
  0
LAYER
  2
LAYER102
 70
               0
 62
               7
  6
CONTINUOUS
  0
LAYER
  2
LAYER103
 70
               0
 62
               7
  6
CONTINUOUS
  0
LAYER
  2
LAYER104
 70
               0
 62
               7
  6
CONTINUOUS
  0
LAYER
  2
LAYER105
 70
               0
 62
               7
  6
CONTINUOUS
  0
LAYER
  2
LAYER106
 70
               0
 62
               7
  6
CONTINUOUS
  0
LAYER
  2
LAYER107
 70
               0
 62
               7
  6
CONTINUOUS
  0
LAYER
  2
LAYER108
 70
               0
 62
               7
  6
CONTINUOUS
  0
LAYER
  2
LAYER109
 70
               0
 62
               7
  6
CONTINUOUS
  0
LAYER
  2
LAYER110
 70
               0
 62
               7
  6
CONTINUOUS
  0
LAYER
  2
LAYER111
 70
               0
 62
               7
  6
CONTINUOUS
  0
LAYER
  2
LAYER112
 70
               0
 62
               7
  6
CONTINUOUS
  0
LAYER
  2
LAYER113
 70
               0
 62
               7
  6
CONTINUOUS
  0
LAYER
  2
LAYER114
 70
               0
 62
               7
  6
CONTINUOUS
  0
LAYER
  2
LAYER115
 70
               0
 62
               7
  6
CONTINUOUS
  0
LAYER
  2
LAYER116
 70
               0
 62
               7
  6
CONTINUOUS
  0
LAYER
  2
LAYER117
 70
               0
 62
               7
  6
CONTINUOUS
  0
LAYER
  2
LAYER118
 70
               0
 62
               7
  6
CONTINUOUS
  0
LAYER
  2
LAYER119
 70
               0
 62
               7
  6
CONTINUOUS
  0
LAYER
  2
LAYER120
 70
               0
 62
               7
  6
CONTINUOUS
  0
LAYER
  2
LAYER121
 70
               0
 62
               7
  6
CONTINUOUS
  0
LAYER
  2
LAYER122
 70
               0
 62
               7
  6
CONTINUOUS
  0
LAYER
  2
LAYER123
 70
               0
 62
               7
  6
CONTINUOUS
  0
LAYER
  2
LAYER124
 70
               0
 62
               7
  6
CONTINUOUS
  0
LAYER
  2
LAYER125
 70
               0
 62
               7
  6
CONTINUOUS
  0
LAYER
  2
LAYER126
 70
               0
 62
               7
  6
CONTINUOUS
  0
LAYER
  2
LAYER127
 70
               0
 62
               7
  6
CONTINUOUS
  0
LAYER
  2
LAYER128
 70
               0
 62
               7
  6
CONTINUOUS
  0
LAYER
  2
LAYER129
 70
               0
 62
               7
  6
CONTINUOUS
  0
LAYER
  2
LAYER130
 70
               0
 62
               7
  6
CONTINUOUS
  0
LAYER
  2
LAYER131
 70
               0
 62
               7
  6
CONTINUOUS
  0
LAYER
  2
LAYER132
 70
               0
 62
               7
  6
CONTINUOUS
  0
LAYER
  2
LAYER133
 70
               0
 62
               7
  6
CONTINUOUS
  0
LAYER
  2
LAYER134
 70
               0
 62
               7
  6
CONTINUOUS
  0
LAYER
  2
LAYER135
 70
               0
 62
               7
  6
CONTINUOUS
  0
LAYER
  2
LAYER136
 70
               0
 62
               7
  6
CONTINUOUS
  0
LAYER
  2
LAYER137
 70
               0
 62
               7
  6
CONTINUOUS
  0
LAYER
  2
LAYER138
 70
               0
 62
               7
  6
CONTINUOUS
  0
LAYER
  2
LAYER139
 70
               0
 62
               7
  6
CONTINUOUS
  0
LAYER
  2
LAYER140
 70
               0
 62
               7
  6
CONTINUOUS
  0
LAYER
  2
LAYER141
 70
               0
 62
               7
  6
CONTINUOUS
  0
LAYER
  2
LAYER142
 70
               0
 62
               7
  6
CONTINUOUS
  0
LAYER
  2
LAYER143
 70
               0
 62
               7
  6
CONTINUOUS
  0
LAYER
  2
LAYER144
 70
               0
 62
               7
  6
CONTINUOUS
  0
LAYER
  2
LAYER145
 70
               0
 62
               7
  6
CONTINUOUS
  0
LAYER
  2
LAYER146
 70
               0
 62
               7
  6
CONTINUOUS
  0
LAYER
  2
LAYER147
 70
               0
 62
               7
  6
CONTINUOUS
  0
LAYER
  2
LAYER148
 70
               0
 62
               7
  6
CONTINUOUS
  0
LAYER
  2
LAYER149
 70
               0
 62
               7
  6
CONTINUOUS
  0
LAYER
  2
LAYER150
 70
               0
 62
               7
  6
CONTINUOUS
  0
LAYER
  2
LAYER151
 70
               0
 62
               7
  6
CONTINUOUS
  0
LAYER
  2
LAYER152
 70
               0
 62
               7
  6
CONTINUOUS
  0
LAYER
  2
LAYER153
 70
               0
 62
               7
  6
CONTINUOUS
  0
LAYER
  2
LAYER154
 70
               0
 62
               7
  6
CONTINUOUS
  0
LAYER
  2
LAYER155
 70
               0
 62
               7
  6
CONTINUOUS
  0
LAYER
  2
LAYER156
 70
               0
 62
               7
  6
CONTINUOUS
  0
LAYER
  2
LAYER157
 70
               0
 62
               7
  6
CONTINUOUS
  0
LAYER
  2
LAYER158
 70
               0
 62
               7
  6
CONTINUOUS
  0
LAYER
  2
LAYER159
 70
               0
 62
               7
  6
CONTINUOUS
  0
LAYER
  2
LAYER160
 70
               0
 62
               7
  6
CONTINUOUS
  0
LAYER
  2
LAYER161
 70
               0
 62
               7
  6
CONTINUOUS
  0
LAYER
  2
LAYER162
 70
               0
 62
               7
  6
CONTINUOUS
  0
LAYER
  2
LAYER163
 70
               0
 62
               7
  6
CONTINUOUS
  0
LAYER
  2
LAYER164
 70
               0
 62
               7
  6
CONTINUOUS
  0
LAYER
  2
LAYER165
 70
               0
 62
               7
  6
CONTINUOUS
  0
LAYER
  2
LAYER166
 70
               0
 62
               7
  6
CONTINUOUS
  0
LAYER
  2
LAYER167
 70
               0
 62
               7
  6
CONTINUOUS
  0
LAYER
  2
LAYER168
 70
               0
 62
               7
  6
CONTINUOUS
  0
LAYER
  2
LAYER169
 70
               0
 62
               7
  6
CONTINUOUS
  0
LAYER
  2
LAYER170
 70
               0
 62
               7
  6
CONTINUOUS
  0
LAYER
  2
LAYER171
 70
               0
 62
               7
  6
CONTINUOUS
  0
LAYER
  2
LAYER172
 70
               0
 62
               7
  6
CONTINUOUS
  0
LAYER
  2
LAYER173
 70
               0
 62
               7
  6
CONTINUOUS
  0
LAYER
  2
LAYER174
 70
               0
 62
               7
  6
CONTINUOUS
  0
LAYER
  2
LAYER175
 70
               0
 62
               7
  6
CONTINUOUS
  0
LAYER
  2
LAYER176
 70
               0
 62
               7
  6
CONTINUOUS
  0
LAYER
  2
LAYER177
 70
               0
 62
               7
  6
CONTINUOUS
  0
LAYER
  2
LAYER178
 70
               0
 62
               7
  6
CONTINUOUS
  0
LAYER
  2
LAYER179
 70
               0
 62
               7
  6
CONTINUOUS
  0
LAYER
  2
LAYER180
 70
               0
 62
               7
  6
CONTINUOUS
  0
LAYER
  2
LAYER181
 70
               0
 62
               7
  6
CONTINUOUS
  0
LAYER
  2
LAYER182
 70
               0
 62
               7
  6
CONTINUOUS
  0
LAYER
  2
LAYER183
 70
               0
 62
               7
  6
CONTINUOUS
  0
LAYER
  2
LAYER184
 70
               0
 62
               7
  6
CONTINUOUS
  0
LAYER
  2
LAYER185
 70
               0
 62
               7
  6
CONTINUOUS
  0
LAYER
  2
LAYER186
 70
               0
 62
               7
  6
CONTINUOUS
  0
LAYER
  2
LAYER187
 70
               0
 62
               7
  6
CONTINUOUS
  0
LAYER
  2
LAYER188
 70
               0
 62
               7
  6
CONTINUOUS
  0
LAYER
  2
LAYER189
 70
               0
 62
               7
  6
CONTINUOUS
  0
LAYER
  2
LAYER190
 70
               0
 62
               7
  6
CONTINUOUS
  0
LAYER
  2
LAYER191
 70
               0
 62
               7
  6
CONTINUOUS
  0
LAYER
  2
LAYER192
 70
               0
 62
               7
  6
CONTINUOUS
  0
LAYER
  2
LAYER193
 70
               0
 62
               7
  6
CONTINUOUS
  0
LAYER
  2
LAYER194
 70
               0
 62
               7
  6
CONTINUOUS
  0
LAYER
  2
LAYER195
 70
               0
 62
               7
  6
CONTINUOUS
  0
LAYER
  2
LAYER196
 70
               0
 62
               7
  6
CONTINUOUS
  0
LAYER
  2
LAYER197
 70
               0
 62
               7
  6
CONTINUOUS
  0
LAYER
  2
LAYER198
 70
               0
 62
               7
  6
CONTINUOUS
  0
LAYER
  2
LAYER199
 70
               0
 62
               7
  6
CONTINUOUS
  0
LAYER
  2
LAYER200
 70
               0
 62
               7
  6
CONTINUOUS
  0
LAYER
  2
LAYER201
 70
               0
 62
               7
  6
CONTINUOUS
  0
LAYER
  2
LAYER202
 70
               0
 62
               7
  6
CONTINUOUS
  0
LAYER
  2
LAYER203
 70
               0
 62
               7
  6
CONTINUOUS
  0
LAYER
  2
LAYER204
 70
               0
 62
               7
  6
CONTINUOUS
  0
LAYER
  2
LAYER205
 70
               0
 62
               7
  6
CONTINUOUS
  0
LAYER
  2
LAYER206
 70
               0
 62
               7
  6
CONTINUOUS
  0
LAYER
  2
LAYER207
 70
               0
 62
               7
  6
CONTINUOUS
  0
LAYER
  2
LAYER208
 70
               0
 62
               7
  6
CONTINUOUS
  0
LAYER
  2
LAYER209
 70
               0
 62
               7
  6
CONTINUOUS
  0
LAYER
  2
LAYER210
 70
               0
 62
               7
  6
CONTINUOUS
  0
LAYER
  2
LAYER211
 70
               0
 62
               7
  6
CONTINUOUS
  0
LAYER
  2
LAYER212
 70
               0
 62
               7
  6
CONTINUOUS
  0
LAYER
  2
LAYER213
 70
               0
 62
               7
  6
CONTINUOUS
  0
LAYER
  2
LAYER214
 70
               0
 62
               7
  6
CONTINUOUS
  0
LAYER
  2
LAYER215
 70
               0
 62
               7
  6
CONTINUOUS
  0
LAYER
  2
LAYER216
 70
               0
 62
               7
  6
CONTINUOUS
  0
LAYER
  2
LAYER217
 70
               0
 62
               7
  6
CONTINUOUS
  0
LAYER
  2
LAYER218
 70
               0
 62
               7
  6
CONTINUOUS
  0
LAYER
  2
LAYER219
 70
               0
 62
               7
  6
CONTINUOUS
  0
LAYER
  2
LAYER220
 70
               0
 62
               7
  6
CONTINUOUS
  0
LAYER
  2
LAYER221
 70
               0
 62
               7
  6
CONTINUOUS
  0
LAYER
  2
LAYER222
 70
               0
 62
               7
  6
CONTINUOUS
  0
LAYER
  2
LAYER223
 70
               0
 62
               7
  6
CONTINUOUS
  0
LAYER
  2
LAYER224
 70
               0
 62
               7
  6
CONTINUOUS
  0
LAYER
  2
LAYER225
 70
               0
 62
               7
  6
CONTINUOUS
  0
LAYER
  2
LAYER226
 70
               0
 62
               7
  6
CONTINUOUS
  0
LAYER
  2
LAYER227
 70
               0
 62
               7
  6
CONTINUOUS
  0
LAYER
  2
LAYER228
 70
               0
 62
               7
  6
CONTINUOUS
  0
LAYER
  2
LAYER229
 70
               0
 62
               7
  6
CONTINUOUS
  0
LAYER
  2
LAYER230
 70
               0
 62
               7
  6
CONTINUOUS
  0
LAYER
  2
LAYER231
 70
               0
 62
               7
  6
CONTINUOUS
  0
LAYER
  2
LAYER232
 70
               0
 62
               7
  6
CONTINUOUS
  0
LAYER
  2
LAYER233
 70
               0
 62
               7
  6
CONTINUOUS
  0
LAYER
  2
LAYER234
 70
               0
 62
               7
  6
CONTINUOUS
  0
LAYER
  2
LAYER235
 70
               0
 62
               7
  6
CONTINUOUS
  0
LAYER
  2
LAYER236
 70
               0
 62
               7
  6
CONTINUOUS
  0
LAYER
  2
LAYER237
 70
               0
 62
               7
  6
CONTINUOUS
  0
LAYER
  2
LAYER238
 70
               0
 62
               7
  6
CONTINUOUS
  0
LAYER
  2
LAYER239
 70
               0
 62
               7
  6
CONTINUOUS
  0
LAYER
  2
LAYER240
 70
               0
 62
               7
  6
CONTINUOUS
  0
LAYER
  2
LAYER241
 70
               0
 62
               7
  6
CONTINUOUS
  0
LAYER
  2
LAYER242
 70
               0
 62
               7
  6
CONTINUOUS
  0
LAYER
  2
LAYER243
 70
               0
 62
               7
  6
CONTINUOUS
  0
LAYER
  2
LAYER244
 70
               0
 62
               7
  6
CONTINUOUS
  0
LAYER
  2
LAYER245
 70
               0
 62
               7
  6
CONTINUOUS
  0
LAYER
  2
LAYER246
 70
               0
 62
               7
  6
CONTINUOUS
  0
LAYER
  2
LAYER247
 70
               0
 62
               7
  6
CONTINUOUS
  0
LAYER
  2
LAYER248
 70
               0
 62
               7
  6
CONTINUOUS
  0
LAYER
  2
LAYER249
 70
               0
 62
               7
  6
CONTINUOUS
  0
LAYER
  2
LAYER250
 70
               0
 62
               7
  6
CONTINUOUS
  0
LAYER
  2
LAYER251
 70
               0
 62
               7
  6
CONTINUOUS
  0
LAYER
  2
LAYER252
 70
               0
 62
               7
  6
CONTINUOUS
  0
LAYER
  2
LAYER253
 70
               0
 62
               7
  6
CONTINUOUS
  0
LAYER
  2
LAYER254
 70
               0
 62
               7
  6
CONTINUOUS
  0
LAYER
  2
LAYER255
 70
               0
 62
               7
  6
CONTINUOUS
  0
ENDTAB
  0
TABLE
  2
STYLE
 70
               1
  0
STYLE
  2
STANDARD
 70
               0
 40
0.0
 41
0.8
 50
0.0
 71
               0
 42
40.0
  3
MS PGothic.ttf
  4

  0
ENDTAB
  0
TABLE
  2
VIEW
 70
               0
  0
VIEW
  2
QQQQ
 70
               0
 40
2797.4248990217334
 10
27.517579717671822
 20
-447.20626074350315
 41
1745.9000000000005
 11
0.0
 21
0.0
 31
1.0
 12
100.0
 22
100.0
 32
0.0
 42
50.0
 43
0.0
 44
0.0
 50
0.0
 71
               0
  0
ENDTAB
  0
TABLE
  2
UCS
 70
               0
  0
ENDTAB
  0
TABLE
  2
APPID
 70
               1
  0
APPID
  2
ACAD
 70
               0
  0
ENDTAB
  0
TABLE
  2
DIMSTYLE
 70
               1
  0
DIMSTYLE
  2
STANDARD
 70
               0
  3

  4

  5

  6

  7

 40
1.0
 41
0.18
 42
0.0625
 43
0.38
 44
0.18
 45
0.0
 46
0.0
 47
0.0
 48
0.0
140
0.18
141
0.09
142
0.0
143
25.399999999999999
144
1.0
145
0.0
146
1.0
147
0.09
 71
               0
 72
               0
 73
               1
 74
               1
 75
               0
 76
               0
 77
               0
 78
               0
170
               0
171
               2
172
               0
173
               0
174
               0
175
               0
176
               0
177
               0
178
               0
  0
ENDTAB
  0
ENDSEC
  0
SECTION
  2
BLOCKS
  0
BLOCK
  8
0
  5
140
  2
GROUP_1
 70
               0
 10
0.0
 20
0.0
 30
0.0
  3
GROUP_1
  0
CIRCLE
  8
0
  6
CONTINUOUS
 62
               4
  5
141
 10
91.72221606864565
 20
752.31834552581449
 30
0.0
 40
9.5
  0
LINE
  8
0
  6
CONTINUOUS
 62
               4
  5
142
 10
91.72221606864565
 20
763.28800064041752
 30
0.0
 11
101.22221606864539
 21
757.80317308311555
 31
0.0
  0
LINE
  8
0
  6
CONTINUOUS
 62
               4
  5
143
 10
101.22221606864539
 20
757.80317308311555
 30
0.0
 11
101.22221606864539
 21
746.83351796851275
 31
0.0
  0
LINE
  8
0
  6
CONTINUOUS
 62
               4
  5
144
 10
101.22221606864539
 20
746.83351796851275
 30
0.0
 11
91.72221606864565
 21
741.34869041121124
 31
0.0
  0
LINE
  8
0
  6
CONTINUOUS
 62
               4
  5
145
 10
91.72221606864565
 20
741.34869041121124
 30
0.0
 11
82.222216068645622
 21
746.83351796851275
 31
0.0
  0
LINE
  8
0
  6
CONTINUOUS
 62
               4
  5
146
 10
82.222216068645622
 20
746.83351796851275
 30
0.0
 11
82.222216068645622
 21
757.80317308311555
 31
0.0
  0
LINE
  8
0
  6
CONTINUOUS
 62
               4
  5
147
 10
82.222216068645622
 20
757.80317308311555
 30
0.0
 11
91.72221606864565
 21
763.28800064041752
 31
0.0
  0
CIRCLE
  8
0
  6
CONTINUOUS
 62
               4
  5
148
 10
91.72221606864565
 20
752.31834552581449
 30
0.0
 40
5.1250000000000009
  0
CIRCLE
  8
0
  6
CONTINUOUS
 62
               4
  5
149
 10
91.72221606864565
 20
752.31834552581449
 30
0.0
 40
6.0000000000000009
  0
ENDBLK
  8
0
  5
14A
  0
BLOCK
  8
0
  5
14B
  2
GROUP_2
 70
               0
 10
0.0
 20
0.0
 30
0.0
  3
GROUP_2
  0
CIRCLE
  8
0
  6
CONTINUOUS
 62
               4
  5
14C
 10
91.72221606864565
 20
623.62491134986271
 30
0.0
 40
9.5
  0
LINE
  8
0
  6
CONTINUOUS
 62
               4
  5
14D
 10
91.72221606864565
 20
634.59456646446574
 30
0.0
 11
101.22221606864539
 21
629.109738907164
 31
0.0
  0
LINE
  8
0
  6
CONTINUOUS
 62
               4
  5
14E
 10
101.22221606864539
 20
629.109738907164
 30
0.0
 11
101.22221606864539
 21
618.14008379256097
 31
0.0
  0
LINE
  8
0
  6
CONTINUOUS
 62
               4
  5
14F
 10
101.22221606864539
 20
618.14008379256097
 30
0.0
 11
91.72221606864565
 21
612.65525623525969
 31
0.0
  0
LINE
  8
0
  6
CONTINUOUS
 62
               4
  5
150
 10
91.72221606864565
 20
612.65525623525969
 30
0.0
 11
82.222216068645409
 21
618.14008379256097
 31
0.0
  0
LINE
  8
0
  6
CONTINUOUS
 62
               4
  5
151
 10
82.222216068645409
 20
618.14008379256097
 30
0.0
 11
82.222216068645409
 21
629.109738907164
 31
0.0
  0
LINE
  8
0
  6
CONTINUOUS
 62
               4
  5
152
 10
82.222216068645409
 20
629.109738907164
 30
0.0
 11
91.72221606864565
 21
634.59456646446574
 31
0.0
  0
CIRCLE
  8
0
  6
CONTINUOUS
 62
               4
  5
153
 10
91.72221606864565
 20
623.62491134986271
 30
0.0
 40
5.1250000000000009
  0
CIRCLE
  8
0
  6
CONTINUOUS
 62
               4
  5
154
 10
91.72221606864565
 20
623.62491134986271
 30
0.0
 40
6.0000000000000009
  0
ENDBLK
  8
0
  5
155
  0
BLOCK
  8
0
  5
156
  2
GROUP_3
 70
               0
 10
0.0
 20
0.0
 30
0.0
  3
GROUP_3
  0
LINE
  8
0
  6
CONTINUOUS
 62
               4
  5
157
 10
-747.78242028232819
 20
-25.545860287646519
 30
0.0
 11
-747.78242028232819
 21
-16.671693312566219
 31
0.0
  0
LINE
  8
0
  6
CONTINUOUS
 62
               4
  5
158
 10
-742.29759272502679
 20
-25.545860287646519
 30
0.0
 11
-742.29759272502679
 21
-16.671693312566219
 31
0.0
  0
LINE
  8
0
  6
CONTINUOUS
 62
               4
  5
159
 10
-747.78242028232819
 20
-25.545860287646519
 30
0.0
 11
-725.88242028232844
 21
-25.545860287646519
 31
0.0
  0
LINE
  8
0
  6
CONTINUOUS
 62
               4
  5
15A
 10
-745.04000650367755
 20
-15.545860287646519
 30
0.0
 11
-728.6248340609792
 21
-15.545860287646519
 31
0.0
  0
LINE
  8
0
  6
CONTINUOUS
 62
               4
  5
15B
 10
-725.88242028232844
 20
-25.545860287646519
 30
0.0
 11
-725.88242028232844
 21
-16.671693312566219
 31
0.0
  0
LINE
  8
0
  6
CONTINUOUS
 62
               4
  5
15C
 10
-731.36724783962984
 20
-25.545860287646519
 30
0.0
 11
-731.36724783962984
 21
-16.671693312566219
 31
0.0
  0
ARC
  8
0
  6
CONTINUOUS
 62
               4
  5
15D
 10
-745.04000650367755
 20
-19.448896145898914
 30
0.0
 40
3.9030358582523994
 50
45.361119214050895
 51
134.63888078595107
  0
ARC
  8
0
  6
CONTINUOUS
 62
               4
  5
15E
 10
-728.6248340609792
 20
-19.448896145898914
 30
0.0
 40
3.9030358582525593
 50
45.361119214048507
 51
134.63888078594869
  0
ARC
  8
0
  6
CONTINUOUS
 62
               4
  5
15F
 10
-736.83242028232837
 20
-29.373670069052537
 30
0.0
 40
13.827809781406303
 50
66.719648257529286
 51
113.28035174247032
  0
ENDBLK
  8
0
  5
160
  0
BLOCK
  8
0
  5
161
  2
GROUP_4
 70
               0
 10
0.0
 20
0.0
 30
0.0
  3
GROUP_4
  0
LINE
  8
0
  6
CONTINUOUS
 62
               4
  5
162
 10
-597.18242028232874
 20
-25.545860287646519
 30
0.0
 11
-597.18242028232874
 21
-16.671693312566219
 31
0.0
  0
LINE
  8
0
  6
CONTINUOUS
 62
               4
  5
163
 10
-602.66724783963014
 20
-25.545860287646519
 30
0.0
 11
-602.66724783963014
 21
-16.671693312566219
 31
0.0
  0
LINE
  8
0
  6
CONTINUOUS
 62
               4
  5
164
 10
-597.18242028232874
 20
-25.545860287646519
 30
0.0
 11
-619.08242028232848
 21
-25.545860287646519
 31
0.0
  0
LINE
  8
0
  6
CONTINUOUS
 62
               4
  5
165
 10
-599.92483406097938
 20
-15.545860287646519
 30
0.0
 11
-616.34000650367773
 21
-15.545860287646519
 31
0.0
  0
LINE
  8
0
  6
CONTINUOUS
 62
               4
  5
166
 10
-619.08242028232848
 20
-25.545860287646519
 30
0.0
 11
-619.08242028232848
 21
-16.671693312566219
 31
0.0
  0
LINE
  8
0
  6
CONTINUOUS
 62
               4
  5
167
 10
-613.59759272502708
 20
-25.545860287646519
 30
0.0
 11
-613.59759272502708
 21
-16.671693312566219
 31
0.0
  0
ARC
  8
0
  6
CONTINUOUS
 62
               4
  5
168
 10
-599.92483406097938
 20
-19.448896145898914
 30
0.0
 40
3.9030358582523994
 50
45.361119214048536
 51
134.63888078594869
  0
ARC
  8
0
  6
CONTINUOUS
 62
               4
  5
169
 10
-616.34000650367773
 20
-19.448896145898914
 30
0.0
 40
3.9030358582525593
 50
45.361119214050902
 51
134.6388807859511
  0
ARC
  8
0
  6
CONTINUOUS
 62
               4
  5
16A
 10
-608.13242028232855
 20
-29.373670069052537
 30
0.0
 40
13.827809781406303
 50
66.719648257529286
 51
113.28035174247033
  0
ENDBLK
  8
0
  5
16B
  0
BLOCK
  8
0
  5
16C
  2
GROUP_5
 70
               0
 10
0.0
 20
0.0
 30
0.0
  3
GROUP_5
  0
LINE
  8
0
  6
CONTINUOUS
 62
               4
  5
16D
 10
672.66757971767174
 20
-15.545860287645382
 30
0.0
 11
653.66757971767163
 21
-15.545860287645382
 31
0.0
  0
LINE
  8
0
  6
CONTINUOUS
 62
               4
  5
16E
 10
653.66757971767163
 20
-15.545860287645382
 30
0.0
 11
653.66757971767163
 21
-25.545860287645382
 31
0.0
  0
LINE
  8
0
  6
CONTINUOUS
 62
               4
  5
16F
 10
653.66757971767163
 20
-25.545860287645382
 30
0.0
 11
672.66757971767174
 21
-25.545860287645382
 31
0.0
  0
LINE
  8
0
  6
CONTINUOUS
 62
               4
  5
170
 10
672.66757971767174
 20
-25.545860287645382
 30
0.0
 11
672.66757971767174
 21
-15.545860287645382
 31
0.0
  0
LINE
  8
0
  6
CONTINUOUS
 62
               4
  5
171
 10
663.16757971767152
 20
-25.545860287645382
 30
0.0
 11
663.16757971767152
 21
-16.671693312565196
 31
0.0
  0
ARC
  8
0
  6
CONTINUOUS
 62
               4
  5
172
 10
658.41757971767152
 20
-26.022762893585195
 30
0.0
 40
10.488326954718639
 50
63.071102706951748
 51
116.92889729304785
  0
ARC
  8
0
  6
CONTINUOUS
 62
               4
  5
173
 10
667.91757971767174
 20
-26.022762893585195
 30
0.0
 40
10.488326954718639
 50
63.071102706951748
 51
116.92889729304785
  0
ARC
  8
0
  6
CONTINUOUS
 62
               4
  5
174
 10
667.91757971767174
 20
-26.022762893585195
 30
0.0
 40
10.488326954718639
 50
63.071102706951748
 51
116.92889729304785
  0
ARC
  8
0
  6
CONTINUOUS
 62
               4
  5
175
 10
667.91757971767174
 20
-26.022762893585195
 30
0.0
 40
10.488326954718639
 50
63.071102706951748
 51
116.92889729304785
  0
ENDBLK
  8
0
  5
176
  0
BLOCK
  8
0
  5
177
  2
GROUP_6
 70
               0
 10
0.0
 20
0.0
 30
0.0
  3
GROUP_6
  0
LINE
  8
0
  6
CONTINUOUS
 62
               4
  5
178
 10
801.36757971767202
 20
-15.545860287646235
 30
0.0
 11
782.36757971767202
 21
-15.545860287646235
 31
0.0
  0
LINE
  8
0
  6
CONTINUOUS
 62
               4
  5
179
 10
782.36757971767202
 20
-15.545860287646235
 30
0.0
 11
782.36757971767202
 21
-25.545860287646235
 31
0.0
  0
LINE
  8
0
  6
CONTINUOUS
 62
               4
  5
17A
 10
782.36757971767202
 20
-25.545860287646235
 30
0.0
 11
801.36757971767202
 21
-25.545860287646235
 31
0.0
  0
LINE
  8
0
  6
CONTINUOUS
 62
               4
  5
17B
 10
801.36757971767202
 20
-25.545860287646235
 30
0.0
 11
801.36757971767202
 21
-15.545860287646235
 31
0.0
  0
LINE
  8
0
  6
CONTINUOUS
 62
               4
  5
17C
 10
791.86757971767179
 20
-25.545860287646235
 30
0.0
 11
791.86757971767179
 21
-16.671693312565935
 31
0.0
  0
ARC
  8
0
  6
CONTINUOUS
 62
               4
  5
17D
 10
787.1175797176719
 20
-26.022762893586048
 30
0.0
 40
10.488326954718639
 50
63.071102706951748
 51
116.92889729304785
  0
ARC
  8
0
  6
CONTINUOUS
 62
               4
  5
17E
 10
796.61757971767179
 20
-26.022762893586048
 30
0.0
 40
10.488326954718639
 50
63.071102706951748
 51
116.92889729304785
  0
ARC
  8
0
  6
CONTINUOUS
 62
               4
  5
17F
 10
796.61757971767179
 20
-26.022762893586048
 30
0.0
 40
10.488326954718639
 50
63.071102706951748
 51
116.92889729304785
  0
ARC
  8
0
  6
CONTINUOUS
 62
               4
  5
180
 10
796.61757971767179
 20
-26.022762893586048
 30
0.0
 40
10.488326954718639
 50
63.071102706951748
 51
116.92889729304785
  0
ENDBLK
  8
0
  5
181
  0
BLOCK
  8
0
  5
182
  2
GROUP_7
 70
               0
 10
0.0
 20
0.0
 30
0.0
  3
GROUP_7
  0
LINE
  8
0
  6
CONTINUOUS
 62
               4
  5
183
 10
82.367579717671447
 20
-15.545860287645667
 30
0.0
 11
101.3675797176715
 21
-15.545860287645667
 31
0.0
  0
LINE
  8
0
  6
CONTINUOUS
 62
               4
  5
184
 10
101.3675797176715
 20
-15.545860287645667
 30
0.0
 11
101.3675797176715
 21
-25.545860287645667
 31
0.0
  0
LINE
  8
0
  6
CONTINUOUS
 62
               4
  5
185
 10
101.3675797176715
 20
-25.545860287645667
 30
0.0
 11
82.367579717671447
 21
-25.545860287645667
 31
0.0
  0
LINE
  8
0
  6
CONTINUOUS
 62
               4
  5
186
 10
82.367579717671447
 20
-25.545860287645667
 30
0.0
 11
82.367579717671447
 21
-15.545860287645667
 31
0.0
  0
LINE
  8
0
  6
CONTINUOUS
 62
               4
  5
187
 10
91.867579717671617
 20
-25.545860287645667
 30
0.0
 11
91.867579717671617
 21
-16.671693312565537
 31
0.0
  0
ARC
  8
0
  6
CONTINUOUS
 62
               4
  5
188
 10
96.617579717671561
 20
-26.02276289358548
 30
0.0
 40
10.488326954718639
 50
63.071102706951748
 51
116.92889729304785
  0
ARC
  8
0
  6
CONTINUOUS
 62
               4
  5
189
 10
87.117579717671674
 20
-26.02276289358548
 30
0.0
 40
10.488326954718639
 50
63.071102706951748
 51
116.92889729304785
  0
ARC
  8
0
  6
CONTINUOUS
 62
               4
  5
18A
 10
87.117579717671674
 20
-26.02276289358548
 30
0.0
 40
10.488326954718639
 50
63.071102706951748
 51
116.92889729304785
  0
ARC
  8
0
  6
CONTINUOUS
 62
               4
  5
18B
 10
87.117579717671674
 20
-26.02276289358548
 30
0.0
 40
10.488326954718639
 50
63.071102706951748
 51
116.92889729304785
  0
ENDBLK
  8
0
  5
18C
  0
BLOCK
  8
0
  5
18D
  2
GROUP_8
 70
               0
 10
0.0
 20
0.0
 30
0.0
  3
GROUP_8
  0
LINE
  8
0
  6
CONTINUOUS
 62
               4
  5
18E
 10
-46.332420282328741
 20
-15.545860287646519
 30
0.0
 11
-27.332420282328684
 21
-15.545860287646519
 31
0.0
  0
LINE
  8
0
  6
CONTINUOUS
 62
               4
  5
18F
 10
-27.332420282328684
 20
-15.545860287646519
 30
0.0
 11
-27.332420282328684
 21
-25.545860287646519
 31
0.0
  0
LINE
  8
0
  6
CONTINUOUS
 62
               4
  5
190
 10
-27.332420282328684
 20
-25.545860287646519
 30
0.0
 11
-46.332420282328741
 21
-25.545860287646519
 31
0.0
  0
LINE
  8
0
  6
CONTINUOUS
 62
               4
  5
191
 10
-46.332420282328741
 20
-25.545860287646519
 30
0.0
 11
-46.332420282328741
 21
-15.545860287646519
 31
0.0
  0
LINE
  8
0
  6
CONTINUOUS
 62
               4
  5
192
 10
-36.832420282328712
 20
-25.545860287646519
 30
0.0
 11
-36.832420282328712
 21
-16.671693312566219
 31
0.0
  0
ARC
  8
0
  6
CONTINUOUS
 62
               4
  5
193
 10
-32.082420282328769
 20
-26.022762893586332
 30
0.0
 40
10.488326954718639
 50
63.071102706951748
 51
116.92889729304785
  0
ARC
  8
0
  6
CONTINUOUS
 62
               4
  5
194
 10
-41.582420282328798
 20
-26.022762893586332
 30
0.0
 40
10.488326954718639
 50
63.071102706951748
 51
116.92889729304785
  0
ARC
  8
0
  6
CONTINUOUS
 62
               4
  5
195
 10
-41.582420282328798
 20
-26.022762893586332
 30
0.0
 40
10.488326954718639
 50
63.071102706951748
 51
116.92889729304785
  0
ARC
  8
0
  6
CONTINUOUS
 62
               4
  5
196
 10
-41.582420282328798
 20
-26.022762893586332
 30
0.0
 40
10.488326954718639
 50
63.071102706951748
 51
116.92889729304785
  0
ENDBLK
  8
0
  5
197
  0
BLOCK
  8
0
  5
198
  2
GROUP_9
 70
               0
 10
0.0
 20
0.0
 30
0.0
  3
GROUP_9
  0
CIRCLE
  8
0
  6
CONTINUOUS
 62
               4
  5
199
 10
-36.971218107305958
 20
623.62491134986271
 30
0.0
 40
9.5
  0
LINE
  8
0
  6
CONTINUOUS
 62
               4
  5
19A
 10
-36.971218107305958
 20
634.59456646446574
 30
0.0
 11
-46.471218107305702
 21
629.109738907164
 31
0.0
  0
LINE
  8
0
  6
CONTINUOUS
 62
               4
  5
19B
 10
-46.471218107305702
 20
629.109738907164
 30
0.0
 11
-46.471218107305702
 21
618.14008379256097
 31
0.0
  0
LINE
  8
0
  6
CONTINUOUS
 62
               4
  5
19C
 10
-46.471218107305702
 20
618.14008379256097
 30
0.0
 11
-36.971218107305958
 21
612.65525623525969
 31
0.0
  0
LINE
  8
0
  6
CONTINUOUS
 62
               4
  5
19D
 10
-36.971218107305958
 20
612.65525623525969
 30
0.0
 11
-27.471218107305702
 21
618.14008379256097
 31
0.0
  0
LINE
  8
0
  6
CONTINUOUS
 62
               4
  5
19E
 10
-27.471218107305702
 20
618.14008379256097
 30
0.0
 11
-27.471218107305702
 21
629.109738907164
 31
0.0
  0
LINE
  8
0
  6
CONTINUOUS
 62
               4
  5
19F
 10
-27.471218107305702
 20
629.109738907164
 30
0.0
 11
-36.971218107305958
 21
634.59456646446574
 31
0.0
  0
CIRCLE
  8
0
  6
CONTINUOUS
 62
               4
  5
1A0
 10
-36.971218107305958
 20
623.62491134986271
 30
0.0
 40
5.1250000000000009
  0
CIRCLE
  8
0
  6
CONTINUOUS
 62
               4
  5
1A1
 10
-36.971218107305958
 20
623.62491134986271
 30
0.0
 40
6.0000000000000009
  0
ENDBLK
  8
0
  5
1A2
  0
BLOCK
  8
0
  5
1A3
  2
GROUP_10
 70
               0
 10
0.0
 20
0.0
 30
0.0
  3
GROUP_10
  0
CIRCLE
  8
0
  6
CONTINUOUS
 62
               4
  5
1A4
 10
-36.971218107305958
 20
752.31834552581449
 30
0.0
 40
9.5
  0
LINE
  8
0
  6
CONTINUOUS
 62
               4
  5
1A5
 10
-36.971218107305958
 20
763.28800064041752
 30
0.0
 11
-46.471218107305702
 21
757.80317308311555
 31
0.0
  0
LINE
  8
0
  6
CONTINUOUS
 62
               4
  5
1A6
 10
-46.471218107305702
 20
757.80317308311555
 30
0.0
 11
-46.471218107305702
 21
746.83351796851275
 31
0.0
  0
LINE
  8
0
  6
CONTINUOUS
 62
               4
  5
1A7
 10
-46.471218107305702
 20
746.83351796851275
 30
0.0
 11
-36.971218107305958
 21
741.34869041121124
 31
0.0
  0
LINE
  8
0
  6
CONTINUOUS
 62
               4
  5
1A8
 10
-36.971218107305958
 20
741.34869041121124
 30
0.0
 11
-27.47121810730593
 21
746.83351796851275
 31
0.0
  0
LINE
  8
0
  6
CONTINUOUS
 62
               4
  5
1A9
 10
-27.47121810730593
 20
746.83351796851275
 30
0.0
 11
-27.47121810730593
 21
757.80317308311555
 31
0.0
  0
LINE
  8
0
  6
CONTINUOUS
 62
               4
  5
1AA
 10
-27.47121810730593
 20
757.80317308311555
 30
0.0
 11
-36.971218107305958
 21
763.28800064041752
 31
0.0
  0
CIRCLE
  8
0
  6
CONTINUOUS
 62
               4
  5
1AB
 10
-36.971218107305958
 20
752.31834552581449
 30
0.0
 40
5.1250000000000009
  0
CIRCLE
  8
0
  6
CONTINUOUS
 62
               4
  5
1AC
 10
-36.971218107305958
 20
752.31834552581449
 30
0.0
 40
6.0000000000000009
  0
ENDBLK
  8
0
  5
1AD
  0
ENDSEC
  0
SECTION
  2
ENTITIES
  0
LINE
  8
0
  6
DASHDOT
 62
               4
  5
1AE
 10
27.517579717671584
 20
-815.7389654825912
 30
0.0
 11
27.517579717671623
 21
217.47735984678513
 31
0.0
  0
LINE
  8
0
  6
DASHDOT
 62
               4
  5
1AF
 10
125.15301510645327
 20
687.97162843783804
 30
0.0
 11
-141.78595885474795
 21
687.97162843783804
 31
0.0
  0
LINE
  8
0
  6
DASHDOT
 62
               4
  5
1B0
 10
27.375498980669846
 20
497.97162843783838
 30
0.0
 11
27.375498980669846
 21
818.596860985788
 31
0.0
  0
LINE
  8
0
  6
DASHDOT
 62
               4
  5
1B1
 10
727.51757971767154
 20
-815.73896548259131
 30
0.0
 11
727.51757971767154
 21
225.16610271672619
 31
0.0
  0
LINE
  8
0
  6
DASHDOT
 62
               4
  5
1B2
 10
-672.48242028232835
 20
-815.73896548259131
 30
0.0
 11
-672.48242028232846
 21
225.16610271672641
 31
0.0
  0
LINE
  8
0
  6
DASHDOT
 62
               4
  5
1B3
 10
-604.98242028232858
 20
-125.84586028764647
 30
0.0
 11
-739.98242028232858
 21
-125.84586028764646
 31
0.0
  0
LINE
  8
0
  6
DASHDOT
 62
               4
  5
1B4
 10
-141.78595885474806
 20
-125.84586028764622
 30
0.0
 11
-44.964840564657038
 21
-125.84586028764622
 31
0.0
  0
LINE
  8
0
  6
DASHDOT
 62
               4
  5
1B5
 10
-39.982420282328405
 20
-125.84586028764653
 30
0.0
 11
95.017579717671595
 21
-125.84586028764653
 31
0.0
  0
LINE
  8
0
  6
DASHDOT
 62
               4
  5
1B6
 10
-503.17888170990886
 20
-125.84586028764619
 30
0.0
 11
-599.99999999999989
 21
-125.84586028764618
 31
0.0
  0
LINE
  8
0
  6
DASHDOT
 62
               4
  5
1B7
 10
558.21404114525262
 20
-125.84586028764608
 30
0.0
 11
675.97577399723809
 21
-125.84586028764608
 31
0.0
  0
LINE
  8
0
  6
DASHDOT
 62
               4
  5
1B8
 10
-97.482420282328974
 20
-474.85575888093615
 30
0.0
 11
-97.482420282328974
 21
-639.23412050042657
 31
0.0
  0
LINE
  8
0
  6
DASHDOT
 62
               4
  5
1B9
 10
-364.62018933279711
 20
-1281.887160963782
 30
0.0
 11
-364.620189332797
 21
-1152.8871609637822
 31
0.0
  0
LINE
  8
0
  6
DASHDOT
 62
               4
  5
1BA
 10
-422.620189332797
 20
-1223.887160963782
 30
0.0
 11
-306.62018933279711
 21
-1223.887160963782
 31
0.0
  0
LINE
  8
0
  6
DASHDOT
 62
               4
  5
1BB
 10
-434.42336781690454
 20
-1217.387160963782
 30
0.0
 11
-300.12018933279711
 21
-1217.387160963782
 31
0.0
  0
LINE
  8
0
  6
DASHDOT
 62
               4
  5
1BC
 10
-240.72018933279702
 20
-1217.387160963782
 30
0.0
 11
-142.12018933279711
 21
-1217.387160963782
 31
0.0
  0
LINE
  8
0
  6
DASHDOT
 62
               4
  5
1BD
 10
-275.12018933279711
 20
-1223.887160963782
 30
0.0
 11
-200.72018933279713
 21
-1223.887160963782
 31
0.0
  0
LINE
  8
0
  6
DASHDOT
 62
               4
  5
1BE
 10
-488.5201893327968
 20
-1217.387160963782
 30
0.0
 11
-587.12018933279694
 21
-1217.3871609637815
 31
0.0
  0
LINE
  8
0
  6
DASHDOT
 62
               4
  5
1BF
 10
-454.120189332797
 20
-1223.887160963782
 30
0.0
 11
-528.5201893327968
 21
-1223.887160963782
 31
0.0
  0
LINE
  8
0
  6
DASHDOT
 62
               4
  5
1C0
 10
-366.56614672856364
 20
-1120.4192768947471
 30
0.0
 11
-366.56614672856364
 21
-987.4192768947471
 31
0.0
  0
LINE
  8
0
  6
DASHDOT
 62
               4
  5
1C1
 10
249.15150340355257
 20
-1217.387160963782
 30
0.0
 11
347.7515034035527
 21
-1217.387160963782
 31
0.0
  0
LINE
  8
0
  6
DASHDOT
 62
               4
  5
1C2
 10
224.15150340355257
 20
-1231.887160963782
 30
0.0
 11
289.15150340355257
 21
-1231.887160963782
 31
0.0
  0
LINE
  8
0
  6
DASHDOT
 62
               4
  5
1C3
 10
98.395487178309551
 20
-1231.887160963782
 30
0.0
 11
198.39548717830979
 21
-1231.887160963782
 31
0.0
  0
LINE
  8
0
  6
DASHDOT
 62
               4
  5
1C4
 10
148.39548717830954
 20
-1281.887160963782
 30
0.0
 11
148.39548717830976
 21
-1152.8871609637822
 31
0.0
  0
LINE
  8
0
  6
DASHDOT
 62
               4
  5
1C5
 10
83.895487178309551
 20
-1217.387160963782
 30
0.0
 11
218.4394969582608
 21
-1217.387160963782
 31
0.0
  0
LINE
  8
0
  6
DASHDOT
 62
               4
  5
1C6
 10
47.639470953066777
 20
-1217.387160963782
 30
0.0
 11
-50.960529046933246
 21
-1217.387160963782
 31
0.0
  0
LINE
  8
0
  6
DASHDOT
 62
               4
  5
1C7
 10
72.639470953066777
 20
-1231.887160963782
 30
0.0
 11
7.6394709530667804
 21
-1231.887160963782
 31
0.0
  0
LINE
  8
0
  6
DASHDOT
 62
               4
  5
1C8
 10
148.39548717830976
 20
-1131.1311447385394
 30
0.0
 11
148.39548717830976
 21
-1007.5311447385393
 31
0.0
  0
LINE
  8
0
  6
DASHDOT
 62
               4
  5
1C9
 10
636.80410293397961
 20
-1051.2027253919912
 30
0.0
 11
636.80410293397961
 21
-1321.7495121918175
 31
0.0
  0
LINE
  8
0
  6
DASHDOT
 62
               4
  5
1CA
 10
474.80410293397955
 20
-1159.7027253919912
 30
0.0
 11
745.30410293397983
 21
-1159.7027253919912
 31
0.0
  0
LINE
  8
0
  6
DASHDOT
 62
               4
  5
1CB
 10
705.32932770920422
 20
-1634.2021591405753
 30
0.0
 11
475.07548964055121
 21
-1634.2021591405753
 31
0.0
  0
LINE
  8
0
  6
DASHDOT
 62
               4
  5
1CC
 10
636.80410293397961
 20
-1448.2021591405753
 30
0.0
 11
636.80410293397961
 21
-1699.2021591405753
 31
0.0
  0
LINE
  8
0
  6
DASHDOT
 62
               4
  5
1CD
 10
586.80410293397961
 20
-1648.7021591405753
 30
0.0
 11
686.80410293397983
 21
-1648.7021591405753
 31
0.0
  0
LINE
  8
0
  6
DASHDOT
 62
               4
  5
1CE
 10
636.80410293397961
 20
-1350.3027253919911
 30
0.0
 11
636.80410293397961
 21
-1226.7027253919907
 31
0.0
  0
LINE
  8
0
  6
DASHDOT
 62
               4
  5
1CF
 10
436.80410293397944
 20
-1640.7021591405753
 30
0.0
 11
511.20410293397941
 21
-1640.7021591405753
 31
0.0
  0
LINE
  8
0
  6
DASHDOT
 62
               4
  5
1D0
 10
436.80410293397966
 20
-1159.702725391991
 30
0.0
 11
569.80410293397983
 21
-1159.702725391991
 31
0.0
  0
CIRCLE
  8
0
  6
CONTINUOUS
 62
               4
  5
1D1
 10
91.72221606864565
 20
752.31834552581449
 30
0.0
 40
13.0
  0
CIRCLE
  8
0
  6
CONTINUOUS
 62
               4
  5
1D2
 10
91.72221606864565
 20
623.62491134986271
 30
0.0
 40
13.0
  0
LINE
  8
0
  6
CONTINUOUS
 62
               4
  5
1D3
 10
-50.708894283690597
 20
-75.44586028764644
 30
0.0
 11
-44.832420282328826
 21
-78.845860287646531
 31
0.0
  0
LINE
  8
0
  6
CONTINUOUS
 62
               4
  5
1D4
 10
-28.332420282328769
 20
-78.845860287646531
 30
0.0
 11
-28.332420282328769
 21
-71.845860287646474
 31
0.0
  0
LINE
  8
0
  6
CONTINUOUS
 62
               4
  5
1D5
 10
-28.332420282328769
 20
-78.845860287646531
 30
0.0
 11
-44.832420282328826
 21
-78.845860287646531
 31
0.0
  0
LINE
  8
0
  6
CONTINUOUS
 62
               4
  5
1D6
 10
-53.659481748806456
 20
-75.44586028764644
 30
0.0
 11
-50.708894283690597
 21
-75.44586028764644
 31
0.0
  0
LINE
  8
0
  6
CONTINUOUS
 62
               4
  5
1D7
 10
-53.659481748806456
 20
-71.845860287646474
 30
0.0
 11
-53.659481748806456
 21
-75.44586028764644
 31
0.0
  0
LINE
  8
0
  6
CONTINUOUS
 62
               4
  5
1D8
 10
-28.332420282328769
 20
-71.845860287646474
 30
0.0
 11
-53.659481748806456
 21
-71.845860287646474
 31
0.0
  0
LINE
  8
0
  6
CONTINUOUS
 62
               4
  5
1D9
 10
75.040518251193959
 20
-75.44586028764644
 30
0.0
 11
90.011920996481138
 21
-75.44586028764644
 31
0.0
  0
LINE
  8
0
  6
CONTINUOUS
 62
               4
  5
1DA
 10
77.991105716309818
 20
-75.44586028764644
 30
0.0
 11
83.867579717671589
 21
-78.845860287646531
 31
0.0
  0
LINE
  8
0
  6
CONTINUOUS
 62
               4
  5
1DB
 10
87.061333531365278
 20
-71.845860287646474
 30
0.0
 11
87.061333531365278
 21
-75.44586028764644
 31
0.0
  0
LINE
  8
0
  6
CONTINUOUS
 62
               4
  5
1DC
 10
97.52443396716393
 20
-78.845860287646531
 30
0.0
 11
90.011920996481138
 21
-75.44586028764644
 31
0.0
  0
LINE
  8
0
  6
CONTINUOUS
 62
               4
  5
1DD
 10
100.36757971767159
 20
-78.845860287646531
 30
0.0
 11
83.867579717671589
 21
-78.845860287646531
 31
0.0
  0
LINE
  8
0
  6
CONTINUOUS
 62
               4
  5
1DE
 10
100.36757971767159
 20
-78.845860287646531
 30
0.0
 11
100.36757971767159
 21
-71.845860287646474
 31
0.0
  0
LINE
  8
0
  6
CONTINUOUS
 62
               4
  5
1DF
 10
100.36757971767159
 20
-71.845860287646474
 30
0.0
 11
75.040518251193959
 21
-71.845860287646474
 31
0.0
  0
LINE
  8
0
  6
CONTINUOUS
 62
               4
  5
1E0
 10
-624.95948174880607
 20
-71.845860287646474
 30
0.0
 11
-624.95948174880607
 21
-75.44586028764644
 31
0.0
  0
LINE
  8
0
  6
CONTINUOUS
 62
               4
  5
1E1
 10
-624.95948174880607
 20
-75.44586028764644
 30
0.0
 11
-609.98807900351892
 21
-75.44586028764644
 31
0.0
  0
LINE
  8
0
  6
CONTINUOUS
 62
               4
  5
1E2
 10
-622.00889428369021
 20
-75.44586028764644
 30
0.0
 11
-616.13242028232844
 21
-78.845860287646531
 31
0.0
  0
LINE
  8
0
  6
CONTINUOUS
 62
               4
  5
1E3
 10
-612.93866646863478
 20
-71.845860287646474
 30
0.0
 11
-612.93866646863478
 21
-75.44586028764644
 31
0.0
  0
LINE
  8
0
  6
CONTINUOUS
 62
               4
  5
1E4
 10
-602.47556603283613
 20
-78.845860287646531
 30
0.0
 11
-609.98807900351892
 21
-75.44586028764644
 31
0.0
  0
LINE
  8
0
  6
CONTINUOUS
 62
               4
  5
1E5
 10
-599.63242028232844
 20
-78.845860287646531
 30
0.0
 11
-616.13242028232844
 21
-78.845860287646531
 31
0.0
  0
LINE
  8
0
  6
CONTINUOUS
 62
               4
  5
1E6
 10
-599.63242028232844
 20
-78.845860287646531
 30
0.0
 11
-599.63242028232844
 21
-71.845860287646474
 31
0.0
  0
LINE
  8
0
  6
CONTINUOUS
 62
               4
  5
1E7
 10
-599.63242028232844
 20
-71.845860287646474
 30
0.0
 11
-624.95948174880607
 21
-71.845860287646474
 31
0.0
  0
LINE
  8
0
  6
CONTINUOUS
 62
               4
  5
1E8
 10
-750.7088942836906
 20
-75.44586028764644
 30
0.0
 11
-744.83242028232894
 21
-78.845860287646531
 31
0.0
  0
LINE
  8
0
  6
CONTINUOUS
 62
               4
  5
1E9
 10
-728.33242028232883
 20
-78.845860287646531
 30
0.0
 11
-728.33242028232883
 21
-71.845860287646474
 31
0.0
  0
LINE
  8
0
  6
CONTINUOUS
 62
               4
  5
1EA
 10
-728.33242028232883
 20
-78.845860287646531
 30
0.0
 11
-744.83242028232894
 21
-78.845860287646531
 31
0.0
  0
LINE
  8
0
  6
CONTINUOUS
 62
               4
  5
1EB
 10
-753.65948174880646
 20
-75.44586028764644
 30
0.0
 11
-750.7088942836906
 21
-75.44586028764644
 31
0.0
  0
LINE
  8
0
  6
CONTINUOUS
 62
               4
  5
1EC
 10
-753.65948174880646
 20
-71.845860287646474
 30
0.0
 11
-753.65948174880646
 21
-75.44586028764644
 31
0.0
  0
LINE
  8
0
  6
CONTINUOUS
 62
               4
  5
1ED
 10
-728.33242028232883
 20
-71.845860287646474
 30
0.0
 11
-753.65948174880646
 21
-71.845860287646474
 31
0.0
  0
LINE
  8
0
  6
CONTINUOUS
 62
               4
  5
1EE
 10
-723.83242028232837
 20
-25.545860287646519
 30
0.0
 11
-723.83242028232837
 21
-27.845860287646417
 31
0.0
  0
LINE
  8
0
  6
CONTINUOUS
 62
               4
  5
1EF
 10
-723.83242028232837
 20
-27.845860287646417
 30
0.0
 11
-749.83242028232826
 21
-27.845860287646417
 31
0.0
  0
LINE
  8
0
  6
CONTINUOUS
 62
               4
  5
1F0
 10
-749.83242028232826
 20
-27.845860287646417
 30
0.0
 11
-749.83242028232826
 21
-25.545860287646519
 31
0.0
  0
LINE
  8
0
  6
CONTINUOUS
 62
               4
  5
1F1
 10
-749.83242028232826
 20
-25.545860287646519
 30
0.0
 11
-723.83242028232837
 21
-25.545860287646519
 31
0.0
  0
LINE
  8
0
  6
CONTINUOUS
 62
               4
  5
1F2
 10
-730.83242028232848
 20
-15.545860287646519
 30
0.0
 11
-730.83242028232848
 21
-6.8458602876463033
 31
0.0
  0
LINE
  8
0
  6
CONTINUOUS
 62
               4
  5
1F3
 10
-742.8324202823286
 20
-6.8458602876463033
 30
0.0
 11
-742.8324202823286
 21
-15.545860287646519
 31
0.0
  0
LINE
  8
0
  6
CONTINUOUS
 62
               4
  5
1F4
 10
-742.8324202823286
 20
-6.8458602876463033
 30
0.0
 11
-730.83242028232848
 21
-6.8458602876463033
 31
0.0
  0
LINE
  8
0
  6
CONTINUOUS
 62
               4
  5
1F5
 10
-621.13242028232855
 20
-25.545860287646519
 30
0.0
 11
-621.13242028232855
 21
-27.845860287646417
 31
0.0
  0
LINE
  8
0
  6
CONTINUOUS
 62
               4
  5
1F6
 10
-621.13242028232855
 20
-27.845860287646417
 30
0.0
 11
-595.13242028232867
 21
-27.845860287646417
 31
0.0
  0
LINE
  8
0
  6
CONTINUOUS
 62
               4
  5
1F7
 10
-595.13242028232867
 20
-27.845860287646417
 30
0.0
 11
-595.13242028232867
 21
-25.545860287646519
 31
0.0
  0
LINE
  8
0
  6
CONTINUOUS
 62
               4
  5
1F8
 10
-595.13242028232867
 20
-25.545860287646519
 30
0.0
 11
-621.13242028232855
 21
-25.545860287646519
 31
0.0
  0
LINE
  8
0
  6
CONTINUOUS
 62
               4
  5
1F9
 10
-614.13242028232844
 20
-15.545860287646519
 30
0.0
 11
-614.13242028232844
 21
-6.8458602876463033
 31
0.0
  0
LINE
  8
0
  6
CONTINUOUS
 62
               4
  5
1FA
 10
-602.13242028232833
 20
-6.8458602876463033
 30
0.0
 11
-602.13242028232833
 21
-15.545860287646519
 31
0.0
  0
LINE
  8
0
  6
CONTINUOUS
 62
               4
  5
1FB
 10
-602.13242028232833
 20
-6.8458602876463033
 30
0.0
 11
-614.13242028232844
 21
-6.8458602876463033
 31
0.0
  0
LINE
  8
0
  6
CONTINUOUS
 62
               4
  5
1FC
 10
775.04051825119382
 20
-71.845860287646417
 30
0.0
 11
775.04051825119382
 21
-75.445860287646383
 31
0.0
  0
LINE
  8
0
  6
CONTINUOUS
 62
               4
  5
1FD
 10
775.04051825119382
 20
-75.445860287646383
 30
0.0
 11
790.01192099648119
 21
-75.445860287646383
 31
0.0
  0
LINE
  8
0
  6
CONTINUOUS
 62
               4
  5
1FE
 10
777.99110571630968
 20
-75.445860287646383
 30
0.0
 11
783.86757971767145
 21
-78.845860287646417
 31
0.0
  0
LINE
  8
0
  6
CONTINUOUS
 62
               4
  5
1FF
 10
787.06133353136534
 20
-71.845860287646417
 30
0.0
 11
787.06133353136534
 21
-75.445860287646383
 31
0.0
  0
LINE
  8
0
  6
CONTINUOUS
 62
               4
  5
200
 10
797.52443396716399
 20
-78.845860287646417
 30
0.0
 11
790.01192099648119
 21
-75.445860287646383
 31
0.0
  0
LINE
  8
0
  6
CONTINUOUS
 62
               4
  5
201
 10
800.36757971767156
 20
-78.845860287646417
 30
0.0
 11
783.86757971767145
 21
-78.845860287646417
 31
0.0
  0
LINE
  8
0
  6
CONTINUOUS
 62
               4
  5
202
 10
800.36757971767156
 20
-78.845860287646417
 30
0.0
 11
800.36757971767156
 21
-71.845860287646417
 31
0.0
  0
LINE
  8
0
  6
CONTINUOUS
 62
               4
  5
203
 10
800.36757971767156
 20
-71.845860287646417
 30
0.0
 11
775.04051825119382
 21
-71.845860287646417
 31
0.0
  0
LINE
  8
0
  6
CONTINUOUS
 62
               4
  5
204
 10
676.16757971767163
 20
-27.84586028764528
 30
0.0
 11
676.16757971767163
 21
-25.545860287645382
 31
0.0
  0
LINE
  8
0
  6
CONTINUOUS
 62
               4
  5
205
 10
676.16757971767163
 20
-25.545860287645382
 30
0.0
 11
650.16757971767174
 21
-25.545860287645382
 31
0.0
  0
LINE
  8
0
  6
CONTINUOUS
 62
               4
  5
206
 10
650.16757971767174
 20
-25.545860287645382
 30
0.0
 11
650.16757971767174
 21
-27.84586028764528
 31
0.0
  0
LINE
  8
0
  6
CONTINUOUS
 62
               4
  5
207
 10
650.16757971767174
 20
-27.84586028764528
 30
0.0
 11
676.16757971767163
 21
-27.84586028764528
 31
0.0
  0
LINE
  8
0
  6
CONTINUOUS
 62
               4
  5
208
 10
778.86757971767202
 20
-25.545860287646235
 30
0.0
 11
778.86757971767202
 21
-27.845860287646133
 31
0.0
  0
LINE
  8
0
  6
CONTINUOUS
 62
               4
  5
209
 10
778.86757971767202
 20
-27.845860287646133
 30
0.0
 11
804.86757971767202
 21
-27.845860287646133
 31
0.0
  0
LINE
  8
0
  6
CONTINUOUS
 62
               4
  5
20A
 10
804.86757971767202
 20
-27.845860287646133
 30
0.0
 11
804.86757971767202
 21
-25.545860287646235
 31
0.0
  0
LINE
  8
0
  6
CONTINUOUS
 62
               4
  5
20B
 10
804.86757971767202
 20
-25.545860287646235
 30
0.0
 11
778.86757971767202
 21
-25.545860287646235
 31
0.0
  0
LINE
  8
0
  6
CONTINUOUS
 62
               4
  5
20C
 10
657.16757971767152
 20
-15.545860287645382
 30
0.0
 11
657.16757971767152
 21
-6.8458602876456212
 31
0.0
  0
LINE
  8
0
  6
CONTINUOUS
 62
               4
  5
20D
 10
669.16757971767174
 20
-6.8458602876456212
 30
0.0
 11
669.16757971767174
 21
-15.545860287645382
 31
0.0
  0
LINE
  8
0
  6
CONTINUOUS
 62
               4
  5
20E
 10
669.16757971767174
 20
-6.8458602876456212
 30
0.0
 11
657.16757971767152
 21
-6.8458602876456212
 31
0.0
  0
LINE
  8
0
  6
CONTINUOUS
 62
               4
  5
20F
 10
785.8675797176719
 20
-15.545860287646235
 30
0.0
 11
785.8675797176719
 21
-6.8458602876461896
 31
0.0
  0
LINE
  8
0
  6
CONTINUOUS
 62
               4
  5
210
 10
797.86757971767179
 20
-6.8458602876461896
 30
0.0
 11
797.86757971767179
 21
-15.545860287646235
 31
0.0
  0
LINE
  8
0
  6
CONTINUOUS
 62
               4
  5
211
 10
797.86757971767179
 20
-6.8458602876461896
 30
0.0
 11
785.8675797176719
 21
-6.8458602876461896
 31
0.0
  0
ARC
  8
0
  6
CONTINUOUS
 62
               4
  5
212
 10
701.7336139057054
 20
92.154139712353526
 30
0.0
 40
17.566965811965957
 50
0.0
 51
36.851448659230869
  0
LINE
  8
0
  6
CONTINUOUS
 62
               4
  5
213
 10
739.24457971767174
 20
107.68979346520621
 30
0.0
 11
715.79057971767133
 21
107.68979346520621
 31
0.0
  0
ARC
  8
0
  6
CONTINUOUS
 62
               4
  5
214
 10
753.30154552963711
 20
92.154139712353526
 30
0.0
 40
17.566965811965957
 50
143.14855134076873
 51
179.9999999999996
  0
LINE
  8
0
  6
CONTINUOUS
 62
               4
  5
215
 10
715.79057971767133
 20
102.68979346520621
 30
0.0
 11
715.79057971767133
 21
107.68979346520621
 31
0.0
  0
LINE
  8
0
  6
CONTINUOUS
 62
               4
  5
216
 10
739.24457971767174
 20
102.68979346520621
 30
0.0
 11
739.24457971767174
 21
107.68979346520621
 31
0.0
  0
LINE
  8
0
  6
CONTINUOUS
 62
               4
  5
217
 10
715.79057971767133
 20
107.68979346520621
 30
0.0
 11
721.51757971767131
 21
102.68979346520621
 31
0.0
  0
LINE
  8
0
  6
CONTINUOUS
 62
               4
  5
218
 10
733.5175797176712
 20
102.68979346520621
 30
0.0
 11
739.24457971767174
 21
107.68979346520621
 31
0.0
  0
LINE
  8
0
  6
CONTINUOUS
 62
               4
  5
219
 10
721.51757971767131
 20
102.68979346520621
 30
0.0
 11
733.5175797176712
 21
102.68979346520621
 31
0.0
  0
LINE
  8
0
  6
CONTINUOUS
 62
               4
  5
21A
 10
733.5175797176712
 20
-22.845860287645962
 30
0.0
 11
733.5175797176712
 21
102.68979346520621
 31
0.0
  0
LINE
  8
0
  6
CONTINUOUS
 62
               4
  5
21B
 10
721.51757971767131
 20
102.68979346520621
 30
0.0
 11
721.51757971767131
 21
-22.845860287645962
 31
0.0
  0
ARC
  8
0
  6
CONTINUOUS
 62
               4
  5
21C
 10
714.30057971767133
 20
-22.845860287645564
 30
0.0
 40
5.0
 50
269.99999999999937
 51
359.9999999999992
  0
ARC
  8
0
  6
CONTINUOUS
 62
               4
  5
21D
 10
740.73457971767118
 20
-22.845860287645564
 30
0.0
 40
5.0
 50
179.9999999999996
 51
269.99999999999937
  0
LINE
  8
0
  6
CONTINUOUS
 62
               4
  5
21E
 10
719.30057971767133
 20
92.154139712353526
 30
0.0
 11
719.30057971767133
 21
-22.845860287645564
 31
0.0
  0
LINE
  8
0
  6
CONTINUOUS
 62
               4
  5
21F
 10
735.73457971767118
 20
92.154139712353526
 30
0.0
 11
735.73457971767118
 21
-22.845860287645564
 31
0.0
  0
ARC
  8
0
  6
CONTINUOUS
 62
               4
  5
220
 10
716.51757971767165
 20
-22.845860287645735
 30
0.0
 40
5.0
 50
269.99999999999937
 51
359.9999999999992
  0
ARC
  8
0
  6
CONTINUOUS
 62
               4
  5
221
 10
738.51757971767142
 20
-22.845860287645962
 30
0.0
 40
5.0
 50
179.9999999999996
 51
269.99999999999937
  0
LINE
  8
0
  6
CONTINUOUS
 62
               4
  5
222
 10
649.2911057163094
 20
-75.445860287646212
 30
0.0
 11
655.16757971767106
 21
-78.84586028764619
 31
0.0
  0
LINE
  8
0
  6
CONTINUOUS
 62
               4
  5
223
 10
646.34051825119354
 20
-75.445860287646212
 30
0.0
 11
649.2911057163094
 21
-75.445860287646212
 31
0.0
  0
LINE
  8
0
  6
CONTINUOUS
 62
               4
  5
224
 10
646.34051825119354
 20
-71.84586028764619
 30
0.0
 11
646.34051825119354
 21
-75.445860287646212
 31
0.0
  0
LINE
  8
0
  6
CONTINUOUS
 62
               4
  5
225
 10
671.66757971767117
 20
-78.84586028764619
 30
0.0
 11
671.66757971767117
 21
-71.84586028764619
 31
0.0
  0
LINE
  8
0
  6
CONTINUOUS
 62
               4
  5
226
 10
671.66757971767117
 20
-78.84586028764619
 30
0.0
 11
655.16757971767106
 21
-78.84586028764619
 31
0.0
  0
LINE
  8
0
  6
CONTINUOUS
 62
               4
  5
227
 10
671.66757971767117
 20
-71.84586028764619
 30
0.0
 11
646.34051825119354
 21
-71.84586028764619
 31
0.0
  0
LINE
  8
0
  6
CONTINUOUS
 62
               4
  5
228
 10
104.51757971767177
 20
102.68979346520621
 30
0.0
 11
99.517579717671765
 21
107.68979346520621
 31
0.0
  0
ARC
  8
0
  6
CONTINUOUS
 62
               4
  5
229
 10
82.017579717671765
 20
92.154139712353469
 30
0.0
 40
19.999999999999996
 50
359.9999999999992
 51
391.78833061705092
  0
LINE
  8
0
  6
CONTINUOUS
 62
               4
  5
22A
 10
99.01757971767222
 20
102.68979346520621
 30
0.0
 11
99.01757971767222
 21
107.68979346520689
 31
0.0
  0
LINE
  8
0
  6
CONTINUOUS
 62
               4
  5
22B
 10
99.517579717671765
 20
107.68979346520621
 30
0.0
 11
99.01757971767222
 21
107.68979346520621
 31
0.0
  0
LINE
  8
0
  6
CONTINUOUS
 62
               4
  5
22C
 10
104.26757971767171
 20
102.43979346520632
 30
0.0
 11
99.01757971767222
 21
107.68979346520621
 31
0.0
  0
LINE
  8
0
  6
CONTINUOUS
 62
               4
  5
22D
 10
104.26757971767171
 20
102.43979346520632
 30
0.0
 11
104.51757971767177
 21
102.68979346520621
 31
0.0
  0
LINE
  8
0
  6
CONTINUOUS
 62
               4
  5
22E
 10
102.01757971767177
 20
92.154139712353469
 30
0.0
 11
102.01757971767177
 21
-16.063527979316177
 31
0.0
  0
LINE
  8
0
  6
CONTINUOUS
 62
               4
  5
22F
 10
104.26757971767171
 20
102.43979346520632
 30
0.0
 11
104.26757971767171
 21
-22.845860287645564
 31
0.0
  0
LINE
  8
0
  6
CONTINUOUS
 62
               4
  5
230
 10
104.51757971767177
 20
102.68979346520621
 30
0.0
 11
104.51757971767177
 21
-22.845860287646531
 31
0.0
  0
LINE
  8
0
  6
CONTINUOUS
 62
               4
  5
231
 10
78.867579717671504
 20
-27.845860287645564
 30
0.0
 11
78.867579717671504
 21
-25.545860287645667
 31
0.0
  0
LINE
  8
0
  6
CONTINUOUS
 62
               4
  5
232
 10
78.867579717671504
 20
-25.545860287645667
 30
0.0
 11
104.86757971767145
 21
-25.545860287645667
 31
0.0
  0
LINE
  8
0
  6
CONTINUOUS
 62
               4
  5
233
 10
104.86757971767145
 20
-25.545860287645667
 30
0.0
 11
104.86757971767145
 21
-27.845860287645564
 31
0.0
  0
LINE
  8
0
  6
CONTINUOUS
 62
               4
  5
234
 10
104.86757971767145
 20
-27.845860287645564
 30
0.0
 11
78.867579717671504
 21
-27.845860287645564
 31
0.0
  0
LINE
  8
0
  6
CONTINUOUS
 62
               4
  5
235
 10
-23.832420282328741
 20
-25.545860287646519
 30
0.0
 11
-23.832420282328741
 21
-27.845860287646417
 31
0.0
  0
LINE
  8
0
  6
CONTINUOUS
 62
               4
  5
236
 10
-23.832420282328741
 20
-27.845860287646417
 30
0.0
 11
-49.832420282328826
 21
-27.845860287646417
 31
0.0
  0
LINE
  8
0
  6
CONTINUOUS
 62
               4
  5
237
 10
-49.832420282328826
 20
-27.845860287646417
 30
0.0
 11
-49.832420282328826
 21
-25.545860287646519
 31
0.0
  0
LINE
  8
0
  6
CONTINUOUS
 62
               4
  5
238
 10
-49.832420282328826
 20
-25.545860287646519
 30
0.0
 11
-23.832420282328741
 21
-25.545860287646519
 31
0.0
  0
LINE
  8
0
  6
CONTINUOUS
 62
               4
  5
239
 10
97.867579717671561
 20
-15.545860287645667
 30
0.0
 11
97.867579717671561
 21
-6.8458602876459054
 31
0.0
  0
LINE
  8
0
  6
CONTINUOUS
 62
               4
  5
23A
 10
85.867579717671674
 20
-6.8458602876459054
 30
0.0
 11
85.867579717671674
 21
-15.545860287645667
 31
0.0
  0
LINE
  8
0
  6
CONTINUOUS
 62
               4
  5
23B
 10
85.867579717671674
 20
-6.8458602876459054
 30
0.0
 11
97.867579717671561
 21
-6.8458602876459054
 31
0.0
  0
LINE
  8
0
  6
CONTINUOUS
 62
               4
  5
23C
 10
-30.832420282328769
 20
-15.545860287646519
 30
0.0
 11
-30.832420282328769
 21
-6.8458602876464738
 31
0.0
  0
LINE
  8
0
  6
CONTINUOUS
 62
               4
  5
23D
 10
-42.832420282328656
 20
-6.8458602876464738
 30
0.0
 11
-42.832420282328656
 21
-15.545860287646519
 31
0.0
  0
LINE
  8
0
  6
CONTINUOUS
 62
               4
  5
23E
 10
-42.832420282328656
 20
-6.8458602876464738
 30
0.0
 11
-30.832420282328769
 21
-6.8458602876464738
 31
0.0
  0
ARC
  8
0
  6
CONTINUOUS
 62
               4
  5
23F
 10
109.51757971767091
 20
-22.845860287645394
 30
0.0
 40
5.0
 50
179.9999999999996
 51
269.99999999999937
  0
ARC
  8
0
  6
CONTINUOUS
 62
               4
  5
240
 10
109.26757971767086
 20
-22.845860287644427
 30
0.0
 40
5.0
 50
179.9999999999996
 51
269.99999999999937
  0
ARC
  8
0
  6
CONTINUOUS
 62
               4
  5
241
 10
107.01757971767091
 20
-22.845860287644427
 30
0.0
 40
5.0
 50
179.9999999999996
 51
212.68363884627433
  0
ARC
  8
0
  6
CONTINUOUS
 62
               4
  5
242
 10
107.01757971767091
 20
-22.845860287644427
 30
0.0
 40
5.0
 50
244.53243985753562
 51
269.99999999999937
  0
CIRCLE
  8
0
  6
CONTINUOUS
 62
               4
  5
243
 10
-36.971218107305958
 20
623.62491134986271
 30
0.0
 40
13.0
  0
CIRCLE
  8
0
  6
CONTINUOUS
 62
               4
  5
244
 10
-36.971218107305958
 20
752.31834552581449
 30
0.0
 40
13.0
  0
LINE
  8
0
  6
CONTINUOUS
 62
               4
  5
245
 10
75.040518251193959
 20
-71.845860287646474
 30
0.0
 11
75.040518251193959
 21
-75.44586028764644
 31
0.0
  0
LINE
  8
0
  6
CONTINUOUS
 62
               4
  5
246
 10
-737.98242028232937
 20
-700.84586087894036
 30
0.0
 11
-606.98242028232744
 21
-700.84586087894036
 31
0.0
  0
LINE
  8
0
  6
CONTINUOUS
 62
               4
  5
247
 10
662.01757971767074
 20
-700.84586087894036
 30
0.0
 11
793.01757971767256
 21
-700.84586087894036
 31
0.0
  0
LINE
  8
0
  6
CONTINUOUS
 62
               4
  5
248
 10
-37.98242028232994
 20
-700.84586087894013
 30
0.0
 11
93.017579717671964
 21
-700.84586087894013
 31
0.0
  0
LINE
  8
0
  6
CONTINUOUS
 62
               4
  5
249
 10
-63.482420282328917
 20
-601.5910826662639
 30
0.0
 11
-63.482420282328917
 21
-591.71679645920813
 31
0.0
  0
LINE
  8
0
  6
CONTINUOUS
 62
               4
  5
24A
 10
118.51757971767083
 20
-601.5910826662639
 30
0.0
 11
118.51757971767083
 21
-591.71679645920813
 31
0.0
  0
POINT
  8
0
  6
CONTINUOUS
 62
               4
  5
24B
 10
-219.52018933279709
 20
-1172.887160963782
 30
0.0
  0
POINT
  8
0
  6
CONTINUOUS
 62
               4
  5
24C
 10
-509.72018933279685
 20
-1172.887160963782
 30
0.0
  0
POINT
  8
0
  6
CONTINUOUS
 62
               4
  5
24D
 10
-322.06614672856364
 20
-1064.8192768947472
 30
0.0
  0
POINT
  8
0
  6
CONTINUOUS
 62
               4
  5
24E
 10
270.35150340355261
 20
-1172.887160963782
 30
0.0
  0
POINT
  8
0
  6
CONTINUOUS
 62
               4
  5
24F
 10
26.439470953066735
 20
-1172.887160963782
 30
0.0
  0
POINT
  8
0
  6
CONTINUOUS
 62
               4
  5
250
 10
192.89548717830979
 20
-1084.9311447385394
 30
0.0
  0
LINE
  8
0
  6
CONTINUOUS
 62
               4
  5
251
 10
713.80410293397938
 20
-1564.6665053877225
 30
0.0
 11
708.80410293397938
 21
-1559.6665053877225
 31
0.0
  0
ARC
  8
0
  6
CONTINUOUS
 62
               4
  5
252
 10
691.30410293397938
 20
-1575.2021591405753
 30
0.0
 40
19.999999999999996
 50
0.0
 51
31.788330617027277
  0
LINE
  8
0
  6
CONTINUOUS
 62
               4
  5
253
 10
708.30410293397983
 20
-1564.6665053877225
 30
0.0
 11
708.30410293397983
 21
-1559.6665053877221
 31
0.0
  0
LINE
  8
0
  6
CONTINUOUS
 62
               4
  5
254
 10
708.80410293397938
 20
-1559.6665053877225
 30
0.0
 11
708.30410293397983
 21
-1559.6665053877225
 31
0.0
  0
LINE
  8
0
  6
CONTINUOUS
 62
               4
  5
255
 10
713.55410293397961
 20
-1564.9165053877225
 30
0.0
 11
708.30410293397983
 21
-1559.6665053877225
 31
0.0
  0
LINE
  8
0
  6
CONTINUOUS
 62
               4
  5
256
 10
713.55410293397961
 20
-1564.9165053877225
 30
0.0
 11
713.80410293397938
 21
-1564.6665053877225
 31
0.0
  0
LINE
  8
0
  6
CONTINUOUS
 62
               4
  5
257
 10
713.80410293397938
 20
-1564.6665053877225
 30
0.0
 11
713.80410293397938
 21
-1695.3551827376925
 31
0.0
  0
LINE
  8
0
  6
CONTINUOUS
 62
               4
  5
258
 10
713.55410293397961
 20
-1564.9165053877225
 30
0.0
 11
713.55410293397961
 21
-1695.069825630557
 31
0.0
  0
LINE
  8
0
  6
CONTINUOUS
 62
               4
  5
259
 10
711.30410293397938
 20
-1575.0491355434581
 30
0.0
 11
711.30410293397938
 21
-1694.2021591405753
 31
0.0
  0
POINT
  8
0
  6
CONTINUOUS
 62
               4
  5
25A
 10
681.30410293397961
 20
-1304.1027253919913
 30
0.0
  0
POINT
  8
0
  6
CONTINUOUS
 62
               4
  5
25B
 10
492.40410293397946
 20
-1589.7021591405753
 30
0.0
  0
POINT
  8
0
  6
CONTINUOUS
 62
               4
  5
25C
 10
492.40410293397957
 20
-1204.2027253919907
 30
0.0
  0
LINE
  8
0
  6
DASHED2
 62
               4
  5
25D
 10
-731.17852898713829
 20
134.15413971235353
 30
0.0
 11
-615.9297039369601
 21
134.15413971235353
 31
0.0
  0
ARC
  8
0
  6
DASHED2
 62
               4
  5
25E
 10
84.952479491285828
 20
668.18365533151041
 30
0.0
 40
20.0
 50
208.65202615927427
 51
217.35556117864218
  0
LINE
  8
0
  6
DASHED2
 62
               4
  5
25F
 10
-620.98242028232835
 20
-595.84586087894149
 30
0.0
 11
-620.98242028232835
 21
-202.93190153981206
 31
0.0
  0
LINE
  8
0
  6
DASHED2
 62
               4
  5
260
 10
-723.98242028232858
 20
-595.84586087894149
 30
0.0
 11
-723.98242028232858
 21
-202.93190153981206
 31
0.0
  0
LINE
  8
0
  6
DASHED2
 62
               4
  5
261
 10
-23.982420282328405
 20
-595.84586087894149
 30
0.0
 11
-23.982420282328405
 21
-202.93190153981206
 31
0.0
  0
LINE
  8
0
  6
DASHED2
 62
               4
  5
262
 10
79.017579717671708
 20
-595.84586087894149
 30
0.0
 11
79.017579717671708
 21
-202.93190153981206
 31
0.0
  0
LINE
  8
0
  6
DASHED2
 62
               4
  5
263
 10
779.01757971767165
 20
-595.84586087894115
 30
0.0
 11
779.01757971767165
 21
-202.93190153981178
 31
0.0
  0
LINE
  8
0
  6
DASHED2
 62
               4
  5
264
 10
676.01757971767142
 20
-595.84586087894115
 30
0.0
 11
676.01757971767142
 21
-202.93190153981178
 31
0.0
  0
LINE
  8
0
  6
DASHED2
 62
               4
  5
265
 10
67.375498980669875
 20
665.97162843783849
 30
0.0
 11
67.375498980669875
 21
658.64150141891582
 31
0.0
  0
LINE
  8
0
  6
DASHED2
 62
               4
  5
266
 10
-29.482420282328292
 20
134.15413971235353
 30
0.0
 11
84.517579717671765
 21
134.15413971235353
 31
0.0
  0
LINE
  8
0
  6
DASHED2
 62
               4
  5
267
 10
670.51757971767165
 20
134.15413971235353
 30
0.0
 11
784.51757971767177
 21
134.15413971235353
 31
0.0
  0
LINE
  8
0
  6
DASHED2
 62
               4
  5
268
 10
-729.98242028233085
 20
-610.84586087894263
 30
0.0
 11
-729.98242028233085
 21
-675.84586087894036
 31
0.0
  0
LINE
  8
0
  6
DASHED2
 62
               4
  5
269
 10
-729.98242028233085
 20
-610.84586087894263
 30
0.0
 11
-672.48242028232903
 21
-610.84586087894149
 31
0.0
  0
LINE
  8
0
  6
DASHED2
 62
               4
  5
26A
 10
-614.98242028232619
 20
-610.84586087894263
 30
0.0
 11
-672.48242028232789
 21
-610.84586087894149
 31
0.0
  0
LINE
  8
0
  6
DASHED2
 62
               4
  5
26B
 10
-614.98242028232619
 20
-610.84586087894263
 30
0.0
 11
-614.98242028232619
 21
-675.84586087894036
 31
0.0
  0
LINE
  8
0
  6
DASHED2
 62
               4
  5
26C
 10
-684.24242028232868
 20
-595.84586087894149
 30
0.0
 11
-684.24242028232868
 21
-587.31973237963427
 31
0.0
  0
LINE
  8
0
  6
DASHED2
 62
               4
  5
26D
 10
-678.35344753659422
 20
-587.31973237963427
 30
0.0
 11
-678.35344753659422
 21
-595.84586087894149
 31
0.0
  0
LINE
  8
0
  6
DASHED2
 62
               4
  5
26E
 10
-681.29793390946134
 20
-586.24586087894136
 30
0.0
 11
-663.66690665519536
 21
-586.24586087894136
 31
0.0
  0
LINE
  8
0
  6
DASHED2
 62
               4
  5
26F
 10
-660.72242028232836
 20
-595.84586087894149
 30
0.0
 11
-660.72242028232836
 21
-587.31973237963427
 31
0.0
  0
LINE
  8
0
  6
DASHED2
 62
               4
  5
270
 10
-666.61139302806305
 20
-595.84586087894149
 30
0.0
 11
-666.61139302806305
 21
-587.31973237963427
 31
0.0
  0
ARC
  8
0
  6
DASHED2
 62
               4
  5
271
 10
-681.29793390946134
 20
-590.81959246305735
 30
0.0
 40
4.5737315841157447
 50
49.925579661612304
 51
130.07442033835341
  0
ARC
  8
0
  6
DASHED2
 62
               4
  5
272
 10
-663.66690665519536
 20
-590.81959246305735
 30
0.0
 40
4.5737315841157686
 50
49.925579661612304
 51
130.07442033835341
  0
ARC
  8
0
  6
DASHED2
 62
               4
  5
273
 10
-672.48242028232846
 20
-602.83171914846184
 30
0.0
 40
16.58585826952007
 50
69.269184858547646
 51
110.73081514141818
  0
LINE
  8
0
  6
DASHED2
 62
               4
  5
274
 10
-684.24242028233004
 20
-597.84586087894183
 30
0.0
 11
-684.24242028233004
 21
-606.37198937824905
 31
0.0
  0
LINE
  8
0
  6
DASHED2
 62
               4
  5
275
 10
-678.3534475365957
 20
-606.37198937824905
 30
0.0
 11
-678.3534475365957
 21
-597.84586087894183
 31
0.0
  0
LINE
  8
0
  6
DASHED2
 62
               4
  5
276
 10
-681.2979339094627
 20
-607.44586087894163
 30
0.0
 11
-663.66690665519707
 21
-607.44586087894163
 31
0.0
  0
LINE
  8
0
  6
DASHED2
 62
               4
  5
277
 10
-660.72242028232972
 20
-597.84586087894183
 30
0.0
 11
-660.72242028232972
 21
-606.37198937824905
 31
0.0
  0
LINE
  8
0
  6
DASHED2
 62
               4
  5
278
 10
-666.61139302806419
 20
-597.84586087894183
 30
0.0
 11
-666.61139302806419
 21
-606.37198937824905
 31
0.0
  0
ARC
  8
0
  6
DASHED2
 62
               4
  5
279
 10
-681.2979339094627
 20
-602.87212929482621
 30
0.0
 40
4.5737315841157447
 50
229.92557966157796
 51
310.07442033831961
  0
ARC
  8
0
  6
DASHED2
 62
               4
  5
27A
 10
-663.66690665519707
 20
-602.87212929482621
 30
0.0
 40
4.5737315841157686
 50
229.92557966157852
 51
310.07442033831961
  0
ARC
  8
0
  6
DASHED2
 62
               4
  5
27B
 10
-672.48242028232994
 20
-590.86000260942171
 30
0.0
 40
16.58585826952007
 50
249.26918485851303
 51
290.73081514138352
  0
LINE
  8
0
  6
DASHED2
 62
               4
  5
27C
 10
-678.48242028232846
 20
-607.44586087894163
 30
0.0
 11
-678.48242028232846
 21
-617.96522712126625
 31
0.0
  0
LINE
  8
0
  6
DASHED2
 62
               4
  5
27D
 10
-666.48242028232858
 20
-607.44586087894163
 30
0.0
 11
-666.48242028232858
 21
-617.96522712126625
 31
0.0
  0
LINE
  8
0
  6
DASHED2
 62
               4
  5
27E
 10
-677.28242028232864
 20
-619.16522712126664
 30
0.0
 11
-667.68242028232862
 21
-619.16522712126664
 31
0.0
  0
LINE
  8
0
  6
DASHED2
 62
               4
  5
27F
 10
-678.48242028232846
 20
-617.96522712126625
 30
0.0
 11
-677.28242028232864
 21
-619.16522712126664
 31
0.0
  0
LINE
  8
0
  6
DASHED2
 62
               4
  5
280
 10
-666.48242028232858
 20
-617.96522712126625
 30
0.0
 11
-667.68242028232862
 21
-619.16522712126664
 31
0.0
  0
LINE
  8
0
  6
DASHED2
 62
               4
  5
281
 10
-684.24242028232868
 20
-595.84586087894149
 30
0.0
 11
-660.72242028232836
 21
-595.84586087894149
 31
0.0
  0
LINE
  8
0
  6
DASHED2
 62
               4
  5
282
 10
-660.72242028232972
 20
-597.84586087894183
 30
0.0
 11
-684.24242028233004
 21
-597.84586087894183
 31
0.0
  0
LINE
  8
0
  6
DASHED2
 62
               4
  5
283
 10
-678.48242028232846
 20
-480.78228140301269
 30
0.0
 11
-678.48242028232846
 21
-586.24586087894136
 31
0.0
  0
LINE
  8
0
  6
DASHED2
 62
               4
  5
284
 10
-666.48242028232858
 20
-480.78228140301269
 30
0.0
 11
-666.48242028232858
 21
-586.24586087894136
 31
0.0
  0
LINE
  8
0
  6
DASHED2
 62
               4
  5
285
 10
-666.48242028232858
 20
-480.78228140301269
 30
0.0
 11
-678.48242028232846
 21
-480.78228140301269
 31
0.0
  0
LINE
  8
0
  6
DASHED2
 62
               4
  5
286
 10
670.01757971766926
 20
-610.84586087894263
 30
0.0
 11
670.01757971766926
 21
-675.84586087894036
 31
0.0
  0
LINE
  8
0
  6
DASHED2
 62
               4
  5
287
 10
670.01757971766926
 20
-610.84586087894263
 30
0.0
 11
727.51757971767108
 21
-610.84586087894149
 31
0.0
  0
LINE
  8
0
  6
DASHED2
 62
               4
  5
288
 10
785.01757971767393
 20
-610.84586087894263
 30
0.0
 11
727.51757971767222
 21
-610.84586087894149
 31
0.0
  0
LINE
  8
0
  6
DASHED2
 62
               4
  5
289
 10
785.01757971767393
 20
-610.84586087894263
 30
0.0
 11
785.01757971767393
 21
-675.84586087894036
 31
0.0
  0
LINE
  8
0
  6
DASHED2
 62
               4
  5
28A
 10
715.75757971767143
 20
-595.84586087894149
 30
0.0
 11
715.75757971767143
 21
-587.31973237963427
 31
0.0
  0
LINE
  8
0
  6
DASHED2
 62
               4
  5
28B
 10
721.6465524634059
 20
-587.31973237963427
 30
0.0
 11
721.6465524634059
 21
-595.84586087894149
 31
0.0
  0
LINE
  8
0
  6
DASHED2
 62
               4
  5
28C
 10
718.70206609053878
 20
-586.24586087894136
 30
0.0
 11
736.33309334480475
 21
-586.24586087894136
 31
0.0
  0
LINE
  8
0
  6
DASHED2
 62
               4
  5
28D
 10
739.27757971767176
 20
-595.84586087894149
 30
0.0
 11
739.27757971767176
 21
-587.31973237963427
 31
0.0
  0
LINE
  8
0
  6
DASHED2
 62
               4
  5
28E
 10
733.38860697193707
 20
-595.84586087894149
 30
0.0
 11
733.38860697193707
 21
-587.31973237963427
 31
0.0
  0
ARC
  8
0
  6
DASHED2
 62
               4
  5
28F
 10
718.70206609053878
 20
-590.81959246305735
 30
0.0
 40
4.5737315841157447
 50
49.925579661612304
 51
130.07442033835341
  0
ARC
  8
0
  6
DASHED2
 62
               4
  5
290
 10
736.33309334480475
 20
-590.81959246305735
 30
0.0
 40
4.5737315841157686
 50
49.925579661612304
 51
130.07442033835341
  0
ARC
  8
0
  6
DASHED2
 62
               4
  5
291
 10
727.51757971767165
 20
-602.83171914846184
 30
0.0
 40
16.58585826952007
 50
69.269184858547646
 51
110.73081514141818
  0
LINE
  8
0
  6
DASHED2
 62
               4
  5
292
 10
715.75757971767007
 20
-597.84586087894183
 30
0.0
 11
715.75757971767007
 21
-606.37198937824905
 31
0.0
  0
LINE
  8
0
  6
DASHED2
 62
               4
  5
293
 10
721.64655246340442
 20
-606.37198937824905
 30
0.0
 11
721.64655246340442
 21
-597.84586087894183
 31
0.0
  0
LINE
  8
0
  6
DASHED2
 62
               4
  5
294
 10
718.70206609053741
 20
-607.44586087894163
 30
0.0
 11
736.33309334480305
 21
-607.44586087894163
 31
0.0
  0
LINE
  8
0
  6
DASHED2
 62
               4
  5
295
 10
739.27757971767039
 20
-597.84586087894183
 30
0.0
 11
739.27757971767039
 21
-606.37198937824905
 31
0.0
  0
LINE
  8
0
  6
DASHED2
 62
               4
  5
296
 10
733.38860697193593
 20
-597.84586087894183
 30
0.0
 11
733.38860697193593
 21
-606.37198937824905
 31
0.0
  0
ARC
  8
0
  6
DASHED2
 62
               4
  5
297
 10
718.70206609053741
 20
-602.87212929482621
 30
0.0
 40
4.5737315841157447
 50
229.92557966157796
 51
310.07442033831961
  0
ARC
  8
0
  6
DASHED2
 62
               4
  5
298
 10
736.33309334480305
 20
-602.87212929482621
 30
0.0
 40
4.5737315841157686
 50
229.92557966157852
 51
310.07442033831961
  0
ARC
  8
0
  6
DASHED2
 62
               4
  5
299
 10
727.51757971767017
 20
-590.86000260942171
 30
0.0
 40
16.58585826952007
 50
249.26918485851303
 51
290.73081514138352
  0
LINE
  8
0
  6
DASHED2
 62
               4
  5
29A
 10
721.51757971767165
 20
-607.44586087894163
 30
0.0
 11
721.51757971767165
 21
-617.96522712126625
 31
0.0
  0
LINE
  8
0
  6
DASHED2
 62
               4
  5
29B
 10
733.51757971767154
 20
-607.44586087894163
 30
0.0
 11
733.51757971767154
 21
-617.96522712126625
 31
0.0
  0
LINE
  8
0
  6
DASHED2
 62
               4
  5
29C
 10
722.71757971767147
 20
-619.16522712126664
 30
0.0
 11
732.31757971767149
 21
-619.16522712126664
 31
0.0
  0
LINE
  8
0
  6
DASHED2
 62
               4
  5
29D
 10
721.51757971767165
 20
-617.96522712126625
 30
0.0
 11
722.71757971767147
 21
-619.16522712126664
 31
0.0
  0
LINE
  8
0
  6
DASHED2
 62
               4
  5
29E
 10
733.51757971767154
 20
-617.96522712126625
 30
0.0
 11
732.31757971767149
 21
-619.16522712126664
 31
0.0
  0
LINE
  8
0
  6
DASHED2
 62
               4
  5
29F
 10
715.75757971767143
 20
-595.84586087894149
 30
0.0
 11
739.27757971767176
 21
-595.84586087894149
 31
0.0
  0
LINE
  8
0
  6
DASHED2
 62
               4
  5
2A0
 10
739.27757971767039
 20
-597.84586087894183
 30
0.0
 11
715.75757971767007
 21
-597.84586087894183
 31
0.0
  0
LINE
  8
0
  6
DASHED2
 62
               4
  5
2A1
 10
721.51757971767165
 20
-480.78228140301269
 30
0.0
 11
721.51757971767165
 21
-586.24586087894136
 31
0.0
  0
LINE
  8
0
  6
DASHED2
 62
               4
  5
2A2
 10
733.51757971767154
 20
-480.78228140301269
 30
0.0
 11
733.51757971767154
 21
-586.24586087894136
 31
0.0
  0
LINE
  8
0
  6
DASHED2
 62
               4
  5
2A3
 10
733.51757971767154
 20
-480.78228140301269
 30
0.0
 11
721.51757971767165
 21
-480.78228140301269
 31
0.0
  0
LINE
  8
0
  6
DASHED2
 62
               4
  5
2A4
 10
-29.98242028233139
 20
-610.84586087894263
 30
0.0
 11
-29.98242028233139
 21
-675.84586087894036
 31
0.0
  0
LINE
  8
0
  6
DASHED2
 62
               4
  5
2A5
 10
-29.98242028233139
 20
-610.84586087894263
 30
0.0
 11
27.517579717670458
 21
-610.84586087894149
 31
0.0
  0
LINE
  8
0
  6
DASHED2
 62
               4
  5
2A6
 10
85.0175797176733
 20
-610.84586087894263
 30
0.0
 11
27.517579717671595
 21
-610.84586087894149
 31
0.0
  0
LINE
  8
0
  6
DASHED2
 62
               4
  5
2A7
 10
85.0175797176733
 20
-610.84586087894263
 30
0.0
 11
85.0175797176733
 21
-675.84586087894036
 31
0.0
  0
ARC
  8
0
  6
DASHED2
 62
               4
  5
2A8
 10
143.7020660905396
 20
-602.87212929482575
 30
0.0
 40
4.5737315841157686
 50
229.92557966167917
 51
310.07442033842028
  0
ARC
  8
0
  6
DASHED2
 62
               4
  5
2A9
 10
152.51757971767242
 20
-590.86000260942126
 30
0.0
 40
16.58585826952007
 50
249.26918485861526
 51
290.73081514148578
  0
LINE
  8
0
  6
DASHED2
 62
               4
  5
2AA
 10
158.51757971767094
 20
-607.44586087894118
 30
0.0
 11
158.51757971767094
 21
-617.9652271212658
 31
0.0
  0
LINE
  8
0
  6
DASHED2
 62
               4
  5
2AB
 10
146.51757971767105
 20
-607.44586087894118
 30
0.0
 11
146.51757971767105
 21
-617.9652271212658
 31
0.0
  0
LINE
  8
0
  6
DASHED2
 62
               4
  5
2AC
 10
157.31757971767118
 20
-619.16522712126618
 30
0.0
 11
147.7175797176711
 21
-619.16522712126618
 31
0.0
  0
LINE
  8
0
  6
DASHED2
 62
               4
  5
2AD
 10
158.51757971767094
 20
-617.9652271212658
 30
0.0
 11
157.31757971767118
 21
-619.16522712126618
 31
0.0
  0
LINE
  8
0
  6
DASHED2
 62
               4
  5
2AE
 10
146.51757971767105
 20
-617.9652271212658
 30
0.0
 11
147.7175797176711
 21
-619.16522712126618
 31
0.0
  0
LINE
  8
0
  6
DASHED2
 62
               4
  5
2AF
 10
-109.24242028232914
 20
-595.84586087894104
 30
0.0
 11
-109.24242028232914
 21
-587.31973237963382
 31
0.0
  0
LINE
  8
0
  6
DASHED2
 62
               4
  5
2B0
 10
-103.35344753659473
 20
-587.31973237963382
 30
0.0
 11
-103.35344753659473
 21
-595.84586087894104
 31
0.0
  0
LINE
  8
0
  6
DASHED2
 62
               4
  5
2B1
 10
-106.29793390946179
 20
-586.2458608789409
 30
0.0
 11
-88.666906655195874
 21
-586.2458608789409
 31
0.0
  0
LINE
  8
0
  6
DASHED2
 62
               4
  5
2B2
 10
-85.722420282328812
 20
-595.84586087894104
 30
0.0
 11
-85.722420282328812
 21
-587.31973237963382
 31
0.0
  0
LINE
  8
0
  6
DASHED2
 62
               4
  5
2B3
 10
-91.611393028063503
 20
-595.84586087894104
 30
0.0
 11
-91.611393028063503
 21
-587.31973237963382
 31
0.0
  0
ARC
  8
0
  6
DASHED2
 62
               4
  5
2B4
 10
-106.29793390946179
 20
-590.81959246305689
 30
0.0
 40
4.5737315841157447
 50
49.925579661612304
 51
130.07442033835341
  0
ARC
  8
0
  6
DASHED2
 62
               4
  5
2B5
 10
-88.666906655195874
 20
-590.81959246305689
 30
0.0
 40
4.5737315841157686
 50
49.925579661612304
 51
130.07442033835341
  0
ARC
  8
0
  6
DASHED2
 62
               4
  5
2B6
 10
-97.482420282328974
 20
-602.83171914846139
 30
0.0
 40
16.58585826952007
 50
69.269184858547646
 51
110.73081514141818
  0
LINE
  8
0
  6
DASHED2
 62
               4
  5
2B7
 10
-109.24242028233056
 20
-597.84586087894138
 30
0.0
 11
-109.24242028233056
 21
-606.3719893782486
 31
0.0
  0
LINE
  8
0
  6
DASHED2
 62
               4
  5
2B8
 10
-103.35344753659615
 20
-606.3719893782486
 30
0.0
 11
-103.35344753659615
 21
-597.84586087894138
 31
0.0
  0
LINE
  8
0
  6
DASHED2
 62
               4
  5
2B9
 10
-106.29793390946321
 20
-607.44586087894118
 30
0.0
 11
-88.666906655197579
 21
-607.44586087894118
 31
0.0
  0
LINE
  8
0
  6
DASHED2
 62
               4
  5
2BA
 10
-85.722420282330233
 20
-597.84586087894138
 30
0.0
 11
-85.722420282330233
 21
-606.3719893782486
 31
0.0
  0
LINE
  8
0
  6
DASHED2
 62
               4
  5
2BB
 10
-91.61139302806464
 20
-597.84586087894138
 30
0.0
 11
-91.61139302806464
 21
-606.3719893782486
 31
0.0
  0
ARC
  8
0
  6
DASHED2
 62
               4
  5
2BC
 10
-106.29793390946321
 20
-602.87212929482575
 30
0.0
 40
4.5737315841157447
 50
229.92557966157796
 51
310.07442033831961
  0
ARC
  8
0
  6
DASHED2
 62
               4
  5
2BD
 10
-88.666906655197579
 20
-602.87212929482575
 30
0.0
 40
4.5737315841157686
 50
229.92557966157852
 51
310.07442033831961
  0
ARC
  8
0
  6
DASHED2
 62
               4
  5
2BE
 10
-97.482420282330395
 20
-590.86000260942126
 30
0.0
 40
16.58585826952007
 50
249.26918485851303
 51
290.73081514138352
  0
LINE
  8
0
  6
DASHED2
 62
               4
  5
2BF
 10
-103.48242028232892
 20
-607.44586087894118
 30
0.0
 11
-103.48242028232892
 21
-617.9652271212658
 31
0.0
  0
LINE
  8
0
  6
DASHED2
 62
               4
  5
2C0
 10
-91.482420282329031
 20
-607.44586087894118
 30
0.0
 11
-91.482420282329031
 21
-617.9652271212658
 31
0.0
  0
LINE
  8
0
  6
DASHED2
 62
               4
  5
2C1
 10
-102.28242028232916
 20
-619.16522712126618
 30
0.0
 11
-92.682420282329076
 21
-619.16522712126618
 31
0.0
  0
LINE
  8
0
  6
DASHED2
 62
               4
  5
2C2
 10
-103.48242028232892
 20
-617.9652271212658
 30
0.0
 11
-102.28242028232916
 21
-619.16522712126618
 31
0.0
  0
LINE
  8
0
  6
DASHED2
 62
               4
  5
2C3
 10
-91.482420282329031
 20
-617.9652271212658
 30
0.0
 11
-92.682420282329076
 21
-619.16522712126618
 31
0.0
  0
LINE
  8
0
  6
DASHED2
 62
               4
  5
2C4
 10
-109.24242028232914
 20
-595.84586087894104
 30
0.0
 11
-85.722420282328812
 21
-595.84586087894104
 31
0.0
  0
LINE
  8
0
  6
DASHED2
 62
               4
  5
2C5
 10
-85.722420282330233
 20
-597.84586087894138
 30
0.0
 11
-109.24242028233056
 21
-597.84586087894138
 31
0.0
  0
LINE
  8
0
  6
DASHED2
 62
               4
  5
2C6
 10
-103.48242028232892
 20
-480.78228140301223
 30
0.0
 11
-103.48242028232892
 21
-586.2458608789409
 31
0.0
  0
LINE
  8
0
  6
DASHED2
 62
               4
  5
2C7
 10
-91.482420282329031
 20
-480.78228140301223
 30
0.0
 11
-91.482420282329031
 21
-586.2458608789409
 31
0.0
  0
LINE
  8
0
  6
DASHED2
 62
               4
  5
2C8
 10
-91.482420282329031
 20
-480.78228140301223
 30
0.0
 11
-103.48242028232892
 21
-480.78228140301223
 31
0.0
  0
LINE
  8
0
  6
DASHED2
 62
               4
  5
2C9
 10
164.27757971767116
 20
-595.84586087894104
 30
0.0
 11
164.27757971767116
 21
-587.31973237963382
 31
0.0
  0
LINE
  8
0
  6
DASHED2
 62
               4
  5
2CA
 10
158.38860697193675
 20
-587.31973237963382
 30
0.0
 11
158.38860697193675
 21
-595.84586087894104
 31
0.0
  0
LINE
  8
0
  6
DASHED2
 62
               4
  5
2CB
 10
161.33309334480381
 20
-586.2458608789409
 30
0.0
 11
143.7020660905379
 21
-586.2458608789409
 31
0.0
  0
LINE
  8
0
  6
DASHED2
 62
               4
  5
2CC
 10
140.75757971767084
 20
-595.84586087894104
 30
0.0
 11
140.75757971767084
 21
-587.31973237963382
 31
0.0
  0
LINE
  8
0
  6
DASHED2
 62
               4
  5
2CD
 10
146.64655246340553
 20
-595.84586087894104
 30
0.0
 11
146.64655246340553
 21
-587.31973237963382
 31
0.0
  0
ARC
  8
0
  6
DASHED2
 62
               4
  5
2CE
 10
161.33309334480381
 20
-590.81959246305689
 30
0.0
 40
4.5737315841157447
 50
49.925579661646204
 51
130.07442033838728
  0
ARC
  8
0
  6
DASHED2
 62
               4
  5
2CF
 10
143.7020660905379
 20
-590.81959246305689
 30
0.0
 40
4.5737315841157686
 50
49.925579661646204
 51
130.07442033838728
  0
ARC
  8
0
  6
DASHED2
 62
               4
  5
2D0
 10
152.517579717671
 20
-602.83171914846139
 30
0.0
 40
16.58585826952007
 50
69.269184858581426
 51
110.73081514145197
  0
LINE
  8
0
  6
DASHED2
 62
               4
  5
2D1
 10
164.27757971767258
 20
-597.84586087894138
 30
0.0
 11
164.27757971767258
 21
-606.3719893782486
 31
0.0
  0
LINE
  8
0
  6
DASHED2
 62
               4
  5
2D2
 10
158.38860697193817
 20
-606.3719893782486
 30
0.0
 11
158.38860697193817
 21
-597.84586087894138
 31
0.0
  0
LINE
  8
0
  6
DASHED2
 62
               4
  5
2D3
 10
161.33309334480523
 20
-607.44586087894118
 30
0.0
 11
143.7020660905396
 21
-607.44586087894118
 31
0.0
  0
LINE
  8
0
  6
DASHED2
 62
               4
  5
2D4
 10
140.75757971767226
 20
-597.84586087894138
 30
0.0
 11
140.75757971767226
 21
-606.3719893782486
 31
0.0
  0
LINE
  8
0
  6
DASHED2
 62
               4
  5
2D5
 10
146.64655246340666
 20
-597.84586087894138
 30
0.0
 11
146.64655246340666
 21
-606.3719893782486
 31
0.0
  0
ARC
  8
0
  6
DASHED2
 62
               4
  5
2D6
 10
161.33309334480523
 20
-602.87212929482575
 30
0.0
 40
4.5737315841157447
 50
229.92557966167917
 51
310.07442033842085
  0
LINE
  8
0
  6
DASHED2
 62
               4
  5
2D7
 10
164.27757971767116
 20
-595.84586087894104
 30
0.0
 11
140.75757971767084
 21
-595.84586087894104
 31
0.0
  0
LINE
  8
0
  6
DASHED2
 62
               4
  5
2D8
 10
140.75757971767226
 20
-597.84586087894138
 30
0.0
 11
164.27757971767258
 21
-597.84586087894138
 31
0.0
  0
LINE
  8
0
  6
DASHED2
 62
               4
  5
2D9
 10
158.51757971767094
 20
-480.78228140301223
 30
0.0
 11
158.51757971767094
 21
-586.2458608789409
 31
0.0
  0
LINE
  8
0
  6
DASHED2
 62
               4
  5
2DA
 10
146.51757971767105
 20
-480.78228140301223
 30
0.0
 11
146.51757971767105
 21
-586.2458608789409
 31
0.0
  0
LINE
  8
0
  6
DASHED2
 62
               4
  5
2DB
 10
146.51757971767105
 20
-480.78228140301223
 30
0.0
 11
158.51757971767094
 21
-480.78228140301223
 31
0.0
  0
LINE
  8
0
  6
DASHED2
 62
               4
  5
2DC
 10
164.27757971767116
 20
-595.84586087894104
 30
0.0
 11
164.27757971767116
 21
-587.31973237963382
 31
0.0
  0
LINE
  8
0
  6
DASHED2
 62
               4
  5
2DD
 10
158.38860697193675
 20
-587.31973237963382
 30
0.0
 11
158.38860697193675
 21
-595.84586087894104
 31
0.0
  0
LINE
  8
0
  6
DASHED2
 62
               4
  5
2DE
 10
161.33309334480381
 20
-586.2458608789409
 30
0.0
 11
143.7020660905379
 21
-586.2458608789409
 31
0.0
  0
LINE
  8
0
  6
DASHED2
 62
               4
  5
2DF
 10
140.75757971767084
 20
-595.84586087894104
 30
0.0
 11
140.75757971767084
 21
-587.31973237963382
 31
0.0
  0
LINE
  8
0
  6
DASHED2
 62
               4
  5
2E0
 10
146.64655246340553
 20
-595.84586087894104
 30
0.0
 11
146.64655246340553
 21
-587.31973237963382
 31
0.0
  0
ARC
  8
0
  6
DASHED2
 62
               4
  5
2E1
 10
161.33309334480381
 20
-590.81959246305689
 30
0.0
 40
4.5737315841157447
 50
49.925579661646204
 51
130.07442033838728
  0
ARC
  8
0
  6
DASHED2
 62
               4
  5
2E2
 10
143.7020660905379
 20
-590.81959246305689
 30
0.0
 40
4.5737315841157686
 50
49.925579661646204
 51
130.07442033838728
  0
ARC
  8
0
  6
DASHED2
 62
               4
  5
2E3
 10
152.517579717671
 20
-602.83171914846139
 30
0.0
 40
16.58585826952007
 50
69.269184858581426
 51
110.73081514145197
  0
LINE
  8
0
  6
DASHED2
 62
               4
  5
2E4
 10
164.27757971767258
 20
-597.84586087894138
 30
0.0
 11
164.27757971767258
 21
-606.3719893782486
 31
0.0
  0
LINE
  8
0
  6
DASHED2
 62
               4
  5
2E5
 10
158.38860697193817
 20
-606.3719893782486
 30
0.0
 11
158.38860697193817
 21
-597.84586087894138
 31
0.0
  0
LINE
  8
0
  6
DASHED2
 62
               4
  5
2E6
 10
161.33309334480523
 20
-607.44586087894118
 30
0.0
 11
143.7020660905396
 21
-607.44586087894118
 31
0.0
  0
LINE
  8
0
  6
DASHED2
 62
               4
  5
2E7
 10
140.75757971767226
 20
-597.84586087894138
 30
0.0
 11
140.75757971767226
 21
-606.3719893782486
 31
0.0
  0
LINE
  8
0
  6
DASHED2
 62
               4
  5
2E8
 10
146.64655246340666
 20
-597.84586087894138
 30
0.0
 11
146.64655246340666
 21
-606.3719893782486
 31
0.0
  0
ARC
  8
0
  6
DASHED2
 62
               4
  5
2E9
 10
161.33309334480523
 20
-602.87212929482575
 30
0.0
 40
4.5737315841157447
 50
229.92557966167917
 51
310.07442033842085
  0
ARC
  8
0
  6
DASHED2
 62
               4
  5
2EA
 10
143.7020660905396
 20
-602.87212929482575
 30
0.0
 40
4.5737315841157686
 50
229.92557966167917
 51
310.07442033842028
  0
ARC
  8
0
  6
DASHED2
 62
               4
  5
2EB
 10
152.51757971767242
 20
-590.86000260942126
 30
0.0
 40
16.58585826952007
 50
249.26918485861526
 51
290.73081514148578
  0
LINE
  8
0
  6
DASHED2
 62
               4
  5
2EC
 10
158.51757971767094
 20
-607.44586087894118
 30
0.0
 11
158.51757971767094
 21
-617.9652271212658
 31
0.0
  0
LINE
  8
0
  6
DASHED2
 62
               4
  5
2ED
 10
146.51757971767105
 20
-607.44586087894118
 30
0.0
 11
146.51757971767105
 21
-617.9652271212658
 31
0.0
  0
LINE
  8
0
  6
DASHED2
 62
               4
  5
2EE
 10
157.31757971767118
 20
-619.16522712126618
 30
0.0
 11
147.7175797176711
 21
-619.16522712126618
 31
0.0
  0
LINE
  8
0
  6
DASHED2
 62
               4
  5
2EF
 10
158.51757971767094
 20
-617.9652271212658
 30
0.0
 11
157.31757971767118
 21
-619.16522712126618
 31
0.0
  0
LINE
  8
0
  6
DASHED2
 62
               4
  5
2F0
 10
146.51757971767105
 20
-617.9652271212658
 30
0.0
 11
147.7175797176711
 21
-619.16522712126618
 31
0.0
  0
LINE
  8
0
  6
DASHED2
 62
               4
  5
2F1
 10
164.27757971767116
 20
-595.84586087894104
 30
0.0
 11
140.75757971767084
 21
-595.84586087894104
 31
0.0
  0
LINE
  8
0
  6
DASHED2
 62
               4
  5
2F2
 10
140.75757971767226
 20
-597.84586087894138
 30
0.0
 11
164.27757971767258
 21
-597.84586087894138
 31
0.0
  0
LINE
  8
0
  6
DASHED2
 62
               4
  5
2F3
 10
579.80410293397961
 20
-1533.2021591405753
 30
0.0
 11
693.80410293397938
 21
-1533.2021591405753
 31
0.0
  0
ARC
  8
0
  6
DIVIDE
 62
               4
  5
2F4
 10
-700.98242028232846
 20
-842.77884218310999
 30
0.0
 40
55.0
 50
58.789629707489617
 51
121.21037029250985
  0
ARC
  8
0
  6
DIVIDE
 62
               4
  5
2F5
 10
-700.98242028232846
 20
-748.69908878207252
 30
0.0
 40
55.0
 50
238.78962970748935
 51
301.21037029250937
  0
ARC
  8
0
  6
DIVIDE
 62
               4
  5
2F6
 10
-704.98242028232846
 20
-818.24146291838781
 30
0.0
 40
65.0
 50
59.999999999999723
 51
119.99999999999987
  0
ARC
  8
0
  6
DIVIDE
 62
               4
  5
2F7
 10
-643.98242028232835
 20
-748.69908878207264
 30
0.0
 40
55.0
 50
238.78962970748941
 51
301.21037029250959
  0
ARC
  8
0
  6
DIVIDE
 62
               4
  5
2F8
 10
-639.98242028232846
 20
-705.65816042641086
 30
0.0
 40
65.0
 50
239.99999999999966
 51
299.99999999999932
  0
LINE
  8
0
  6
DIVIDE
 62
               4
  5
2F9
 10
-729.48242028232835
 20
-758.03556619721928
 30
0.0
 11
-729.48242028232835
 21
-795.73896548259131
 31
0.0
  0
LINE
  8
0
  6
DIVIDE
 62
               4
  5
2FA
 10
-615.48242028232835
 20
-765.86405714757927
 30
0.0
 11
-615.48242028232835
 21
-795.73896548259131
 31
0.0
  0
ARC
  8
0
  6
DIVIDE
 62
               4
  5
2FB
 10
-704.98242028232846
 20
-705.65816042641097
 30
0.0
 40
65.0
 50
239.99999999999929
 51
247.85677929855132
  0
LINE
  8
0
  6
DIVIDE
 62
               4
  5
2FC
 10
-607.48242028232846
 20
-675.84586087894036
 30
0.0
 11
-607.48242028232846
 21
-761.94981167239939
 31
0.0
  0
LINE
  8
0
  6
DIVIDE
 62
               4
  5
2FD
 10
-737.48242028232846
 20
-675.84586087894036
 30
0.0
 11
-737.48242028232846
 21
-761.94981167239939
 31
0.0
  0
ARC
  8
0
  6
DIVIDE
 62
               4
  5
2FE
 10
699.01757971767165
 20
-842.77884218310999
 30
0.0
 40
55.0
 50
58.789629707489617
 51
121.21037029250985
  0
ARC
  8
0
  6
DIVIDE
 62
               4
  5
2FF
 10
699.01757971767165
 20
-748.69908878207252
 30
0.0
 40
55.0
 50
238.78962970748935
 51
301.21037029250937
  0
ARC
  8
0
  6
DIVIDE
 62
               4
  5
300
 10
695.01757971767165
 20
-818.24146291838781
 30
0.0
 40
65.0
 50
59.999999999999723
 51
119.99999999999987
  0
ARC
  8
0
  6
DIVIDE
 62
               4
  5
301
 10
756.01757971767177
 20
-748.69908878207264
 30
0.0
 40
55.0
 50
238.78962970748941
 51
301.21037029250959
  0
ARC
  8
0
  6
DIVIDE
 62
               4
  5
302
 10
760.01757971767165
 20
-705.65816042641086
 30
0.0
 40
65.0
 50
239.99999999999966
 51
299.99999999999932
  0
LINE
  8
0
  6
DIVIDE
 62
               4
  5
303
 10
670.51757971767177
 20
-758.03556619721928
 30
0.0
 11
670.51757971767177
 21
-795.73896548259131
 31
0.0
  0
LINE
  8
0
  6
DIVIDE
 62
               4
  5
304
 10
784.51757971767188
 20
-765.86405714757927
 30
0.0
 11
784.51757971767188
 21
-795.73896548259131
 31
0.0
  0
ARC
  8
0
  6
DIVIDE
 62
               4
  5
305
 10
695.01757971767165
 20
-705.65816042641097
 30
0.0
 40
65.0
 50
239.99999999999929
 51
247.85677929855132
  0
LINE
  8
0
  6
DIVIDE
 62
               4
  5
306
 10
792.51757971767165
 20
-675.84586087894036
 30
0.0
 11
792.51757971767165
 21
-761.94981167239939
 31
0.0
  0
LINE
  8
0
  6
DIVIDE
 62
               4
  5
307
 10
662.51757971767165
 20
-675.84586087894036
 30
0.0
 11
662.51757971767165
 21
-761.94981167239939
 31
0.0
  0
ARC
  8
0
  6
DIVIDE
 62
               4
  5
308
 10
-0.982420282328917
 20
-842.77884218310987
 30
0.0
 40
55.0
 50
58.789629707489617
 51
121.21037029250985
  0
ARC
  8
0
  6
DIVIDE
 62
               4
  5
309
 10
-0.982420282328917
 20
-748.69908878207229
 30
0.0
 40
55.0
 50
238.78962970748935
 51
301.21037029250937
  0
ARC
  8
0
  6
DIVIDE
 62
               4
  5
30A
 10
-4.9824202823289738
 20
-818.2414629183877
 30
0.0
 40
65.0
 50
59.999999999999723
 51
119.99999999999987
  0
ARC
  8
0
  6
DIVIDE
 62
               4
  5
30B
 10
56.017579717671111
 20
-748.69908878207252
 30
0.0
 40
55.0
 50
238.78962970748941
 51
301.21037029250959
  0
ARC
  8
0
  6
DIVIDE
 62
               4
  5
30C
 10
60.017579717671026
 20
-705.65816042641063
 30
0.0
 40
65.0
 50
239.99999999999966
 51
299.99999999999932
  0
LINE
  8
0
  6
DIVIDE
 62
               4
  5
30D
 10
-29.48242028232886
 20
-758.03556619721917
 30
0.0
 11
-29.48242028232886
 21
-795.73896548259108
 31
0.0
  0
LINE
  8
0
  6
DIVIDE
 62
               4
  5
30E
 10
84.517579717671197
 20
-765.86405714757916
 30
0.0
 11
84.517579717671197
 21
-795.73896548259108
 31
0.0
  0
ARC
  8
0
  6
DIVIDE
 62
               4
  5
30F
 10
-4.9824202823289738
 20
-705.65816042641086
 30
0.0
 40
65.0
 50
239.99999999999929
 51
247.85677929855132
  0
LINE
  8
0
  6
DIVIDE
 62
               4
  5
310
 10
92.517579717670998
 20
-675.84586087894036
 30
0.0
 11
92.517579717670998
 21
-761.94981167239916
 31
0.0
  0
LINE
  8
0
  6
DIVIDE
 62
               4
  5
311
 10
-37.482420282328974
 20
-675.84586087894036
 30
0.0
 11
-37.482420282328974
 21
-761.94981167239916
 31
0.0
  0
CIRCLE
  8
0
  6
CONTINUOUS
 62
               3
  5
312
 10
27.375498980669846
 20
687.97162843783804
 30
0.0
 40
75.0
  0
CIRCLE
  8
0
  6
CONTINUOUS
 62
               3
  5
313
 10
27.375498980669846
 20
687.97162843783804
 30
0.0
 40
64.0
  0
CIRCLE
  8
0
  6
CONTINUOUS
 62
               3
  5
314
 10
27.375498980669846
 20
687.97162843783804
 30
0.0
 40
52.5
  0
LINE
  8
0
  6
CONTINUOUS
 62
               3
  5
315
 10
47.375498980669846
 20
601.76113023721291
 30
0.0
 11
47.375498980669846
 21
615.68746696383255
 31
0.0
  0
LINE
  8
0
  6
CONTINUOUS
 62
               3
  5
316
 10
7.3754989806698461
 20
615.68746696383255
 30
0.0
 11
7.3754989806698461
 21
601.76113023721291
 31
0.0
  0
ARC
  8
0
  6
CONTINUOUS
 62
               3
  5
317
 10
27.375498980669846
 20
687.97162843783804
 30
0.0
 40
88.5
 50
256.93897588519889
 51
283.06102411479992
  0
LINE
  8
0
  6
CONTINUOUS
 62
               3
  5
318
 10
-58.834999219955051
 20
667.97162843783804
 30
0.0
 11
-44.908662493335186
 21
667.97162843783804
 31
0.0
  0
LINE
  8
0
  6
CONTINUOUS
 62
               3
  5
319
 10
-44.908662493335186
 20
707.97162843783804
 30
0.0
 11
-58.834999219955051
 21
707.97162843783804
 31
0.0
  0
ARC
  8
0
  6
CONTINUOUS
 62
               3
  5
31A
 10
27.375498980669846
 20
687.97162843783804
 30
0.0
 40
88.5
 50
166.93897588519908
 51
193.06102411480012
  0
LINE
  8
0
  6
CONTINUOUS
 62
               3
  5
31B
 10
7.3754989806698461
 20
774.18212663846271
 30
0.0
 11
7.3754989806698461
 21
760.25578991184238
 31
0.0
  0
LINE
  8
0
  6
CONTINUOUS
 62
               3
  5
31C
 10
47.375498980669846
 20
760.25578991184238
 30
0.0
 11
47.375498980669846
 21
774.18212663846271
 31
0.0
  0
ARC
  8
0
  6
CONTINUOUS
 62
               3
  5
31D
 10
27.375498980669846
 20
687.97162843783804
 30
0.0
 40
88.5
 50
76.938975885199298
 51
103.06102411480035
  0
LINE
  8
0
  6
CONTINUOUS
 62
               3
  5
31E
 10
113.58599718129545
 20
707.97162843783804
 30
0.0
 11
99.659660454674651
 21
707.97162843783804
 31
0.0
  0
LINE
  8
0
  6
CONTINUOUS
 62
               3
  5
31F
 10
99.659660454674651
 20
667.97162843783804
 30
0.0
 11
113.58599718129545
 21
667.97162843783804
 31
0.0
  0
ARC
  8
0
  6
CONTINUOUS
 62
               3
  5
320
 10
27.375498980669846
 20
687.97162843783804
 30
0.0
 40
88.5
 50
346.93897588519866
 51
373.06102411479969
  0
ARC
  8
0
  6
CONTINUOUS
 62
               3
  5
321
 10
27.375498980669846
 20
687.97162843783804
 30
0.0
 40
77.5
 50
284.95524831664267
 51
345.04475168335591
  0
ARC
  8
0
  6
CONTINUOUS
 62
               3
  5
322
 10
27.375498980669846
 20
687.97162843783804
 30
0.0
 40
77.5
 50
14.955248316643303
 51
75.044751683356509
  0
ARC
  8
0
  6
CONTINUOUS
 62
               3
  5
323
 10
91.72221606864565
 20
623.62491134986271
 30
0.0
 40
17.5
 50
277.81643360647047
 51
352.18356639352811
  0
ARC
  8
0
  6
CONTINUOUS
 62
               3
  5
324
 10
91.72221606864565
 20
752.31834552581449
 30
0.0
 40
17.5
 50
7.8164336064711
 51
82.183566393528679
  0
ARC
  8
0
  6
CONTINUOUS
 62
               3
  5
325
 10
-36.971218107305674
 20
752.31834552581449
 30
0.0
 40
17.5
 50
97.816433606470895
 51
172.18356639352851
  0
ARC
  8
0
  6
CONTINUOUS
 62
               3
  5
326
 10
-36.971218107305674
 20
623.62491134986271
 30
0.0
 40
17.5
 50
187.8164336064707
 51
262.18356639352828
  0
LINE
  8
0
  6
CONTINUOUS
 62
               3
  5
327
 10
-39.351213446697273
 20
769.65575081566294
 30
0.0
 11
15.135522949513216
 21
777.13542707134638
 31
0.0
  0
ARC
  8
0
  6
CONTINUOUS
 62
               3
  5
328
 10
27.375498980669846
 20
687.97162843783804
 30
0.0
 40
90.0
 50
82.18356639352865
 51
97.816433606470923
  0
LINE
  8
0
  6
CONTINUOUS
 62
               3
  5
329
 10
94.102211408037249
 20
769.65575081566294
 30
0.0
 11
39.615475011826248
 21
777.13542707134638
 31
0.0
  0
LINE
  8
0
  6
CONTINUOUS
 62
               3
  5
32A
 10
109.05962135849455
 20
754.69834086520586
 30
0.0
 11
116.53929761417754
 21
700.21160446899489
 31
0.0
  0
ARC
  8
0
  6
CONTINUOUS
 62
               3
  5
32B
 10
27.375498980669846
 20
687.97162843783804
 30
0.0
 40
90.0
 50
352.18356639352805
 51
367.81643360647035
  0
LINE
  8
0
  6
CONTINUOUS
 62
               3
  5
32C
 10
109.05962135849455
 20
621.24491601047089
 30
0.0
 11
116.53929761417754
 21
675.73165240668163
 31
0.0
  0
LINE
  8
0
  6
CONTINUOUS
 62
               3
  5
32D
 10
-112.62450101933015
 20
742.97162843783804
 30
0.0
 11
-111.95294489336575
 21
742.97162843783804
 31
0.0
  0
LINE
  8
0
  6
CONTINUOUS
 62
               3
  5
32E
 10
-109.62450101932987
 20
745.30007231187346
 30
0.0
 11
-111.95294489336575
 21
742.97162843783804
 31
0.0
  0
LINE
  8
0
  6
CONTINUOUS
 62
               3
  5
32F
 10
-112.62450101933015
 20
632.97162843783804
 30
0.0
 11
-111.95294489336575
 21
632.97162843783804
 31
0.0
  0
LINE
  8
0
  6
CONTINUOUS
 62
               3
  5
330
 10
-109.62450101932987
 20
630.64318456380215
 30
0.0
 11
-111.95294489336575
 21
632.97162843783804
 31
0.0
  0
LINE
  8
0
  6
CONTINUOUS
 62
               3
  5
331
 10
-111.95294489336575
 20
632.97162843783804
 30
0.0
 11
-111.95294489336575
 21
742.97162843783804
 31
0.0
  0
LINE
  8
0
  6
CONTINUOUS
 62
               3
  5
332
 10
-109.62450101932987
 20
745.30007231187346
 30
0.0
 11
-109.62450101932987
 21
630.64318456380215
 31
0.0
  0
LINE
  8
0
  6
CONTINUOUS
 62
               3
  5
333
 10
-117.62450101933015
 20
633.14318456380215
 30
0.0
 11
-117.62450101933015
 21
742.80007231187346
 31
0.0
  0
LINE
  8
0
  6
CONTINUOUS
 62
               3
  5
334
 10
-112.62450101933015
 20
745.30007231187346
 30
0.0
 11
-112.62450101933015
 21
630.64318456380215
 31
0.0
  0
LINE
  8
0
  6
CONTINUOUS
 62
               3
  5
335
 10
-112.62450101933015
 20
630.64318456380215
 30
0.0
 11
-115.12450101933015
 21
630.64318456380215
 31
0.0
  0
LINE
  8
0
  6
CONTINUOUS
 62
               3
  5
336
 10
-112.62450101933015
 20
745.30007231187346
 30
0.0
 11
-115.12450101933015
 21
745.30007231187346
 31
0.0
  0
ARC
  8
0
  6
CONTINUOUS
 62
               3
  5
337
 10
-115.12450101933015
 20
742.80007231187346
 30
0.0
 40
2.5
 50
89.999999999999815
 51
179.9999999999996
  0
ARC
  8
0
  6
CONTINUOUS
 62
               3
  5
338
 10
-115.12450101933015
 20
633.14318456380215
 30
0.0
 40
2.5
 50
179.9999999999996
 51
269.99999999999937
  0
ARC
  8
0
  6
CONTINUOUS
 62
               3
  5
339
 10
27.375498980669846
 20
687.97162843783804
 30
0.0
 40
77.5
 50
194.95524831664289
 51
255.04475168335611
  0
ARC
  8
0
  6
CONTINUOUS
 62
               3
  5
33A
 10
27.375498980669846
 20
687.97162843783804
 30
0.0
 40
77.5
 50
104.95524831664311
 51
165.04475168335631
  0
LINE
  8
0
  6
CONTINUOUS
 62
               3
  5
33B
 10
27.375498980669846
 20
665.97162843783849
 30
0.0
 11
75.043622501530621
 21
665.97162843783849
 31
0.0
  0
LINE
  8
0
  6
CONTINUOUS
 62
               3
  5
33C
 10
0.1195087302658919
 20
643.1011370713527
 30
0.0
 11
27.375498980669846
 21
665.97162843783849
 31
0.0
  0
LINE
  8
0
  6
CONTINUOUS
 62
               3
  5
33D
 10
-39.351213446697273
 20
606.28750606001336
 30
0.0
 11
15.135522949513216
 21
598.80782980432969
 31
0.0
  0
LINE
  8
0
  6
CONTINUOUS
 62
               3
  5
33E
 10
94.102211408037249
 20
606.28750606001336
 30
0.0
 11
39.615475011826305
 21
598.80782980433014
 31
0.0
  0
ARC
  8
0
  6
CONTINUOUS
 62
               3
  5
33F
 10
27.375498980669846
 20
687.97162843783804
 30
0.0
 40
90.0
 50
262.18356639352828
 51
277.81643360647053
  0
LINE
  8
0
  6
CONTINUOUS
 62
               3
  5
340
 10
-55.338538765956059
 20
628.74747698931446
 30
0.0
 11
-109.62450101932987
 21
630.64318456380215
 31
0.0
  0
LINE
  8
0
  6
CONTINUOUS
 62
               3
  5
341
 10
-55.338538765956173
 20
747.19577988636115
 30
0.0
 11
-109.62450101932987
 21
745.30007231187346
 31
0.0
  0
LINE
  8
0
  6
CONTINUOUS
 62
               3
  5
342
 10
102.51757971767165
 20
-71.845860287646303
 30
0.0
 11
102.51757971767162
 21
-172.24280216793727
 31
0.0
  0
LINE
  8
0
  6
CONTINUOUS
 62
               3
  5
343
 10
84.017579717671651
 20
-294.3458602876467
 30
0.0
 11
-28.982420282328377
 21
-294.34586028764636
 31
0.0
  0
LINE
  8
0
  6
CONTINUOUS
 62
               3
  5
344
 10
117.51757971767165
 20
-52.345860287646531
 30
0.0
 11
117.51757971767222
 21
-71.845860287646303
 31
0.0
  0
LINE
  8
0
  6
CONTINUOUS
 62
               3
  5
345
 10
-62.482420282328263
 20
-52.345860287646531
 30
0.0
 11
-62.482420282328377
 21
-68.845860287646531
 31
0.0
  0
LINE
  8
0
  6
CONTINUOUS
 62
               3
  5
346
 10
-27.482420282328349
 20
-53.845860287646531
 30
0.0
 11
82.517579717671666
 21
-53.845860287646531
 31
0.0
  0
LINE
  8
0
  6
CONTINUOUS
 62
               3
  5
347
 10
84.017579717671651
 20
-294.3458602876467
 30
0.0
 11
84.017579717671651
 21
-593.9156598723464
 31
0.0
  0
LINE
  8
0
  6
CONTINUOUS
 62
               3
  5
348
 10
-28.982420282328377
 20
-294.34586028764636
 30
0.0
 11
-28.982420282328377
 21
-593.91565987234628
 31
0.0
  0
LINE
  8
0
  6
CONTINUOUS
 62
               3
  5
349
 10
-28.982420282328206
 20
-52.345860287646531
 30
0.0
 11
-62.482420282328263
 21
-52.345860287646531
 31
0.0
  0
LINE
  8
0
  6
CONTINUOUS
 62
               3
  5
34A
 10
-28.982420282328206
 20
-52.345860287646531
 30
0.0
 11
-27.482420282328292
 21
-53.845860287646531
 31
0.0
  0
LINE
  8
0
  6
CONTINUOUS
 62
               3
  5
34B
 10
84.017579717671438
 20
-52.345860287646531
 30
0.0
 11
117.51757971767165
 21
-52.345860287646531
 31
0.0
  0
LINE
  8
0
  6
CONTINUOUS
 62
               3
  5
34C
 10
84.017579717671438
 20
-52.345860287646531
 30
0.0
 11
82.517579717671524
 21
-53.845860287646531
 31
0.0
  0
LINE
  8
0
  6
CONTINUOUS
 62
               3
  5
34D
 10
-58.482420282328718
 20
-45.845860287646531
 30
0.0
 11
-58.482420282328718
 21
-52.345860287646531
 31
0.0
  0
LINE
  8
0
  6
CONTINUOUS
 62
               3
  5
34E
 10
113.51757971767216
 20
-45.845860287646531
 30
0.0
 11
113.51757971767216
 21
-52.345860287646531
 31
0.0
  0
LINE
  8
0
  6
CONTINUOUS
 62
               3
  5
34F
 10
-62.482420282328405
 20
-45.845860287646531
 30
0.0
 11
-62.482420282328405
 21
-27.845860287646531
 31
0.0
  0
LINE
  8
0
  6
CONTINUOUS
 62
               3
  5
350
 10
117.51757971767159
 20
-45.845860287646531
 30
0.0
 11
117.51757971767159
 21
-27.845860287646531
 31
0.0
  0
LINE
  8
0
  6
CONTINUOUS
 62
               3
  5
351
 10
117.51757971767216
 20
-45.845860287646531
 30
0.0
 11
-62.482420282327979
 21
-45.845860287646531
 31
0.0
  0
LINE
  8
0
  6
CONTINUOUS
 62
               3
  5
352
 10
-727.48242028232835
 20
-53.845860287646531
 30
0.0
 11
-617.48242028232858
 21
-53.845860287646531
 31
0.0
  0
LINE
  8
0
  6
CONTINUOUS
 62
               3
  5
353
 10
-762.48242028232846
 20
-68.845860287646531
 30
0.0
 11
-762.48242028232846
 21
-52.345860287646531
 31
0.0
  0
LINE
  8
0
  6
CONTINUOUS
 62
               3
  5
354
 10
-728.98242028232823
 20
-52.345860287646531
 30
0.0
 11
-762.48242028232846
 21
-52.345860287646531
 31
0.0
  0
ARC
  8
0
  6
CONTINUOUS
 62
               3
  5
355
 10
-759.48242028232835
 20
-68.845860287646531
 30
0.0
 40
3.0000000000000004
 50
179.9999999999996
 51
269.99999999999937
  0
ARC
  8
0
  6
CONTINUOUS
 62
               3
  5
356
 10
-737.48242028232846
 20
-172.24280216793727
 30
0.0
 40
10.0
 50
179.9999999999996
 51
224.99999999999955
  0
LINE
  8
0
  6
CONTINUOUS
 62
               3
  5
357
 10
-731.94688637639592
 20
-191.92047169760107
 30
0.0
 11
-744.55348809419399
 21
-179.3138699798028
 31
0.0
  0
LINE
  8
0
  6
CONTINUOUS
 62
               3
  5
358
 10
-582.48242028232858
 20
-68.845860287646531
 30
0.0
 11
-582.48242028232858
 21
-52.345860287646531
 31
0.0
  0
ARC
  8
0
  6
CONTINUOUS
 62
               3
  5
359
 10
-585.48242028232846
 20
-68.845860287646531
 30
0.0
 40
3.0000000000000004
 50
269.99999999999937
 51
359.9999999999992
  0
LINE
  8
0
  6
CONTINUOUS
 62
               3
  5
35A
 10
-728.98242028232823
 20
-52.345860287646531
 30
0.0
 11
-727.48242028232835
 21
-53.845860287646531
 31
0.0
  0
LINE
  8
0
  6
CONTINUOUS
 62
               3
  5
35B
 10
-615.98242028232858
 20
-52.345860287646531
 30
0.0
 11
-582.48242028232858
 21
-52.345860287646531
 31
0.0
  0
LINE
  8
0
  6
CONTINUOUS
 62
               3
  5
35C
 10
-615.98242028232858
 20
-52.345860287646531
 30
0.0
 11
-617.48242028232858
 21
-53.845860287646531
 31
0.0
  0
LINE
  8
0
  6
CONTINUOUS
 62
               3
  5
35D
 10
-585.48242028232846
 20
-71.845860287646474
 30
0.0
 11
-592.73349338649894
 21
-71.845860287646474
 31
0.0
  0
LINE
  8
0
  6
CONTINUOUS
 62
               3
  5
35E
 10
-586.48242028232801
 20
-45.845860287646531
 30
0.0
 11
-586.48242028232801
 21
-52.345860287646531
 31
0.0
  0
LINE
  8
0
  6
CONTINUOUS
 62
               3
  5
35F
 10
-758.48242028232903
 20
-45.845860287646531
 30
0.0
 11
-758.48242028232903
 21
-52.345860287646531
 31
0.0
  0
LINE
  8
0
  6
CONTINUOUS
 62
               3
  5
360
 10
-747.48242028232846
 20
-77.312627944933695
 30
0.0
 11
-747.48242028232846
 21
-172.24280216793727
 31
0.0
  0
LINE
  8
0
  6
CONTINUOUS
 62
               3
  5
361
 10
-747.48242028232801
 20
199.15413971235353
 30
0.0
 11
-597.48242028232846
 21
199.15413971235353
 31
0.0
  0
LINE
  8
0
  6
CONTINUOUS
 62
               3
  5
362
 10
-760.98242028232812
 20
189.15413971235353
 30
0.0
 11
-760.98242028232812
 21
182.15413971235387
 31
0.0
  0
LINE
  8
0
  6
CONTINUOUS
 62
               3
  5
363
 10
-760.98242028232812
 20
189.15413971235353
 30
0.0
 11
-747.48242028232801
 21
199.15413971235353
 31
0.0
  0
LINE
  8
0
  6
CONTINUOUS
 62
               3
  5
364
 10
-760.98242028232812
 20
182.15413971235387
 30
0.0
 11
-583.98242028232812
 21
182.15413971235387
 31
0.0
  0
ARC
  8
0
  6
CONTINUOUS
 62
               3
  5
365
 10
-727.48242028232801
 20
92.154139712353469
 30
0.0
 40
19.999999999999996
 50
148.21166938294789
 51
179.9999999999996
  0
LINE
  8
0
  6
CONTINUOUS
 62
               3
  5
366
 10
-744.48242028232812
 20
177.57156401739815
 30
0.0
 11
-744.48242028232812
 21
102.68979346520632
 31
0.0
  0
ARC
  8
0
  6
CONTINUOUS
 62
               3
  5
367
 10
-617.48242028232846
 20
92.154139712353469
 30
0.0
 40
19.999999999999996
 50
0.0
 51
31.788330617051724
  0
LINE
  8
0
  6
CONTINUOUS
 62
               3
  5
368
 10
-600.48242028232801
 20
102.68979346520632
 30
0.0
 11
-600.48242028232801
 21
177.57156401739815
 31
0.0
  0
LINE
  8
0
  6
CONTINUOUS
 62
               3
  5
369
 10
-744.48242028232812
 20
102.68979346520632
 30
0.0
 11
-600.48242028232801
 21
102.68979346520632
 31
0.0
  0
LINE
  8
0
  6
CONTINUOUS
 62
               3
  5
36A
 10
-692.48242028232801
 20
182.15413971235387
 30
0.0
 11
-692.48242028232801
 21
199.15413971235353
 31
0.0
  0
LINE
  8
0
  6
CONTINUOUS
 62
               3
  5
36B
 10
-652.48242028232846
 20
199.15413971235353
 30
0.0
 11
-652.48242028232846
 21
182.15413971235387
 31
0.0
  0
LINE
  8
0
  6
CONTINUOUS
 62
               3
  5
36C
 10
-692.48242028232801
 20
189.15413971235353
 30
0.0
 11
-652.48242028232846
 21
189.15413971235353
 31
0.0
  0
LINE
  8
0
  6
CONTINUOUS
 62
               3
  5
36D
 10
-744.76658175633213
 20
199.15413971235353
 30
0.0
 11
-744.76658175633213
 21
182.15413971235387
 31
0.0
  0
LINE
  8
0
  6
CONTINUOUS
 62
               3
  5
36E
 10
-583.98242028232812
 20
189.15413971235353
 30
0.0
 11
-583.98242028232812
 21
182.15413971235387
 31
0.0
  0
LINE
  8
0
  6
CONTINUOUS
 62
               3
  5
36F
 10
-583.98242028232812
 20
189.15413971235353
 30
0.0
 11
-597.48242028232846
 21
199.15413971235353
 31
0.0
  0
LINE
  8
0
  6
CONTINUOUS
 62
               3
  5
370
 10
-600.19825880832309
 20
199.15413971235353
 30
0.0
 11
-600.19825880832309
 21
182.15413971235387
 31
0.0
  0
LINE
  8
0
  6
CONTINUOUS
 62
               3
  5
371
 10
-582.48242028232801
 20
-45.845860287646531
 30
0.0
 11
-582.48242028232801
 21
-27.845860287646417
 31
0.0
  0
LINE
  8
0
  6
CONTINUOUS
 62
               3
  5
372
 10
-762.48242028232801
 20
-45.845860287646531
 30
0.0
 11
-762.48242028232801
 21
-27.845860287646417
 31
0.0
  0
LINE
  8
0
  6
CONTINUOUS
 62
               3
  5
373
 10
-582.48242028232801
 20
-45.845860287646531
 30
0.0
 11
-762.48242028232801
 21
-45.845860287646531
 31
0.0
  0
LINE
  8
0
  6
CONTINUOUS
 62
               3
  5
374
 10
-762.48242028232846
 20
-27.84586028764528
 30
0.0
 11
-582.48242028232846
 21
-27.845860287646417
 31
0.0
  0
ARC
  8
0
  6
CONTINUOUS
 62
               3
  5
375
 10
-752.48242028232846
 20
-22.845860287646531
 30
0.0
 40
5.0
 50
327.31636115374278
 51
340.05155641120541
  0
ARC
  8
0
  6
CONTINUOUS
 62
               3
  5
376
 10
-592.48242028232846
 20
-22.845860287646531
 30
0.0
 40
5.0
 50
199.94844358879342
 51
212.68363884625691
  0
LINE
  8
0
  6
CONTINUOUS
 62
               3
  5
377
 10
-747.48242028232801
 20
92.154139712353469
 30
0.0
 11
-747.48242028232801
 21
-16.404507234366349
 31
0.0
  0
LINE
  8
0
  6
CONTINUOUS
 62
               3
  5
378
 10
-597.48242028232846
 20
-16.404507234366633
 30
0.0
 11
-597.48242028232846
 21
92.154139712353469
 31
0.0
  0
ARC
  8
0
  6
CONTINUOUS
 62
               3
  5
379
 10
-592.48242028232846
 20
-22.845860287646531
 30
0.0
 40
5.0
 50
237.99454517223401
 51
269.99999999999898
  0
ARC
  8
0
  6
CONTINUOUS
 62
               3
  5
37A
 10
-752.48242028232846
 20
-22.845860287646531
 30
0.0
 40
5.0
 50
269.99999999999937
 51
302.00545482776477
  0
LINE
  8
0
  6
CONTINUOUS
 62
               3
  5
37B
 10
817.51757971767154
 20
-68.84586028764619
 30
0.0
 11
817.51757971767154
 21
-52.345860287646246
 31
0.0
  0
LINE
  8
0
  6
CONTINUOUS
 62
               3
  5
37C
 10
637.51757971767154
 20
-68.84586028764619
 30
0.0
 11
637.51757971767154
 21
-52.345860287646246
 31
0.0
  0
LINE
  8
0
  6
CONTINUOUS
 62
               3
  5
37D
 10
807.26650661350118
 20
-71.845860287646246
 30
0.0
 11
640.51757971767154
 21
-71.845860287646246
 31
0.0
  0
ARC
  8
0
  6
CONTINUOUS
 62
               3
  5
37E
 10
814.51757971767154
 20
-68.84586028764619
 30
0.0
 40
3.0000000000000004
 50
269.99999999999937
 51
359.9999999999992
  0
ARC
  8
0
  6
CONTINUOUS
 62
               3
  5
37F
 10
807.51757971767154
 20
-76.845860287646246
 30
0.0
 40
5.0
 50
89.999999999999801
 51
179.9999999999996
  0
LINE
  8
0
  6
CONTINUOUS
 62
               3
  5
380
 10
814.51757971767154
 20
-71.845860287646246
 30
0.0
 11
807.26650661350118
 21
-71.845860287646246
 31
0.0
  0
ARC
  8
0
  6
CONTINUOUS
 62
               3
  5
381
 10
792.51757971767165
 20
-172.24280216793707
 30
0.0
 40
10.0
 50
314.99999999999926
 51
359.9999999999992
  0
LINE
  8
0
  6
CONTINUOUS
 62
               3
  5
382
 10
786.98204581173889
 20
-191.92047169760096
 30
0.0
 11
799.58864752953718
 21
-179.31386997980252
 31
0.0
  0
LINE
  8
0
  6
CONTINUOUS
 62
               3
  5
383
 10
802.51757971767154
 20
-76.845860287646246
 30
0.0
 11
802.51757971767165
 21
-172.24280216793707
 31
0.0
  0
LINE
  8
0
  6
CONTINUOUS
 62
               3
  5
384
 10
637.51757971767154
 20
-52.345860287646246
 30
0.0
 11
671.01757971767142
 21
-52.345860287646246
 31
0.0
  0
LINE
  8
0
  6
CONTINUOUS
 62
               3
  5
385
 10
671.01757971767142
 20
-52.345860287646246
 30
0.0
 11
672.51757971767154
 21
-53.84586028764619
 31
0.0
  0
LINE
  8
0
  6
CONTINUOUS
 62
               3
  5
386
 10
817.51757971767154
 20
-52.345860287646246
 30
0.0
 11
784.01757971767165
 21
-52.345860287646246
 31
0.0
  0
LINE
  8
0
  6
CONTINUOUS
 62
               3
  5
387
 10
784.01757971767165
 20
-52.345860287646246
 30
0.0
 11
782.51757971767154
 21
-53.84586028764619
 31
0.0
  0
LINE
  8
0
  6
CONTINUOUS
 62
               3
  5
388
 10
782.51757971767154
 20
-53.84586028764619
 30
0.0
 11
672.51757971767154
 21
-53.84586028764619
 31
0.0
  0
LINE
  8
0
  6
CONTINUOUS
 62
               3
  5
389
 10
641.23341824366753
 20
-45.845860287646246
 30
0.0
 11
641.23341824366753
 21
-51.845860287646303
 31
0.0
  0
LINE
  8
0
  6
CONTINUOUS
 62
               3
  5
38A
 10
813.23341824366855
 20
-45.845860287646246
 30
0.0
 11
813.23341824366855
 21
-51.845860287646303
 31
0.0
  0
LINE
  8
0
  6
CONTINUOUS
 62
               3
  5
38B
 10
652.51757971767211
 20
199.15413971235353
 30
0.0
 11
802.51757971767154
 21
199.15413971235353
 31
0.0
  0
LINE
  8
0
  6
CONTINUOUS
 62
               3
  5
38C
 10
639.01757971767188
 20
189.15413971235353
 30
0.0
 11
639.01757971767188
 21
182.15413971235375
 31
0.0
  0
LINE
  8
0
  6
CONTINUOUS
 62
               3
  5
38D
 10
639.01757971767188
 20
189.15413971235353
 30
0.0
 11
652.51757971767211
 21
199.15413971235353
 31
0.0
  0
ARC
  8
0
  6
CONTINUOUS
 62
               3
  5
38E
 10
650.51757971767188
 20
177.57156401739803
 30
0.0
 40
4.9999999999999991
 50
0.0
 51
66.421821521798009
  0
LINE
  8
0
  6
CONTINUOUS
 62
               3
  5
38F
 10
639.01757971767188
 20
182.15413971235375
 30
0.0
 11
816.01757971767211
 21
182.15413971235375
 31
0.0
  0
ARC
  8
0
  6
CONTINUOUS
 62
               3
  5
390
 10
672.51757971767211
 20
92.154139712353526
 30
0.0
 40
19.999999999999996
 50
148.21166938294789
 51
179.9999999999996
  0
LINE
  8
0
  6
CONTINUOUS
 62
               3
  5
391
 10
655.51757971767188
 20
177.57156401739803
 30
0.0
 11
655.51757971767188
 21
102.68979346520621
 31
0.0
  0
ARC
  8
0
  6
CONTINUOUS
 62
               3
  5
392
 10
782.51757971767154
 20
92.154139712353526
 30
0.0
 40
19.999999999999996
 50
0.0
 51
31.788330617051724
  0
LINE
  8
0
  6
CONTINUOUS
 62
               3
  5
393
 10
799.51757971767199
 20
102.68979346520621
 30
0.0
 11
799.51757971767199
 21
177.57156401739803
 31
0.0
  0
LINE
  8
0
  6
CONTINUOUS
 62
               3
  5
394
 10
707.51757971767211
 20
182.15413971235375
 30
0.0
 11
707.51757971767211
 21
199.15413971235353
 31
0.0
  0
LINE
  8
0
  6
CONTINUOUS
 62
               3
  5
395
 10
747.51757971767154
 20
199.15413971235353
 30
0.0
 11
747.51757971767154
 21
182.15413971235375
 31
0.0
  0
LINE
  8
0
  6
CONTINUOUS
 62
               3
  5
396
 10
707.51757971767211
 20
189.15413971235353
 30
0.0
 11
747.51757971767154
 21
189.15413971235353
 31
0.0
  0
LINE
  8
0
  6
CONTINUOUS
 62
               3
  5
397
 10
655.23341824366787
 20
199.15413971235353
 30
0.0
 11
655.23341824366787
 21
182.15413971235375
 31
0.0
  0
LINE
  8
0
  6
CONTINUOUS
 62
               3
  5
398
 10
641.30708151704721
 20
189.15413971235353
 30
0.0
 11
641.30708151704721
 21
182.15413971235375
 31
0.0
  0
LINE
  8
0
  6
CONTINUOUS
 62
               3
  5
399
 10
639.01757971767188
 20
189.15413971235353
 30
0.0
 11
641.30708151704721
 21
189.15413971235353
 31
0.0
  0
LINE
  8
0
  6
CONTINUOUS
 62
               3
  5
39A
 10
641.30708151704721
 20
189.15413971235353
 30
0.0
 11
655.23341824366787
 21
199.15413971235353
 31
0.0
  0
LINE
  8
0
  6
CONTINUOUS
 62
               3
  5
39B
 10
816.01757971767211
 20
189.15413971235353
 30
0.0
 11
816.01757971767211
 21
182.15413971235375
 31
0.0
  0
LINE
  8
0
  6
CONTINUOUS
 62
               3
  5
39C
 10
816.01757971767211
 20
189.15413971235353
 30
0.0
 11
802.51757971767154
 21
199.15413971235353
 31
0.0
  0
ARC
  8
0
  6
CONTINUOUS
 62
               3
  5
39D
 10
804.51757971767199
 20
177.57156401739803
 30
0.0
 40
4.9999999999999991
 50
113.57817847820161
 51
179.9999999999996
  0
LINE
  8
0
  6
CONTINUOUS
 62
               3
  5
39E
 10
799.80174119167691
 20
199.15413971235353
 30
0.0
 11
799.80174119167691
 21
182.15413971235375
 31
0.0
  0
LINE
  8
0
  6
CONTINUOUS
 62
               3
  5
39F
 10
813.72807791829734
 20
189.15413971235353
 30
0.0
 11
813.72807791829734
 21
182.15413971235375
 31
0.0
  0
LINE
  8
0
  6
CONTINUOUS
 62
               3
  5
3A0
 10
816.01757971767211
 20
189.15413971235353
 30
0.0
 11
813.72807791829734
 21
189.15413971235353
 31
0.0
  0
LINE
  8
0
  6
CONTINUOUS
 62
               3
  5
3A1
 10
813.72807791829734
 20
189.15413971235353
 30
0.0
 11
799.80174119167691
 21
199.15413971235353
 31
0.0
  0
LINE
  8
0
  6
CONTINUOUS
 62
               3
  5
3A2
 10
637.51757971767211
 20
-27.845860287645166
 30
0.0
 11
817.51757971767211
 21
-27.845860287646303
 31
0.0
  0
LINE
  8
0
  6
CONTINUOUS
 62
               3
  5
3A3
 10
817.51757971767211
 20
-45.845860287646246
 30
0.0
 11
817.51757971767211
 21
-27.845860287646303
 31
0.0
  0
LINE
  8
0
  6
CONTINUOUS
 62
               3
  5
3A4
 10
637.51757971767211
 20
-45.845860287646246
 30
0.0
 11
637.51757971767211
 21
-27.845860287646303
 31
0.0
  0
LINE
  8
0
  6
CONTINUOUS
 62
               3
  5
3A5
 10
817.51757971767211
 20
-45.845860287646246
 30
0.0
 11
637.51757971767211
 21
-45.845860287646246
 31
0.0
  0
LINE
  8
0
  6
CONTINUOUS
 62
               3
  5
3A6
 10
802.51757971767154
 20
-22.845860287646303
 30
0.0
 11
802.51757971767154
 21
92.154139712353526
 31
0.0
  0
LINE
  8
0
  6
CONTINUOUS
 62
               3
  5
3A7
 10
652.51757971767211
 20
92.154139712353526
 30
0.0
 11
652.51757971767211
 21
-22.84586028764528
 31
0.0
  0
ARC
  8
0
  6
CONTINUOUS
 62
               3
  5
3A8
 10
647.51757971767211
 20
-22.84586028764528
 30
0.0
 40
5.0
 50
269.99999999999937
 51
302.00545482775999
  0
ARC
  8
0
  6
CONTINUOUS
 62
               3
  5
3A9
 10
647.51757971767211
 20
-22.84586028764528
 30
0.0
 40
5.0
 50
327.31636115374096
 51
359.9999999999992
  0
ARC
  8
0
  6
CONTINUOUS
 62
               3
  5
3AA
 10
807.51757971767211
 20
-22.845860287646303
 30
0.0
 40
5.0
 50
179.9999999999996
 51
212.683638846256
  0
ARC
  8
0
  6
CONTINUOUS
 62
               3
  5
3AB
 10
807.51757971767211
 20
-22.845860287646303
 30
0.0
 40
5.0
 50
237.99454517223401
 51
269.99999999999937
  0
LINE
  8
0
  6
CONTINUOUS
 62
               3
  5
3AC
 10
655.51757971767188
 20
102.68979346520621
 30
0.0
 11
715.79057971767133
 21
102.68979346520638
 31
0.0
  0
LINE
  8
0
  6
CONTINUOUS
 62
               3
  5
3AD
 10
739.24457971767117
 20
102.68979346520621
 30
0.0
 11
799.51757971767199
 21
102.68979346520621
 31
0.0
  0
CIRCLE
  8
0
  6
CONTINUOUS
 62
               3
  5
3AE
 10
-672.48242028232846
 20
-125.84586028764653
 30
0.0
 40
57.5
  0
ARC
  8
0
  6
CONTINUOUS
 62
               3
  5
3AF
 10
-579.48242028232778
 20
-63.979073923077294
 30
0.0
 40
3.0
 50
179.9999999999996
 51
268.00000000000006
  0
LINE
  8
0
  6
CONTINUOUS
 62
               3
  5
3B0
 10
-532.48242028232789
 20
-70.845860287646474
 30
0.0
 11
-533.15397640829212
 21
-70.845860287646474
 31
0.0
  0
LINE
  8
0
  6
CONTINUOUS
 62
               3
  5
3B1
 10
-535.48242028232801
 20
-68.51741641361059
 30
0.0
 11
-533.15397640829212
 21
-70.845860287646474
 31
0.0
  0
LINE
  8
0
  6
CONTINUOUS
 62
               3
  5
3B2
 10
-532.48242028232789
 20
-68.517416413610704
 30
0.0
 11
-529.98242028232789
 21
-68.517416413610704
 31
0.0
  0
ARC
  8
0
  6
CONTINUOUS
 62
               3
  5
3B3
 10
-529.98242028232789
 20
-71.017416413610704
 30
0.0
 40
2.5
 50
0.0
 51
89.999999999999801
  0
LINE
  8
0
  6
CONTINUOUS
 62
               3
  5
3B4
 10
-535.48242028232801
 20
-68.51741641361059
 30
0.0
 11
-579.58711877243468
 21
-66.977246404134519
 31
0.0
  0
LINE
  8
0
  6
CONTINUOUS
 62
               3
  5
3B5
 10
-532.48242028232789
 20
-180.84586028764627
 30
0.0
 11
-533.15397640829212
 21
-180.84586028764627
 31
0.0
  0
LINE
  8
0
  6
CONTINUOUS
 62
               3
  5
3B6
 10
-535.48242028232801
 20
-183.17430416168131
 30
0.0
 11
-533.15397640829212
 21
-180.84586028764627
 31
0.0
  0
LINE
  8
0
  6
CONTINUOUS
 62
               3
  5
3B7
 10
-533.15397640829212
 20
-70.845860287646474
 30
0.0
 11
-533.15397640829212
 21
-180.84586028764627
 31
0.0
  0
LINE
  8
0
  6
CONTINUOUS
 62
               3
  5
3B8
 10
-535.48242028232801
 20
-183.17430416168131
 30
0.0
 11
-535.48242028232801
 21
-68.51741641361059
 31
0.0
  0
LINE
  8
0
  6
CONTINUOUS
 62
               3
  5
3B9
 10
-532.48242028232789
 20
-183.17430416168182
 30
0.0
 11
-532.48242028232789
 21
-68.517416413610704
 31
0.0
  0
LINE
  8
0
  6
CONTINUOUS
 62
               3
  5
3BA
 10
-527.48242028232789
 20
-71.017416413610704
 30
0.0
 11
-527.48242028232789
 21
-180.67430416168182
 31
0.0
  0
LINE
  8
0
  6
CONTINUOUS
 62
               3
  5
3BB
 10
-532.48242028232789
 20
-183.17430416168182
 30
0.0
 11
-529.98242028232789
 21
-183.17430416168182
 31
0.0
  0
ARC
  8
0
  6
CONTINUOUS
 62
               3
  5
3BC
 10
-529.98242028232789
 20
-180.67430416168182
 30
0.0
 40
2.5
 50
269.99999999999937
 51
359.9999999999992
  0
LINE
  8
0
  6
CONTINUOUS
 62
               3
  5
3BD
 10
-535.48242028232801
 20
-183.17430416168131
 30
0.0
 11
-606.76088550614872
 21
-185.66340301548877
 31
0.0
  0
LINE
  8
0
  6
CONTINUOUS
 62
               3
  5
3BE
 10
-592.48242028232858
 20
-71.845860287646474
 30
0.0
 11
-652.72767401719011
 21
-71.845860287646474
 31
0.0
  0
LINE
  8
0
  6
CONTINUOUS
 62
               3
  5
3BF
 10
-692.23716654746681
 20
-71.845860287646474
 30
0.0
 11
-759.48242028232835
 21
-71.845860287646474
 31
0.0
  0
LINE
  8
0
  6
CONTINUOUS
 62
               3
  5
3C0
 10
-613.51795418826111
 20
-192.42047169760139
 30
0.0
 11
-606.76088550614861
 21
-185.66340301548877
 31
0.0
  0
LINE
  8
0
  6
CONTINUOUS
 62
               3
  5
3C1
 10
-645.69506318984907
 20
-97.845860287646644
 30
0.0
 11
-699.26977737480797
 21
-97.84586028764663
 31
0.0
  0
CIRCLE
  8
0
  6
CONTINUOUS
 62
               3
  5
3C2
 10
-672.48242028232858
 20
-125.84586028764647
 30
0.0
 40
48.500000000000007
  0
CIRCLE
  8
0
  6
CONTINUOUS
 62
               3
  5
3C3
 10
-672.48242028232858
 20
-125.84586028764647
 30
0.0
 40
38.75
  0
CIRCLE
  8
0
  6
CONTINUOUS
 62
               3
  5
3C4
 10
-672.48242028232858
 20
-125.84586028764647
 30
0.0
 40
47.299999999999997
  0
LINE
  8
0
  6
CONTINUOUS
 62
               3
  5
3C5
 10
-704.30222543572313
 20
-157.6656654410408
 30
0.0
 11
-705.92857103245228
 21
-159.29201103777018
 31
0.0
  0
LINE
  8
0
  6
CONTINUOUS
 62
               3
  5
3C6
 10
-640.66261512893391
 20
-157.6656654410408
 30
0.0
 11
-639.03626953220487
 21
-159.29201103777018
 31
0.0
  0
ARC
  8
0
  6
CONTINUOUS
 62
               3
  5
3C7
 10
-672.48242028232858
 20
-125.84586028764647
 30
0.0
 40
45.0
 50
224.99999999999946
 51
314.99999999999937
  0
CIRCLE
  8
0
  6
CONTINUOUS
 62
               3
  5
3C8
 10
-672.48242028232858
 20
-125.84586028764647
 30
0.0
 40
43.0
  0
CIRCLE
  8
0
  6
CONTINUOUS
 62
               3
  5
3C9
 10
27.517579717671595
 20
-125.84586028764653
 30
0.0
 40
57.5
  0
ARC
  8
0
  6
CONTINUOUS
 62
               3
  5
3CA
 10
-59.482420282328377
 20
-68.845860287646531
 30
0.0
 40
3.0000000000000004
 50
179.9999999999996
 51
269.99999999999937
  0
ARC
  8
0
  6
CONTINUOUS
 62
               3
  5
3CB
 10
-65.482420282329088
 20
-63.979073923077294
 30
0.0
 40
3.0
 50
271.99999999999869
 51
359.9999999999992
  0
LINE
  8
0
  6
CONTINUOUS
 62
               3
  5
3CC
 10
-112.482420282329
 20
-70.845860287646474
 30
0.0
 11
-111.81086415636477
 21
-70.845860287646474
 31
0.0
  0
LINE
  8
0
  6
CONTINUOUS
 62
               3
  5
3CD
 10
-109.48242028232889
 20
-68.51741641361059
 30
0.0
 11
-111.81086415636477
 21
-70.845860287646474
 31
0.0
  0
LINE
  8
0
  6
CONTINUOUS
 62
               3
  5
3CE
 10
-112.482420282329
 20
-68.517416413610704
 30
0.0
 11
-114.982420282329
 21
-68.517416413610704
 31
0.0
  0
ARC
  8
0
  6
CONTINUOUS
 62
               3
  5
3CF
 10
-114.982420282329
 20
-71.017416413610704
 30
0.0
 40
2.5
 50
89.999999999999801
 51
179.9999999999996
  0
LINE
  8
0
  6
CONTINUOUS
 62
               3
  5
3D0
 10
-109.48242028232889
 20
-68.51741641361059
 30
0.0
 11
-65.377721792222189
 21
-66.977246404134519
 31
0.0
  0
LINE
  8
0
  6
CONTINUOUS
 62
               3
  5
3D1
 10
-112.482420282329
 20
-180.84586028764627
 30
0.0
 11
-111.81086415636477
 21
-180.84586028764627
 31
0.0
  0
LINE
  8
0
  6
CONTINUOUS
 62
               3
  5
3D2
 10
-109.48242028232889
 20
-183.17430416168131
 30
0.0
 11
-111.81086415636477
 21
-180.84586028764627
 31
0.0
  0
LINE
  8
0
  6
CONTINUOUS
 62
               3
  5
3D3
 10
-111.81086415636477
 20
-70.845860287646474
 30
0.0
 11
-111.81086415636477
 21
-180.84586028764627
 31
0.0
  0
LINE
  8
0
  6
CONTINUOUS
 62
               3
  5
3D4
 10
-109.48242028232889
 20
-183.17430416168131
 30
0.0
 11
-109.48242028232889
 21
-68.51741641361059
 31
0.0
  0
LINE
  8
0
  6
CONTINUOUS
 62
               3
  5
3D5
 10
-112.482420282329
 20
-183.17430416168182
 30
0.0
 11
-112.482420282329
 21
-68.517416413610704
 31
0.0
  0
LINE
  8
0
  6
CONTINUOUS
 62
               3
  5
3D6
 10
-117.482420282329
 20
-71.017416413610704
 30
0.0
 11
-117.482420282329
 21
-180.67430416168182
 31
0.0
  0
LINE
  8
0
  6
CONTINUOUS
 62
               3
  5
3D7
 10
-112.482420282329
 20
-183.17430416168182
 30
0.0
 11
-114.982420282329
 21
-183.17430416168182
 31
0.0
  0
ARC
  8
0
  6
CONTINUOUS
 62
               3
  5
3D8
 10
-114.982420282329
 20
-180.67430416168182
 30
0.0
 40
2.5
 50
179.9999999999996
 51
269.99999999999937
  0
LINE
  8
0
  6
CONTINUOUS
 62
               3
  5
3D9
 10
-109.48242028232889
 20
-183.17430416168131
 30
0.0
 11
-40.172307638489741
 21
-185.59466662876468
 31
0.0
  0
LINE
  8
0
  6
CONTINUOUS
 62
               3
  5
3DA
 10
-31.946886376395724
 20
-191.92047169760136
 30
0.0
 11
-36.811271216069542
 21
-187.05608685792745
 31
0.0
  0
LINE
  8
0
  6
CONTINUOUS
 62
               3
  5
3DB
 10
-59.482420282328377
 20
-71.845860287646474
 30
0.0
 11
7.7628334525337266
 21
-71.845860287646303
 31
0.0
  0
LINE
  8
0
  6
CONTINUOUS
 62
               3
  5
3DC
 10
47.272325982809463
 20
-71.845860287646303
 30
0.0
 11
117.51757971767222
 21
-71.845860287646303
 31
0.0
  0
ARC
  8
0
  6
CONTINUOUS
 62
               3
  5
3DD
 10
92.517579717671595
 20
-172.24280216793727
 30
0.0
 40
10.0
 50
314.99999999999926
 51
359.9999999999992
  0
LINE
  8
0
  6
CONTINUOUS
 62
               3
  5
3DE
 10
83.517579717671822
 20
-206.8458602876446
 30
0.0
 11
83.517579717671822
 21
-293.84586028764693
 31
0.0
  0
LINE
  8
0
  6
CONTINUOUS
 62
               3
  5
3DF
 10
83.517579717671467
 20
-206.84586028764653
 30
0.0
 11
85.517579717671495
 21
-196.84586028764653
 31
0.0
  0
ARC
  8
0
  6
CONTINUOUS
 62
               3
  5
3E0
 10
90.517579717671353
 20
-195.4560056035337
 30
0.0
 40
5.0
 50
134.99999999999969
 51
179.9999999999996
  0
LINE
  8
0
  6
CONTINUOUS
 62
               3
  5
3E1
 10
85.517579717671495
 20
-195.4560056035337
 30
0.0
 11
85.517579717671495
 21
-196.84586028764653
 31
0.0
  0
LINE
  8
0
  6
CONTINUOUS
 62
               3
  5
3E2
 10
86.982045811738729
 20
-191.9204716976009
 30
0.0
 11
99.588647529536772
 21
-179.3138699798028
 31
0.0
  0
LINE
  8
0
  6
CONTINUOUS
 62
               3
  5
3E3
 10
-30.482420282328803
 20
-195.4560056035337
 30
0.0
 11
-30.482420282328803
 21
-196.84586028764653
 31
0.0
  0
LINE
  8
0
  6
CONTINUOUS
 62
               3
  5
3E4
 10
-28.482420282328775
 20
-206.84586028764653
 30
0.0
 11
-30.482420282328803
 21
-196.84586028764653
 31
0.0
  0
LINE
  8
0
  6
CONTINUOUS
 62
               3
  5
3E5
 10
-28.482420282328917
 20
-293.84586028764687
 30
0.0
 11
-28.482420282328775
 21
-206.84586028764653
 31
0.0
  0
ARC
  8
0
  6
CONTINUOUS
 62
               3
  5
3E6
 10
-35.482420282328121
 20
-195.4560056035337
 30
0.0
 40
5.0
 50
359.9999999999992
 51
404.99999999999909
  0
LINE
  8
0
  6
CONTINUOUS
 62
               3
  5
3E7
 10
83.517579717671822
 20
-293.84586028764693
 30
0.0
 11
-28.482420282328917
 21
-293.84586028764693
 31
0.0
  0
ARC
  8
0
  6
CONTINUOUS
 62
               3
  5
3E8
 10
640.51757971767165
 20
-68.84586028764619
 30
0.0
 40
3.0000000000000004
 50
179.9999999999996
 51
269.99999999999937
  0
ARC
  8
0
  6
CONTINUOUS
 62
               3
  5
3E9
 10
634.51757971767086
 20
-63.97907392307701
 30
0.0
 40
3.0
 50
271.99999999999869
 51
359.9999999999992
  0
LINE
  8
0
  6
CONTINUOUS
 62
               3
  5
3EA
 10
587.51757971767097
 20
-70.84586028764619
 30
0.0
 11
588.1891358436352
 21
-70.84586028764619
 31
0.0
  0
LINE
  8
0
  6
CONTINUOUS
 62
               3
  5
3EB
 10
590.51757971767108
 20
-68.517416413610306
 30
0.0
 11
588.1891358436352
 21
-70.84586028764619
 31
0.0
  0
LINE
  8
0
  6
CONTINUOUS
 62
               3
  5
3EC
 10
587.51757971767097
 20
-68.51741641361042
 30
0.0
 11
585.01757971767097
 21
-68.51741641361042
 31
0.0
  0
ARC
  8
0
  6
CONTINUOUS
 62
               3
  5
3ED
 10
585.01757971767097
 20
-71.01741641361042
 30
0.0
 40
2.5
 50
89.999999999999801
 51
179.9999999999996
  0
LINE
  8
0
  6
CONTINUOUS
 62
               3
  5
3EE
 10
590.51757971767108
 20
-68.517416413610306
 30
0.0
 11
634.62227820777775
 21
-66.977246404134235
 31
0.0
  0
LINE
  8
0
  6
CONTINUOUS
 62
               3
  5
3EF
 10
587.51757971767097
 20
-180.84586028764599
 30
0.0
 11
588.1891358436352
 21
-180.84586028764599
 31
0.0
  0
LINE
  8
0
  6
CONTINUOUS
 62
               3
  5
3F0
 10
590.51757971767108
 20
-183.17430416168102
 30
0.0
 11
588.1891358436352
 21
-180.84586028764599
 31
0.0
  0
LINE
  8
0
  6
CONTINUOUS
 62
               3
  5
3F1
 10
588.1891358436352
 20
-70.84586028764619
 30
0.0
 11
588.1891358436352
 21
-180.84586028764599
 31
0.0
  0
LINE
  8
0
  6
CONTINUOUS
 62
               3
  5
3F2
 10
590.51757971767108
 20
-183.17430416168102
 30
0.0
 11
590.51757971767108
 21
-68.517416413610306
 31
0.0
  0
LINE
  8
0
  6
CONTINUOUS
 62
               3
  5
3F3
 10
587.51757971767097
 20
-183.17430416168153
 30
0.0
 11
587.51757971767097
 21
-68.51741641361042
 31
0.0
  0
LINE
  8
0
  6
CONTINUOUS
 62
               3
  5
3F4
 10
582.51757971767097
 20
-71.01741641361042
 30
0.0
 11
582.51757971767097
 21
-180.67430416168153
 31
0.0
  0
LINE
  8
0
  6
CONTINUOUS
 62
               3
  5
3F5
 10
587.51757971767097
 20
-183.17430416168153
 30
0.0
 11
585.01757971767097
 21
-183.17430416168153
 31
0.0
  0
ARC
  8
0
  6
CONTINUOUS
 62
               3
  5
3F6
 10
585.01757971767097
 20
-180.67430416168153
 30
0.0
 40
2.5
 50
179.9999999999996
 51
269.99999999999937
  0
LINE
  8
0
  6
CONTINUOUS
 62
               3
  5
3F7
 10
590.51757971767108
 20
-183.17430416168102
 30
0.0
 11
661.7960449414918
 21
-185.66340301548848
 31
0.0
  0
LINE
  8
0
  6
CONTINUOUS
 62
               3
  5
3F8
 10
668.05311362360419
 20
-191.92047169760107
 30
0.0
 11
661.7960449414918
 21
-185.66340301548848
 31
0.0
  0
LINE
  8
0
  6
CONTINUOUS
 62
               3
  5
3F9
 10
669.5175797176712
 20
-195.45600560353341
 30
0.0
 11
669.5175797176712
 21
-196.84586028764625
 31
0.0
  0
LINE
  8
0
  6
CONTINUOUS
 62
               3
  5
3FA
 10
671.5175797176712
 20
-206.84586028764625
 30
0.0
 11
669.5175797176712
 21
-196.84586028764625
 31
0.0
  0
ARC
  8
0
  6
CONTINUOUS
 62
               3
  5
3FB
 10
664.51757971767188
 20
-195.45600560353341
 30
0.0
 40
5.0
 50
359.9999999999992
 51
404.99999999999909
  0
LINE
  8
0
  6
CONTINUOUS
 62
               3
  5
3FC
 10
671.51757971767097
 20
-293.84586028764659
 30
0.0
 11
671.5175797176712
 21
-206.84586028764625
 31
0.0
  0
LINE
  8
0
  6
CONTINUOUS
 62
               3
  5
3FD
 10
784.01757971767165
 20
-294.34586028764647
 30
0.0
 11
671.01757971767142
 21
-294.34586028764613
 31
0.0
  0
LINE
  8
0
  6
CONTINUOUS
 62
               3
  5
3FE
 10
784.01757971767165
 20
-294.34586028764647
 30
0.0
 11
784.01757971767165
 21
-593.91565987234651
 31
0.0
  0
LINE
  8
0
  6
CONTINUOUS
 62
               3
  5
3FF
 10
671.01757971767142
 20
-294.34586028764613
 30
0.0
 11
671.01757971767142
 21
-595.84586028764625
 31
0.0
  0
LINE
  8
0
  6
CONTINUOUS
 62
               3
  5
400
 10
671.01757971767142
 20
-294.34586028764613
 30
0.0
 11
671.51757971767131
 21
-293.84586028764636
 31
0.0
  0
LINE
  8
0
  6
CONTINUOUS
 62
               3
  5
401
 10
784.01757971767165
 20
-294.34586028764647
 30
0.0
 11
783.51757971767211
 21
-293.84586028764687
 31
0.0
  0
LINE
  8
0
  6
CONTINUOUS
 62
               3
  5
402
 10
783.51757971767177
 20
-293.84586028764664
 30
0.0
 11
671.51757971767097
 21
-293.84586028764664
 31
0.0
  0
LINE
  8
0
  6
CONTINUOUS
 62
               3
  5
403
 10
783.51757971767142
 20
-206.84586028764625
 30
0.0
 11
785.51757971767142
 21
-196.84586028764625
 31
0.0
  0
ARC
  8
0
  6
CONTINUOUS
 62
               3
  5
404
 10
790.51757971767142
 20
-195.45600560353341
 30
0.0
 40
5.0
 50
134.99999999999969
 51
179.9999999999996
  0
LINE
  8
0
  6
CONTINUOUS
 62
               3
  5
405
 10
785.51757971767142
 20
-195.45600560353341
 30
0.0
 11
785.51757971767142
 21
-196.84586028764625
 31
0.0
  0
LINE
  8
0
  6
CONTINUOUS
 62
               3
  5
406
 10
783.51757971767177
 20
-206.84586028764431
 30
0.0
 11
783.51757971767177
 21
-293.84586028764664
 31
0.0
  0
LINE
  8
0
  6
CONTINUOUS
 62
               3
  5
407
 10
-616.48242028232823
 20
-206.8458602876446
 30
0.0
 11
-616.48242028232823
 21
-293.84586028764693
 31
0.0
  0
LINE
  8
0
  6
CONTINUOUS
 62
               3
  5
408
 10
-616.48242028232858
 20
-206.84586028764653
 30
0.0
 11
-614.48242028232858
 21
-196.84586028764653
 31
0.0
  0
LINE
  8
0
  6
CONTINUOUS
 62
               3
  5
409
 10
-614.48242028232858
 20
-195.4560056035337
 30
0.0
 11
-614.48242028232858
 21
-196.84586028764653
 31
0.0
  0
LINE
  8
0
  6
CONTINUOUS
 62
               3
  5
40A
 10
-730.4824202823288
 20
-195.4560056035337
 30
0.0
 11
-730.4824202823288
 21
-196.84586028764653
 31
0.0
  0
LINE
  8
0
  6
CONTINUOUS
 62
               3
  5
40B
 10
-728.4824202823288
 20
-206.84586028764653
 30
0.0
 11
-730.4824202823288
 21
-196.84586028764653
 31
0.0
  0
LINE
  8
0
  6
CONTINUOUS
 62
               3
  5
40C
 10
-728.48242028232903
 20
-293.84586028764687
 30
0.0
 11
-728.4824202823288
 21
-206.84586028764653
 31
0.0
  0
ARC
  8
0
  6
CONTINUOUS
 62
               3
  5
40D
 10
-40.346805122002309
 20
-190.59162076386019
 30
0.0
 40
5.0
 50
44.999999999999702
 51
87.999999999999133
  0
ARC
  8
0
  6
CONTINUOUS
 62
               3
  5
40E
 10
17.325816403542632
 20
746.07284612847934
 30
0.0
 40
10.0
 50
233.90124606564399
 51
237.920379228039
  0
LINE
  8
0
  6
CONTINUOUS
 62
               3
  5
40F
 10
27.375498980669846
 20
727.97162843783804
 30
0.0
 11
12.014844026895872
 21
737.59973734748905
 31
0.0
  0
LINE
  8
0
  6
CONTINUOUS
 62
               3
  5
410
 10
27.375498980669846
 20
727.97162843783804
 30
0.0
 11
56.705625999592058
 21
727.97162843783804
 31
0.0
  0
LINE
  8
0
  6
CONTINUOUS
 62
               3
  5
411
 10
67.375498980669875
 20
687.97162843783781
 30
0.0
 11
77.386899583981091
 21
703.94378576536019
 31
0.0
  0
ARC
  8
0
  6
CONTINUOUS
 62
               3
  5
412
 10
47.163472086997416
 20
745.5486089484541
 30
0.0
 40
20.0
 50
298.6520261592741
 51
307.35556117864201
  0
LINE
  8
0
  6
CONTINUOUS
 62
               3
  5
413
 10
82.375498980669846
 20
547.97162843783826
 30
0.0
 11
82.375498980669846
 21
548.64318456380261
 31
0.0
  0
LINE
  8
0
  6
CONTINUOUS
 62
               3
  5
414
 10
84.703942854705161
 20
550.97162843783849
 30
0.0
 11
82.375498980669846
 21
548.64318456380261
 31
0.0
  0
LINE
  8
0
  6
CONTINUOUS
 62
               3
  5
415
 10
-27.624501019330154
 20
547.97162843783826
 30
0.0
 11
-27.624501019330154
 21
548.64318456380261
 31
0.0
  0
LINE
  8
0
  6
CONTINUOUS
 62
               3
  5
416
 10
-29.952944893366038
 20
550.97162843783849
 30
0.0
 11
-27.624501019330154
 21
548.64318456380261
 31
0.0
  0
LINE
  8
0
  6
CONTINUOUS
 62
               3
  5
417
 10
-27.624501019330154
 20
548.64318456380261
 30
0.0
 11
82.375498980669846
 21
548.64318456380261
 31
0.0
  0
LINE
  8
0
  6
CONTINUOUS
 62
               3
  5
418
 10
84.703942854705161
 20
550.97162843783849
 30
0.0
 11
-29.952944893366038
 21
550.97162843783849
 31
0.0
  0
LINE
  8
0
  6
CONTINUOUS
 62
               3
  5
419
 10
-27.452944893366038
 20
542.97162843783826
 30
0.0
 11
82.203942854705161
 21
542.97162843783826
 31
0.0
  0
LINE
  8
0
  6
CONTINUOUS
 62
               3
  5
41A
 10
84.703942854705161
 20
547.97162843783826
 30
0.0
 11
-29.952944893366038
 21
547.97162843783826
 31
0.0
  0
LINE
  8
0
  6
CONTINUOUS
 62
               3
  5
41B
 10
-29.952944893366038
 20
547.97162843783826
 30
0.0
 11
-29.952944893366038
 21
545.47162843783826
 31
0.0
  0
LINE
  8
0
  6
CONTINUOUS
 62
               3
  5
41C
 10
84.703942854705161
 20
547.97162843783826
 30
0.0
 11
84.703942854705161
 21
545.47162843783826
 31
0.0
  0
ARC
  8
0
  6
CONTINUOUS
 62
               3
  5
41D
 10
82.203942854705161
 20
545.47162843783826
 30
0.0
 40
2.5
 50
269.99999999999937
 51
359.9999999999992
  0
ARC
  8
0
  6
CONTINUOUS
 62
               3
  5
41E
 10
-27.452944893366038
 20
545.47162843783826
 30
0.0
 40
2.5
 50
179.9999999999996
 51
269.99999999999937
  0
LINE
  8
0
  6
CONTINUOUS
 62
               3
  5
41F
 10
-31.84865246785381
 20
605.25759069121227
 30
0.0
 11
-29.952944893366038
 21
550.97162843783849
 31
0.0
  0
LINE
  8
0
  6
CONTINUOUS
 62
               3
  5
420
 10
86.599650429192948
 20
605.25759069121204
 30
0.0
 11
84.703942854705161
 21
550.97162843783849
 31
0.0
  0
LINE
  8
0
  6
CONTINUOUS
 62
               3
  5
421
 10
-615.98242028232835
 20
-294.3458602876467
 30
0.0
 11
-728.98242028232858
 21
-294.34586028764636
 31
0.0
  0
LINE
  8
0
  6
CONTINUOUS
 62
               3
  5
422
 10
-728.98242028232858
 20
-294.34586028764636
 30
0.0
 11
-728.48242028232869
 21
-293.84586028764664
 31
0.0
  0
LINE
  8
0
  6
CONTINUOUS
 62
               3
  5
423
 10
-615.98242028232835
 20
-294.3458602876467
 30
0.0
 11
-616.48242028232801
 21
-293.84586028764716
 31
0.0
  0
LINE
  8
0
  6
CONTINUOUS
 62
               3
  5
424
 10
-616.48242028232823
 20
-293.84586028764693
 30
0.0
 11
-728.48242028232903
 21
-293.84586028764693
 31
0.0
  0
LINE
  8
0
  6
CONTINUOUS
 62
               3
  5
425
 10
-615.98242028232835
 20
-294.3458602876467
 30
0.0
 11
-615.98242028232835
 21
-593.91565928105149
 31
0.0
  0
LINE
  8
0
  6
CONTINUOUS
 62
               3
  5
426
 10
-728.98242028232858
 20
-294.34586028764636
 30
0.0
 11
-728.98242028232858
 21
-593.91565928105138
 31
0.0
  0
LINE
  8
0
  6
CONTINUOUS
 62
               3
  5
427
 10
67.375498980669875
 20
687.97162843783781
 30
0.0
 11
67.375498980669875
 21
665.97162843783849
 31
0.0
  0
LINE
  8
0
  6
CONTINUOUS
 62
               3
  5
428
 10
-47.482420282328263
 20
199.15413971235353
 30
0.0
 11
102.51757971767159
 21
199.15413971235353
 31
0.0
  0
LINE
  8
0
  6
CONTINUOUS
 62
               3
  5
429
 10
-60.982420282328775
 20
189.15413971235353
 30
0.0
 11
-60.982420282328775
 21
182.15413971235375
 31
0.0
  0
LINE
  8
0
  6
CONTINUOUS
 62
               3
  5
42A
 10
-60.982420282328775
 20
189.15413971235353
 30
0.0
 11
-47.482420282328263
 21
199.15413971235353
 31
0.0
  0
ARC
  8
0
  6
CONTINUOUS
 62
               3
  5
42B
 10
-49.482420282328292
 20
177.57156401739803
 30
0.0
 40
4.9999999999999991
 50
359.9999999999992
 51
426.4218215217972
  0
LINE
  8
0
  6
CONTINUOUS
 62
               3
  5
42C
 10
-60.982420282328775
 20
182.15413971235375
 30
0.0
 11
116.01757971767125
 21
182.15413971235375
 31
0.0
  0
LINE
  8
0
  6
CONTINUOUS
 62
               3
  5
42D
 10
-44.482420282328292
 20
177.57156401739803
 30
0.0
 11
-44.482420282328292
 21
102.68979346520621
 31
0.0
  0
LINE
  8
0
  6
CONTINUOUS
 62
               3
  5
42E
 10
99.517579717671765
 20
107.68979346520689
 30
0.0
 11
99.517579717671765
 21
177.57156401739803
 31
0.0
  0
LINE
  8
0
  6
CONTINUOUS
 62
               3
  5
42F
 10
-44.482420282328292
 20
102.68979346520621
 30
0.0
 11
99.01757971767222
 21
102.68979346520621
 31
0.0
  0
LINE
  8
0
  6
CONTINUOUS
 62
               3
  5
430
 10
7.5175797176717367
 20
182.15413971235375
 30
0.0
 11
7.5175797176717367
 21
199.15413971235353
 31
0.0
  0
LINE
  8
0
  6
CONTINUOUS
 62
               3
  5
431
 10
47.517579717671737
 20
199.15413971235353
 30
0.0
 11
47.517579717671737
 21
182.15413971235375
 31
0.0
  0
LINE
  8
0
  6
CONTINUOUS
 62
               3
  5
432
 10
7.5175797176717367
 20
189.15413971235353
 30
0.0
 11
47.517579717671737
 21
189.15413971235353
 31
0.0
  0
LINE
  8
0
  6
CONTINUOUS
 62
               3
  5
433
 10
-44.766581756333778
 20
199.15413971235353
 30
0.0
 11
-44.766581756333778
 21
182.15413971235375
 31
0.0
  0
LINE
  8
0
  6
CONTINUOUS
 62
               3
  5
434
 10
-58.692918482953644
 20
189.15413971235353
 30
0.0
 11
-58.692918482953644
 21
182.15413971235375
 31
0.0
  0
LINE
  8
0
  6
CONTINUOUS
 62
               3
  5
435
 10
-60.982420282328775
 20
189.15413971235353
 30
0.0
 11
-58.692918482953644
 21
189.15413971235353
 31
0.0
  0
LINE
  8
0
  6
CONTINUOUS
 62
               3
  5
436
 10
-58.692918482953644
 20
189.15413971235353
 30
0.0
 11
-44.766581756333778
 21
199.15413971235353
 31
0.0
  0
LINE
  8
0
  6
CONTINUOUS
 62
               3
  5
437
 10
116.01757971767125
 20
189.15413971235353
 30
0.0
 11
116.01757971767125
 21
182.15413971235375
 31
0.0
  0
LINE
  8
0
  6
CONTINUOUS
 62
               3
  5
438
 10
116.01757971767125
 20
189.15413971235353
 30
0.0
 11
102.51757971767159
 21
199.15413971235353
 31
0.0
  0
ARC
  8
0
  6
CONTINUOUS
 62
               3
  5
439
 10
104.51757971767177
 20
177.57156401739803
 30
0.0
 40
4.9999999999999991
 50
113.57817847820161
 51
179.9999999999996
  0
LINE
  8
0
  6
CONTINUOUS
 62
               3
  5
43A
 10
99.801741191675831
 20
199.15413971235353
 30
0.0
 11
99.801741191675831
 21
182.15413971235375
 31
0.0
  0
LINE
  8
0
  6
CONTINUOUS
 62
               3
  5
43B
 10
113.72807791829712
 20
189.15413971235353
 30
0.0
 11
113.72807791829712
 21
182.15413971235375
 31
0.0
  0
LINE
  8
0
  6
CONTINUOUS
 62
               3
  5
43C
 10
116.01757971767125
 20
189.15413971235353
 30
0.0
 11
113.72807791829712
 21
189.15413971235353
 31
0.0
  0
LINE
  8
0
  6
CONTINUOUS
 62
               3
  5
43D
 10
113.72807791829712
 20
189.15413971235353
 30
0.0
 11
99.801741191675831
 21
199.15413971235353
 31
0.0
  0
LINE
  8
0
  6
CONTINUOUS
 62
               3
  5
43E
 10
117.51757971767131
 20
-27.845860287645394
 30
0.0
 11
-62.482420282328832
 21
-27.845860287646531
 31
0.0
  0
LINE
  8
0
  6
CONTINUOUS
 62
               3
  5
43F
 10
-47.482420282327979
 20
92.154139712352332
 30
0.0
 11
-47.482420282327979
 21
-22.845860287647838
 31
0.0
  0
ARC
  8
0
  6
CONTINUOUS
 62
               3
  5
440
 10
-27.482420282327979
 20
92.154139712352332
 30
0.0
 40
19.999999999999996
 50
148.21166938294789
 51
179.9999999999996
  0
ARC
  8
0
  6
CONTINUOUS
 62
               3
  5
441
 10
-52.482420282328405
 20
-22.845860287647838
 30
0.0
 40
5.0
 50
269.99999999999937
 51
302.00545482776477
  0
ARC
  8
0
  6
CONTINUOUS
 62
               3
  5
442
 10
-52.482420282328405
 20
-22.845860287647838
 30
0.0
 40
5.0
 50
327.31636115374278
 51
359.9999999999992
  0
ARC
  8
0
  6
CONTINUOUS
 62
               3
  5
443
 10
-609.48242028232858
 20
-195.45600560353427
 30
0.0
 40
5.0
 50
135.00000000000142
 51
179.9999999999996
  0
LINE
  8
0
  6
CONTINUOUS
 62
               3
  5
444
 10
-54.308623397154832
 20
754.69834086520586
 30
0.0
 11
-61.78829965283785
 21
700.21160446899489
 31
0.0
  0
ARC
  8
0
  6
CONTINUOUS
 62
               3
  5
445
 10
27.375498980669846
 20
687.97162843783804
 30
0.0
 40
90.0
 50
172.18356639352845
 51
187.81643360647072
  0
LINE
  8
0
  6
CONTINUOUS
 62
               3
  5
446
 10
-54.308623397154832
 20
621.24491601047089
 30
0.0
 11
-61.78829965283785
 21
675.73165240668163
 31
0.0
  0
ARC
  8
0
  6
CONTINUOUS
 62
               3
  5
447
 10
-735.48242028232835
 20
-195.4560056035333
 30
0.0
 40
5.0
 50
359.9999999999992
 51
404.99999999999909
  0
ARC
  8
0
  6
CONTINUOUS
 62
               3
  5
448
 10
-749.48242028232778
 20
177.57156401739815
 30
0.0
 40
4.9999999999999991
 50
0.0
 51
66.421821521798009
  0
ARC
  8
0
  6
CONTINUOUS
 62
               3
  5
449
 10
-595.48242028232801
 20
177.57156401739815
 30
0.0
 40
4.9999999999999991
 50
113.57817847820161
 51
179.9999999999996
  0
LINE
  8
0
  6
CONTINUOUS
 62
               3
  5
44A
 10
0.7302226251921411
 20
-97.845860287646701
 30
0.0
 11
54.304936810151048
 21
-97.845860287646701
 31
0.0
  0
CIRCLE
  8
0
  6
CONTINUOUS
 62
               3
  5
44B
 10
27.517579717671595
 20
-125.84586028764653
 30
0.0
 40
48.500000000000007
  0
CIRCLE
  8
0
  6
CONTINUOUS
 62
               3
  5
44C
 10
27.517579717671595
 20
-125.84586028764653
 30
0.0
 40
38.75
  0
CIRCLE
  8
0
  6
CONTINUOUS
 62
               3
  5
44D
 10
27.517579717671595
 20
-125.84586028764653
 30
0.0
 40
47.299999999999997
  0
LINE
  8
0
  6
CONTINUOUS
 62
               3
  5
44E
 10
59.337384871066206
 20
-157.66566544104086
 30
0.0
 11
60.963730467795301
 21
-159.29201103777024
 31
0.0
  0
LINE
  8
0
  6
CONTINUOUS
 62
               3
  5
44F
 10
-4.3022254357230167
 20
-157.66566544104086
 30
0.0
 11
-5.9285710324521119
 21
-159.29201103777024
 31
0.0
  0
ARC
  8
0
  6
CONTINUOUS
 62
               3
  5
450
 10
27.517579717671595
 20
-125.84586028764653
 30
0.0
 40
45.0
 50
224.99999999999943
 51
314.99999999999932
  0
CIRCLE
  8
0
  6
CONTINUOUS
 62
               3
  5
451
 10
27.517579717671595
 20
-125.84586028764653
 30
0.0
 40
43.0
  0
LINE
  8
0
  6
CONTINUOUS
 62
               3
  5
452
 10
-28.982420282328377
 20
-294.34586028764636
 30
0.0
 11
-28.482420282328917
 21
-293.84586028764687
 31
0.0
  0
LINE
  8
0
  6
CONTINUOUS
 62
               3
  5
453
 10
84.017579717671651
 20
-294.3458602876467
 30
0.0
 11
83.517579717671822
 21
-293.84586028764693
 31
0.0
  0
LINE
  8
0
  6
CONTINUOUS
 62
               3
  5
454
 10
-617.98120193636521
 20
-595.84586087894149
 30
0.0
 11
-615.98242028232846
 21
-593.9156598723464
 31
0.0
  0
LINE
  8
0
  6
CONTINUOUS
 62
               3
  5
455
 10
-726.98363862829171
 20
-595.84586087894149
 30
0.0
 11
-728.98242028232846
 21
-593.9156598723464
 31
0.0
  0
LINE
  8
0
  6
CONTINUOUS
 62
               3
  5
456
 10
-617.98120193636521
 20
-595.84586087894149
 30
0.0
 11
-726.98363862829171
 21
-595.84586087894149
 31
0.0
  0
LINE
  8
0
  6
CONTINUOUS
 62
               3
  5
457
 10
-734.48242028232869
 20
-675.84586087894036
 30
0.0
 11
-734.48242028232869
 21
-660.84586087894127
 31
0.0
  0
LINE
  8
0
  6
CONTINUOUS
 62
               3
  5
458
 10
-737.48242028232846
 20
-675.84586087894036
 30
0.0
 11
-607.48242028232846
 21
-675.84586087894036
 31
0.0
  0
ARC
  8
0
  6
CONTINUOUS
 62
               3
  5
459
 10
-748.48242028232778
 20
-534.84586087894218
 30
0.0
 40
4.0
 50
89.999999999982236
 51
179.99999999996518
  0
LINE
  8
0
  6
CONTINUOUS
 62
               3
  5
45A
 10
-752.48242028232778
 20
-534.84586087893979
 30
0.0
 11
-752.48242028232801
 21
-553.84586087894218
 31
0.0
  0
LINE
  8
0
  6
CONTINUOUS
 62
               3
  5
45B
 10
-688.48242028232789
 20
-530.84586087894161
 30
0.0
 11
-748.48242028232789
 21
-530.84586087894218
 31
0.0
  0
LINE
  8
0
  6
CONTINUOUS
 62
               3
  5
45C
 10
-688.48242028232789
 20
-661.84586087894024
 30
0.0
 11
-656.48242028232744
 21
-661.84586087893979
 31
0.0
  0
ARC
  8
0
  6
CONTINUOUS
 62
               3
  5
45D
 10
-748.48242028232755
 20
-656.84586087894127
 30
0.0
 40
4.0
 50
179.99999999996601
 51
269.99999999994901
  0
LINE
  8
0
  6
CONTINUOUS
 62
               3
  5
45E
 10
-752.48242028232755
 20
-656.84586087894127
 30
0.0
 11
-752.48242028232755
 21
-638.34586087894104
 31
0.0
  0
LINE
  8
0
  6
CONTINUOUS
 62
               3
  5
45F
 10
-688.48242028232789
 20
-660.84586087894058
 30
0.0
 11
-748.48242028233108
 21
-660.84586087894127
 31
0.0
  0
LINE
  8
0
  6
CONTINUOUS
 62
               3
  5
460
 10
-688.48242028232789
 20
-638.34586087894047
 30
0.0
 11
-752.48242028232755
 21
-638.34586087894104
 31
0.0
  0
LINE
  8
0
  6
CONTINUOUS
 62
               3
  5
461
 10
-752.48242028232801
 20
-553.84586087894218
 30
0.0
 11
-688.48242028232789
 21
-553.84586087894218
 31
0.0
  0
LINE
  8
0
  6
CONTINUOUS
 62
               3
  5
462
 10
-749.48242028232801
 20
-553.84586087894218
 30
0.0
 11
-749.48242028232869
 21
-638.34586087894104
 31
0.0
  0
LINE
  8
0
  6
CONTINUOUS
 62
               3
  5
463
 10
-656.48242028232789
 20
-530.84586087894161
 30
0.0
 11
-593.48242028232812
 21
-530.84586087894218
 31
0.0
  0
LINE
  8
0
  6
CONTINUOUS
 62
               3
  5
464
 10
-656.48242028232744
 20
-660.84586087894058
 30
0.0
 11
-596.48242028232949
 21
-660.84586087894127
 31
0.0
  0
LINE
  8
0
  6
CONTINUOUS
 62
               3
  5
465
 10
-656.48242028232744
 20
-638.34586087894058
 30
0.0
 11
-592.48242028232926
 21
-638.34586087894104
 31
0.0
  0
LINE
  8
0
  6
CONTINUOUS
 62
               3
  5
466
 10
-592.48242028232789
 20
-553.84586087894218
 30
0.0
 11
-656.48242028232789
 21
-553.84586087894218
 31
0.0
  0
LINE
  8
0
  6
CONTINUOUS
 62
               3
  5
467
 10
-610.48242028232858
 20
-675.84586087894036
 30
0.0
 11
-610.48242028232858
 21
-660.84586087894127
 31
0.0
  0
LINE
  8
0
  6
CONTINUOUS
 62
               3
  5
468
 10
-688.48242028232789
 20
-529.84586087894218
 30
0.0
 11
-688.48242028232789
 21
-661.84586087894024
 31
0.0
  0
LINE
  8
0
  6
CONTINUOUS
 62
               3
  5
469
 10
-656.48242028232744
 20
-661.84586087893979
 30
0.0
 11
-656.48242028232789
 21
-529.84586087894218
 31
0.0
  0
LINE
  8
0
  6
CONTINUOUS
 62
               3
  5
46A
 10
-688.48242028232846
 20
-529.84586087894218
 30
0.0
 11
-656.48242028232846
 21
-529.84586087894218
 31
0.0
  0
LINE
  8
0
  6
CONTINUOUS
 62
               3
  5
46B
 10
-688.48242028232789
 20
-596.84586087894104
 30
0.0
 11
-656.48242028232744
 21
-596.84586087894104
 31
0.0
  0
LINE
  8
0
  6
CONTINUOUS
 62
               3
  5
46C
 10
-688.48242028232789
 20
-595.84586087894127
 30
0.0
 11
-656.48242028232744
 21
-595.84586087894127
 31
0.0
  0
LINE
  8
0
  6
CONTINUOUS
 62
               3
  5
46D
 10
-688.48242028232789
 20
-597.84586087894127
 30
0.0
 11
-656.48242028232744
 21
-597.84586087894127
 31
0.0
  0
ARC
  8
0
  6
CONTINUOUS
 62
               3
  5
46E
 10
-596.48242028232903
 20
-534.84586087894218
 30
0.0
 40
4.0
 50
0.0000000000344079
 51
90.000000000017366
  0
LINE
  8
0
  6
CONTINUOUS
 62
               3
  5
46F
 10
-592.48242028232903
 20
-534.84586087893979
 30
0.0
 11
-592.4824202823288
 21
-553.84586087894218
 31
0.0
  0
ARC
  8
0
  6
CONTINUOUS
 62
               3
  5
470
 10
-596.48242028232937
 20
-656.84586087894127
 30
0.0
 40
4.0
 50
270.00000000004979
 51
360.0000000000328
  0
LINE
  8
0
  6
CONTINUOUS
 62
               3
  5
471
 10
-592.48242028232926
 20
-656.84586087894127
 30
0.0
 11
-592.48242028232949
 21
-638.34586087894104
 31
0.0
  0
LINE
  8
0
  6
CONTINUOUS
 62
               3
  5
472
 10
-595.4824202823288
 20
-553.84586087894218
 30
0.0
 11
-595.48242028232835
 21
-638.34586087894104
 31
0.0
  0
LINE
  8
0
  6
CONTINUOUS
 62
               3
  5
473
 10
782.0187980636349
 20
-595.84586087894149
 30
0.0
 11
784.01757971767165
 21
-593.9156598723464
 31
0.0
  0
LINE
  8
0
  6
CONTINUOUS
 62
               3
  5
474
 10
673.0163613717084
 20
-595.84586087894149
 30
0.0
 11
671.01757971767165
 21
-593.9156598723464
 31
0.0
  0
LINE
  8
0
  6
CONTINUOUS
 62
               3
  5
475
 10
782.0187980636349
 20
-595.84586087894149
 30
0.0
 11
673.0163613717084
 21
-595.84586087894149
 31
0.0
  0
LINE
  8
0
  6
CONTINUOUS
 62
               3
  5
476
 10
665.51757971767142
 20
-675.84586087894036
 30
0.0
 11
665.51757971767142
 21
-660.84586087894127
 31
0.0
  0
LINE
  8
0
  6
CONTINUOUS
 62
               3
  5
477
 10
662.51757971767165
 20
-675.84586087894036
 30
0.0
 11
792.51757971767165
 21
-675.84586087894036
 31
0.0
  0
ARC
  8
0
  6
CONTINUOUS
 62
               3
  5
478
 10
651.51757971767233
 20
-534.84586087894218
 30
0.0
 40
4.0
 50
89.999999999982236
 51
179.99999999996518
  0
LINE
  8
0
  6
CONTINUOUS
 62
               3
  5
479
 10
647.51757971767233
 20
-534.84586087893979
 30
0.0
 11
647.51757971767211
 21
-553.84586087894218
 31
0.0
  0
LINE
  8
0
  6
CONTINUOUS
 62
               3
  5
47A
 10
711.51757971767222
 20
-530.84586087894161
 30
0.0
 11
651.51757971767222
 21
-530.84586087894218
 31
0.0
  0
LINE
  8
0
  6
CONTINUOUS
 62
               3
  5
47B
 10
711.51757971767222
 20
-661.84586087894024
 30
0.0
 11
743.51757971767279
 21
-661.84586087893979
 31
0.0
  0
ARC
  8
0
  6
CONTINUOUS
 62
               3
  5
47C
 10
651.51757971767256
 20
-656.84586087894127
 30
0.0
 40
4.0
 50
179.99999999996601
 51
269.99999999994901
  0
LINE
  8
0
  6
CONTINUOUS
 62
               3
  5
47D
 10
647.51757971767256
 20
-656.84586087894127
 30
0.0
 11
647.51757971767256
 21
-638.34586087894104
 31
0.0
  0
LINE
  8
0
  6
CONTINUOUS
 62
               3
  5
47E
 10
711.51757971767222
 20
-660.84586087894058
 30
0.0
 11
651.51757971766904
 21
-660.84586087894127
 31
0.0
  0
LINE
  8
0
  6
CONTINUOUS
 62
               3
  5
47F
 10
711.51757971767222
 20
-638.34586087894047
 30
0.0
 11
647.51757971767256
 21
-638.34586087894104
 31
0.0
  0
LINE
  8
0
  6
CONTINUOUS
 62
               3
  5
480
 10
647.51757971767211
 20
-553.84586087894218
 30
0.0
 11
711.51757971767222
 21
-553.84586087894218
 31
0.0
  0
LINE
  8
0
  6
CONTINUOUS
 62
               3
  5
481
 10
650.51757971767211
 20
-553.84586087894218
 30
0.0
 11
650.51757971767142
 21
-638.34586087894104
 31
0.0
  0
LINE
  8
0
  6
CONTINUOUS
 62
               3
  5
482
 10
743.51757971767222
 20
-530.84586087894161
 30
0.0
 11
806.51757971767199
 21
-530.84586087894218
 31
0.0
  0
LINE
  8
0
  6
CONTINUOUS
 62
               3
  5
483
 10
743.51757971767279
 20
-660.84586087894058
 30
0.0
 11
803.51757971767074
 21
-660.84586087894127
 31
0.0
  0
LINE
  8
0
  6
CONTINUOUS
 62
               3
  5
484
 10
743.51757971767279
 20
-638.34586087894058
 30
0.0
 11
807.51757971767074
 21
-638.34586087894104
 31
0.0
  0
LINE
  8
0
  6
CONTINUOUS
 62
               3
  5
485
 10
807.51757971767222
 20
-553.84586087894218
 30
0.0
 11
743.51757971767222
 21
-553.84586087894218
 31
0.0
  0
LINE
  8
0
  6
CONTINUOUS
 62
               3
  5
486
 10
789.51757971767154
 20
-675.84586087894036
 30
0.0
 11
789.51757971767154
 21
-660.84586087894127
 31
0.0
  0
LINE
  8
0
  6
CONTINUOUS
 62
               3
  5
487
 10
711.51757971767222
 20
-529.84586087894218
 30
0.0
 11
711.51757971767222
 21
-661.84586087894024
 31
0.0
  0
LINE
  8
0
  6
CONTINUOUS
 62
               3
  5
488
 10
743.51757971767279
 20
-661.84586087893979
 30
0.0
 11
743.51757971767222
 21
-529.84586087894218
 31
0.0
  0
LINE
  8
0
  6
CONTINUOUS
 62
               3
  5
489
 10
711.51757971767165
 20
-529.84586087894218
 30
0.0
 11
743.51757971767165
 21
-529.84586087894218
 31
0.0
  0
LINE
  8
0
  6
CONTINUOUS
 62
               3
  5
48A
 10
711.51757971767222
 20
-596.84586087894104
 30
0.0
 11
743.51757971767279
 21
-596.84586087894104
 31
0.0
  0
LINE
  8
0
  6
CONTINUOUS
 62
               3
  5
48B
 10
711.51757971767222
 20
-595.84586087894127
 30
0.0
 11
743.51757971767279
 21
-595.84586087894127
 31
0.0
  0
LINE
  8
0
  6
CONTINUOUS
 62
               3
  5
48C
 10
711.51757971767222
 20
-597.84586087894127
 30
0.0
 11
743.51757971767279
 21
-597.84586087894127
 31
0.0
  0
ARC
  8
0
  6
CONTINUOUS
 62
               3
  5
48D
 10
803.51757971767097
 20
-534.84586087894218
 30
0.0
 40
4.0
 50
0.0000000000344079
 51
90.000000000017366
  0
LINE
  8
0
  6
CONTINUOUS
 62
               3
  5
48E
 10
807.51757971767097
 20
-534.84586087893979
 30
0.0
 11
807.5175797176712
 21
-553.84586087894218
 31
0.0
  0
ARC
  8
0
  6
CONTINUOUS
 62
               3
  5
48F
 10
803.51757971767074
 20
-656.84586087894127
 30
0.0
 40
4.0
 50
270.00000000004979
 51
360.0000000000328
  0
LINE
  8
0
  6
CONTINUOUS
 62
               3
  5
490
 10
807.51757971767074
 20
-656.84586087894127
 30
0.0
 11
807.51757971767074
 21
-638.34586087894104
 31
0.0
  0
LINE
  8
0
  6
CONTINUOUS
 62
               3
  5
491
 10
804.5175797176712
 20
-553.84586087894218
 30
0.0
 11
804.51757971767188
 21
-638.34586087894104
 31
0.0
  0
LINE
  8
0
  6
CONTINUOUS
 62
               3
  5
492
 10
-26.983638628291601
 20
-595.84586087894149
 30
0.0
 11
-28.982420282328349
 21
-593.9156598723464
 31
0.0
  0
LINE
  8
0
  6
CONTINUOUS
 62
               3
  5
493
 10
82.018798063634961
 20
-595.84586087894149
 30
0.0
 11
84.017579717671708
 21
-593.9156598723464
 31
0.0
  0
LINE
  8
0
  6
CONTINUOUS
 62
               3
  5
494
 10
-26.983638628291601
 20
-595.84586087894149
 30
0.0
 11
82.018798063634961
 21
-595.84586087894149
 31
0.0
  0
LINE
  8
0
  6
CONTINUOUS
 62
               3
  5
495
 10
-34.482420282329144
 20
-675.84586087894036
 30
0.0
 11
-34.482420282329144
 21
-660.84586087894127
 31
0.0
  0
LINE
  8
0
  6
CONTINUOUS
 62
               3
  5
496
 10
-37.482420282328974
 20
-675.84586087894036
 30
0.0
 11
92.517579717670998
 21
-675.84586087894036
 31
0.0
  0
LINE
  8
0
  6
CONTINUOUS
 62
               3
  5
497
 10
-37.482420282327979
 20
-661.84586087894104
 30
0.0
 11
-51.482420282327894
 21
-661.84586087894127
 31
0.0
  0
ARC
  8
0
  6
CONTINUOUS
 62
               3
  5
498
 10
-51.482420282327894
 20
-659.84586087894127
 30
0.0
 40
1.0000000000000004
 50
179.99999999996601
 51
269.99999999994748
  0
ARC
  8
0
  6
CONTINUOUS
 62
               3
  5
499
 10
-51.482420282327894
 20
-659.84586087894127
 30
0.0
 40
1.9999999999999996
 50
179.99999999996601
 51
269.99999999994901
  0
ARC
  8
0
  6
CONTINUOUS
 62
               3
  5
49A
 10
-48.482420282328064
 20
-656.84586087894127
 30
0.0
 40
4.0
 50
179.99999999996601
 51
269.99999999994901
  0
LINE
  8
0
  6
CONTINUOUS
 62
               3
  5
49B
 10
-37.482420282327979
 20
-661.84586087894104
 30
0.0
 11
-37.482420282327979
 21
-660.84586087894127
 31
0.0
  0
LINE
  8
0
  6
CONTINUOUS
 62
               3
  5
49C
 10
27.517579717671026
 20
-660.84586087894036
 30
0.0
 11
-51.482420282327894
 21
-660.84586087894127
 31
0.0
  0
LINE
  8
0
  6
CONTINUOUS
 62
               3
  5
49D
 10
27.517579717671026
 20
-638.34586087894036
 30
0.0
 11
-52.482420282328121
 21
-638.34586087894104
 31
0.0
  0
LINE
  8
0
  6
CONTINUOUS
 62
               3
  5
49E
 10
92.517579717669861
 20
-661.84586087894104
 30
0.0
 11
106.51757971766992
 21
-661.84586087894127
 31
0.0
  0
ARC
  8
0
  6
CONTINUOUS
 62
               3
  5
49F
 10
106.51757971766992
 20
-659.84586087894127
 30
0.0
 40
1.0000000000000004
 50
270.00000000005133
 51
360.0000000000328
  0
ARC
  8
0
  6
CONTINUOUS
 62
               3
  5
4A0
 10
106.51757971766992
 20
-659.84586087894127
 30
0.0
 40
1.9999999999999996
 50
270.00000000004979
 51
360.0000000000328
  0
ARC
  8
0
  6
CONTINUOUS
 62
               3
  5
4A1
 10
103.51757971766997
 20
-656.84586087894127
 30
0.0
 40
4.0
 50
270.00000000004979
 51
360.0000000000328
  0
LINE
  8
0
  6
CONTINUOUS
 62
               3
  5
4A2
 10
92.517579717669861
 20
-661.84586087894104
 30
0.0
 11
92.517579717669861
 21
-660.84586087894127
 31
0.0
  0
LINE
  8
0
  6
CONTINUOUS
 62
               3
  5
4A3
 10
27.517579717671026
 20
-660.84586087894036
 30
0.0
 11
106.51757971766992
 21
-660.84586087894127
 31
0.0
  0
LINE
  8
0
  6
CONTINUOUS
 62
               3
  5
4A4
 10
27.517579717671026
 20
-638.34586087894036
 30
0.0
 11
107.51757971767015
 21
-638.34586087894104
 31
0.0
  0
LINE
  8
0
  6
CONTINUOUS
 62
               3
  5
4A5
 10
89.517579717670912
 20
-675.84586087894036
 30
0.0
 11
89.517579717670912
 21
-660.84586087894127
 31
0.0
  0
ARC
  8
0
  6
CONTINUOUS
 62
               3
  5
4A6
 10
-48.482420282328349
 20
-534.84586087894218
 30
0.0
 40
4.0
 50
89.999999999982236
 51
179.99999999996518
  0
ARC
  8
0
  6
CONTINUOUS
 62
               3
  5
4A7
 10
-51.48242028232832
 20
-531.84586087894218
 30
0.0
 40
1.0000000000000004
 50
89.999999999981483
 51
179.99999999996524
  0
ARC
  8
0
  6
CONTINUOUS
 62
               3
  5
4A8
 10
-51.48242028232832
 20
-531.84586087894218
 30
0.0
 40
1.9999999999999996
 50
89.999999999983004
 51
179.99999999996524
  0
LINE
  8
0
  6
CONTINUOUS
 62
               3
  5
4A9
 10
-53.482420282328349
 20
-531.84586087894218
 30
0.0
 11
-53.482420282328917
 21
-594.84586087894104
 31
0.0
  0
LINE
  8
0
  6
CONTINUOUS
 62
               3
  5
4AA
 10
-52.482420282328548
 20
-531.84586087894218
 30
0.0
 11
-52.482420282329116
 21
-594.84586087894104
 31
0.0
  0
ARC
  8
0
  6
CONTINUOUS
 62
               3
  5
4AB
 10
-54.48242028232886
 20
-594.84586087894104
 30
0.0
 40
1.9999999999999996
 50
269.99999999994748
 51
359.99999999993048
  0
ARC
  8
0
  6
CONTINUOUS
 62
               3
  5
4AC
 10
-54.48242028232886
 20
-594.84586087894104
 30
0.0
 40
1.0000000000000004
 50
269.99999999994748
 51
359.99999999993048
  0
LINE
  8
0
  6
CONTINUOUS
 62
               3
  5
4AD
 10
-54.48242028232886
 20
-596.84586087894104
 30
0.0
 11
-117.48242028232897
 21
-596.84586087894149
 31
0.0
  0
LINE
  8
0
  6
CONTINUOUS
 62
               3
  5
4AE
 10
-54.48242028232886
 20
-595.84586087894104
 30
0.0
 11
-117.48242028232897
 21
-595.84586087894149
 31
0.0
  0
LINE
  8
0
  6
CONTINUOUS
 62
               3
  5
4AF
 10
-53.482420282328064
 20
-659.84586087894127
 30
0.0
 11
-53.482420282328917
 21
-598.84586087894104
 31
0.0
  0
LINE
  8
0
  6
CONTINUOUS
 62
               3
  5
4B0
 10
-52.482420282327979
 20
-659.84586087894127
 30
0.0
 11
-52.482420282328974
 21
-598.84586087894104
 31
0.0
  0
ARC
  8
0
  6
CONTINUOUS
 62
               3
  5
4B1
 10
-54.48242028232886
 20
-598.84586087894104
 30
0.0
 40
1.9999999999999996
 50
0.000000000001145
 51
89.999999999983004
  0
ARC
  8
0
  6
CONTINUOUS
 62
               3
  5
4B2
 10
-54.48242028232886
 20
-598.84586087894104
 30
0.0
 40
1.0000000000000004
 50
0.0000000000007633
 51
89.999999999984539
  0
LINE
  8
0
  6
CONTINUOUS
 62
               3
  5
4B3
 10
-54.48242028232886
 20
-597.84586087894104
 30
0.0
 11
-117.48242028232897
 21
-597.84586087894149
 31
0.0
  0
LINE
  8
0
  6
CONTINUOUS
 62
               3
  5
4B4
 10
-49.482420282328576
 20
-553.84586087894218
 30
0.0
 11
-49.482420282329144
 21
-638.34586087894104
 31
0.0
  0
LINE
  8
0
  6
CONTINUOUS
 62
               3
  5
4B5
 10
-117.48242028232897
 20
-595.84586087894149
 30
0.0
 11
-117.48242028232897
 21
-596.84586087894149
 31
0.0
  0
LINE
  8
0
  6
CONTINUOUS
 62
               3
  5
4B6
 10
-117.48242028232897
 20
-597.84586087894149
 30
0.0
 11
-117.48242028232897
 21
-596.84586087894149
 31
0.0
  0
LINE
  8
0
  6
CONTINUOUS
 62
               3
  5
4B7
 10
-59.732420282328917
 20
-594.34586087894104
 30
0.0
 11
-67.232420282328917
 21
-594.34586087894104
 31
0.0
  0
LINE
  8
0
  6
CONTINUOUS
 62
               3
  5
4B8
 10
-59.732420282328917
 20
-599.34586087894104
 30
0.0
 11
-67.232420282328917
 21
-599.34586087894127
 31
0.0
  0
LINE
  8
0
  6
CONTINUOUS
 62
               3
  5
4B9
 10
-59.732420282328917
 20
-594.34586087894104
 30
0.0
 11
-59.732420282328917
 21
-595.84586087894104
 31
0.0
  0
LINE
  8
0
  6
CONTINUOUS
 62
               3
  5
4BA
 10
-59.732420282328917
 20
-597.84586087894104
 30
0.0
 11
-59.732420282328917
 21
-599.34586087894104
 31
0.0
  0
LINE
  8
0
  6
CONTINUOUS
 62
               3
  5
4BB
 10
-67.232420282328917
 20
-594.34586087894104
 30
0.0
 11
-67.232420282328917
 21
-595.84586087894104
 31
0.0
  0
LINE
  8
0
  6
CONTINUOUS
 62
               3
  5
4BC
 10
-67.232420282328917
 20
-597.84586087894127
 30
0.0
 11
-67.232420282328917
 21
-599.34586087894127
 31
0.0
  0
LINE
  8
0
  6
CONTINUOUS
 62
               3
  5
4BD
 10
-35.482420282327169
 20
-530.84586087894149
 30
0.0
 11
90.517579717670358
 21
-530.84586087894149
 31
0.0
  0
LINE
  8
0
  6
CONTINUOUS
 62
               3
  5
4BE
 10
-37.482420282328548
 20
-529.84586087894218
 30
0.0
 11
-51.48242028232832
 21
-529.84586087894218
 31
0.0
  0
LINE
  8
0
  6
CONTINUOUS
 62
               3
  5
4BF
 10
27.517579717671595
 20
-530.84586087894149
 30
0.0
 11
-51.48242028232832
 21
-530.84586087894218
 31
0.0
  0
LINE
  8
0
  6
CONTINUOUS
 62
               3
  5
4C0
 10
-37.482420282328548
 20
-529.84586087894218
 30
0.0
 11
-37.482420282328548
 21
-530.84586087894206
 31
0.0
  0
LINE
  8
0
  6
CONTINUOUS
 62
               3
  5
4C1
 10
-52.482420282328548
 20
-553.84586087894218
 30
0.0
 11
27.517579717671595
 21
-553.84586087894218
 31
0.0
  0
ARC
  8
0
  6
CONTINUOUS
 62
               3
  5
4C2
 10
103.5175797176714
 20
-534.84586087894218
 30
0.0
 40
4.0
 50
0.0000000000344079
 51
90.000000000017366
  0
ARC
  8
0
  6
CONTINUOUS
 62
               3
  5
4C3
 10
106.51757971767134
 20
-531.84586087894218
 30
0.0
 40
1.0000000000000004
 50
0.000000000034357
 51
90.000000000018133
  0
ARC
  8
0
  6
CONTINUOUS
 62
               3
  5
4C4
 10
106.51757971767134
 20
-531.84586087894218
 30
0.0
 40
1.9999999999999996
 50
0.000000000034357
 51
90.000000000016598
  0
LINE
  8
0
  6
CONTINUOUS
 62
               3
  5
4C5
 10
92.517579717671566
 20
-529.84586087894218
 30
0.0
 11
106.51757971767134
 21
-529.84586087894218
 31
0.0
  0
LINE
  8
0
  6
CONTINUOUS
 62
               3
  5
4C6
 10
27.517579717671595
 20
-530.84586087894149
 30
0.0
 11
106.51757971767134
 21
-530.84586087894218
 31
0.0
  0
LINE
  8
0
  6
CONTINUOUS
 62
               3
  5
4C7
 10
92.517579717671566
 20
-529.84586087894218
 30
0.0
 11
92.517579717671566
 21
-530.84586087894206
 31
0.0
  0
LINE
  8
0
  6
CONTINUOUS
 62
               3
  5
4C8
 10
107.51757971767157
 20
-553.84586087894218
 30
0.0
 11
27.517579717671595
 21
-553.84586087894218
 31
0.0
  0
LINE
  8
0
  6
CONTINUOUS
 62
               3
  5
4C9
 10
172.517579717671
 20
-595.84586087894149
 30
0.0
 11
172.517579717671
 21
-596.84586087894149
 31
0.0
  0
LINE
  8
0
  6
CONTINUOUS
 62
               3
  5
4CA
 10
172.517579717671
 20
-597.84586087894149
 30
0.0
 11
172.517579717671
 21
-596.84586087894149
 31
0.0
  0
ARC
  8
0
  6
CONTINUOUS
 62
               3
  5
4CB
 10
103.5175797176714
 20
-534.84586087894218
 30
0.0
 40
4.0
 50
0.0000000000344079
 51
90.000000000017366
  0
ARC
  8
0
  6
CONTINUOUS
 62
               3
  5
4CC
 10
106.51757971767134
 20
-531.84586087894218
 30
0.0
 40
1.0000000000000004
 50
0.000000000034357
 51
90.000000000018133
  0
ARC
  8
0
  6
CONTINUOUS
 62
               3
  5
4CD
 10
106.51757971767134
 20
-531.84586087894218
 30
0.0
 40
1.9999999999999996
 50
0.000000000034357
 51
90.000000000016598
  0
LINE
  8
0
  6
CONTINUOUS
 62
               3
  5
4CE
 10
108.5175797176714
 20
-531.84586087894218
 30
0.0
 11
108.51757971767083
 21
-594.84586087894104
 31
0.0
  0
LINE
  8
0
  6
CONTINUOUS
 62
               3
  5
4CF
 10
107.51757971767157
 20
-531.84586087894218
 30
0.0
 11
107.517579717671
 21
-594.84586087894104
 31
0.0
  0
ARC
  8
0
  6
CONTINUOUS
 62
               3
  5
4D0
 10
109.51757971767088
 20
-594.84586087894104
 30
0.0
 40
1.9999999999999996
 50
180.0000000000683
 51
270.00000000005133
  0
ARC
  8
0
  6
CONTINUOUS
 62
               3
  5
4D1
 10
109.51757971767088
 20
-594.84586087894104
 30
0.0
 40
1.0000000000000004
 50
180.0000000000683
 51
270.00000000005133
  0
LINE
  8
0
  6
CONTINUOUS
 62
               3
  5
4D2
 10
109.51757971767088
 20
-596.84586087894104
 30
0.0
 11
172.517579717671
 21
-596.84586087894149
 31
0.0
  0
LINE
  8
0
  6
CONTINUOUS
 62
               3
  5
4D3
 10
109.51757971767088
 20
-595.84586087894104
 30
0.0
 11
172.517579717671
 21
-595.84586087894149
 31
0.0
  0
ARC
  8
0
  6
CONTINUOUS
 62
               3
  5
4D4
 10
106.51757971766992
 20
-659.84586087894127
 30
0.0
 40
1.0000000000000004
 50
270.00000000005133
 51
360.0000000000328
  0
ARC
  8
0
  6
CONTINUOUS
 62
               3
  5
4D5
 10
106.51757971766992
 20
-659.84586087894127
 30
0.0
 40
1.9999999999999996
 50
270.00000000004979
 51
360.0000000000328
  0
ARC
  8
0
  6
CONTINUOUS
 62
               3
  5
4D6
 10
103.51757971766997
 20
-656.84586087894127
 30
0.0
 40
4.0
 50
270.00000000004979
 51
360.0000000000328
  0
LINE
  8
0
  6
CONTINUOUS
 62
               3
  5
4D7
 10
108.5175797176698
 20
-659.84586087894127
 30
0.0
 11
108.51757971767083
 21
-598.84586087894104
 31
0.0
  0
LINE
  8
0
  6
CONTINUOUS
 62
               3
  5
4D8
 10
107.51757971766986
 20
-659.84586087894127
 30
0.0
 11
107.51757971767088
 21
-598.84586087894104
 31
0.0
  0
ARC
  8
0
  6
CONTINUOUS
 62
               3
  5
4D9
 10
109.51757971767088
 20
-598.84586087894104
 30
0.0
 40
1.9999999999999996
 50
90.000000000016598
 51
179.99999999999847
  0
ARC
  8
0
  6
CONTINUOUS
 62
               3
  5
4DA
 10
109.51757971767088
 20
-598.84586087894104
 30
0.0
 40
1.0000000000000004
 50
90.000000000015078
 51
179.99999999999883
  0
LINE
  8
0
  6
CONTINUOUS
 62
               3
  5
4DB
 10
109.51757971767088
 20
-597.84586087894104
 30
0.0
 11
172.517579717671
 21
-597.84586087894149
 31
0.0
  0
LINE
  8
0
  6
CONTINUOUS
 62
               3
  5
4DC
 10
104.51757971767145
 20
-553.84586087894218
 30
0.0
 11
104.51757971767088
 21
-638.34586087894104
 31
0.0
  0
LINE
  8
0
  6
CONTINUOUS
 62
               3
  5
4DD
 10
172.517579717671
 20
-595.84586087894149
 30
0.0
 11
172.517579717671
 21
-596.84586087894149
 31
0.0
  0
LINE
  8
0
  6
CONTINUOUS
 62
               3
  5
4DE
 10
172.517579717671
 20
-597.84586087894149
 30
0.0
 11
172.517579717671
 21
-596.84586087894149
 31
0.0
  0
LINE
  8
0
  6
CONTINUOUS
 62
               3
  5
4DF
 10
114.76757971767083
 20
-594.34586087894104
 30
0.0
 11
122.26757971767083
 21
-594.34586087894104
 31
0.0
  0
LINE
  8
0
  6
CONTINUOUS
 62
               3
  5
4E0
 10
114.76757971767083
 20
-599.34586087894104
 30
0.0
 11
122.26757971767083
 21
-599.34586087894127
 31
0.0
  0
LINE
  8
0
  6
CONTINUOUS
 62
               3
  5
4E1
 10
114.76757971767083
 20
-594.34586087894104
 30
0.0
 11
114.76757971767083
 21
-595.84586087894104
 31
0.0
  0
LINE
  8
0
  6
CONTINUOUS
 62
               3
  5
4E2
 10
114.76757971767083
 20
-597.84586087894104
 30
0.0
 11
114.76757971767083
 21
-599.34586087894104
 31
0.0
  0
LINE
  8
0
  6
CONTINUOUS
 62
               3
  5
4E3
 10
122.26757971767083
 20
-594.34586087894104
 30
0.0
 11
122.26757971767083
 21
-595.84586087894104
 31
0.0
  0
LINE
  8
0
  6
CONTINUOUS
 62
               3
  5
4E4
 10
122.26757971767083
 20
-597.84586087894127
 30
0.0
 11
122.26757971767083
 21
-599.34586087894127
 31
0.0
  0
CIRCLE
  8
0
  6
CONTINUOUS
 62
               3
  5
4E5
 10
636.80410293397961
 20
-1159.7027253919912
 30
0.0
 40
75.0
  0
CIRCLE
  8
0
  6
CONTINUOUS
 62
               3
  5
4E6
 10
636.80410293397961
 20
-1159.7027253919912
 30
0.0
 40
52.5
  0
LINE
  8
0
  6
CONTINUOUS
 62
               3
  5
4E7
 10
550.59360473335425
 20
-1139.7027253919912
 30
0.0
 11
564.51994145997412
 21
-1139.7027253919912
 31
0.0
  0
LINE
  8
0
  6
CONTINUOUS
 62
               3
  5
4E8
 10
564.51994145997412
 20
-1179.7027253919912
 30
0.0
 11
550.59360473335425
 21
-1179.7027253919912
 31
0.0
  0
ARC
  8
0
  6
CONTINUOUS
 62
               3
  5
4E9
 10
636.80410293397961
 20
-1159.7027253919912
 30
0.0
 40
88.5
 50
166.93897588507147
 51
193.06102411465253
  0
LINE
  8
0
  6
CONTINUOUS
 62
               3
  5
4EA
 10
616.80410293397961
 20
-1245.9132235926161
 30
0.0
 11
616.80410293397961
 21
-1231.9868868659962
 31
0.0
  0
LINE
  8
0
  6
CONTINUOUS
 62
               3
  5
4EB
 10
656.80410293397961
 20
-1231.9868868659962
 30
0.0
 11
656.80410293397961
 21
-1245.9132235926161
 31
0.0
  0
ARC
  8
0
  6
CONTINUOUS
 62
               3
  5
4EC
 10
636.80410293397961
 20
-1159.7027253919912
 30
0.0
 40
88.5
 50
256.93897588500261
 51
283.06102411458357
  0
LINE
  8
0
  6
CONTINUOUS
 62
               3
  5
4ED
 10
723.01460113460428
 20
-1179.7027253919912
 30
0.0
 11
709.08826440798373
 21
-1179.7027253919912
 31
0.0
  0
LINE
  8
0
  6
CONTINUOUS
 62
               3
  5
4EE
 10
709.08826440798373
 20
-1139.7027253919912
 30
0.0
 11
723.01460113460428
 21
-1139.7027253919912
 31
0.0
  0
ARC
  8
0
  6
CONTINUOUS
 62
               3
  5
4EF
 10
636.80410293397961
 20
-1159.7027253919912
 30
0.0
 40
88.5
 50
346.93897588493354
 51
373.06102411451457
  0
LINE
  8
0
  6
CONTINUOUS
 62
               3
  5
4F0
 10
656.80410293397961
 20
-1073.4922271913656
 30
0.0
 11
656.80410293397961
 21
-1087.4185639179861
 31
0.0
  0
LINE
  8
0
  6
CONTINUOUS
 62
               3
  5
4F1
 10
616.80410293397961
 20
-1087.4185639179861
 30
0.0
 11
616.80410293397961
 21
-1073.4922271913656
 31
0.0
  0
ARC
  8
0
  6
CONTINUOUS
 62
               3
  5
4F2
 10
636.80410293397961
 20
-1159.7027253919912
 30
0.0
 40
88.5
 50
76.938975885140493
 51
103.06102411472153
  0
LINE
  8
0
  6
CONTINUOUS
 62
               3
  5
4F3
 10
589.13597941311843
 20
-1181.7027253919916
 30
0.0
 11
684.47222645483942
 21
-1181.7027253919916
 31
0.0
  0
ARC
  8
0
  6
CONTINUOUS
 62
               3
  5
4F4
 10
649.30771458336073
 20
-1150.9963277643722
 30
0.0
 40
54.763804151667173
 50
141.3859176367296
 51
145.15009542084252
  0
ARC
  8
0
  6
CONTINUOUS
 62
               3
  5
4F5
 10
636.80410293397961
 20
-1159.7027253919912
 30
0.0
 40
51.5
 50
334.7109884732011
 51
410.95932736332554
  0
ARC
  8
0
  6
CONTINUOUS
 62
               3
  5
4F6
 10
636.80410293397961
 20
-1159.7027253919912
 30
0.0
 40
51.5
 50
129.04067263626098
 51
205.289011526385
  0
ARC
  8
0
  6
CONTINUOUS
 62
               3
  5
4F7
 10
636.80410293397961
 20
-1159.7027253919912
 30
0.0
 40
77.5
 50
104.95524831656299
 51
128.57288309093474
  0
ARC
  8
0
  6
CONTINUOUS
 62
               3
  5
4F8
 10
636.80410293397961
 20
-1159.7027253919912
 30
0.0
 40
77.5
 50
14.95524831663182
 51
75.044751683299182
  0
ARC
  8
0
  6
CONTINUOUS
 62
               3
  5
4F9
 10
636.80410293397961
 20
-1159.7027253919912
 30
0.0
 40
77.5
 50
321.42711690871977
 51
345.04475168309216
  0
LINE
  8
0
  6
CONTINUOUS
 62
               3
  5
4FA
 10
496.80410293397944
 20
-1214.7027253919912
 30
0.0
 11
497.47565905994367
 21
-1214.7027253919912
 31
0.0
  0
LINE
  8
0
  6
CONTINUOUS
 62
               3
  5
4FB
 10
499.97565905994412
 20
-1217.2027253919912
 30
0.0
 11
497.47565905994367
 21
-1214.7027253919912
 31
0.0
  0
LINE
  8
0
  6
CONTINUOUS
 62
               3
  5
4FC
 10
496.80410293397944
 20
-1104.7027253919912
 30
0.0
 11
497.47565905994367
 21
-1104.7027253919912
 31
0.0
  0
LINE
  8
0
  6
CONTINUOUS
 62
               3
  5
4FD
 10
499.97565905994367
 20
-1102.2027253919912
 30
0.0
 11
497.47565905994367
 21
-1104.7027253919912
 31
0.0
  0
LINE
  8
0
  6
CONTINUOUS
 62
               3
  5
4FE
 10
497.47565905994367
 20
-1104.7027253919912
 30
0.0
 11
497.47565905994367
 21
-1214.7027253919912
 31
0.0
  0
LINE
  8
0
  6
CONTINUOUS
 62
               3
  5
4FF
 10
591.31376714760165
 20
-1099.0131283736496
 30
0.0
 11
499.97565905994367
 21
-1102.2027253919912
 31
0.0
  0
LINE
  8
0
  6
CONTINUOUS
 62
               3
  5
500
 10
571.96763121742845
 20
-1219.7167404569589
 30
0.0
 11
499.97565905994423
 21
-1217.2027253919912
 31
0.0
  0
LINE
  8
0
  6
CONTINUOUS
 62
               3
  5
501
 10
491.80410293397944
 20
-1104.8742815179553
 30
0.0
 11
491.80410293397944
 21
-1214.8027253919911
 31
0.0
  0
LINE
  8
0
  6
CONTINUOUS
 62
               3
  5
502
 10
496.80410293397944
 20
-1217.3027253919911
 30
0.0
 11
496.80410293397944
 21
-1102.102725391991
 31
0.0
  0
LINE
  8
0
  6
CONTINUOUS
 62
               3
  5
503
 10
496.80410293397944
 20
-1102.102725391991
 30
0.0
 11
494.30410293397944
 21
-1102.102725391991
 31
0.0
  0
LINE
  8
0
  6
CONTINUOUS
 62
               3
  5
504
 10
496.80410293397944
 20
-1217.3027253919911
 30
0.0
 11
494.30410293397944
 21
-1217.3027253919911
 31
0.0
  0
ARC
  8
0
  6
CONTINUOUS
 62
               3
  5
505
 10
494.30410293397944
 20
-1214.8027253919911
 30
0.0
 40
2.5
 50
179.9999999998615
 51
269.99999999979229
  0
ARC
  8
0
  6
CONTINUOUS
 62
               3
  5
506
 10
494.30410293397944
 20
-1104.602725391991
 30
0.0
 40
2.5
 50
89.999999999932058
 51
179.9999999998615
  0
LINE
  8
0
  6
CONTINUOUS
 62
               3
  5
507
 10
604.36569976736189
 20
-1119.7027253919914
 30
0.0
 11
636.80410293397961
 21
-1119.7027253919914
 31
0.0
  0
LINE
  8
0
  6
CONTINUOUS
 62
               3
  5
508
 10
636.80410293397961
 20
-1119.7027253919914
 30
0.0
 11
670.80777920581829
 21
-1119.7027253919914
 31
0.0
  0
LINE
  8
0
  6
CONTINUOUS
 62
               3
  5
509
 10
499.97565905994412
 20
-1217.2027253919912
 30
0.0
 11
499.97565905994367
 21
-1102.2027253919912
 31
0.0
  0
ARC
  8
0
  6
CONTINUOUS
 62
               3
  5
50A
 10
591.13926966408906
 20
-1094.016174238554
 30
0.0
 40
5.0
 50
271.9999999997919
 51
304.80675787019305
  0
LINE
  8
0
  6
CONTINUOUS
 62
               3
  5
50B
 10
691.80410293397938
 20
-1299.7027253919912
 30
0.0
 11
691.80410293397938
 21
-1299.0311692660268
 31
0.0
  0
LINE
  8
0
  6
CONTINUOUS
 62
               3
  5
50C
 10
694.30410293397938
 20
-1296.5311692660264
 30
0.0
 11
691.80410293397938
 21
-1299.0311692660268
 31
0.0
  0
LINE
  8
0
  6
CONTINUOUS
 62
               3
  5
50D
 10
581.80410293397938
 20
-1299.7027253919912
 30
0.0
 11
581.80410293397938
 21
-1299.0311692660268
 31
0.0
  0
LINE
  8
0
  6
CONTINUOUS
 62
               3
  5
50E
 10
579.30410293397938
 20
-1296.5311692660268
 30
0.0
 11
581.80410293397938
 21
-1299.0311692660268
 31
0.0
  0
LINE
  8
0
  6
CONTINUOUS
 62
               3
  5
50F
 10
581.80410293397938
 20
-1299.0311692660268
 30
0.0
 11
691.80410293397938
 21
-1299.0311692660268
 31
0.0
  0
LINE
  8
0
  6
CONTINUOUS
 62
               3
  5
510
 10
581.9756590599435
 20
-1304.7027253919912
 30
0.0
 11
691.90410293397952
 21
-1304.7027253919912
 31
0.0
  0
LINE
  8
0
  6
CONTINUOUS
 62
               3
  5
511
 10
694.40410293397952
 20
-1299.7027253919912
 30
0.0
 11
579.20410293397947
 21
-1299.7027253919912
 31
0.0
  0
LINE
  8
0
  6
CONTINUOUS
 62
               3
  5
512
 10
579.20410293397947
 20
-1299.7027253919912
 30
0.0
 11
579.20410293397947
 21
-1302.2027253919912
 31
0.0
  0
LINE
  8
0
  6
CONTINUOUS
 62
               3
  5
513
 10
694.40410293397952
 20
-1299.7027253919912
 30
0.0
 11
694.40410293397952
 21
-1302.2027253919912
 31
0.0
  0
ARC
  8
0
  6
CONTINUOUS
 62
               3
  5
514
 10
691.90410293397952
 20
-1302.2027253919912
 30
0.0
 40
2.5
 50
269.99999999979354
 51
359.999999999723
  0
ARC
  8
0
  6
CONTINUOUS
 62
               3
  5
515
 10
581.70410293397947
 20
-1302.2027253919912
 30
0.0
 40
2.5
 50
179.99999999985891
 51
269.99999999979354
  0
LINE
  8
0
  6
CONTINUOUS
 62
               3
  5
516
 10
694.30410293397938
 20
-1296.5311692660264
 30
0.0
 11
579.30410293397938
 21
-1296.5311692660268
 31
0.0
  0
LINE
  8
0
  6
CONTINUOUS
 62
               3
  5
517
 10
697.49369995232053
 20
-1205.1930611783694
 30
0.0
 11
694.30410293397938
 21
-1296.5311692660264
 31
0.0
  0
ARC
  8
0
  6
CONTINUOUS
 62
               3
  5
518
 10
702.49065408741615
 20
-1205.3675586618822
 30
0.0
 40
5.0
 50
145.19324212946151
 51
177.99999999986429
  0
LINE
  8
0
  6
CONTINUOUS
 62
               3
  5
519
 10
576.79008786901147
 20
-1224.5391971085421
 30
0.0
 11
579.30410293397938
 21
-1296.5311692660268
 31
0.0
  0
ARC
  8
0
  6
CONTINUOUS
 62
               3
  5
51A
 10
571.79313373391608
 20
-1224.713694592054
 30
0.0
 40
5.0
 50
1.9999999999958187
 51
87.999999999932285
  0
LINE
  8
0
  6
CONTINUOUS
 62
               3
  5
51B
 10
561.80410293397961
 20
-1468.2021591405753
 30
0.0
 11
711.80410293397961
 21
-1468.2021591405753
 31
0.0
  0
LINE
  8
0
  6
CONTINUOUS
 62
               3
  5
51C
 10
548.30410293397938
 20
-1478.2021591405753
 30
0.0
 11
548.30410293397938
 21
-1485.2021591405748
 31
0.0
  0
LINE
  8
0
  6
CONTINUOUS
 62
               3
  5
51D
 10
548.30410293397938
 20
-1478.2021591405753
 30
0.0
 11
561.80410293397961
 21
-1468.2021591405753
 31
0.0
  0
ARC
  8
0
  6
CONTINUOUS
 62
               3
  5
51E
 10
559.80410293397961
 20
-1489.7847348355306
 30
0.0
 40
4.9999999999999991
 50
0.0
 51
66.421821521747205
  0
LINE
  8
0
  6
CONTINUOUS
 62
               3
  5
51F
 10
548.30410293397938
 20
-1485.2021591405748
 30
0.0
 11
725.30410293397915
 21
-1485.2021591405748
 31
0.0
  0
ARC
  8
0
  6
CONTINUOUS
 62
               3
  5
520
 10
581.80410293397961
 20
-1575.2021591405753
 30
0.0
 40
19.999999999999996
 50
148.2116693828344
 51
167.26981986155914
  0
LINE
  8
0
  6
CONTINUOUS
 62
               3
  5
521
 10
564.80410293397961
 20
-1489.7847348355306
 30
0.0
 11
564.80410293397961
 21
-1564.6665053877225
 31
0.0
  0
LINE
  8
0
  6
CONTINUOUS
 62
               3
  5
522
 10
708.80410293397938
 20
-1559.6665053877221
 30
0.0
 11
708.80410293397938
 21
-1489.7847348355306
 31
0.0
  0
LINE
  8
0
  6
CONTINUOUS
 62
               3
  5
523
 10
564.80410293397961
 20
-1564.6665053877225
 30
0.0
 11
708.30410293397983
 21
-1564.6665053877225
 31
0.0
  0
LINE
  8
0
  6
CONTINUOUS
 62
               3
  5
524
 10
616.80410293397961
 20
-1485.2021591405748
 30
0.0
 11
616.80410293397961
 21
-1468.2021591405753
 31
0.0
  0
LINE
  8
0
  6
CONTINUOUS
 62
               3
  5
525
 10
656.80410293397961
 20
-1468.2021591405753
 30
0.0
 11
656.80410293397961
 21
-1485.2021591405748
 31
0.0
  0
LINE
  8
0
  6
CONTINUOUS
 62
               3
  5
526
 10
616.80410293397961
 20
-1478.2021591405753
 30
0.0
 11
656.80410293397961
 21
-1478.2021591405753
 31
0.0
  0
LINE
  8
0
  6
CONTINUOUS
 62
               3
  5
527
 10
564.51994145997412
 20
-1468.2021591405753
 30
0.0
 11
564.51994145997412
 21
-1485.2021591405748
 31
0.0
  0
LINE
  8
0
  6
CONTINUOUS
 62
               3
  5
528
 10
550.59360473335425
 20
-1478.2021591405753
 30
0.0
 11
550.59360473335425
 21
-1485.2021591405748
 31
0.0
  0
LINE
  8
0
  6
CONTINUOUS
 62
               3
  5
529
 10
548.30410293397938
 20
-1478.2021591405753
 30
0.0
 11
550.59360473335425
 21
-1478.2021591405753
 31
0.0
  0
LINE
  8
0
  6
CONTINUOUS
 62
               3
  5
52A
 10
550.59360473335425
 20
-1478.2021591405753
 30
0.0
 11
564.51994145997412
 21
-1468.2021591405753
 31
0.0
  0
LINE
  8
0
  6
CONTINUOUS
 62
               3
  5
52B
 10
725.30410293397915
 20
-1478.2021591405753
 30
0.0
 11
725.30410293397915
 21
-1485.2021591405748
 31
0.0
  0
LINE
  8
0
  6
CONTINUOUS
 62
               3
  5
52C
 10
725.30410293397915
 20
-1478.2021591405753
 30
0.0
 11
711.80410293397961
 21
-1468.2021591405753
 31
0.0
  0
ARC
  8
0
  6
CONTINUOUS
 62
               3
  5
52D
 10
713.80410293397938
 20
-1489.7847348355306
 30
0.0
 40
4.9999999999999991
 50
113.5781784781135
 51
179.9999999998615
  0
LINE
  8
0
  6
CONTINUOUS
 62
               3
  5
52E
 10
709.08826440798373
 20
-1468.2021591405753
 30
0.0
 11
709.08826440798373
 21
-1485.2021591405748
 31
0.0
  0
LINE
  8
0
  6
CONTINUOUS
 62
               3
  5
52F
 10
723.01460113460473
 20
-1478.2021591405753
 30
0.0
 11
723.01460113460473
 21
-1485.2021591405748
 31
0.0
  0
LINE
  8
0
  6
CONTINUOUS
 62
               3
  5
530
 10
725.30410293397915
 20
-1478.2021591405753
 30
0.0
 11
723.01460113460473
 21
-1478.2021591405753
 31
0.0
  0
LINE
  8
0
  6
CONTINUOUS
 62
               3
  5
531
 10
723.01460113460473
 20
-1478.2021591405753
 30
0.0
 11
709.08826440798373
 21
-1468.2021591405753
 31
0.0
  0
ARC
  8
0
  6
CONTINUOUS
 62
               3
  5
532
 10
571.80410293397961
 20
-1696.7021591405753
 30
0.0
 40
2.4999999999999996
 50
89.999999999929457
 51
269.99999999979354
  0
ARC
  8
0
  6
CONTINUOUS
 62
               3
  5
533
 10
711.80410293397961
 20
-1696.7021591405753
 30
0.0
 40
2.4999999999999996
 50
269.99999999979354
 51
449.99999999965507
  0
LINE
  8
0
  6
CONTINUOUS
 62
               3
  5
534
 10
496.80410293397944
 20
-1689.2021591405753
 30
0.0
 11
497.47565905994378
 21
-1689.2021591405753
 31
0.0
  0
LINE
  8
0
  6
CONTINUOUS
 62
               3
  5
535
 10
499.97565905994389
 20
-1691.7021591405748
 30
0.0
 11
497.47565905994378
 21
-1689.2021591405753
 31
0.0
  0
LINE
  8
0
  6
CONTINUOUS
 62
               3
  5
536
 10
499.97565905994469
 20
-1691.7021591405753
 30
0.0
 11
542.14076931622219
 21
-1693.1745972364295
 31
0.0
  0
LINE
  8
0
  6
CONTINUOUS
 62
               3
  5
537
 10
560.33963683991203
 20
-1709.4738485668615
 30
0.0
 11
545.50180573864225
 21
-1694.6360174655922
 31
0.0
  0
ARC
  8
0
  6
CONTINUOUS
 62
               3
  5
538
 10
556.80410293397961
 20
-1713.0093824727944
 30
0.0
 40
4.9999999999999991
 50
0.0
 51
44.999999999964892
  0
LINE
  8
0
  6
CONTINUOUS
 62
               3
  5
539
 10
496.80410293397944
 20
-1579.2021591405753
 30
0.0
 11
497.47565905994378
 21
-1579.2021591405753
 31
0.0
  0
LINE
  8
0
  6
CONTINUOUS
 62
               3
  5
53A
 10
499.97565905994389
 20
-1576.7021591405753
 30
0.0
 11
497.47565905994378
 21
-1579.2021591405753
 31
0.0
  0
LINE
  8
0
  6
CONTINUOUS
 62
               3
  5
53B
 10
499.97565905994378
 20
-1576.7021591405753
 30
0.0
 11
557.59313526211815
 21
-1574.6901125354232
 31
0.0
  0
LINE
  8
0
  6
CONTINUOUS
 62
               3
  5
53C
 10
497.47565905994378
 20
-1579.2021591405753
 30
0.0
 11
497.47565905994378
 21
-1689.2021591405753
 31
0.0
  0
LINE
  8
0
  6
CONTINUOUS
 62
               3
  5
53D
 10
496.80410293397944
 20
-1691.8021591405752
 30
0.0
 11
496.80410293397944
 21
-1576.6021591405754
 31
0.0
  0
LINE
  8
0
  6
CONTINUOUS
 62
               3
  5
53E
 10
496.80410293397944
 20
-1576.6021591405754
 30
0.0
 11
494.30410293397944
 21
-1576.6021591405754
 31
0.0
  0
ARC
  8
0
  6
CONTINUOUS
 62
               3
  5
53F
 10
494.30410293397944
 20
-1579.1021591405754
 30
0.0
 40
2.5
 50
89.999999999932058
 51
179.99999999985891
  0
LINE
  8
0
  6
CONTINUOUS
 62
               3
  5
540
 10
491.80410293397944
 20
-1579.1021591405754
 30
0.0
 11
491.80410293397944
 21
-1689.3021591405752
 31
0.0
  0
LINE
  8
0
  6
CONTINUOUS
 62
               3
  5
541
 10
496.80410293397944
 20
-1691.8021591405752
 30
0.0
 11
494.30410293397944
 21
-1691.8021591405752
 31
0.0
  0
ARC
  8
0
  6
CONTINUOUS
 62
               3
  5
542
 10
494.30410293397944
 20
-1689.3021591405752
 30
0.0
 40
2.5
 50
179.99999999985891
 51
269.99999999979229
  0
LINE
  8
0
  6
CONTINUOUS
 62
               3
  5
543
 10
499.97565905994389
 20
-1576.7021591405753
 30
0.0
 11
499.97565905994469
 21
-1691.7021591405753
 31
0.0
  0
ARC
  8
0
  6
CONTINUOUS
 62
               3
  5
544
 10
541.96627183270959
 20
-1698.1715513715251
 30
0.0
 40
5.0
 50
44.999999999968587
 51
87.999999999932243
  0
ARC
  8
0
  6
CONTINUOUS
 62
               3
  5
545
 10
557.41863777860578
 20
-1569.6931584003275
 30
0.0
 40
5.0
 50
271.9999999997919
 51
347.26981986141988
  0
CIRCLE
  8
0
  6
CONTINUOUS
 62
               3
  5
546
 10
636.80410293397961
 20
-1634.2021591405753
 30
0.0
 40
48.5
  0
CIRCLE
  8
0
  6
CONTINUOUS
 62
               3
  5
547
 10
636.80410293397961
 20
-1634.2021591405753
 30
0.0
 40
47.299999999999997
  0
LINE
  8
0
  6
CONTINUOUS
 62
               3
  5
548
 10
604.98429778058505
 20
-1666.0219642939699
 30
0.0
 11
603.3579521838559
 21
-1667.648309890699
 31
0.0
  0
LINE
  8
0
  6
CONTINUOUS
 62
               3
  5
549
 10
668.62390808737416
 20
-1666.0219642939699
 30
0.0
 11
670.25025368410331
 21
-1667.648309890699
 31
0.0
  0
ARC
  8
0
  6
CONTINUOUS
 62
               3
  5
54A
 10
636.80410293397961
 20
-1634.2021591405753
 30
0.0
 40
45.0
 50
224.99999999982745
 51
314.99999999975864
  0
CIRCLE
  8
0
  6
CONTINUOUS
 62
               3
  5
54B
 10
636.80410293397961
 20
-1634.2021591405753
 30
0.0
 40
57.600000000000001
  0
ARC
  8
0
  6
CONTINUOUS
 62
               3
  5
54C
 10
614.30410293398006
 20
-1696.7021591405753
 30
0.0
 40
2.4999999999999996
 50
269.99999999979354
 51
449.99999999965507
  0
ARC
  8
0
  6
CONTINUOUS
 62
               3
  5
54D
 10
659.30410293398006
 20
-1696.7021591405753
 30
0.0
 40
2.4999999999999996
 50
89.999999999929457
 51
269.99999999979354
  0
LINE
  8
0
  6
CONTINUOUS
 62
               3
  5
54E
 10
571.80410293397961
 20
-1699.2021591405753
 30
0.0
 11
614.30410293398006
 21
-1699.2021591405753
 31
0.0
  0
LINE
  8
0
  6
CONTINUOUS
 62
               3
  5
54F
 10
571.80410293397961
 20
-1694.2021591405753
 30
0.0
 11
614.30410293398006
 21
-1694.2021591405753
 31
0.0
  0
LINE
  8
0
  6
CONTINUOUS
 62
               3
  5
550
 10
659.30410293398006
 20
-1694.2021591405753
 30
0.0
 11
711.80410293397961
 21
-1694.2021591405753
 31
0.0
  0
LINE
  8
0
  6
CONTINUOUS
 62
               3
  5
551
 10
659.30410293398006
 20
-1699.2021591405753
 30
0.0
 11
711.80410293397961
 21
-1699.2021591405753
 31
0.0
  0
CIRCLE
  8
0
  6
CONTINUOUS
 62
               3
  5
552
 10
636.80410293397961
 20
-1159.7027253919912
 30
0.0
 40
59.0
  0
INSERT
  8
0
  6
CONTINUOUS
  5
553
  2
GROUP_1
 10
0.0
 20
0.0
 30
0.0
  0
INSERT
  8
0
  6
CONTINUOUS
  5
554
  2
GROUP_2
 10
0.0
 20
0.0
 30
0.0
  0
INSERT
  8
0
  6
CONTINUOUS
  5
555
  2
GROUP_3
 10
0.0
 20
0.0
 30
0.0
  0
INSERT
  8
0
  6
CONTINUOUS
  5
556
  2
GROUP_4
 10
0.0
 20
0.0
 30
0.0
  0
INSERT
  8
0
  6
CONTINUOUS
  5
557
  2
GROUP_5
 10
0.0
 20
0.0
 30
0.0
  0
INSERT
  8
0
  6
CONTINUOUS
  5
558
  2
GROUP_6
 10
0.0
 20
0.0
 30
0.0
  0
INSERT
  8
0
  6
CONTINUOUS
  5
559
  2
GROUP_7
 10
0.0
 20
0.0
 30
0.0
  0
INSERT
  8
0
  6
CONTINUOUS
  5
55A
  2
GROUP_8
 10
0.0
 20
0.0
 30
0.0
  0
INSERT
  8
0
  6
CONTINUOUS
  5
55B
  2
GROUP_9
 10
0.0
 20
0.0
 30
0.0
  0
INSERT
  8
0
  6
CONTINUOUS
  5
55C
  2
GROUP_10
 10
0.0
 20
0.0
 30
0.0
  0
POINT
  8
0
  6
CONTINUOUS
 62
               5
  5
55D
 10
-364.62018933279711
 20
-1217.387160963782
 30
0.0
  0
POINT
  8
0
  6
CONTINUOUS
 62
               5
  5
55E
 10
-191.39011782283677
 20
-1218.6779550386711
 30
0.0
  0
POINT
  8
0
  6
CONTINUOUS
 62
               5
  5
55F
 10
-537.85026084275717
 20
-1218.6779550386707
 30
0.0
  0
POINT
  8
0
  6
CONTINUOUS
 62
               5
  5
560
 10
-367.85694080345269
 20
-1036.6892053847869
 30
0.0
  0
POINT
  8
0
  6
CONTINUOUS
 62
               5
  5
561
 10
520.53417444393972
 20
-1635.4929532154645
 30
0.0
  0
POINT
  8
0
  6
CONTINUOUS
 62
               5
  5
562
 10
520.53417444393983
 20
-1158.411931317102
 30
0.0
  0
CIRCLE
  8
0
  6
CONTINUOUS
 62
               7
  5
563
 10
-364.62018933279711
 20
-1223.887160963782
 30
0.0
 40
38.0
  0
CIRCLE
  8
0
  6
CONTINUOUS
 62
               7
  5
564
 10
-364.62018933279711
 20
-1223.887160963782
 30
0.0
 40
33.5
  0
LINE
  8
0
  6
CONTINUOUS
 62
               7
  5
565
 10
-220.12018933279711
 20
-1172.887160963782
 30
0.0
 11
-220.12018933279711
 21
-1261.8819248431075
 31
0.0
  0
LINE
  8
0
  6
CONTINUOUS
 62
               7
  5
566
 10
-219.52018933279709
 20
-1172.887160963782
 30
0.0
 11
-220.12018933279711
 21
-1172.887160963782
 31
0.0
  0
LINE
  8
0
  6
CONTINUOUS
 62
               7
  5
567
 10
-255.12018933279711
 20
-1260.887160963782
 30
0.0
 11
-255.12018933279711
 21
-1186.887160963782
 31
0.0
  0
LINE
  8
0
  6
CONTINUOUS
 62
               7
  5
568
 10
-162.12018933279711
 20
-1260.887160963782
 30
0.0
 11
-162.12018933279711
 21
-1173.887160963782
 31
0.0
  0
LINE
  8
0
  6
CONTINUOUS
 62
               7
  5
569
 10
-220.12018933279711
 20
-1172.887160963782
 30
0.0
 11
-163.12018933279711
 21
-1172.887160963782
 31
0.0
  0
LINE
  8
0
  6
CONTINUOUS
 62
               7
  5
56A
 10
-254.12018933279711
 20
-1261.887160963782
 30
0.0
 11
-163.12018933279711
 21
-1261.887160963782
 31
0.0
  0
LINE
  8
0
  6
CONTINUOUS
 62
               7
  5
56B
 10
-163.12018933279711
 20
-1172.887160963782
 30
0.0
 11
-162.12018933279711
 21
-1173.887160963782
 31
0.0
  0
LINE
  8
0
  6
CONTINUOUS
 62
               7
  5
56C
 10
-162.12018933279711
 20
-1260.887160963782
 30
0.0
 11
-163.12018933279711
 21
-1261.887160963782
 31
0.0
  0
LINE
  8
0
  6
CONTINUOUS
 62
               7
  5
56D
 10
-254.12018933279711
 20
-1185.887160963782
 30
0.0
 11
-220.12018933279711
 21
-1185.887160963782
 31
0.0
  0
CIRCLE
  8
0
  6
CONTINUOUS
 62
               7
  5
56E
 10
-364.62018933279711
 20
-1217.387160963782
 30
0.0
 40
44.5
  0
LINE
  8
0
  6
CONTINUOUS
 62
               7
  5
56F
 10
-254.12018933279711
 20
-1185.887160963782
 30
0.0
 11
-255.12018933279711
 21
-1186.887160963782
 31
0.0
  0
LINE
  8
0
  6
CONTINUOUS
 62
               7
  5
570
 10
-255.12018933279711
 20
-1260.887160963782
 30
0.0
 11
-254.12018933279711
 21
-1261.887160963782
 31
0.0
  0
LINE
  8
0
  6
CONTINUOUS
 62
               7
  5
571
 10
-509.12018933279694
 20
-1172.887160963782
 30
0.0
 11
-509.12018933279694
 21
-1261.8819248431075
 31
0.0
  0
LINE
  8
0
  6
CONTINUOUS
 62
               7
  5
572
 10
-509.72018933279685
 20
-1172.887160963782
 30
0.0
 11
-509.12018933279694
 21
-1172.887160963782
 31
0.0
  0
LINE
  8
0
  6
CONTINUOUS
 62
               7
  5
573
 10
-474.120189332797
 20
-1260.887160963782
 30
0.0
 11
-474.120189332797
 21
-1186.887160963782
 31
0.0
  0
LINE
  8
0
  6
CONTINUOUS
 62
               7
  5
574
 10
-567.12018933279694
 20
-1260.887160963782
 30
0.0
 11
-567.12018933279694
 21
-1173.887160963782
 31
0.0
  0
LINE
  8
0
  6
CONTINUOUS
 62
               7
  5
575
 10
-509.12018933279694
 20
-1172.887160963782
 30
0.0
 11
-566.12018933279694
 21
-1172.887160963782
 31
0.0
  0
LINE
  8
0
  6
CONTINUOUS
 62
               7
  5
576
 10
-475.120189332797
 20
-1261.887160963782
 30
0.0
 11
-566.12018933279694
 21
-1261.887160963782
 31
0.0
  0
LINE
  8
0
  6
CONTINUOUS
 62
               7
  5
577
 10
-566.12018933279694
 20
-1172.887160963782
 30
0.0
 11
-567.12018933279694
 21
-1173.887160963782
 31
0.0
  0
LINE
  8
0
  6
CONTINUOUS
 62
               7
  5
578
 10
-567.12018933279694
 20
-1260.887160963782
 30
0.0
 11
-566.12018933279694
 21
-1261.887160963782
 31
0.0
  0
LINE
  8
0
  6
CONTINUOUS
 62
               7
  5
579
 10
-475.120189332797
 20
-1185.887160963782
 30
0.0
 11
-509.12018933279694
 21
-1185.887160963782
 31
0.0
  0
LINE
  8
0
  6
CONTINUOUS
 62
               7
  5
57A
 10
-475.120189332797
 20
-1185.887160963782
 30
0.0
 11
-474.120189332797
 21
-1186.887160963782
 31
0.0
  0
LINE
  8
0
  6
CONTINUOUS
 62
               7
  5
57B
 10
-474.120189332797
 20
-1260.887160963782
 30
0.0
 11
-475.120189332797
 21
-1261.887160963782
 31
0.0
  0
LINE
  8
0
  6
CONTINUOUS
 62
               7
  5
57C
 10
-322.06614672856364
 20
-1065.4192768947473
 30
0.0
 11
-411.06091060788907
 21
-1065.4192768947471
 31
0.0
  0
LINE
  8
0
  6
CONTINUOUS
 62
               7
  5
57D
 10
-322.06614672856364
 20
-1064.8192768947472
 30
0.0
 11
-322.06614672856364
 21
-1065.4192768947473
 31
0.0
  0
LINE
  8
0
  6
CONTINUOUS
 62
               7
  5
57E
 10
-403.56614672856352
 20
-1100.4192768947471
 30
0.0
 11
-329.56614672856364
 21
-1100.4192768947473
 31
0.0
  0
LINE
  8
0
  6
CONTINUOUS
 62
               7
  5
57F
 10
-410.06614672856352
 20
-1007.4192768947471
 30
0.0
 11
-323.06614672856364
 21
-1007.4192768947473
 31
0.0
  0
LINE
  8
0
  6
CONTINUOUS
 62
               7
  5
580
 10
-322.06614672856364
 20
-1065.4192768947473
 30
0.0
 11
-322.06614672856364
 21
-1008.4192768947473
 31
0.0
  0
LINE
  8
0
  6
CONTINUOUS
 62
               7
  5
581
 10
-404.56614672856352
 20
-1099.4192768947471
 30
0.0
 11
-404.56614672856352
 21
-1065.4192768947471
 31
0.0
  0
LINE
  8
0
  6
CONTINUOUS
 62
               7
  5
582
 10
-322.06614672856364
 20
-1008.4192768947473
 30
0.0
 11
-323.06614672856364
 21
-1007.4192768947473
 31
0.0
  0
LINE
  8
0
  6
CONTINUOUS
 62
               7
  5
583
 10
-410.06614672856352
 20
-1007.4192768947471
 30
0.0
 11
-411.06614672856352
 21
-1008.4192768947471
 31
0.0
  0
LINE
  8
0
  6
CONTINUOUS
 62
               7
  5
584
 10
-328.56614672856364
 20
-1099.4192768947473
 30
0.0
 11
-328.56614672856364
 21
-1065.4192768947471
 31
0.0
  0
LINE
  8
0
  6
CONTINUOUS
 62
               7
  5
585
 10
-328.56614672856364
 20
-1099.4192768947473
 30
0.0
 11
-329.56614672856364
 21
-1100.4192768947473
 31
0.0
  0
LINE
  8
0
  6
CONTINUOUS
 62
               7
  5
586
 10
-403.56614672856352
 20
-1100.4192768947471
 30
0.0
 11
-404.56614672856352
 21
-1099.4192768947471
 31
0.0
  0
LINE
  8
0
  6
CONTINUOUS
 62
               7
  5
587
 10
-411.06614672856352
 20
-1065.4192768947471
 30
0.0
 11
-411.06614672856352
 21
-1008.4192768947471
 31
0.0
  0
LINE
  8
0
  6
CONTINUOUS
 62
               7
  5
588
 10
244.15150340355257
 20
-1260.887160963782
 30
0.0
 11
244.15150340355257
 21
-1202.887160963782
 31
0.0
  0
LINE
  8
0
  6
CONTINUOUS
 62
               7
  5
589
 10
269.75150340355248
 20
-1172.887160963782
 30
0.0
 11
269.75150340355248
 21
-1261.887160963782
 31
0.0
  0
LINE
  8
0
  6
CONTINUOUS
 62
               7
  5
58A
 10
270.35150340355261
 20
-1172.887160963782
 30
0.0
 11
269.75150340355248
 21
-1172.887160963782
 31
0.0
  0
LINE
  8
0
  6
CONTINUOUS
 62
               7
  5
58B
 10
327.7515034035527
 20
-1260.887160963782
 30
0.0
 11
327.7515034035527
 21
-1173.887160963782
 31
0.0
  0
CIRCLE
  8
0
  6
CONTINUOUS
 62
               7
  5
58C
 10
148.39548717830954
 20
-1231.887160963782
 30
0.0
 40
30.0
  0
CIRCLE
  8
0
  6
CONTINUOUS
 62
               7
  5
58D
 10
148.39548717830954
 20
-1231.887160963782
 30
0.0
 40
25.5
  0
CIRCLE
  8
0
  6
CONTINUOUS
 62
               7
  5
58E
 10
148.39548717830954
 20
-1217.387160963782
 30
0.0
 40
44.5
  0
LINE
  8
0
  6
CONTINUOUS
 62
               7
  5
58F
 10
269.8859551490329
 20
-1172.887160963782
 30
0.0
 11
326.7515034035527
 21
-1172.887160963782
 31
0.0
  0
LINE
  8
0
  6
CONTINUOUS
 62
               7
  5
590
 10
245.15150340355257
 20
-1261.887160963782
 30
0.0
 11
326.7515034035527
 21
-1261.887160963782
 31
0.0
  0
LINE
  8
0
  6
CONTINUOUS
 62
               7
  5
591
 10
245.15150340355257
 20
-1201.887160963782
 30
0.0
 11
269.75150340355248
 21
-1201.887160963782
 31
0.0
  0
LINE
  8
0
  6
CONTINUOUS
 62
               7
  5
592
 10
245.15150340355257
 20
-1201.887160963782
 30
0.0
 11
244.15150340355257
 21
-1202.887160963782
 31
0.0
  0
LINE
  8
0
  6
CONTINUOUS
 62
               7
  5
593
 10
326.7515034035527
 20
-1172.887160963782
 30
0.0
 11
327.7515034035527
 21
-1173.887160963782
 31
0.0
  0
LINE
  8
0
  6
CONTINUOUS
 62
               7
  5
594
 10
244.15150340355257
 20
-1260.887160963782
 30
0.0
 11
245.15150340355257
 21
-1261.887160963782
 31
0.0
  0
LINE
  8
0
  6
CONTINUOUS
 62
               7
  5
595
 10
327.7515034035527
 20
-1260.887160963782
 30
0.0
 11
326.7515034035527
 21
-1261.887160963782
 31
0.0
  0
LINE
  8
0
  6
CONTINUOUS
 62
               7
  5
596
 10
52.639470953066777
 20
-1260.887160963782
 30
0.0
 11
52.639470953066777
 21
-1202.887160963782
 31
0.0
  0
LINE
  8
0
  6
CONTINUOUS
 62
               7
  5
597
 10
27.039470953066758
 20
-1172.887160963782
 30
0.0
 11
27.039470953066758
 21
-1261.887160963782
 31
0.0
  0
LINE
  8
0
  6
CONTINUOUS
 62
               7
  5
598
 10
26.439470953066735
 20
-1172.887160963782
 30
0.0
 11
27.039470953066758
 21
-1172.887160963782
 31
0.0
  0
LINE
  8
0
  6
CONTINUOUS
 62
               7
  5
599
 10
-30.960529046933242
 20
-1260.887160963782
 30
0.0
 11
-30.960529046933242
 21
-1173.887160963782
 31
0.0
  0
LINE
  8
0
  6
CONTINUOUS
 62
               7
  5
59A
 10
26.905019207586452
 20
-1172.887160963782
 30
0.0
 11
-29.960529046933242
 21
-1172.887160963782
 31
0.0
  0
LINE
  8
0
  6
CONTINUOUS
 62
               7
  5
59B
 10
51.639470953066777
 20
-1261.887160963782
 30
0.0
 11
-29.960529046933242
 21
-1261.887160963782
 31
0.0
  0
LINE
  8
0
  6
CONTINUOUS
 62
               7
  5
59C
 10
51.639470953066777
 20
-1201.887160963782
 30
0.0
 11
27.039470953066758
 21
-1201.887160963782
 31
0.0
  0
LINE
  8
0
  6
CONTINUOUS
 62
               7
  5
59D
 10
51.639470953066777
 20
-1201.887160963782
 30
0.0
 11
52.639470953066777
 21
-1202.887160963782
 31
0.0
  0
LINE
  8
0
  6
CONTINUOUS
 62
               7
  5
59E
 10
-29.960529046933242
 20
-1172.887160963782
 30
0.0
 11
-30.960529046933242
 21
-1173.887160963782
 31
0.0
  0
LINE
  8
0
  6
CONTINUOUS
 62
               7
  5
59F
 10
52.639470953066777
 20
-1260.887160963782
 30
0.0
 11
51.639470953066777
 21
-1261.887160963782
 31
0.0
  0
LINE
  8
0
  6
CONTINUOUS
 62
               7
  5
5A0
 10
-30.960529046933242
 20
-1260.887160963782
 30
0.0
 11
-29.960529046933242
 21
-1261.887160963782
 31
0.0
  0
LINE
  8
0
  6
CONTINUOUS
 62
               7
  5
5A1
 10
119.39548717830978
 20
-1111.1311447385394
 30
0.0
 11
177.39548717830979
 21
-1111.1311447385394
 31
0.0
  0
LINE
  8
0
  6
CONTINUOUS
 62
               7
  5
5A2
 10
192.89548717830979
 20
-1085.5311447385393
 30
0.0
 11
103.89548717830978
 21
-1085.5311447385393
 31
0.0
  0
LINE
  8
0
  6
CONTINUOUS
 62
               7
  5
5A3
 10
192.89548717830979
 20
-1084.9311447385394
 30
0.0
 11
192.89548717830979
 21
-1085.5311447385393
 31
0.0
  0
LINE
  8
0
  6
CONTINUOUS
 62
               7
  5
5A4
 10
104.89548717830978
 20
-1027.5311447385393
 30
0.0
 11
191.89548717830979
 21
-1027.5311447385393
 31
0.0
  0
LINE
  8
0
  6
CONTINUOUS
 62
               7
  5
5A5
 10
192.89548717830979
 20
-1085.3966929930591
 30
0.0
 11
192.89548717830979
 21
-1028.5311447385393
 31
0.0
  0
LINE
  8
0
  6
CONTINUOUS
 62
               7
  5
5A6
 10
118.39548717830978
 20
-1110.1311447385394
 30
0.0
 11
118.39548717830978
 21
-1085.5311447385393
 31
0.0
  0
LINE
  8
0
  6
CONTINUOUS
 62
               7
  5
5A7
 10
178.39548717830979
 20
-1110.1311447385394
 30
0.0
 11
178.39548717830979
 21
-1085.5311447385393
 31
0.0
  0
LINE
  8
0
  6
CONTINUOUS
 62
               7
  5
5A8
 10
178.39548717830979
 20
-1110.1311447385394
 30
0.0
 11
177.39548717830979
 21
-1111.1311447385394
 31
0.0
  0
LINE
  8
0
  6
CONTINUOUS
 62
               7
  5
5A9
 10
192.89548717830979
 20
-1028.5311447385393
 30
0.0
 11
191.89548717830979
 21
-1027.5311447385393
 31
0.0
  0
LINE
  8
0
  6
CONTINUOUS
 62
               7
  5
5AA
 10
119.39548717830978
 20
-1111.1311447385394
 30
0.0
 11
118.39548717830978
 21
-1110.1311447385394
 31
0.0
  0
LINE
  8
0
  6
CONTINUOUS
 62
               7
  5
5AB
 10
104.89548717830978
 20
-1027.5311447385393
 30
0.0
 11
103.89548717830978
 21
-1028.5311447385393
 31
0.0
  0
LINE
  8
0
  6
CONTINUOUS
 62
               7
  5
5AC
 10
103.89548717830978
 20
-1085.3966929930589
 30
0.0
 11
103.89548717830978
 21
-1028.5311447385393
 31
0.0
  0
CIRCLE
  8
0
  6
CONTINUOUS
 62
               7
  5
5AD
 10
636.80410293397961
 20
-1648.7021591405753
 30
0.0
 40
25.5
  0
CIRCLE
  8
0
  6
CONTINUOUS
 62
               7
  5
5AE
 10
636.80410293397961
 20
-1634.2021591405753
 30
0.0
 40
44.5
  0
CIRCLE
  8
0
  6
CONTINUOUS
 62
               7
  5
5AF
 10
636.80410293397961
 20
-1648.7021591405753
 30
0.0
 40
30.0
  0
LINE
  8
0
  6
CONTINUOUS
 62
               7
  5
5B0
 10
607.80410293397961
 20
-1330.3027253919911
 30
0.0
 11
665.80410293397961
 21
-1330.3027253919911
 31
0.0
  0
LINE
  8
0
  6
CONTINUOUS
 62
               7
  5
5B1
 10
681.30410293397961
 20
-1304.7027253919912
 30
0.0
 11
592.30410293397961
 21
-1304.7027253919912
 31
0.0
  0
LINE
  8
0
  6
CONTINUOUS
 62
               7
  5
5B2
 10
681.30410293397961
 20
-1304.1027253919913
 30
0.0
 11
681.30410293397961
 21
-1304.7027253919912
 31
0.0
  0
LINE
  8
0
  6
CONTINUOUS
 62
               7
  5
5B3
 10
593.30410293397961
 20
-1246.7027253919907
 30
0.0
 11
680.30410293397961
 21
-1246.7027253919907
 31
0.0
  0
LINE
  8
0
  6
CONTINUOUS
 62
               7
  5
5B4
 10
681.30410293397961
 20
-1304.5682736465108
 30
0.0
 11
681.30410293397961
 21
-1247.7027253919907
 31
0.0
  0
LINE
  8
0
  6
CONTINUOUS
 62
               7
  5
5B5
 10
606.80410293397961
 20
-1329.3027253919911
 30
0.0
 11
606.80410293397961
 21
-1304.7027253919912
 31
0.0
  0
LINE
  8
0
  6
CONTINUOUS
 62
               7
  5
5B6
 10
666.80410293397961
 20
-1329.3027253919911
 30
0.0
 11
666.80410293397961
 21
-1304.7027253919912
 31
0.0
  0
LINE
  8
0
  6
CONTINUOUS
 62
               7
  5
5B7
 10
666.80410293397961
 20
-1329.3027253919911
 30
0.0
 11
665.80410293397961
 21
-1330.3027253919911
 31
0.0
  0
LINE
  8
0
  6
CONTINUOUS
 62
               7
  5
5B8
 10
681.30410293397961
 20
-1247.7027253919907
 30
0.0
 11
680.30410293397961
 21
-1246.7027253919907
 31
0.0
  0
LINE
  8
0
  6
CONTINUOUS
 62
               7
  5
5B9
 10
607.80410293397961
 20
-1330.3027253919911
 30
0.0
 11
606.80410293397961
 21
-1329.3027253919911
 31
0.0
  0
LINE
  8
0
  6
CONTINUOUS
 62
               7
  5
5BA
 10
593.30410293397961
 20
-1246.7027253919907
 30
0.0
 11
592.30410293397961
 21
-1247.7027253919907
 31
0.0
  0
LINE
  8
0
  6
CONTINUOUS
 62
               7
  5
5BB
 10
592.30410293397961
 20
-1304.5682736465108
 30
0.0
 11
592.30410293397961
 21
-1247.7027253919907
 31
0.0
  0
LINE
  8
0
  6
CONTINUOUS
 62
               7
  5
5BC
 10
491.80410293397944
 20
-1589.7021591405753
 30
0.0
 11
491.80410293397944
 21
-1678.6969230199009
 31
0.0
  0
LINE
  8
0
  6
CONTINUOUS
 62
               7
  5
5BD
 10
492.40410293397946
 20
-1589.7021591405753
 30
0.0
 11
491.80410293397944
 21
-1589.7021591405753
 31
0.0
  0
LINE
  8
0
  6
CONTINUOUS
 62
               7
  5
5BE
 10
456.80410293397944
 20
-1677.7021591405753
 30
0.0
 11
456.80410293397944
 21
-1603.7021591405753
 31
0.0
  0
LINE
  8
0
  6
CONTINUOUS
 62
               7
  5
5BF
 10
549.80410293397961
 20
-1677.7021591405753
 30
0.0
 11
549.80410293397961
 21
-1590.7021591405753
 31
0.0
  0
LINE
  8
0
  6
CONTINUOUS
 62
               7
  5
5C0
 10
491.80410293397944
 20
-1589.7021591405753
 30
0.0
 11
548.80410293397961
 21
-1589.7021591405753
 31
0.0
  0
LINE
  8
0
  6
CONTINUOUS
 62
               7
  5
5C1
 10
457.80410293397944
 20
-1678.7021591405753
 30
0.0
 11
548.80410293397961
 21
-1678.7021591405753
 31
0.0
  0
LINE
  8
0
  6
CONTINUOUS
 62
               7
  5
5C2
 10
548.80410293397961
 20
-1589.7021591405753
 30
0.0
 11
549.80410293397961
 21
-1590.7021591405753
 31
0.0
  0
LINE
  8
0
  6
CONTINUOUS
 62
               7
  5
5C3
 10
549.80410293397961
 20
-1677.7021591405753
 30
0.0
 11
548.80410293397961
 21
-1678.7021591405753
 31
0.0
  0
LINE
  8
0
  6
CONTINUOUS
 62
               7
  5
5C4
 10
457.80410293397944
 20
-1602.7021591405753
 30
0.0
 11
491.80410293397944
 21
-1602.7021591405753
 31
0.0
  0
LINE
  8
0
  6
CONTINUOUS
 62
               7
  5
5C5
 10
457.80410293397944
 20
-1602.7021591405753
 30
0.0
 11
456.80410293397944
 21
-1603.7021591405753
 31
0.0
  0
LINE
  8
0
  6
CONTINUOUS
 62
               7
  5
5C6
 10
456.80410293397944
 20
-1677.7021591405753
 30
0.0
 11
457.80410293397944
 21
-1678.7021591405753
 31
0.0
  0
LINE
  8
0
  6
CONTINUOUS
 62
               7
  5
5C7
 10
491.80410293397944
 20
-1204.2027253919907
 30
0.0
 11
491.80410293397966
 21
-1115.2079615126654
 31
0.0
  0
LINE
  8
0
  6
CONTINUOUS
 62
               7
  5
5C8
 10
492.40410293397957
 20
-1204.2027253919907
 30
0.0
 11
491.80410293397944
 21
-1204.2027253919907
 31
0.0
  0
LINE
  8
0
  6
CONTINUOUS
 62
               7
  5
5C9
 10
456.80410293397966
 20
-1122.702725391991
 30
0.0
 11
456.80410293397944
 21
-1196.7027253919907
 31
0.0
  0
LINE
  8
0
  6
CONTINUOUS
 62
               7
  5
5CA
 10
549.80410293397983
 20
-1116.2027253919912
 30
0.0
 11
549.80410293397961
 21
-1203.2027253919907
 31
0.0
  0
LINE
  8
0
  6
CONTINUOUS
 62
               7
  5
5CB
 10
491.80410293397944
 20
-1204.2027253919907
 30
0.0
 11
548.80410293397961
 21
-1204.2027253919907
 31
0.0
  0
LINE
  8
0
  6
CONTINUOUS
 62
               7
  5
5CC
 10
457.80410293397966
 20
-1121.702725391991
 30
0.0
 11
491.80410293397966
 21
-1121.702725391991
 31
0.0
  0
LINE
  8
0
  6
CONTINUOUS
 62
               7
  5
5CD
 10
548.80410293397961
 20
-1204.2027253919907
 30
0.0
 11
549.80410293397961
 21
-1203.2027253919907
 31
0.0
  0
LINE
  8
0
  6
CONTINUOUS
 62
               7
  5
5CE
 10
549.80410293397983
 20
-1116.2027253919912
 30
0.0
 11
548.80410293397983
 21
-1115.2027253919912
 31
0.0
  0
LINE
  8
0
  6
CONTINUOUS
 62
               7
  5
5CF
 10
457.80410293397944
 20
-1197.7027253919907
 30
0.0
 11
491.80410293397966
 21
-1197.7027253919907
 31
0.0
  0
LINE
  8
0
  6
CONTINUOUS
 62
               7
  5
5D0
 10
457.80410293397944
 20
-1197.7027253919907
 30
0.0
 11
456.80410293397944
 21
-1196.7027253919907
 31
0.0
  0
LINE
  8
0
  6
CONTINUOUS
 62
               7
  5
5D1
 10
456.80410293397966
 20
-1122.702725391991
 30
0.0
 11
457.80410293397966
 21
-1121.702725391991
 31
0.0
  0
LINE
  8
0
  6
CONTINUOUS
 62
               7
  5
5D2
 10
491.80410293397966
 20
-1115.202725391991
 30
0.0
 11
548.80410293397983
 21
-1115.202725391991
 31
0.0
  0
CIRCLE
  8
0
  6
DASHED
 62
               7
  5
5D3
 10
-364.62018933279711
 20
-1217.387160963782
 30
0.0
 40
40.0
  0
CIRCLE
  8
0
  6
DASHED
 62
               7
  5
5D4
 10
148.39548717830954
 20
-1217.387160963782
 30
0.0
 40
40.0
  0
CIRCLE
  8
0
  6
DASHED
 62
               7
  5
5D5
 10
636.80410293397961
 20
-1634.2021591405753
 30
0.0
 40
40.0
  0
TEXT
  8
0
 62
               3
  5
5D6
 10
-364.62018933279711
 20
-1301.887160963782
 30
0.0
 40
40.0
  1
EMB_80×65
 41
0.8
 72
               1
 11
-364.62018933279711
 21
-1301.887160963782
 31
0.0
 73
               3
  0
TEXT
  8
0
 62
               3
  5
5D7
 10
148.39548717830954
 20
-1301.887160963782
 30
0.0
 40
40.0
  1
EMB_80×50
 41
0.8
 72
               1
 11
148.39548717830954
 21
-1301.887160963782
 31
0.0
 73
               3
  0
TEXT
  8
0
 62
               3
  5
5D8
 10
633.1066989563393
 20
-980.25635688677175
 30
0.0
 40
40.0
  1
EMB使用例
 41
0.8
 72
               1
 11
633.1066989563393
 21
-980.25635688677175
 31
0.0
 73
               3
  0
TEXT
  8
0
 62
               3
  5
5D9
 10
-96.225124373219316
 20
-925.89622098643235
 30
0.0
 40
35.0
  1
横枝管に呼び６５、５０の管を接続するときは、EMBをご使用ください。
 41
0.8
 72
               1
 11
-96.225124373219316
 21
-925.89622098643235
 31
0.0
 73
               3
  0
ENDSEC
  0
EOF
