  0
SECTION
  2
HEADER
  9
$ACADVER
  1
AC1009
  9
$INSBASE
 10
0.0
 20
0.0
 30
0.0
  9
$EXTMIN
 10
-641.28625489580406
 20
-1641.6167920257299
 30
0.0
  9
$EXTMAX
 10
744.43500906164388
 20
539.9532704318766
 30
0.0
  9
$LIMMIN
 10
-684.59004439447426
 20
-1709.79085647753
  9
$LIMMAX
 10
787.73879856031408
 20
608.12733488367678
  9
$ORTHOMODE
 70
               0
  9
$REGENMODE
 70
               1
  9
$FILLMODE
 70
               1
  9
$QTEXTMODE
 70
               0
  9
$MIRRTEXT
 70
               1
  9
$DRAGMODE
 70
               2
  9
$LTSCALE
 40
1.0
  9
$OSMODE
 70
               0
  9
$ATTMODE
 70
               1
  9
$TEXTSIZE
 40
0.2
  9
$TRACEWID
 40
0.05
  9
$TEXTSTYLE
  7
STANDARD
  9
$CLAYER
  8
0
  9
$CELTYPE
  6
CONTINUOUS
  9
$CECOLOR
 62
             256
  9
$DIMSCALE
 40
1.0
  9
$DIMASZ
 40
0.18
  9
$DIMEXO
 40
0.0625
  9
$DIMDLI
 40
0.38
  9
$DIMRND
 40
0.0
  9
$DIMDLE
 40
0.0
  9
$DIMEXE
 40
0.18
  9
$DIMTP
 40
0.0
  9
$DIMTM
 40
0.0
  9
$DIMTXT
 40
0.18
  9
$DIMCEN
 40
0.09
  9
$DIMTSZ
 40
0.0
  9
$DIMTOL
 70
               0
  9
$DIMLIM
 70
               0
  9
$DIMTIH
 70
               1
  9
$DIMTOH
 70
               1
  9
$DIMSE1
 70
               0
  9
$DIMSE2
 70
               0
  9
$DIMTAD
 70
               0
  9
$DIMZIN
 70
               0
  9
$DIMBLK
  1

  9
$DIMASO
 70
               1
  9
$DIMSHO
 70
               1
  9
$DIMPOST
  1

  9
$DIMAPOST
  1

  9
$DIMALT
 70
               0
  9
$DIMALTD
 70
               2
  9
$DIMALTF
 40
25.399999999999999
  9
$DIMLFAC
 40
1.0
  9
$DIMTOFL
 70
               0
  9
$DIMTVP
 40
0.0
  9
$DIMTIX
 70
               0
  9
$DIMSOXD
 70
               0
  9
$DIMSAH
 70
               0
  9
$DIMBLK1
  1

  9
$DIMBLK2
  1

  9
$DIMSTYLE
  2
STANDARD
  9
$DIMCLRD
 70
               0
  9
$DIMCLRE
 70
               0
  9
$DIMCLRT
 70
               0
  9
$DIMTFAC
 40
1.0
  9
$DIMGAP
 40
0.09
  9
$LUNITS
 70
               2
  9
$LUPREC
 70
               4
  9
$AXISMODE
 70
               0
  9
$AXISUNIT
 10
0.0
 20
0.0
  9
$SKETCHINC
 40
0.1
  9
$FILLETRAD
 40
0.0
  9
$AUNITS
 70
               0
  9
$AUPREC
 70
               0
  9
$MENU
  1
acad
  9
$ELEVATION
 40
0.0
  9
$PELEVATION
 40
0.0
  9
$THICKNESS
 40
0.0
  9
$LIMCHECK
 70
               0
  9
$BLIPMODE
 70
               1
  9
$CHAMFERA
 40
0.0
  9
$CHAMFERB
 40
0.0
  9
$SKPOLY
 70
               0
  9
$TDCREATE
 40
0.000000000
  9
$TDUPDATE
 40
0.000000000
  9
$TDINDWG
 40
0.0000000000
  9
$TDUSRTIMER
 40
0.0000000000
  9
$USRTIMER
 70
               1
  9
$ANGBASE
 50
0.0
  9
$ANGDIR
 70
               0
  9
$PDMODE
 70
               0
  9
$PDSIZE
 40
1.0
  9
$PLINEWID
 40
0.0
  9
$COORDS
 70
               1
  9
$SPLFRAME
 70
               0
  9
$SPLINETYPE
 70
               6
  9
$SPLINESEGS
 70
               8
  9
$ATTDIA
 70
               0
  9
$ATTREQ
 70
               1
  9
$HANDLING
 70
               1
  9
$HANDSEED
  5
42A
  9
$SURFTAB1
 70
               6
  9
$SURFTAB2
 70
               6
  9
$SURFTYPE
 70
               6
  9
$SURFU
 70
               6
  9
$SURFV
 70
               6
  9
$UCSNAME
  2

  9
$UCSORG
 10
0.0
 20
0.0
 30
0.0
  9
$UCSXDIR
 10
1.0
 20
0.0
 30
0.0
  9
$UCSYDIR
 10
0.0
 20
1.0
 30
0.0
  9
$PUCSNAME
  2

  9
$PUCSORG
 10
0.0
 20
0.0
 30
0.0
  9
$PUCSXDIR
 10
1.0
 20
0.0
 30
0.0
  9
$PUCSYDIR
 10
0.0
 20
1.0
 30
0.0
  9
$USERI1
 70
               0
  9
$USERI2
 70
               0
  9
$USERI3
 70
               0
  9
$USERI4
 70
               0
  9
$USERI5
 70
               0
  9
$USERR1
 40
0.0
  9
$USERR2
 40
0.0
  9
$USERR3
 40
0.0
  9
$USERR4
 40
0.0
  9
$USERR5
 40
0.0
  9
$WORLDVIEW
 70
               1
  9
$SHADEDGE
 70
               3
  9
$SHADEDIF
 70
              70
  9
$TILEMODE
 70
               1
  9
$MAXACTVP
 70
              16
  9
$PINSBASE
 10
0.0
 20
0.0
 30
0.0
  9
$PLIMCHECK
 70
               0
  9
$PEXTMIN
 10
1.0000000000000000E+20
 20
1.0000000000000000E+20
 30
1.0000000000000000E+20
  9
$PEXTMAX
 10
-1.0000000000000000E+20
 20
-1.0000000000000000E+20
 30
-1.0000000000000000E+20
  9
$PLIMMIN
 10
0.0
 20
0.0
  9
$PLIMMAX
 10
12.0
 20
9.0
  9
$UNITMODE
 70
               0
  9
$VISRETAIN
 70
               0
  9
$PLINEGEN
 70
               1
  9
$PSLTSCALE
 70
               0
  9
$TREEDEPTH
 70
            3020
  9
$DWGCODEPAGE
  3
dos932
  0
ENDSEC
  0
SECTION
  2
TABLES
  0
TABLE
  2
VPORT
 70
               1
  0
VPORT
  2
*ACTIVE
 70
               0
 10
0.0
 20
0.0
 11
1.0
 21
1.0
 12
51.574377082919909
 22
-550.83176079692657
 13
0.0
 23
0.0
 14
1.0
 24
1.0
 15
0.0
 25
0.0
 16
0.0
 26
0.0
 36
1.0
 17
0.0
 27
0.0
 37
0.0
 40
2317.9181913612069
 41
0.6351944811693968
 42
50.0
 43
0.0
 44
0.0
 50
0.0
 51
0.0
 71
               0
 72
             100
 73
               1
 74
               1
 75
               0
 76
               0
 77
               0
 78
               0
  0
ENDTAB
  0
TABLE
  2
LTYPE
 70
              26
  0
LTYPE
  2
CONTINUOUS
 70
               0
  3
Solid line
 72
              65
 73
               0
 40
0.0
  0
LTYPE
  2
HIDDENX2
 70
               0
  3
CADPAC FUSION LINETYPE
 72
              65
 73
               2
 40
80.0
 49
60.0
 49
-20.0
  0
LTYPE
  2
HIDDEN
 70
               0
  3
CADPAC FUSION LINETYPE
 72
              65
 73
               2
 40
60.0
 49
40.0
 49
-20.0
  0
LTYPE
  2
HIDDEN2
 70
               0
  3
CADPAC FUSION LINETYPE
 72
              65
 73
               2
 40
50.0
 49
30.0
 49
-20.0
  0
LTYPE
  2
DASHED
 70
               0
  3
CADPAC FUSION LINETYPE
 72
              65
 73
               2
 40
60.0
 49
40.0
 49
-20.0
  0
LTYPE
  2
DASHED2
 70
               0
  3
CADPAC FUSION LINETYPE
 72
              65
 73
               2
 40
45.0
 49
30.0
 49
-15.0
  0
LTYPE
  2
DASHEDX2
 70
               0
  3
CADPAC FUSION LINETYPE
 72
              65
 73
               2
 40
90.0
 49
60.0
 49
-30.0
  0
LTYPE
  2
DOTX2
 70
               0
  3
CADPAC FUSION LINETYPE
 72
              65
 73
               2
 40
25.0
 49
0.0
 49
-25.0
  0
LTYPE
  2
DOT
 70
               0
  3
CADPAC FUSION LINETYPE
 72
              65
 73
               2
 40
20.0
 49
0.0
 49
-20.0
  0
LTYPE
  2
DOTS
 70
               0
  3
CADPAC FUSION LINETYPE
 72
              65
 73
               2
 40
20.0
 49
0.0
 49
-20.0
  0
LTYPE
  2
DOT2
 70
               0
  3
CADPAC FUSION LINETYPE
 72
              65
 73
               2
 40
15.0
 49
0.0
 49
-15.0
  0
LTYPE
  2
CENTERX2
 70
               0
  3
CADPAC FUSION LINETYPE
 72
              65
 73
               4
 40
120.0
 49
50.0
 49
-25.0
 49
20.0
 49
-25.0
  0
LTYPE
  2
CENTER
 70
               0
  3
CADPAC FUSION LINETYPE
 72
              65
 73
               4
 40
92.0
 49
40.0
 49
-20.0
 49
12.0
 49
-20.0
  0
LTYPE
  2
CENTER2
 70
               0
  3
CADPAC FUSION LINETYPE
 72
              65
 73
               4
 40
64.0
 49
30.0
 49
-15.0
 49
4.0
 49
-15.0
  0
LTYPE
  2
DASHDOTX2
 70
               0
  3
CADPAC FUSION LINETYPE
 72
              65
 73
               4
 40
100.0
 49
50.0
 49
-25.0
 49
0.0
 49
-25.0
  0
LTYPE
  2
DASHDOT
 70
               0
  3
CADPAC FUSION LINETYPE
 72
              65
 73
               4
 40
80.0
 49
40.0
 49
-20.0
 49
0.0
 49
-20.0
  0
LTYPE
  2
DASHDOT2
 70
               0
  3
CADPAC FUSION LINETYPE
 72
              65
 73
               4
 40
60.0
 49
30.0
 49
-15.0
 49
0.0
 49
-15.0
  0
LTYPE
  2
DIVIDEX2
 70
               0
  3
CADPAC FUSION LINETYPE
 72
              65
 73
               6
 40
125.0
 49
50.0
 49
-25.0
 49
0.0
 49
-25.0
 49
0.0
 49
-25.0
  0
LTYPE
  2
DIVIDE
 70
               0
  3
CADPAC FUSION LINETYPE
 72
              65
 73
               6
 40
100.0
 49
40.0
 49
-20.0
 49
0.0
 49
-20.0
 49
0.0
 49
-20.0
  0
LTYPE
  2
DIVIDE2
 70
               0
  3
CADPAC FUSION LINETYPE
 72
              65
 73
               6
 40
75.0
 49
30.0
 49
-15.0
 49
0.0
 49
-15.0
 49
0.0
 49
-15.0
  0
LTYPE
  2
BORDERX2
 70
               0
  3
CADPAC FUSION LINETYPE
 72
              65
 73
               6
 40
175.0
 49
50.0
 49
-25.0
 49
50.0
 49
-25.0
 49
0.0
 49
-25.0
  0
LTYPE
  2
BORDER
 70
               0
  3
CADPAC FUSION LINETYPE
 72
              65
 73
               6
 40
140.0
 49
40.0
 49
-20.0
 49
40.0
 49
-20.0
 49
0.0
 49
-20.0
  0
LTYPE
  2
BORDER2
 70
               0
  3
CADPAC FUSION LINETYPE
 72
              65
 73
               6
 40
105.0
 49
30.0
 49
-15.0
 49
30.0
 49
-15.0
 49
0.0
 49
-15.0
  0
LTYPE
  2
PHANTOMX2
 70
               0
  3
CADPAC FUSION LINETYPE
 72
              65
 73
               6
 40
150.0
 49
50.0
 49
-20.0
 49
20.0
 49
-20.0
 49
20.0
 49
-20.0
  0
LTYPE
  2
PHANTOM
 70
               0
  3
CADPAC FUSION LINETYPE
 72
              65
 73
               6
 40
124.0
 49
40.0
 49
-20.0
 49
12.0
 49
-20.0
 49
12.0
 49
-20.0
  0
LTYPE
  2
PHANTOM2
 70
               0
  3
CADPAC FUSION LINETYPE
 72
              65
 73
               6
 40
106.0
 49
30.0
 49
-20.0
 49
8.0
 49
-20.0
 49
8.0
 49
-20.0
  0
ENDTAB
  0
TABLE
  2
LAYER
 70
             256
  0
LAYER
  2
0
 70
               0
 62
               7
  6
CONTINUOUS
  0
LAYER
  2
LAYER001
 70
               0
 62
               7
  6
CONTINUOUS
  0
LAYER
  2
LAYER002
 70
               0
 62
               7
  6
CONTINUOUS
  0
LAYER
  2
LAYER003
 70
               0
 62
               7
  6
CONTINUOUS
  0
LAYER
  2
LAYER004
 70
               0
 62
               7
  6
CONTINUOUS
  0
LAYER
  2
LAYER005
 70
               0
 62
               7
  6
CONTINUOUS
  0
LAYER
  2
LAYER006
 70
               0
 62
               7
  6
CONTINUOUS
  0
LAYER
  2
LAYER007
 70
               0
 62
               7
  6
CONTINUOUS
  0
LAYER
  2
LAYER008
 70
               0
 62
               7
  6
CONTINUOUS
  0
LAYER
  2
LAYER009
 70
               0
 62
               7
  6
CONTINUOUS
  0
LAYER
  2
LAYER010
 70
               0
 62
               7
  6
CONTINUOUS
  0
LAYER
  2
LAYER011
 70
               0
 62
               7
  6
CONTINUOUS
  0
LAYER
  2
LAYER012
 70
               0
 62
               7
  6
CONTINUOUS
  0
LAYER
  2
LAYER013
 70
               0
 62
               7
  6
CONTINUOUS
  0
LAYER
  2
LAYER014
 70
               0
 62
               7
  6
CONTINUOUS
  0
LAYER
  2
LAYER015
 70
               0
 62
               7
  6
CONTINUOUS
  0
LAYER
  2
LAYER016
 70
               0
 62
               7
  6
CONTINUOUS
  0
LAYER
  2
LAYER017
 70
               0
 62
               7
  6
CONTINUOUS
  0
LAYER
  2
LAYER018
 70
               0
 62
               7
  6
CONTINUOUS
  0
LAYER
  2
LAYER019
 70
               0
 62
               7
  6
CONTINUOUS
  0
LAYER
  2
LAYER020
 70
               0
 62
               7
  6
CONTINUOUS
  0
LAYER
  2
LAYER021
 70
               0
 62
               7
  6
CONTINUOUS
  0
LAYER
  2
LAYER022
 70
               0
 62
               7
  6
CONTINUOUS
  0
LAYER
  2
LAYER023
 70
               0
 62
               7
  6
CONTINUOUS
  0
LAYER
  2
LAYER024
 70
               0
 62
               7
  6
CONTINUOUS
  0
LAYER
  2
LAYER025
 70
               0
 62
               7
  6
CONTINUOUS
  0
LAYER
  2
LAYER026
 70
               0
 62
               7
  6
CONTINUOUS
  0
LAYER
  2
LAYER027
 70
               0
 62
               7
  6
CONTINUOUS
  0
LAYER
  2
LAYER028
 70
               0
 62
               7
  6
CONTINUOUS
  0
LAYER
  2
LAYER029
 70
               0
 62
               7
  6
CONTINUOUS
  0
LAYER
  2
LAYER030
 70
               0
 62
               7
  6
CONTINUOUS
  0
LAYER
  2
LAYER031
 70
               0
 62
               7
  6
CONTINUOUS
  0
LAYER
  2
LAYER032
 70
               0
 62
               7
  6
CONTINUOUS
  0
LAYER
  2
LAYER033
 70
               0
 62
               7
  6
CONTINUOUS
  0
LAYER
  2
LAYER034
 70
               0
 62
               7
  6
CONTINUOUS
  0
LAYER
  2
LAYER035
 70
               0
 62
               7
  6
CONTINUOUS
  0
LAYER
  2
LAYER036
 70
               0
 62
               7
  6
CONTINUOUS
  0
LAYER
  2
LAYER037
 70
               0
 62
               7
  6
CONTINUOUS
  0
LAYER
  2
LAYER038
 70
               0
 62
               7
  6
CONTINUOUS
  0
LAYER
  2
LAYER039
 70
               0
 62
               7
  6
CONTINUOUS
  0
LAYER
  2
LAYER040
 70
               0
 62
               7
  6
CONTINUOUS
  0
LAYER
  2
LAYER041
 70
               0
 62
               7
  6
CONTINUOUS
  0
LAYER
  2
LAYER042
 70
               0
 62
               7
  6
CONTINUOUS
  0
LAYER
  2
LAYER043
 70
               0
 62
               7
  6
CONTINUOUS
  0
LAYER
  2
LAYER044
 70
               0
 62
               7
  6
CONTINUOUS
  0
LAYER
  2
LAYER045
 70
               0
 62
               7
  6
CONTINUOUS
  0
LAYER
  2
LAYER046
 70
               0
 62
               7
  6
CONTINUOUS
  0
LAYER
  2
LAYER047
 70
               0
 62
               7
  6
CONTINUOUS
  0
LAYER
  2
LAYER048
 70
               0
 62
               7
  6
CONTINUOUS
  0
LAYER
  2
LAYER049
 70
               0
 62
               7
  6
CONTINUOUS
  0
LAYER
  2
LAYER050
 70
               0
 62
               7
  6
CONTINUOUS
  0
LAYER
  2
LAYER051
 70
               0
 62
               7
  6
CONTINUOUS
  0
LAYER
  2
LAYER052
 70
               0
 62
               7
  6
CONTINUOUS
  0
LAYER
  2
LAYER053
 70
               0
 62
               7
  6
CONTINUOUS
  0
LAYER
  2
LAYER054
 70
               0
 62
               7
  6
CONTINUOUS
  0
LAYER
  2
LAYER055
 70
               0
 62
               7
  6
CONTINUOUS
  0
LAYER
  2
LAYER056
 70
               0
 62
               7
  6
CONTINUOUS
  0
LAYER
  2
LAYER057
 70
               0
 62
               7
  6
CONTINUOUS
  0
LAYER
  2
LAYER058
 70
               0
 62
               7
  6
CONTINUOUS
  0
LAYER
  2
LAYER059
 70
               0
 62
               7
  6
CONTINUOUS
  0
LAYER
  2
LAYER060
 70
               0
 62
               7
  6
CONTINUOUS
  0
LAYER
  2
LAYER061
 70
               0
 62
               7
  6
CONTINUOUS
  0
LAYER
  2
LAYER062
 70
               0
 62
               7
  6
CONTINUOUS
  0
LAYER
  2
LAYER063
 70
               0
 62
               7
  6
CONTINUOUS
  0
LAYER
  2
LAYER064
 70
               0
 62
               7
  6
CONTINUOUS
  0
LAYER
  2
LAYER065
 70
               0
 62
               7
  6
CONTINUOUS
  0
LAYER
  2
LAYER066
 70
               0
 62
               7
  6
CONTINUOUS
  0
LAYER
  2
LAYER067
 70
               0
 62
               7
  6
CONTINUOUS
  0
LAYER
  2
LAYER068
 70
               0
 62
               7
  6
CONTINUOUS
  0
LAYER
  2
LAYER069
 70
               0
 62
               7
  6
CONTINUOUS
  0
LAYER
  2
LAYER070
 70
               0
 62
               7
  6
CONTINUOUS
  0
LAYER
  2
LAYER071
 70
               0
 62
               7
  6
CONTINUOUS
  0
LAYER
  2
LAYER072
 70
               0
 62
               7
  6
CONTINUOUS
  0
LAYER
  2
LAYER073
 70
               0
 62
               7
  6
CONTINUOUS
  0
LAYER
  2
LAYER074
 70
               0
 62
               7
  6
CONTINUOUS
  0
LAYER
  2
LAYER075
 70
               0
 62
               7
  6
CONTINUOUS
  0
LAYER
  2
LAYER076
 70
               0
 62
               7
  6
CONTINUOUS
  0
LAYER
  2
LAYER077
 70
               0
 62
               7
  6
CONTINUOUS
  0
LAYER
  2
LAYER078
 70
               0
 62
               7
  6
CONTINUOUS
  0
LAYER
  2
LAYER079
 70
               0
 62
               7
  6
CONTINUOUS
  0
LAYER
  2
LAYER080
 70
               0
 62
               7
  6
CONTINUOUS
  0
LAYER
  2
LAYER081
 70
               0
 62
               7
  6
CONTINUOUS
  0
LAYER
  2
LAYER082
 70
               0
 62
               7
  6
CONTINUOUS
  0
LAYER
  2
LAYER083
 70
               0
 62
               7
  6
CONTINUOUS
  0
LAYER
  2
LAYER084
 70
               0
 62
               7
  6
CONTINUOUS
  0
LAYER
  2
LAYER085
 70
               0
 62
               7
  6
CONTINUOUS
  0
LAYER
  2
LAYER086
 70
               0
 62
               7
  6
CONTINUOUS
  0
LAYER
  2
LAYER087
 70
               0
 62
               7
  6
CONTINUOUS
  0
LAYER
  2
LAYER088
 70
               0
 62
               7
  6
CONTINUOUS
  0
LAYER
  2
LAYER089
 70
               0
 62
               7
  6
CONTINUOUS
  0
LAYER
  2
LAYER090
 70
               0
 62
               7
  6
CONTINUOUS
  0
LAYER
  2
LAYER091
 70
               0
 62
               7
  6
CONTINUOUS
  0
LAYER
  2
LAYER092
 70
               0
 62
               7
  6
CONTINUOUS
  0
LAYER
  2
LAYER093
 70
               0
 62
               7
  6
CONTINUOUS
  0
LAYER
  2
LAYER094
 70
               0
 62
               7
  6
CONTINUOUS
  0
LAYER
  2
LAYER095
 70
               0
 62
               7
  6
CONTINUOUS
  0
LAYER
  2
LAYER096
 70
               0
 62
               7
  6
CONTINUOUS
  0
LAYER
  2
LAYER097
 70
               0
 62
               7
  6
CONTINUOUS
  0
LAYER
  2
LAYER098
 70
               0
 62
               7
  6
CONTINUOUS
  0
LAYER
  2
LAYER099
 70
               0
 62
               7
  6
CONTINUOUS
  0
LAYER
  2
LAYER100
 70
               0
 62
               7
  6
CONTINUOUS
  0
LAYER
  2
LAYER101
 70
               0
 62
               7
  6
CONTINUOUS
  0
LAYER
  2
LAYER102
 70
               0
 62
               7
  6
CONTINUOUS
  0
LAYER
  2
LAYER103
 70
               0
 62
               7
  6
CONTINUOUS
  0
LAYER
  2
LAYER104
 70
               0
 62
               7
  6
CONTINUOUS
  0
LAYER
  2
LAYER105
 70
               0
 62
               7
  6
CONTINUOUS
  0
LAYER
  2
LAYER106
 70
               0
 62
               7
  6
CONTINUOUS
  0
LAYER
  2
LAYER107
 70
               0
 62
               7
  6
CONTINUOUS
  0
LAYER
  2
LAYER108
 70
               0
 62
               7
  6
CONTINUOUS
  0
LAYER
  2
LAYER109
 70
               0
 62
               7
  6
CONTINUOUS
  0
LAYER
  2
LAYER110
 70
               0
 62
               7
  6
CONTINUOUS
  0
LAYER
  2
LAYER111
 70
               0
 62
               7
  6
CONTINUOUS
  0
LAYER
  2
LAYER112
 70
               0
 62
               7
  6
CONTINUOUS
  0
LAYER
  2
LAYER113
 70
               0
 62
               7
  6
CONTINUOUS
  0
LAYER
  2
LAYER114
 70
               0
 62
               7
  6
CONTINUOUS
  0
LAYER
  2
LAYER115
 70
               0
 62
               7
  6
CONTINUOUS
  0
LAYER
  2
LAYER116
 70
               0
 62
               7
  6
CONTINUOUS
  0
LAYER
  2
LAYER117
 70
               0
 62
               7
  6
CONTINUOUS
  0
LAYER
  2
LAYER118
 70
               0
 62
               7
  6
CONTINUOUS
  0
LAYER
  2
LAYER119
 70
               0
 62
               7
  6
CONTINUOUS
  0
LAYER
  2
LAYER120
 70
               0
 62
               7
  6
CONTINUOUS
  0
LAYER
  2
LAYER121
 70
               0
 62
               7
  6
CONTINUOUS
  0
LAYER
  2
LAYER122
 70
               0
 62
               7
  6
CONTINUOUS
  0
LAYER
  2
LAYER123
 70
               0
 62
               7
  6
CONTINUOUS
  0
LAYER
  2
LAYER124
 70
               0
 62
               7
  6
CONTINUOUS
  0
LAYER
  2
LAYER125
 70
               0
 62
               7
  6
CONTINUOUS
  0
LAYER
  2
LAYER126
 70
               0
 62
               7
  6
CONTINUOUS
  0
LAYER
  2
LAYER127
 70
               0
 62
               7
  6
CONTINUOUS
  0
LAYER
  2
LAYER128
 70
               0
 62
               7
  6
CONTINUOUS
  0
LAYER
  2
LAYER129
 70
               0
 62
               7
  6
CONTINUOUS
  0
LAYER
  2
LAYER130
 70
               0
 62
               7
  6
CONTINUOUS
  0
LAYER
  2
LAYER131
 70
               0
 62
               7
  6
CONTINUOUS
  0
LAYER
  2
LAYER132
 70
               0
 62
               7
  6
CONTINUOUS
  0
LAYER
  2
LAYER133
 70
               0
 62
               7
  6
CONTINUOUS
  0
LAYER
  2
LAYER134
 70
               0
 62
               7
  6
CONTINUOUS
  0
LAYER
  2
LAYER135
 70
               0
 62
               7
  6
CONTINUOUS
  0
LAYER
  2
LAYER136
 70
               0
 62
               7
  6
CONTINUOUS
  0
LAYER
  2
LAYER137
 70
               0
 62
               7
  6
CONTINUOUS
  0
LAYER
  2
LAYER138
 70
               0
 62
               7
  6
CONTINUOUS
  0
LAYER
  2
LAYER139
 70
               0
 62
               7
  6
CONTINUOUS
  0
LAYER
  2
LAYER140
 70
               0
 62
               7
  6
CONTINUOUS
  0
LAYER
  2
LAYER141
 70
               0
 62
               7
  6
CONTINUOUS
  0
LAYER
  2
LAYER142
 70
               0
 62
               7
  6
CONTINUOUS
  0
LAYER
  2
LAYER143
 70
               0
 62
               7
  6
CONTINUOUS
  0
LAYER
  2
LAYER144
 70
               0
 62
               7
  6
CONTINUOUS
  0
LAYER
  2
LAYER145
 70
               0
 62
               7
  6
CONTINUOUS
  0
LAYER
  2
LAYER146
 70
               0
 62
               7
  6
CONTINUOUS
  0
LAYER
  2
LAYER147
 70
               0
 62
               7
  6
CONTINUOUS
  0
LAYER
  2
LAYER148
 70
               0
 62
               7
  6
CONTINUOUS
  0
LAYER
  2
LAYER149
 70
               0
 62
               7
  6
CONTINUOUS
  0
LAYER
  2
LAYER150
 70
               0
 62
               7
  6
CONTINUOUS
  0
LAYER
  2
LAYER151
 70
               0
 62
               7
  6
CONTINUOUS
  0
LAYER
  2
LAYER152
 70
               0
 62
               7
  6
CONTINUOUS
  0
LAYER
  2
LAYER153
 70
               0
 62
               7
  6
CONTINUOUS
  0
LAYER
  2
LAYER154
 70
               0
 62
               7
  6
CONTINUOUS
  0
LAYER
  2
LAYER155
 70
               0
 62
               7
  6
CONTINUOUS
  0
LAYER
  2
LAYER156
 70
               0
 62
               7
  6
CONTINUOUS
  0
LAYER
  2
LAYER157
 70
               0
 62
               7
  6
CONTINUOUS
  0
LAYER
  2
LAYER158
 70
               0
 62
               7
  6
CONTINUOUS
  0
LAYER
  2
LAYER159
 70
               0
 62
               7
  6
CONTINUOUS
  0
LAYER
  2
LAYER160
 70
               0
 62
               7
  6
CONTINUOUS
  0
LAYER
  2
LAYER161
 70
               0
 62
               7
  6
CONTINUOUS
  0
LAYER
  2
LAYER162
 70
               0
 62
               7
  6
CONTINUOUS
  0
LAYER
  2
LAYER163
 70
               0
 62
               7
  6
CONTINUOUS
  0
LAYER
  2
LAYER164
 70
               0
 62
               7
  6
CONTINUOUS
  0
LAYER
  2
LAYER165
 70
               0
 62
               7
  6
CONTINUOUS
  0
LAYER
  2
LAYER166
 70
               0
 62
               7
  6
CONTINUOUS
  0
LAYER
  2
LAYER167
 70
               0
 62
               7
  6
CONTINUOUS
  0
LAYER
  2
LAYER168
 70
               0
 62
               7
  6
CONTINUOUS
  0
LAYER
  2
LAYER169
 70
               0
 62
               7
  6
CONTINUOUS
  0
LAYER
  2
LAYER170
 70
               0
 62
               7
  6
CONTINUOUS
  0
LAYER
  2
LAYER171
 70
               0
 62
               7
  6
CONTINUOUS
  0
LAYER
  2
LAYER172
 70
               0
 62
               7
  6
CONTINUOUS
  0
LAYER
  2
LAYER173
 70
               0
 62
               7
  6
CONTINUOUS
  0
LAYER
  2
LAYER174
 70
               0
 62
               7
  6
CONTINUOUS
  0
LAYER
  2
LAYER175
 70
               0
 62
               7
  6
CONTINUOUS
  0
LAYER
  2
LAYER176
 70
               0
 62
               7
  6
CONTINUOUS
  0
LAYER
  2
LAYER177
 70
               0
 62
               7
  6
CONTINUOUS
  0
LAYER
  2
LAYER178
 70
               0
 62
               7
  6
CONTINUOUS
  0
LAYER
  2
LAYER179
 70
               0
 62
               7
  6
CONTINUOUS
  0
LAYER
  2
LAYER180
 70
               0
 62
               7
  6
CONTINUOUS
  0
LAYER
  2
LAYER181
 70
               0
 62
               7
  6
CONTINUOUS
  0
LAYER
  2
LAYER182
 70
               0
 62
               7
  6
CONTINUOUS
  0
LAYER
  2
LAYER183
 70
               0
 62
               7
  6
CONTINUOUS
  0
LAYER
  2
LAYER184
 70
               0
 62
               7
  6
CONTINUOUS
  0
LAYER
  2
LAYER185
 70
               0
 62
               7
  6
CONTINUOUS
  0
LAYER
  2
LAYER186
 70
               0
 62
               7
  6
CONTINUOUS
  0
LAYER
  2
LAYER187
 70
               0
 62
               7
  6
CONTINUOUS
  0
LAYER
  2
LAYER188
 70
               0
 62
               7
  6
CONTINUOUS
  0
LAYER
  2
LAYER189
 70
               0
 62
               7
  6
CONTINUOUS
  0
LAYER
  2
LAYER190
 70
               0
 62
               7
  6
CONTINUOUS
  0
LAYER
  2
LAYER191
 70
               0
 62
               7
  6
CONTINUOUS
  0
LAYER
  2
LAYER192
 70
               0
 62
               7
  6
CONTINUOUS
  0
LAYER
  2
LAYER193
 70
               0
 62
               7
  6
CONTINUOUS
  0
LAYER
  2
LAYER194
 70
               0
 62
               7
  6
CONTINUOUS
  0
LAYER
  2
LAYER195
 70
               0
 62
               7
  6
CONTINUOUS
  0
LAYER
  2
LAYER196
 70
               0
 62
               7
  6
CONTINUOUS
  0
LAYER
  2
LAYER197
 70
               0
 62
               7
  6
CONTINUOUS
  0
LAYER
  2
LAYER198
 70
               0
 62
               7
  6
CONTINUOUS
  0
LAYER
  2
LAYER199
 70
               0
 62
               7
  6
CONTINUOUS
  0
LAYER
  2
LAYER200
 70
               0
 62
               7
  6
CONTINUOUS
  0
LAYER
  2
LAYER201
 70
               0
 62
               7
  6
CONTINUOUS
  0
LAYER
  2
LAYER202
 70
               0
 62
               7
  6
CONTINUOUS
  0
LAYER
  2
LAYER203
 70
               0
 62
               7
  6
CONTINUOUS
  0
LAYER
  2
LAYER204
 70
               0
 62
               7
  6
CONTINUOUS
  0
LAYER
  2
LAYER205
 70
               0
 62
               7
  6
CONTINUOUS
  0
LAYER
  2
LAYER206
 70
               0
 62
               7
  6
CONTINUOUS
  0
LAYER
  2
LAYER207
 70
               0
 62
               7
  6
CONTINUOUS
  0
LAYER
  2
LAYER208
 70
               0
 62
               7
  6
CONTINUOUS
  0
LAYER
  2
LAYER209
 70
               0
 62
               7
  6
CONTINUOUS
  0
LAYER
  2
LAYER210
 70
               0
 62
               7
  6
CONTINUOUS
  0
LAYER
  2
LAYER211
 70
               0
 62
               7
  6
CONTINUOUS
  0
LAYER
  2
LAYER212
 70
               0
 62
               7
  6
CONTINUOUS
  0
LAYER
  2
LAYER213
 70
               0
 62
               7
  6
CONTINUOUS
  0
LAYER
  2
LAYER214
 70
               0
 62
               7
  6
CONTINUOUS
  0
LAYER
  2
LAYER215
 70
               0
 62
               7
  6
CONTINUOUS
  0
LAYER
  2
LAYER216
 70
               0
 62
               7
  6
CONTINUOUS
  0
LAYER
  2
LAYER217
 70
               0
 62
               7
  6
CONTINUOUS
  0
LAYER
  2
LAYER218
 70
               0
 62
               7
  6
CONTINUOUS
  0
LAYER
  2
LAYER219
 70
               0
 62
               7
  6
CONTINUOUS
  0
LAYER
  2
LAYER220
 70
               0
 62
               7
  6
CONTINUOUS
  0
LAYER
  2
LAYER221
 70
               0
 62
               7
  6
CONTINUOUS
  0
LAYER
  2
LAYER222
 70
               0
 62
               7
  6
CONTINUOUS
  0
LAYER
  2
LAYER223
 70
               0
 62
               7
  6
CONTINUOUS
  0
LAYER
  2
LAYER224
 70
               0
 62
               7
  6
CONTINUOUS
  0
LAYER
  2
LAYER225
 70
               0
 62
               7
  6
CONTINUOUS
  0
LAYER
  2
LAYER226
 70
               0
 62
               7
  6
CONTINUOUS
  0
LAYER
  2
LAYER227
 70
               0
 62
               7
  6
CONTINUOUS
  0
LAYER
  2
LAYER228
 70
               0
 62
               7
  6
CONTINUOUS
  0
LAYER
  2
LAYER229
 70
               0
 62
               7
  6
CONTINUOUS
  0
LAYER
  2
LAYER230
 70
               0
 62
               7
  6
CONTINUOUS
  0
LAYER
  2
LAYER231
 70
               0
 62
               7
  6
CONTINUOUS
  0
LAYER
  2
LAYER232
 70
               0
 62
               7
  6
CONTINUOUS
  0
LAYER
  2
LAYER233
 70
               0
 62
               7
  6
CONTINUOUS
  0
LAYER
  2
LAYER234
 70
               0
 62
               7
  6
CONTINUOUS
  0
LAYER
  2
LAYER235
 70
               0
 62
               7
  6
CONTINUOUS
  0
LAYER
  2
LAYER236
 70
               0
 62
               7
  6
CONTINUOUS
  0
LAYER
  2
LAYER237
 70
               0
 62
               7
  6
CONTINUOUS
  0
LAYER
  2
LAYER238
 70
               0
 62
               7
  6
CONTINUOUS
  0
LAYER
  2
LAYER239
 70
               0
 62
               7
  6
CONTINUOUS
  0
LAYER
  2
LAYER240
 70
               0
 62
               7
  6
CONTINUOUS
  0
LAYER
  2
LAYER241
 70
               0
 62
               7
  6
CONTINUOUS
  0
LAYER
  2
LAYER242
 70
               0
 62
               7
  6
CONTINUOUS
  0
LAYER
  2
LAYER243
 70
               0
 62
               7
  6
CONTINUOUS
  0
LAYER
  2
LAYER244
 70
               0
 62
               7
  6
CONTINUOUS
  0
LAYER
  2
LAYER245
 70
               0
 62
               7
  6
CONTINUOUS
  0
LAYER
  2
LAYER246
 70
               0
 62
               7
  6
CONTINUOUS
  0
LAYER
  2
LAYER247
 70
               0
 62
               7
  6
CONTINUOUS
  0
LAYER
  2
LAYER248
 70
               0
 62
               7
  6
CONTINUOUS
  0
LAYER
  2
LAYER249
 70
               0
 62
               7
  6
CONTINUOUS
  0
LAYER
  2
LAYER250
 70
               0
 62
               7
  6
CONTINUOUS
  0
LAYER
  2
LAYER251
 70
               0
 62
               7
  6
CONTINUOUS
  0
LAYER
  2
LAYER252
 70
               0
 62
               7
  6
CONTINUOUS
  0
LAYER
  2
LAYER253
 70
               0
 62
               7
  6
CONTINUOUS
  0
LAYER
  2
LAYER254
 70
               0
 62
               7
  6
CONTINUOUS
  0
LAYER
  2
LAYER255
 70
               0
 62
               7
  6
CONTINUOUS
  0
ENDTAB
  0
TABLE
  2
STYLE
 70
               1
  0
STYLE
  2
STANDARD
 70
               0
 40
0.0
 41
0.8
 50
0.0
 71
               0
 42
40.0
  3
MS PGothic.ttf
  4

  0
ENDTAB
  0
TABLE
  2
VIEW
 70
               0
  0
VIEW
  2
QQQQ
 70
               0
 40
2317.9181913612069
 10
51.574377082919909
 20
-550.83176079692657
 41
1472.3288429547883
 11
0.0
 21
0.0
 31
1.0
 12
100.0
 22
100.0
 32
0.0
 42
50.0
 43
0.0
 44
0.0
 50
0.0
 71
               0
  0
ENDTAB
  0
TABLE
  2
UCS
 70
               0
  0
ENDTAB
  0
TABLE
  2
APPID
 70
               1
  0
APPID
  2
ACAD
 70
               0
  0
ENDTAB
  0
TABLE
  2
DIMSTYLE
 70
               1
  0
DIMSTYLE
  2
STANDARD
 70
               0
  3

  4

  5

  6

  7

 40
1.0
 41
0.18
 42
0.0625
 43
0.38
 44
0.18
 45
0.0
 46
0.0
 47
0.0
 48
0.0
140
0.18
141
0.09
142
0.0
143
25.399999999999999
144
1.0
145
0.0
146
1.0
147
0.09
 71
               0
 72
               0
 73
               1
 74
               1
 75
               0
 76
               0
 77
               0
 78
               0
170
               0
171
               2
172
               0
173
               0
174
               0
175
               0
176
               0
177
               0
178
               0
  0
ENDTAB
  0
ENDSEC
  0
SECTION
  2
BLOCKS
  0
ENDSEC
  0
SECTION
  2
ENTITIES
  0
ARC
  8
0
  6
CONTINUOUS
 62
               3
  5
136
 10
0.0000000000002936
 20
403.00000000000006
 30
0.0
 40
51.5
 50
247.14815970712681
 51
510.93845082065758
  0
LINE
  8
0
  6
CONTINUOUS
 62
               3
  5
137
 10
-20.000000000003183
 20
403.00000000000006
 30
0.0
 11
-52.50000000000022
 21
403.00000000000006
 31
0.0
  0
LINE
  8
0
  6
CONTINUOUS
 62
               3
  5
138
 10
-19.999999999999719
 20
354.45878040263091
 30
0.0
 11
-19.999999999999702
 21
398.85786437626967
 31
0.0
  0
ARC
  8
0
  6
CONTINUOUS
 62
               3
  5
139
 10
-29.999999999999702
 20
398.85786437626967
 30
0.0
 40
10.0
 50
359.9999999999992
 51
404.99999999999909
  0
LINE
  8
0
  6
CONTINUOUS
 62
               3
  5
13A
 10
-22.928932188134205
 20
405.92893218813521
 30
0.0
 11
-45.75087411518907
 21
428.75087411518598
 31
0.0
  0
CIRCLE
  8
0
  6
CONTINUOUS
 62
               3
  5
13B
 10
-0.000000000000218
 20
403.00000000000006
 30
0.0
 40
52.5
  0
CIRCLE
  8
0
  6
CONTINUOUS
 62
               3
  5
13C
 10
-0.000000000000218
 20
403.00000000000006
 30
0.0
 40
74.999999999999488
  0
LINE
  8
0
  6
CONTINUOUS
 62
               3
  5
13D
 10
-126.99999999999976
 20
458.00000000000045
 30
0.0
 11
-126.32844387403553
 21
458.00000000000045
 31
0.0
  0
LINE
  8
0
  6
CONTINUOUS
 62
               3
  5
13E
 10
-123.99999999999964
 20
460.32844387403543
 30
0.0
 11
-126.32844387403553
 21
458.00000000000045
 31
0.0
  0
LINE
  8
0
  6
CONTINUOUS
 62
               3
  5
13F
 10
-126.99999999999964
 20
348.0000000000004
 30
0.0
 11
-126.32844387403541
 21
348.0000000000004
 31
0.0
  0
LINE
  8
0
  6
CONTINUOUS
 62
               3
  5
140
 10
-123.99999999999953
 20
345.67155612596451
 30
0.0
 11
-126.32844387403541
 21
348.0000000000004
 31
0.0
  0
LINE
  8
0
  6
CONTINUOUS
 62
               3
  5
141
 10
-126.32844387403541
 20
348.0000000000004
 30
0.0
 11
-126.32844387403553
 21
458.00000000000045
 31
0.0
  0
LINE
  8
0
  6
CONTINUOUS
 62
               3
  5
142
 10
-123.99999999999964
 20
460.32844387403543
 30
0.0
 11
-123.99999999999953
 21
345.67155612596451
 31
0.0
  0
LINE
  8
0
  6
CONTINUOUS
 62
               3
  5
143
 10
-131.99999999999963
 20
348.17155612596451
 30
0.0
 11
-131.99999999999974
 21
457.82844387403543
 31
0.0
  0
LINE
  8
0
  6
CONTINUOUS
 62
               3
  5
144
 10
-126.99999999999976
 20
460.32844387403543
 30
0.0
 11
-126.99999999999964
 21
345.67155612596451
 31
0.0
  0
LINE
  8
0
  6
CONTINUOUS
 62
               3
  5
145
 10
-126.99999999999964
 20
345.67155612596451
 30
0.0
 11
-129.49999999999963
 21
345.67155612596451
 31
0.0
  0
LINE
  8
0
  6
CONTINUOUS
 62
               3
  5
146
 10
-126.99999999999976
 20
460.32844387403543
 30
0.0
 11
-129.49999999999974
 21
460.32844387403543
 31
0.0
  0
ARC
  8
0
  6
CONTINUOUS
 62
               3
  5
147
 10
-129.49999999999974
 20
457.82844387403543
 30
0.0
 40
2.5
 50
89.999999999999801
 51
179.9999999999996
  0
ARC
  8
0
  6
CONTINUOUS
 62
               3
  5
148
 10
-129.49999999999963
 20
348.17155612596451
 30
0.0
 40
2.5
 50
179.9999999999996
 51
269.99999999999937
  0
LINE
  8
0
  6
CONTINUOUS
 62
               3
  5
149
 10
-44.877805444974165
 20
463.09145179177267
 30
0.0
 11
-123.99999999999964
 21
460.32844387403543
 31
0.0
  0
LINE
  8
0
  6
CONTINUOUS
 62
               3
  5
14A
 10
-44.877805444973525
 20
342.90854820822693
 30
0.0
 11
-123.99999999999953
 21
345.67155612596451
 31
0.0
  0
LINE
  8
0
  6
CONTINUOUS
 62
               3
  5
14B
 10
-445.49878165403675
 20
-482.5
 30
0.0
 11
-443.5
 21
-480.5697989934049
 31
0.0
  0
LINE
  8
0
  6
CONTINUOUS
 62
               3
  5
14C
 10
-554.50121834596325
 20
-482.5
 30
0.0
 11
-556.5
 21
-480.5697989934049
 31
0.0
  0
LINE
  8
0
  6
CONTINUOUS
 62
               3
  5
14D
 10
-445.49878165403675
 20
-482.5
 30
0.0
 11
-554.50121834596325
 21
-482.5
 31
0.0
  0
LINE
  8
0
  6
CONTINUOUS
 62
               3
  5
14E
 10
-556.5
 20
-182.5
 30
0.0
 11
-443.5
 21
-182.5
 31
0.0
  0
LINE
  8
0
  6
CONTINUOUS
 62
               3
  5
14F
 10
-556.5
 20
-182.5
 30
0.0
 11
-556.5
 21
-480.5697989934049
 31
0.0
  0
LINE
  8
0
  6
CONTINUOUS
 62
               3
  5
150
 10
-443.5
 20
-182.5
 30
0.0
 11
-443.5
 21
-480.5697989934049
 31
0.0
  0
LINE
  8
0
  6
CONTINUOUS
 62
               3
  5
151
 10
-443.49999978031531
 20
-182.50000021968458
 30
0.0
 11
-443.99999978031542
 21
-182.00000021968458
 31
0.0
  0
LINE
  8
0
  6
CONTINUOUS
 62
               3
  5
152
 10
-556.50000021968469
 20
-182.50000021968458
 30
0.0
 11
-556.00000021968458
 21
-182.00000021968458
 31
0.0
  0
LINE
  8
0
  6
CONTINUOUS
 62
               3
  5
153
 10
-556.0
 20
-76.300734413377711
 30
0.0
 11
-556.0
 21
-181.99999999999994
 31
0.0
  0
LINE
  8
0
  6
CONTINUOUS
 62
               3
  5
154
 10
-444.0
 20
-76.300734413377711
 30
0.0
 11
-444.0
 21
-181.99999999999994
 31
0.0
  0
LINE
  8
0
  6
CONTINUOUS
 62
               3
  5
155
 10
-443.99999978031542
 20
-182.00000021968458
 30
0.0
 11
-556.0
 21
-182.00000021968458
 31
0.0
  0
LINE
  8
0
  6
CONTINUOUS
 62
               3
  5
156
 10
-575.0
 20
182.49999999999994
 30
0.0
 11
-425.0
 21
182.49999999999994
 31
0.0
  0
LINE
  8
0
  6
CONTINUOUS
 62
               3
  5
157
 10
-425.0
 20
165.49999999999983
 30
0.0
 11
-425.0
 21
182.49999999999994
 31
0.0
  0
LINE
  8
0
  6
CONTINUOUS
 62
               3
  5
158
 10
-425.0
 20
165.49999999999983
 30
0.0
 11
-575.0
 21
165.49999999999983
 31
0.0
  0
LINE
  8
0
  6
CONTINUOUS
 62
               3
  5
159
 10
-575.0
 20
165.49999999999983
 30
0.0
 11
-575.0
 21
182.49999999999994
 31
0.0
  0
LINE
  8
0
  6
CONTINUOUS
 62
               3
  5
15A
 10
-428.0
 20
160.91742430504411
 30
0.0
 11
-428.00000000000045
 21
101.46629794778804
 31
0.0
  0
LINE
  8
0
  6
CONTINUOUS
 62
               3
  5
15B
 10
-571.99999999999955
 20
101.46629794778804
 30
0.0
 11
-572.0
 21
160.91742430504411
 31
0.0
  0
ARC
  8
0
  6
CONTINUOUS
 62
               3
  5
15C
 10
-423.0
 20
160.91742430504411
 30
0.0
 40
5.0
 50
113.57817847820284
 51
179.9999999999996
  0
ARC
  8
0
  6
CONTINUOUS
 62
               3
  5
15D
 10
-577.0
 20
160.91742430504411
 30
0.0
 40
5.0
 50
0.0
 51
66.421821521796758
  0
LINE
  8
0
  6
CONTINUOUS
 62
               3
  5
15E
 10
-433.0
 20
-21.000000000000142
 30
0.0
 11
-433.00000000000136
 21
87.864827439051311
 31
0.0
  0
LINE
  8
0
  6
CONTINUOUS
 62
               3
  5
15F
 10
-566.99999999999864
 20
87.864827439051311
 30
0.0
 11
-567.0
 21
-21.000000000000142
 31
0.0
  0
ARC
  8
0
  6
CONTINUOUS
 62
               3
  5
160
 10
-439.00000000000045
 20
101.46629794778804
 30
0.0
 40
11.0
 50
319.63240645580953
 51
359.9999999999992
  0
ARC
  8
0
  6
CONTINUOUS
 62
               3
  5
161
 10
-423.00000000000136
 20
87.864827439051311
 30
0.0
 40
10.0
 50
139.63240645581024
 51
179.9999999999996
  0
ARC
  8
0
  6
CONTINUOUS
 62
               3
  5
162
 10
-560.99999999999955
 20
101.46629794778804
 30
0.0
 40
11.0
 50
179.9999999999996
 51
220.36759354418928
  0
ARC
  8
0
  6
CONTINUOUS
 62
               3
  5
163
 10
-576.99999999999864
 20
87.864827439051311
 30
0.0
 40
10.0
 50
359.9999999999992
 51
400.36759354418854
  0
ARC
  8
0
  6
CONTINUOUS
 62
               3
  5
164
 10
-502.73886467040404
 20
-21.431899790090455
 30
0.0
 40
75.238995147991176
 50
66.251709401210945
 51
99.116170731728488
  0
ARC
  8
0
  6
CONTINUOUS
 62
               3
  5
165
 10
-515.29323283998565
 20
56.806237917334357
 30
0.0
 40
4.0
 50
151.46651938402164
 51
279.116170731728
  0
ARC
  8
0
  6
CONTINUOUS
 62
               3
  5
166
 10
-470.82778554144193
 20
51.097414151849506
 30
0.0
 40
4.0
 50
246.25170940120867
 51
395.78778983851345
  0
ARC
  8
0
  6
CONTINUOUS
 62
               3
  5
167
 10
-497.47715094279351
 20
63.864990185787718
 30
0.0
 40
15.395931900744419
 50
47.914158101635444
 51
144.58600371307961
  0
ARC
  8
0
  6
CONTINUOUS
 62
               3
  5
168
 10
-397.39489900960189
 20
-7.2965661465032952
 30
0.0
 40
138.19831075251042
 50
144.58600371307966
 51
151.46651938402184
  0
ARC
  8
0
  6
CONTINUOUS
 62
               3
  5
169
 10
-580.24450729219802
 20
-27.780973428112333
 30
0.0
 40
138.88446547285218
 50
35.787789838514875
 51
47.914158101635635
  0
LINE
  8
0
  6
CONTINUOUS
 62
               3
  5
16A
 10
-500.0
 20
64.197326219101939
 30
0.0
 11
-475.17262784409672
 21
49.404485740601643
 31
0.0
  0
LINE
  8
0
  6
CONTINUOUS
 62
               3
  5
16B
 10
-500.0
 20
64.197326148398844
 30
0.0
 11
-516.23122525712733
 21
54.826223876918874
 31
0.0
  0
LINE
  8
0
  6
CONTINUOUS
 62
               3
  5
16C
 10
-500.06237579684421
 20
64.197326219101939
 30
0.0
 11
-500.06237579684421
 21
77.686158168955416
 31
0.0
  0
LINE
  8
0
  6
CONTINUOUS
 62
               3
  5
16D
 10
-473.2126429075206
 20
17.499999999999801
 30
0.0
 11
-526.7873570924794
 21
17.499999999999801
 31
0.0
  0
CIRCLE
  8
0
  6
CONTINUOUS
 62
               3
  5
16E
 10
-500.0
 20
-10.500000000000085
 30
0.0
 40
48.500000000000007
  0
CIRCLE
  8
0
  6
CONTINUOUS
 62
               3
  5
16F
 10
-500.0
 20
-10.500000000000085
 30
0.0
 40
38.75
  0
CIRCLE
  8
0
  6
CONTINUOUS
 62
               3
  5
170
 10
-500.0
 20
-10.500000000000085
 30
0.0
 40
47.299999999999997
  0
LINE
  8
0
  6
CONTINUOUS
 62
               3
  5
171
 10
-531.81980515339455
 20
-42.319805153394697
 30
0.0
 11
-533.44615075012371
 21
-43.946150750123792
 31
0.0
  0
LINE
  8
0
  6
CONTINUOUS
 62
               3
  5
172
 10
-468.18019484660545
 20
-42.319805153394697
 30
0.0
 11
-466.55384924987629
 21
-43.946150750123735
 31
0.0
  0
ARC
  8
0
  6
CONTINUOUS
 62
               3
  5
173
 10
-500.0
 20
-10.500000000000085
 30
0.0
 40
45.0
 50
224.99999999999949
 51
314.99999999999937
  0
CIRCLE
  8
0
  6
CONTINUOUS
 62
               3
  5
174
 10
-500.0
 20
-10.500000000000085
 30
0.0
 40
43.0
  0
CIRCLE
  8
0
  6
CONTINUOUS
 62
               3
  5
175
 10
-500.0
 20
-10.500000000000085
 30
0.0
 40
57.5
  0
LINE
  8
0
  6
CONTINUOUS
 62
               3
  5
176
 10
-54.501218345963196
 20
-482.49999999999994
 30
0.0
 11
-56.499999999999943
 21
-480.56979899340485
 31
0.0
  0
LINE
  8
0
  6
CONTINUOUS
 62
               3
  5
177
 10
54.501218345963366
 20
-482.49999999999994
 30
0.0
 11
56.500000000000114
 21
-480.56979899340485
 31
0.0
  0
LINE
  8
0
  6
CONTINUOUS
 62
               3
  5
178
 10
-54.501218345963196
 20
-482.49999999999994
 30
0.0
 11
54.501218345963366
 21
-482.49999999999994
 31
0.0
  0
LINE
  8
0
  6
CONTINUOUS
 62
               3
  5
179
 10
56.5
 20
-182.49999999999994
 30
0.0
 11
-56.5
 21
-182.49999999999994
 31
0.0
  0
LINE
  8
0
  6
CONTINUOUS
 62
               3
  5
17A
 10
56.5
 20
-182.49999999999994
 30
0.0
 11
56.500000000000114
 21
-480.56979899340485
 31
0.0
  0
LINE
  8
0
  6
CONTINUOUS
 62
               3
  5
17B
 10
-56.5
 20
-182.49999999999994
 30
0.0
 11
-56.499999999999943
 21
-480.56979899340485
 31
0.0
  0
LINE
  8
0
  6
CONTINUOUS
 62
               3
  5
17C
 10
-56.500000219684694
 20
-182.50000021968452
 30
0.0
 11
-56.00000021968458
 21
-182.00000021968452
 31
0.0
  0
LINE
  8
0
  6
CONTINUOUS
 62
               3
  5
17D
 10
56.500000219684694
 20
-182.50000021968452
 30
0.0
 11
56.00000021968458
 21
-182.00000021968452
 31
0.0
  0
LINE
  8
0
  6
CONTINUOUS
 62
               3
  5
17E
 10
56.0
 20
-76.793190325741875
 30
0.0
 11
56.0
 21
-181.99999999999989
 31
0.0
  0
LINE
  8
0
  6
CONTINUOUS
 62
               3
  5
17F
 10
-56.000000000000028
 20
-75.031500073510074
 30
0.0
 11
-56.0
 21
-181.99999999999989
 31
0.0
  0
LINE
  8
0
  6
CONTINUOUS
 62
               3
  5
180
 10
-56.00000021968458
 20
-182.00000021968452
 30
0.0
 11
56.0
 21
-182.00000021968452
 31
0.0
  0
LINE
  8
0
  6
CONTINUOUS
 62
               3
  5
181
 10
75.0
 20
182.5
 30
0.0
 11
-75.0
 21
182.5
 31
0.0
  0
LINE
  8
0
  6
CONTINUOUS
 62
               3
  5
182
 10
-75.0
 20
165.49999999999989
 30
0.0
 11
-75.0
 21
182.5
 31
0.0
  0
LINE
  8
0
  6
CONTINUOUS
 62
               3
  5
183
 10
-75.0
 20
165.49999999999989
 30
0.0
 11
75.0
 21
165.49999999999989
 31
0.0
  0
LINE
  8
0
  6
CONTINUOUS
 62
               3
  5
184
 10
75.0
 20
165.49999999999989
 30
0.0
 11
75.0
 21
182.5
 31
0.0
  0
LINE
  8
0
  6
CONTINUOUS
 62
               3
  5
185
 10
-72.0
 20
160.91742430504416
 30
0.0
 11
-71.999999999999545
 21
101.46629794778809
 31
0.0
  0
LINE
  8
0
  6
CONTINUOUS
 62
               3
  5
186
 10
71.999999999999545
 20
101.46629794778811
 30
0.0
 11
72.0
 21
160.91742430504416
 31
0.0
  0
ARC
  8
0
  6
CONTINUOUS
 62
               3
  5
187
 10
-77.0
 20
160.91742430504416
 30
0.0
 40
5.0
 50
0.000000000000007
 51
66.421821521796772
  0
ARC
  8
0
  6
CONTINUOUS
 62
               3
  5
188
 10
77.0
 20
160.91742430504416
 30
0.0
 40
5.0
 50
113.57817847820286
 51
179.9999999999996
  0
LINE
  8
0
  6
CONTINUOUS
 62
               3
  5
189
 10
66.999999999998636
 20
87.864827439051382
 30
0.0
 11
66.999999999998636
 21
-21.492457016793708
 31
0.0
  0
ARC
  8
0
  6
CONTINUOUS
 62
               3
  5
18A
 10
60.999999999999545
 20
101.46629794778811
 30
0.0
 40
11.0
 50
319.63240645580953
 51
359.9999999999992
  0
ARC
  8
0
  6
CONTINUOUS
 62
               3
  5
18B
 10
76.999999999998636
 20
87.864827439051382
 30
0.0
 40
10.0
 50
139.63240645581024
 51
179.9999999999996
  0
ARC
  8
0
  6
CONTINUOUS
 62
               3
  5
18C
 10
-69.633184991464304
 20
53.730022610443257
 30
0.0
 40
5.0
 50
319.7576293518394
 51
354.52634157409415
  0
ARC
  8
0
  6
CONTINUOUS
 62
               3
  5
18D
 10
-61.500372908288682
 20
52.031617333354916
 30
0.0
 40
5.0
 50
242.2178093170989
 51
335.43172396398262
  0
ARC
  8
0
  6
CONTINUOUS
 62
               3
  5
18E
 10
-68.492047844730337
 20
38.760728833220242
 30
0.0
 40
10.0
 50
62.217809317099025
 51
80.342813712519273
  0
ARC
  8
0
  6
CONTINUOUS
 62
               3
  5
18F
 10
-61.999999999998693
 20
47.269799171113505
 30
0.0
 40
5.0
 50
139.75762935184071
 51
164.34500844836893
  0
LINE
  8
0
  6
CONTINUOUS
 62
               3
  5
190
 10
-127.00000000000011
 20
44.500000000000341
 30
0.0
 11
-126.32844387403588
 21
44.500000000000341
 31
0.0
  0
LINE
  8
0
  6
CONTINUOUS
 62
               3
  5
191
 10
-124.0
 20
46.828443874035656
 30
0.0
 11
-126.32844387403588
 21
44.500000000000341
 31
0.0
  0
LINE
  8
0
  6
CONTINUOUS
 62
               3
  5
192
 10
-126.99999999999999
 20
-65.499999999999659
 30
0.0
 11
-126.32844387403576
 21
-65.499999999999659
 31
0.0
  0
LINE
  8
0
  6
CONTINUOUS
 62
               3
  5
193
 10
-123.99999999999987
 20
-67.828443874035543
 30
0.0
 11
-126.32844387403576
 21
-65.499999999999659
 31
0.0
  0
LINE
  8
0
  6
CONTINUOUS
 62
               3
  5
194
 10
-126.32844387403576
 20
-65.499999999999659
 30
0.0
 11
-126.32844387403588
 21
44.500000000000341
 31
0.0
  0
LINE
  8
0
  6
CONTINUOUS
 62
               3
  5
195
 10
-124.0
 20
46.828443874035656
 30
0.0
 11
-123.99999999999987
 21
-67.828443874035543
 31
0.0
  0
LINE
  8
0
  6
CONTINUOUS
 62
               3
  5
196
 10
-132.0
 20
-65.328443874035543
 30
0.0
 11
-132.00000000000011
 21
44.328443874035656
 31
0.0
  0
LINE
  8
0
  6
CONTINUOUS
 62
               3
  5
197
 10
-127.00000000000011
 20
46.828443874035656
 30
0.0
 11
-126.99999999999999
 21
-67.828443874035543
 31
0.0
  0
LINE
  8
0
  6
CONTINUOUS
 62
               3
  5
198
 10
-126.99999999999999
 20
-67.828443874035543
 30
0.0
 11
-129.5
 21
-67.828443874035543
 31
0.0
  0
LINE
  8
0
  6
CONTINUOUS
 62
               3
  5
199
 10
-127.00000000000011
 20
46.828443874035656
 30
0.0
 11
-129.50000000000011
 21
46.828443874035656
 31
0.0
  0
ARC
  8
0
  6
CONTINUOUS
 62
               3
  5
19A
 10
-129.50000000000011
 20
44.328443874035656
 30
0.0
 40
2.5
 50
89.999999999999801
 51
179.9999999999996
  0
ARC
  8
0
  6
CONTINUOUS
 62
               3
  5
19B
 10
-129.5
 20
-65.328443874035543
 30
0.0
 40
2.5
 50
179.9999999999996
 51
269.99999999999937
  0
LINE
  8
0
  6
CONTINUOUS
 62
               3
  5
19C
 10
-60.825502516487497
 20
-70.034545938414567
 30
0.0
 11
-123.99999999999987
 21
-67.828443874035543
 31
0.0
  0
LINE
  8
0
  6
CONTINUOUS
 62
               3
  5
19D
 10
-68.841042811755528
 20
48.754637103411255
 30
0.0
 11
-124.0
 21
46.828443874035656
 31
0.0
  0
ARC
  8
0
  6
CONTINUOUS
 62
               3
  5
19E
 10
-68.492047844730337
 20
38.760728833220355
 30
0.0
 40
10.0
 50
62.217809317099025
 51
92.000000000000838
  0
ARC
  8
0
  6
CONTINUOUS
 62
               3
  5
19F
 10
-60.999999999999531
 20
106.46629794778823
 30
0.0
 40
11.0
 50
179.9999999999996
 51
220.36759354418928
  0
LINE
  8
0
  6
CONTINUOUS
 62
               3
  5
1A0
 10
-66.999999999998693
 20
87.452793457731104
 30
0.0
 11
-66.999999999998607
 21
92.864827439051282
 31
0.0
  0
ARC
  8
0
  6
CONTINUOUS
 62
               3
  5
1A1
 10
-57.000000000001478
 20
87.452793457730991
 30
0.0
 40
10.0
 50
179.9999999999996
 51
239.99999999999969
  0
ARC
  8
0
  6
CONTINUOUS
 62
               3
  5
1A2
 10
-164.20000000000152
 20
62.79189323085393
 30
0.0
 40
100.0
 50
354.52634157409398
 51
373.59049396680496
  0
ARC
  8
0
  6
CONTINUOUS
 62
               3
  5
1A3
 10
-80.4619203427211
 20
60.700195305505531
 30
0.0
 40
25.849089312664582
 50
335.43172396398251
 51
404.4207396332767
  0
ARC
  8
0
  6
CONTINUOUS
 62
               3
  5
1A4
 10
-76.999999999998622
 20
92.864827439051396
 30
0.0
 40
10.0
 50
359.99999999999881
 51
400.36759354418905
  0
LINE
  8
0
  6
CONTINUOUS
 62
               3
  5
1A5
 10
-27.364609066744393
 20
-21.492457016793765
 30
0.0
 11
66.999999999998636
 21
-21.492457016793765
 31
0.0
  0
ARC
  8
0
  6
CONTINUOUS
 62
               3
  5
1A6
 10
-61.000000000000028
 20
-75.031500073510074
 30
0.0
 40
5.0
 50
0.0
 51
87.999999999999488
  0
LINE
  8
0
  6
CONTINUOUS
 62
               3
  5
1A7
 10
66.999999999998636
 20
-21.492457016793765
 30
0.0
 11
56.000000219684651
 21
-76.793190325741875
 31
0.0
  0
LINE
  8
0
  6
CONTINUOUS
 62
               3
  5
1A8
 10
56.000000219684651
 20
-76.793190325741875
 30
0.0
 11
-55.999999999999986
 21
-76.793190325741875
 31
0.0
  0
LINE
  8
0
  6
CONTINUOUS
 62
               3
  5
1A9
 10
-433.00000000000006
 20
-20.999999999993179
 30
0.0
 11
-444.0
 21
-76.300734413377711
 31
0.0
  0
LINE
  8
0
  6
CONTINUOUS
 62
               3
  5
1AA
 10
-567.0
 20
-20.999999999993179
 30
0.0
 11
-556.0
 21
-76.300734413377711
 31
0.0
  0
LINE
  8
0
  6
CONTINUOUS
 62
               3
  5
1AB
 10
-556.0
 20
-76.300734413377711
 30
0.0
 11
-444.0
 21
-76.300734413377711
 31
0.0
  0
LINE
  8
0
  6
CONTINUOUS
 62
               3
  5
1AC
 10
445.49878165403686
 20
-482.49999999999994
 30
0.0
 11
443.50000000000011
 21
-480.56979899340485
 31
0.0
  0
LINE
  8
0
  6
CONTINUOUS
 62
               3
  5
1AD
 10
554.50121834596337
 20
-482.49999999999989
 30
0.0
 11
556.50000000000011
 21
-480.56979899340479
 31
0.0
  0
LINE
  8
0
  6
CONTINUOUS
 62
               3
  5
1AE
 10
445.49878165403686
 20
-482.49999999999994
 30
0.0
 11
554.50121834596337
 21
-482.49999999999989
 31
0.0
  0
LINE
  8
0
  6
CONTINUOUS
 62
               3
  5
1AF
 10
556.5
 20
-182.49999999999991
 30
0.0
 11
443.50000000000011
 21
-182.49999999999991
 31
0.0
  0
LINE
  8
0
  6
CONTINUOUS
 62
               3
  5
1B0
 10
556.5
 20
-182.49999999999991
 30
0.0
 11
556.50000000000011
 21
-480.56979899340479
 31
0.0
  0
LINE
  8
0
  6
CONTINUOUS
 62
               3
  5
1B1
 10
443.50000000000011
 20
-182.49999999999991
 30
0.0
 11
443.50000000000011
 21
-480.56979899340485
 31
0.0
  0
LINE
  8
0
  6
CONTINUOUS
 62
               3
  5
1B2
 10
443.49999978031542
 20
-182.50000021968449
 30
0.0
 11
443.99999978031553
 21
-182.00000021968449
 31
0.0
  0
LINE
  8
0
  6
CONTINUOUS
 62
               3
  5
1B3
 10
556.50000021968469
 20
-182.50000021968449
 30
0.0
 11
556.00000021968458
 21
-182.00000021968449
 31
0.0
  0
LINE
  8
0
  6
CONTINUOUS
 62
               3
  5
1B4
 10
556.0
 20
-76.300734413377626
 30
0.0
 11
556.0
 21
-181.99999999999986
 31
0.0
  0
LINE
  8
0
  6
CONTINUOUS
 62
               3
  5
1B5
 10
444.00000000000006
 20
-76.30073441337764
 30
0.0
 11
444.00000000000011
 21
-181.99999999999986
 31
0.0
  0
LINE
  8
0
  6
CONTINUOUS
 62
               3
  5
1B6
 10
443.99999978031553
 20
-182.00000021968449
 30
0.0
 11
556.0
 21
-182.00000021968449
 31
0.0
  0
LINE
  8
0
  6
CONTINUOUS
 62
               3
  5
1B7
 10
575.0
 20
182.50000000000003
 30
0.0
 11
425.0
 21
182.5
 31
0.0
  0
LINE
  8
0
  6
CONTINUOUS
 62
               3
  5
1B8
 10
425.00000000000006
 20
165.49999999999989
 30
0.0
 11
425.0
 21
182.5
 31
0.0
  0
LINE
  8
0
  6
CONTINUOUS
 62
               3
  5
1B9
 10
425.00000000000006
 20
165.49999999999989
 30
0.0
 11
575.0
 21
165.49999999999991
 31
0.0
  0
LINE
  8
0
  6
CONTINUOUS
 62
               3
  5
1BA
 10
575.0
 20
165.49999999999991
 30
0.0
 11
575.0
 21
182.50000000000003
 31
0.0
  0
LINE
  8
0
  6
CONTINUOUS
 62
               3
  5
1BB
 10
428.00000000000006
 20
160.91742430504416
 30
0.0
 11
428.00000000000051
 21
101.46629794778811
 31
0.0
  0
LINE
  8
0
  6
CONTINUOUS
 62
               3
  5
1BC
 10
571.99999999999955
 20
101.46629794778812
 30
0.0
 11
572.0
 21
160.91742430504419
 31
0.0
  0
ARC
  8
0
  6
CONTINUOUS
 62
               3
  5
1BD
 10
423.00000000000006
 20
160.91742430504416
 30
0.0
 40
5.0
 50
0.0000000000000092
 51
66.421821521796772
  0
ARC
  8
0
  6
CONTINUOUS
 62
               3
  5
1BE
 10
577.0
 20
160.91742430504419
 30
0.0
 40
5.0
 50
113.57817847820286
 51
179.9999999999996
  0
LINE
  8
0
  6
CONTINUOUS
 62
               3
  5
1BF
 10
433.00000000000006
 20
-21.000000000000071
 30
0.0
 11
433.00000000000142
 21
87.864827439051382
 31
0.0
  0
LINE
  8
0
  6
CONTINUOUS
 62
               3
  5
1C0
 10
566.99999999999864
 20
87.864827439051396
 30
0.0
 11
567.0
 21
-21.00000000000005
 31
0.0
  0
ARC
  8
0
  6
CONTINUOUS
 62
               3
  5
1C1
 10
439.00000000000051
 20
101.46629794778811
 30
0.0
 40
11.0
 50
179.9999999999996
 51
220.36759354418928
  0
ARC
  8
0
  6
CONTINUOUS
 62
               3
  5
1C2
 10
423.00000000000142
 20
87.864827439051382
 30
0.0
 40
10.0
 50
359.9999999999992
 51
400.36759354418854
  0
ARC
  8
0
  6
CONTINUOUS
 62
               3
  5
1C3
 10
560.99999999999955
 20
101.46629794778812
 30
0.0
 40
11.0
 50
319.63240645580953
 51
359.9999999999992
  0
ARC
  8
0
  6
CONTINUOUS
 62
               3
  5
1C4
 10
576.99999999999864
 20
87.86482743905141
 30
0.0
 40
10.0
 50
139.63240645581024
 51
179.99999999999963
  0
LINE
  8
0
  6
CONTINUOUS
 62
               3
  5
1C5
 10
433.00000000000011
 20
-20.999999999993108
 30
0.0
 11
444.00000000000006
 21
-76.30073441337764
 31
0.0
  0
LINE
  8
0
  6
CONTINUOUS
 62
               3
  5
1C6
 10
567.0
 20
-20.999999999993086
 30
0.0
 11
556.0
 21
-76.300734413377626
 31
0.0
  0
LINE
  8
0
  6
CONTINUOUS
 62
               3
  5
1C7
 10
556.0
 20
-76.300734413377626
 30
0.0
 11
444.00000000000006
 21
-76.30073441337764
 31
0.0
  0
CIRCLE
  8
0
  6
CONTINUOUS
 62
               3
  5
1C8
 10
0.0000000000002936
 20
403.00000000000006
 30
0.0
 40
59.0
  0
LINE
  8
0
  6
CONTINUOUS
 62
               3
  5
1C9
 10
-562.00000000000023
 20
-562.49999999999886
 30
0.0
 11
-562.00000000000023
 21
-547.49999999999977
 31
0.0
  0
LINE
  8
0
  6
CONTINUOUS
 62
               3
  5
1CA
 10
-565.0
 20
-562.49999999999886
 30
0.0
 11
-435.0
 21
-562.49999999999886
 31
0.0
  0
ARC
  8
0
  6
CONTINUOUS
 62
               3
  5
1CB
 10
-575.99999999999932
 20
-421.50000000000068
 30
0.0
 40
4.0
 50
89.999999999982236
 51
179.99999999996518
  0
LINE
  8
0
  6
CONTINUOUS
 62
               3
  5
1CC
 10
-579.99999999999932
 20
-421.49999999999829
 30
0.0
 11
-579.99999999999955
 21
-440.50000000000068
 31
0.0
  0
LINE
  8
0
  6
CONTINUOUS
 62
               3
  5
1CD
 10
-515.99999999999943
 20
-417.50000000000011
 30
0.0
 11
-575.99999999999943
 21
-417.50000000000068
 31
0.0
  0
LINE
  8
0
  6
CONTINUOUS
 62
               3
  5
1CE
 10
-515.99999999999943
 20
-548.49999999999875
 30
0.0
 11
-483.99999999999892
 21
-548.49999999999829
 31
0.0
  0
ARC
  8
0
  6
CONTINUOUS
 62
               3
  5
1CF
 10
-575.99999999999909
 20
-543.49999999999977
 30
0.0
 40
4.0
 50
179.99999999996601
 51
269.99999999994901
  0
LINE
  8
0
  6
CONTINUOUS
 62
               3
  5
1D0
 10
-579.99999999999909
 20
-543.49999999999977
 30
0.0
 11
-579.99999999999909
 21
-524.99999999999955
 31
0.0
  0
LINE
  8
0
  6
CONTINUOUS
 62
               3
  5
1D1
 10
-515.99999999999943
 20
-547.49999999999909
 30
0.0
 11
-576.00000000000261
 21
-547.49999999999977
 31
0.0
  0
LINE
  8
0
  6
CONTINUOUS
 62
               3
  5
1D2
 10
-515.99999999999943
 20
-524.99999999999898
 30
0.0
 11
-579.99999999999909
 21
-524.99999999999955
 31
0.0
  0
LINE
  8
0
  6
CONTINUOUS
 62
               3
  5
1D3
 10
-579.99999999999955
 20
-440.50000000000068
 30
0.0
 11
-515.99999999999943
 21
-440.50000000000068
 31
0.0
  0
LINE
  8
0
  6
CONTINUOUS
 62
               3
  5
1D4
 10
-576.99999999999955
 20
-440.50000000000068
 30
0.0
 11
-577.00000000000023
 21
-524.99999999999955
 31
0.0
  0
LINE
  8
0
  6
CONTINUOUS
 62
               3
  5
1D5
 10
-483.99999999999943
 20
-417.50000000000011
 30
0.0
 11
-420.99999999999966
 21
-417.50000000000068
 31
0.0
  0
LINE
  8
0
  6
CONTINUOUS
 62
               3
  5
1D6
 10
-483.99999999999892
 20
-547.49999999999909
 30
0.0
 11
-424.00000000000097
 21
-547.49999999999977
 31
0.0
  0
LINE
  8
0
  6
CONTINUOUS
 62
               3
  5
1D7
 10
-483.99999999999892
 20
-524.99999999999909
 30
0.0
 11
-420.00000000000085
 21
-524.99999999999955
 31
0.0
  0
LINE
  8
0
  6
CONTINUOUS
 62
               3
  5
1D8
 10
-419.99999999999943
 20
-440.50000000000068
 30
0.0
 11
-483.99999999999943
 21
-440.50000000000068
 31
0.0
  0
LINE
  8
0
  6
CONTINUOUS
 62
               3
  5
1D9
 10
-438.00000000000011
 20
-562.49999999999886
 30
0.0
 11
-438.00000000000011
 21
-547.49999999999977
 31
0.0
  0
LINE
  8
0
  6
CONTINUOUS
 62
               3
  5
1DA
 10
-515.99999999999943
 20
-416.50000000000068
 30
0.0
 11
-515.99999999999943
 21
-548.49999999999875
 31
0.0
  0
LINE
  8
0
  6
CONTINUOUS
 62
               3
  5
1DB
 10
-483.99999999999892
 20
-548.49999999999829
 30
0.0
 11
-483.99999999999943
 21
-416.50000000000068
 31
0.0
  0
LINE
  8
0
  6
CONTINUOUS
 62
               3
  5
1DC
 10
-516.0
 20
-416.50000000000068
 30
0.0
 11
-484.0
 21
-416.50000000000068
 31
0.0
  0
LINE
  8
0
  6
CONTINUOUS
 62
               3
  5
1DD
 10
-515.99999999999943
 20
-483.49999999999955
 30
0.0
 11
-483.99999999999892
 21
-483.49999999999955
 31
0.0
  0
LINE
  8
0
  6
CONTINUOUS
 62
               3
  5
1DE
 10
-515.99999999999943
 20
-482.49999999999977
 30
0.0
 11
-483.99999999999892
 21
-482.49999999999977
 31
0.0
  0
LINE
  8
0
  6
CONTINUOUS
 62
               3
  5
1DF
 10
-515.99999999999943
 20
-484.49999999999977
 30
0.0
 11
-483.99999999999892
 21
-484.49999999999977
 31
0.0
  0
ARC
  8
0
  6
CONTINUOUS
 62
               3
  5
1E0
 10
-424.00000000000063
 20
-421.50000000000068
 30
0.0
 40
4.0
 50
0.0000000000344079
 51
90.000000000017366
  0
LINE
  8
0
  6
CONTINUOUS
 62
               3
  5
1E1
 10
-420.00000000000063
 20
-421.49999999999829
 30
0.0
 11
-420.0000000000004
 21
-440.50000000000068
 31
0.0
  0
ARC
  8
0
  6
CONTINUOUS
 62
               3
  5
1E2
 10
-424.00000000000091
 20
-543.49999999999977
 30
0.0
 40
4.0
 50
270.00000000004979
 51
360.0000000000328
  0
LINE
  8
0
  6
CONTINUOUS
 62
               3
  5
1E3
 10
-420.00000000000085
 20
-543.49999999999977
 30
0.0
 11
-420.00000000000097
 21
-524.99999999999955
 31
0.0
  0
LINE
  8
0
  6
CONTINUOUS
 62
               3
  5
1E4
 10
-423.0000000000004
 20
-440.50000000000068
 30
0.0
 11
-422.99999999999983
 21
-524.99999999999955
 31
0.0
  0
LINE
  8
0
  6
CONTINUOUS
 62
               3
  5
1E5
 10
437.99999999999795
 20
-562.49999999999875
 30
0.0
 11
437.99999999999795
 21
-547.49999999999966
 31
0.0
  0
LINE
  8
0
  6
CONTINUOUS
 62
               3
  5
1E6
 10
434.99999999999807
 20
-562.49999999999875
 30
0.0
 11
564.99999999999807
 21
-562.49999999999875
 31
0.0
  0
LINE
  8
0
  6
CONTINUOUS
 62
               3
  5
1E7
 10
483.99999999999864
 20
-548.49999999999864
 30
0.0
 11
515.99999999999909
 21
-548.49999999999818
 31
0.0
  0
ARC
  8
0
  6
CONTINUOUS
 62
               3
  5
1E8
 10
423.99999999999898
 20
-543.49999999999966
 30
0.0
 40
4.0
 50
179.99999999996601
 51
269.99999999994901
  0
LINE
  8
0
  6
CONTINUOUS
 62
               3
  5
1E9
 10
419.99999999999886
 20
-543.49999999999966
 30
0.0
 11
419.99999999999909
 21
-524.99999999999943
 31
0.0
  0
LINE
  8
0
  6
CONTINUOUS
 62
               3
  5
1EA
 10
483.99999999999864
 20
-547.49999999999898
 30
0.0
 11
423.99999999999545
 21
-547.49999999999966
 31
0.0
  0
LINE
  8
0
  6
CONTINUOUS
 62
               3
  5
1EB
 10
483.99999999999864
 20
-524.99999999999886
 30
0.0
 11
419.99999999999886
 21
-524.99999999999943
 31
0.0
  0
LINE
  8
0
  6
CONTINUOUS
 62
               3
  5
1EC
 10
515.99999999999909
 20
-547.49999999999898
 30
0.0
 11
575.99999999999704
 21
-547.49999999999966
 31
0.0
  0
LINE
  8
0
  6
CONTINUOUS
 62
               3
  5
1ED
 10
515.99999999999909
 20
-524.99999999999898
 30
0.0
 11
579.99999999999727
 21
-524.99999999999943
 31
0.0
  0
LINE
  8
0
  6
CONTINUOUS
 62
               3
  5
1EE
 10
561.99999999999795
 20
-562.49999999999875
 30
0.0
 11
561.99999999999795
 21
-547.49999999999966
 31
0.0
  0
ARC
  8
0
  6
CONTINUOUS
 62
               3
  5
1EF
 10
575.99999999999716
 20
-543.49999999999966
 30
0.0
 40
4.0
 50
270.00000000004979
 51
360.0000000000328
  0
LINE
  8
0
  6
CONTINUOUS
 62
               3
  5
1F0
 10
579.99999999999727
 20
-543.49999999999966
 30
0.0
 11
579.99999999999704
 21
-524.99999999999943
 31
0.0
  0
LINE
  8
0
  6
CONTINUOUS
 62
               3
  5
1F1
 10
483.99999999999864
 20
-416.50000000000057
 30
0.0
 11
483.99999999999864
 21
-548.49999999999864
 31
0.0
  0
LINE
  8
0
  6
CONTINUOUS
 62
               3
  5
1F2
 10
515.99999999999909
 20
-548.49999999999818
 30
0.0
 11
515.99999999999864
 21
-416.50000000000057
 31
0.0
  0
LINE
  8
0
  6
CONTINUOUS
 62
               3
  5
1F3
 10
483.99999999999807
 20
-416.50000000000057
 30
0.0
 11
515.99999999999807
 21
-416.50000000000057
 31
0.0
  0
LINE
  8
0
  6
CONTINUOUS
 62
               3
  5
1F4
 10
483.99999999999864
 20
-483.49999999999943
 30
0.0
 11
515.99999999999909
 21
-483.49999999999943
 31
0.0
  0
LINE
  8
0
  6
CONTINUOUS
 62
               3
  5
1F5
 10
483.99999999999864
 20
-484.49999999999966
 30
0.0
 11
515.99999999999909
 21
-484.49999999999966
 31
0.0
  0
LINE
  8
0
  6
CONTINUOUS
 62
               3
  5
1F6
 10
562.99999999999739
 20
-417.49999999999989
 30
0.0
 11
436.99999999999989
 21
-417.49999999999989
 31
0.0
  0
LINE
  8
0
  6
CONTINUOUS
 62
               3
  5
1F7
 10
443.49999999999881
 20
-432.49999999999989
 30
0.0
 11
556.49999999999886
 21
-432.49999999999989
 31
0.0
  0
ARC
  8
0
  6
CONTINUOUS
 62
               3
  5
1F8
 10
423.99999999999864
 20
-421.50000000000057
 30
0.0
 40
4.0
 50
89.999999999982236
 51
179.99999999996518
  0
LINE
  8
0
  6
CONTINUOUS
 62
               3
  5
1F9
 10
419.99999999999864
 20
-421.49999999999818
 30
0.0
 11
419.99999999999841
 21
-440.50000000000057
 31
0.0
  0
LINE
  8
0
  6
CONTINUOUS
 62
               3
  5
1FA
 10
483.99999999999864
 20
-417.5
 30
0.0
 11
423.99999999999864
 21
-417.50000000000057
 31
0.0
  0
LINE
  8
0
  6
CONTINUOUS
 62
               3
  5
1FB
 10
419.99999999999841
 20
-440.50000000000057
 30
0.0
 11
483.99999999999864
 21
-440.50000000000057
 31
0.0
  0
LINE
  8
0
  6
CONTINUOUS
 62
               3
  5
1FC
 10
515.99999999999864
 20
-417.5
 30
0.0
 11
578.99999999999841
 21
-417.50000000000057
 31
0.0
  0
LINE
  8
0
  6
CONTINUOUS
 62
               3
  5
1FD
 10
579.99999999999864
 20
-440.50000000000057
 30
0.0
 11
515.99999999999864
 21
-440.50000000000057
 31
0.0
  0
ARC
  8
0
  6
CONTINUOUS
 62
               3
  5
1FE
 10
575.9999999999975
 20
-421.50000000000057
 30
0.0
 40
4.0
 50
0.0000000000344079
 51
90.000000000017366
  0
LINE
  8
0
  6
CONTINUOUS
 62
               3
  5
1FF
 10
579.9999999999975
 20
-421.49999999999818
 30
0.0
 11
579.99999999999773
 21
-440.50000000000057
 31
0.0
  0
LINE
  8
0
  6
CONTINUOUS
 62
               3
  5
200
 10
422.99999999999841
 20
-440.50000000000057
 30
0.0
 11
422.99999999999795
 21
-524.99999999999943
 31
0.0
  0
LINE
  8
0
  6
CONTINUOUS
 62
               3
  5
201
 10
576.99999999999773
 20
-440.50000000000057
 30
0.0
 11
576.99999999999818
 21
-524.99999999999943
 31
0.0
  0
LINE
  8
0
  6
CONTINUOUS
 62
               3
  5
202
 10
-62.000000000000739
 20
-562.49999999999886
 30
0.0
 11
-62.000000000000739
 21
-547.49999999999977
 31
0.0
  0
LINE
  8
0
  6
CONTINUOUS
 62
               3
  5
203
 10
-65.000000000000568
 20
-562.49999999999886
 30
0.0
 11
64.999999999999403
 21
-562.49999999999886
 31
0.0
  0
LINE
  8
0
  6
CONTINUOUS
 62
               3
  5
204
 10
-64.999999999999574
 20
-548.49999999999955
 30
0.0
 11
-78.999999999999488
 21
-548.49999999999977
 31
0.0
  0
ARC
  8
0
  6
CONTINUOUS
 62
               3
  5
205
 10
-78.999999999999488
 20
-546.49999999999977
 30
0.0
 40
1.0000000000000004
 50
179.99999999996601
 51
269.99999999994748
  0
ARC
  8
0
  6
CONTINUOUS
 62
               3
  5
206
 10
-78.999999999999488
 20
-546.49999999999977
 30
0.0
 40
1.9999999999999996
 50
179.99999999996601
 51
269.99999999994901
  0
ARC
  8
0
  6
CONTINUOUS
 62
               3
  5
207
 10
-75.999999999999659
 20
-543.49999999999977
 30
0.0
 40
4.0
 50
179.99999999996601
 51
269.99999999994901
  0
LINE
  8
0
  6
CONTINUOUS
 62
               3
  5
208
 10
-64.999999999999574
 20
-548.49999999999955
 30
0.0
 11
-64.999999999999574
 21
-547.49999999999977
 31
0.0
  0
LINE
  8
0
  6
CONTINUOUS
 62
               3
  5
209
 10
-0.0000000000005702
 20
-547.49999999999886
 30
0.0
 11
-78.999999999999488
 21
-547.49999999999977
 31
0.0
  0
LINE
  8
0
  6
CONTINUOUS
 62
               3
  5
20A
 10
-0.0000000000005702
 20
-524.99999999999886
 30
0.0
 11
-79.999999999999716
 21
-524.99999999999955
 31
0.0
  0
LINE
  8
0
  6
CONTINUOUS
 62
               3
  5
20B
 10
64.999999999998266
 20
-548.49999999999955
 30
0.0
 11
78.999999999998323
 21
-548.49999999999977
 31
0.0
  0
ARC
  8
0
  6
CONTINUOUS
 62
               3
  5
20C
 10
78.999999999998323
 20
-546.49999999999977
 30
0.0
 40
1.0000000000000004
 50
270.00000000005133
 51
360.0000000000328
  0
ARC
  8
0
  6
CONTINUOUS
 62
               3
  5
20D
 10
78.999999999998323
 20
-546.49999999999977
 30
0.0
 40
1.9999999999999996
 50
270.00000000004979
 51
360.0000000000328
  0
ARC
  8
0
  6
CONTINUOUS
 62
               3
  5
20E
 10
75.99999999999838
 20
-543.49999999999977
 30
0.0
 40
4.0
 50
270.00000000004979
 51
360.0000000000328
  0
LINE
  8
0
  6
CONTINUOUS
 62
               3
  5
20F
 10
64.999999999998266
 20
-548.49999999999955
 30
0.0
 11
64.999999999998266
 21
-547.49999999999977
 31
0.0
  0
LINE
  8
0
  6
CONTINUOUS
 62
               3
  5
210
 10
-0.0000000000005702
 20
-547.49999999999886
 30
0.0
 11
78.999999999998323
 21
-547.49999999999977
 31
0.0
  0
LINE
  8
0
  6
CONTINUOUS
 62
               3
  5
211
 10
-0.0000000000005702
 20
-524.99999999999886
 30
0.0
 11
79.99999999999855
 21
-524.99999999999955
 31
0.0
  0
LINE
  8
0
  6
CONTINUOUS
 62
               3
  5
212
 10
61.999999999999318
 20
-562.49999999999886
 30
0.0
 11
61.999999999999318
 21
-547.49999999999977
 31
0.0
  0
ARC
  8
0
  6
CONTINUOUS
 62
               3
  5
213
 10
-75.999999999999943
 20
-421.50000000000063
 30
0.0
 40
4.0
 50
89.999999999982236
 51
179.99999999996518
  0
ARC
  8
0
  6
CONTINUOUS
 62
               3
  5
214
 10
-78.999999999999915
 20
-418.50000000000063
 30
0.0
 40
1.0000000000000004
 50
89.999999999981483
 51
179.99999999996524
  0
ARC
  8
0
  6
CONTINUOUS
 62
               3
  5
215
 10
-78.999999999999915
 20
-418.50000000000063
 30
0.0
 40
1.9999999999999996
 50
89.999999999983004
 51
179.99999999996524
  0
LINE
  8
0
  6
CONTINUOUS
 62
               3
  5
216
 10
-80.999999999999943
 20
-418.50000000000063
 30
0.0
 11
-81.000000000000512
 21
-481.49999999999949
 31
0.0
  0
LINE
  8
0
  6
CONTINUOUS
 62
               3
  5
217
 10
-80.000000000000142
 20
-418.50000000000063
 30
0.0
 11
-80.000000000000711
 21
-481.49999999999949
 31
0.0
  0
ARC
  8
0
  6
CONTINUOUS
 62
               3
  5
218
 10
-82.000000000000455
 20
-481.49999999999949
 30
0.0
 40
1.9999999999999996
 50
269.99999999994748
 51
359.99999999993048
  0
ARC
  8
0
  6
CONTINUOUS
 62
               3
  5
219
 10
-82.000000000000455
 20
-481.49999999999949
 30
0.0
 40
1.0000000000000004
 50
269.99999999994748
 51
359.99999999993048
  0
LINE
  8
0
  6
CONTINUOUS
 62
               3
  5
21A
 10
-82.000000000000455
 20
-483.49999999999949
 30
0.0
 11
-145.00000000000057
 21
-483.49999999999994
 31
0.0
  0
LINE
  8
0
  6
CONTINUOUS
 62
               3
  5
21B
 10
-82.000000000000455
 20
-482.49999999999949
 30
0.0
 11
-145.00000000000057
 21
-482.49999999999994
 31
0.0
  0
LINE
  8
0
  6
CONTINUOUS
 62
               3
  5
21C
 10
-80.999999999999659
 20
-546.49999999999977
 30
0.0
 11
-81.000000000000512
 21
-485.49999999999949
 31
0.0
  0
LINE
  8
0
  6
CONTINUOUS
 62
               3
  5
21D
 10
-79.999999999999574
 20
-546.49999999999977
 30
0.0
 11
-80.000000000000568
 21
-485.49999999999949
 31
0.0
  0
ARC
  8
0
  6
CONTINUOUS
 62
               3
  5
21E
 10
-82.000000000000455
 20
-485.49999999999949
 30
0.0
 40
1.9999999999999996
 50
0.000000000001145
 51
89.999999999983004
  0
ARC
  8
0
  6
CONTINUOUS
 62
               3
  5
21F
 10
-82.000000000000455
 20
-485.49999999999949
 30
0.0
 40
1.0000000000000004
 50
0.0000000000007633
 51
89.999999999984539
  0
LINE
  8
0
  6
CONTINUOUS
 62
               3
  5
220
 10
-82.000000000000455
 20
-484.49999999999949
 30
0.0
 11
-145.00000000000057
 21
-484.49999999999994
 31
0.0
  0
LINE
  8
0
  6
CONTINUOUS
 62
               3
  5
221
 10
-77.000000000000171
 20
-440.50000000000063
 30
0.0
 11
-77.000000000000739
 21
-524.99999999999955
 31
0.0
  0
LINE
  8
0
  6
CONTINUOUS
 62
               3
  5
222
 10
-145.00000000000057
 20
-482.49999999999994
 30
0.0
 11
-145.00000000000057
 21
-483.49999999999994
 31
0.0
  0
LINE
  8
0
  6
CONTINUOUS
 62
               3
  5
223
 10
-145.00000000000057
 20
-484.49999999999994
 30
0.0
 11
-145.00000000000057
 21
-483.49999999999994
 31
0.0
  0
LINE
  8
0
  6
CONTINUOUS
 62
               3
  5
224
 10
-87.250000000000512
 20
-480.99999999999949
 30
0.0
 11
-94.750000000000512
 21
-480.99999999999949
 31
0.0
  0
LINE
  8
0
  6
CONTINUOUS
 62
               3
  5
225
 10
-87.250000000000512
 20
-485.99999999999949
 30
0.0
 11
-94.750000000000512
 21
-485.99999999999972
 31
0.0
  0
LINE
  8
0
  6
CONTINUOUS
 62
               3
  5
226
 10
-87.250000000000512
 20
-480.99999999999949
 30
0.0
 11
-87.250000000000512
 21
-482.49999999999949
 31
0.0
  0
LINE
  8
0
  6
CONTINUOUS
 62
               3
  5
227
 10
-87.250000000000512
 20
-484.49999999999949
 30
0.0
 11
-87.250000000000512
 21
-485.99999999999949
 31
0.0
  0
LINE
  8
0
  6
CONTINUOUS
 62
               3
  5
228
 10
-94.750000000000512
 20
-480.99999999999949
 30
0.0
 11
-94.750000000000512
 21
-482.49999999999949
 31
0.0
  0
LINE
  8
0
  6
CONTINUOUS
 62
               3
  5
229
 10
-94.750000000000512
 20
-484.49999999999972
 30
0.0
 11
-94.750000000000512
 21
-485.99999999999972
 31
0.0
  0
LINE
  8
0
  6
CONTINUOUS
 62
               3
  5
22A
 10
-62.999999999998764
 20
-417.49999999999994
 30
0.0
 11
62.999999999998764
 21
-417.49999999999994
 31
0.0
  0
LINE
  8
0
  6
CONTINUOUS
 62
               3
  5
22B
 10
-65.000000000000142
 20
-416.50000000000063
 30
0.0
 11
-78.999999999999915
 21
-416.50000000000063
 31
0.0
  0
LINE
  8
0
  6
CONTINUOUS
 62
               3
  5
22C
 10
-0.0000000000000018
 20
-417.49999999999994
 30
0.0
 11
-78.999999999999915
 21
-417.50000000000063
 31
0.0
  0
LINE
  8
0
  6
CONTINUOUS
 62
               3
  5
22D
 10
-65.000000000000142
 20
-416.50000000000063
 30
0.0
 11
-65.000000000000142
 21
-417.50000000000051
 31
0.0
  0
LINE
  8
0
  6
CONTINUOUS
 62
               3
  5
22E
 10
-80.000000000000142
 20
-440.50000000000063
 30
0.0
 11
-0.0000000000000018
 21
-440.50000000000063
 31
0.0
  0
ARC
  8
0
  6
CONTINUOUS
 62
               3
  5
22F
 10
75.999999999999801
 20
-421.50000000000063
 30
0.0
 40
4.0
 50
0.0000000000344079
 51
90.000000000017366
  0
ARC
  8
0
  6
CONTINUOUS
 62
               3
  5
230
 10
78.999999999999744
 20
-418.50000000000063
 30
0.0
 40
1.0000000000000004
 50
0.000000000034357
 51
90.000000000018133
  0
ARC
  8
0
  6
CONTINUOUS
 62
               3
  5
231
 10
78.999999999999744
 20
-418.50000000000063
 30
0.0
 40
1.9999999999999996
 50
0.000000000034357
 51
90.000000000016598
  0
LINE
  8
0
  6
CONTINUOUS
 62
               3
  5
232
 10
64.999999999999972
 20
-416.50000000000063
 30
0.0
 11
78.999999999999744
 21
-416.50000000000063
 31
0.0
  0
LINE
  8
0
  6
CONTINUOUS
 62
               3
  5
233
 10
-0.0000000000000018
 20
-417.49999999999994
 30
0.0
 11
78.999999999999744
 21
-417.50000000000063
 31
0.0
  0
LINE
  8
0
  6
CONTINUOUS
 62
               3
  5
234
 10
64.999999999999972
 20
-416.50000000000063
 30
0.0
 11
64.999999999999972
 21
-417.50000000000051
 31
0.0
  0
LINE
  8
0
  6
CONTINUOUS
 62
               3
  5
235
 10
79.999999999999972
 20
-440.50000000000063
 30
0.0
 11
-0.0000000000000018
 21
-440.50000000000063
 31
0.0
  0
LINE
  8
0
  6
CONTINUOUS
 62
               3
  5
236
 10
144.9999999999994
 20
-482.49999999999994
 30
0.0
 11
144.9999999999994
 21
-483.49999999999994
 31
0.0
  0
LINE
  8
0
  6
CONTINUOUS
 62
               3
  5
237
 10
144.9999999999994
 20
-484.49999999999994
 30
0.0
 11
144.9999999999994
 21
-483.49999999999994
 31
0.0
  0
ARC
  8
0
  6
CONTINUOUS
 62
               3
  5
238
 10
75.999999999999801
 20
-421.50000000000063
 30
0.0
 40
4.0
 50
0.0000000000344079
 51
90.000000000017366
  0
ARC
  8
0
  6
CONTINUOUS
 62
               3
  5
239
 10
78.999999999999744
 20
-418.50000000000063
 30
0.0
 40
1.0000000000000004
 50
0.000000000034357
 51
90.000000000018133
  0
ARC
  8
0
  6
CONTINUOUS
 62
               3
  5
23A
 10
78.999999999999744
 20
-418.50000000000063
 30
0.0
 40
1.9999999999999996
 50
0.000000000034357
 51
90.000000000016598
  0
LINE
  8
0
  6
CONTINUOUS
 62
               3
  5
23B
 10
80.999999999999801
 20
-418.50000000000063
 30
0.0
 11
80.999999999999233
 21
-481.49999999999949
 31
0.0
  0
LINE
  8
0
  6
CONTINUOUS
 62
               3
  5
23C
 10
79.999999999999972
 20
-418.50000000000063
 30
0.0
 11
79.999999999999403
 21
-481.49999999999949
 31
0.0
  0
ARC
  8
0
  6
CONTINUOUS
 62
               3
  5
23D
 10
81.999999999999289
 20
-481.49999999999949
 30
0.0
 40
1.9999999999999996
 50
180.0000000000683
 51
270.00000000005133
  0
ARC
  8
0
  6
CONTINUOUS
 62
               3
  5
23E
 10
81.999999999999289
 20
-481.49999999999949
 30
0.0
 40
1.0000000000000004
 50
180.0000000000683
 51
270.00000000005133
  0
LINE
  8
0
  6
CONTINUOUS
 62
               3
  5
23F
 10
81.999999999999289
 20
-483.49999999999949
 30
0.0
 11
144.9999999999994
 21
-483.49999999999994
 31
0.0
  0
LINE
  8
0
  6
CONTINUOUS
 62
               3
  5
240
 10
81.999999999999289
 20
-482.49999999999949
 30
0.0
 11
144.9999999999994
 21
-482.49999999999994
 31
0.0
  0
ARC
  8
0
  6
CONTINUOUS
 62
               3
  5
241
 10
78.999999999998323
 20
-546.49999999999977
 30
0.0
 40
1.0000000000000004
 50
270.00000000005133
 51
360.0000000000328
  0
ARC
  8
0
  6
CONTINUOUS
 62
               3
  5
242
 10
78.999999999998323
 20
-546.49999999999977
 30
0.0
 40
1.9999999999999996
 50
270.00000000004979
 51
360.0000000000328
  0
ARC
  8
0
  6
CONTINUOUS
 62
               3
  5
243
 10
75.99999999999838
 20
-543.49999999999977
 30
0.0
 40
4.0
 50
270.00000000004979
 51
360.0000000000328
  0
LINE
  8
0
  6
CONTINUOUS
 62
               3
  5
244
 10
80.999999999998209
 20
-546.49999999999977
 30
0.0
 11
80.999999999999233
 21
-485.49999999999949
 31
0.0
  0
LINE
  8
0
  6
CONTINUOUS
 62
               3
  5
245
 10
79.999999999998266
 20
-546.49999999999977
 30
0.0
 11
79.999999999999289
 21
-485.49999999999949
 31
0.0
  0
ARC
  8
0
  6
CONTINUOUS
 62
               3
  5
246
 10
81.999999999999289
 20
-485.49999999999949
 30
0.0
 40
1.9999999999999996
 50
90.000000000016598
 51
179.99999999999847
  0
ARC
  8
0
  6
CONTINUOUS
 62
               3
  5
247
 10
81.999999999999289
 20
-485.49999999999949
 30
0.0
 40
1.0000000000000004
 50
90.000000000015078
 51
179.99999999999883
  0
LINE
  8
0
  6
CONTINUOUS
 62
               3
  5
248
 10
81.999999999999289
 20
-484.49999999999949
 30
0.0
 11
144.9999999999994
 21
-484.49999999999994
 31
0.0
  0
LINE
  8
0
  6
CONTINUOUS
 62
               3
  5
249
 10
76.999999999999858
 20
-440.50000000000063
 30
0.0
 11
76.999999999999289
 21
-524.99999999999955
 31
0.0
  0
LINE
  8
0
  6
CONTINUOUS
 62
               3
  5
24A
 10
144.9999999999994
 20
-482.49999999999994
 30
0.0
 11
144.9999999999994
 21
-483.49999999999994
 31
0.0
  0
LINE
  8
0
  6
CONTINUOUS
 62
               3
  5
24B
 10
144.9999999999994
 20
-484.49999999999994
 30
0.0
 11
144.9999999999994
 21
-483.49999999999994
 31
0.0
  0
LINE
  8
0
  6
CONTINUOUS
 62
               3
  5
24C
 10
87.249999999999233
 20
-480.99999999999949
 30
0.0
 11
94.749999999999233
 21
-480.99999999999949
 31
0.0
  0
LINE
  8
0
  6
CONTINUOUS
 62
               3
  5
24D
 10
87.249999999999233
 20
-485.99999999999949
 30
0.0
 11
94.749999999999233
 21
-485.99999999999972
 31
0.0
  0
LINE
  8
0
  6
CONTINUOUS
 62
               3
  5
24E
 10
87.249999999999233
 20
-480.99999999999949
 30
0.0
 11
87.249999999999233
 21
-482.49999999999949
 31
0.0
  0
LINE
  8
0
  6
CONTINUOUS
 62
               3
  5
24F
 10
87.249999999999233
 20
-484.49999999999949
 30
0.0
 11
87.249999999999233
 21
-485.99999999999949
 31
0.0
  0
LINE
  8
0
  6
CONTINUOUS
 62
               3
  5
250
 10
94.749999999999233
 20
-480.99999999999949
 30
0.0
 11
94.749999999999233
 21
-482.49999999999949
 31
0.0
  0
LINE
  8
0
  6
CONTINUOUS
 62
               3
  5
251
 10
94.749999999999233
 20
-484.49999999999972
 30
0.0
 11
94.749999999999233
 21
-485.99999999999972
 31
0.0
  0
CIRCLE
  8
0
  6
CONTINUOUS
 62
               3
  5
252
 10
609.28652321630807
 20
-1046.3568645130497
 30
0.0
 40
75.0
  0
CIRCLE
  8
0
  6
CONTINUOUS
 62
               3
  5
253
 10
609.28652321630807
 20
-1046.3568645130497
 30
0.0
 40
52.5
  0
LINE
  8
0
  6
CONTINUOUS
 62
               3
  5
254
 10
523.07602501568272
 20
-1026.3568645130497
 30
0.0
 11
537.00236174230258
 21
-1026.3568645130497
 31
0.0
  0
LINE
  8
0
  6
CONTINUOUS
 62
               3
  5
255
 10
537.00236174230258
 20
-1066.3568645130497
 30
0.0
 11
523.07602501568272
 21
-1066.3568645130497
 31
0.0
  0
ARC
  8
0
  6
CONTINUOUS
 62
               3
  5
256
 10
609.28652321630807
 20
-1046.3568645130497
 30
0.0
 40
88.5
 50
166.93897588507147
 51
193.06102411465253
  0
LINE
  8
0
  6
CONTINUOUS
 62
               3
  5
257
 10
589.28652321630807
 20
-1132.5673627136746
 30
0.0
 11
589.28652321630807
 21
-1118.6410259870547
 31
0.0
  0
LINE
  8
0
  6
CONTINUOUS
 62
               3
  5
258
 10
629.28652321630807
 20
-1118.6410259870547
 30
0.0
 11
629.28652321630807
 21
-1132.5673627136746
 31
0.0
  0
ARC
  8
0
  6
CONTINUOUS
 62
               3
  5
259
 10
609.28652321630807
 20
-1046.3568645130497
 30
0.0
 40
88.5
 50
256.93897588500261
 51
283.06102411458357
  0
LINE
  8
0
  6
CONTINUOUS
 62
               3
  5
25A
 10
695.49702141693274
 20
-1066.3568645130497
 30
0.0
 11
681.57068469031219
 21
-1066.3568645130497
 31
0.0
  0
LINE
  8
0
  6
CONTINUOUS
 62
               3
  5
25B
 10
681.57068469031219
 20
-1026.3568645130497
 30
0.0
 11
695.49702141693274
 21
-1026.3568645130497
 31
0.0
  0
ARC
  8
0
  6
CONTINUOUS
 62
               3
  5
25C
 10
609.28652321630807
 20
-1046.3568645130497
 30
0.0
 40
88.5
 50
346.93897588493354
 51
373.06102411451457
  0
LINE
  8
0
  6
CONTINUOUS
 62
               3
  5
25D
 10
629.28652321630807
 20
-960.14636631242411
 30
0.0
 11
629.28652321630807
 21
-974.07270303904465
 31
0.0
  0
LINE
  8
0
  6
CONTINUOUS
 62
               3
  5
25E
 10
589.28652321630807
 20
-974.07270303904465
 30
0.0
 11
589.28652321630807
 21
-960.14636631242411
 31
0.0
  0
ARC
  8
0
  6
CONTINUOUS
 62
               3
  5
25F
 10
609.28652321630807
 20
-1046.3568645130497
 30
0.0
 40
88.5
 50
76.938975885140493
 51
103.06102411472153
  0
LINE
  8
0
  6
CONTINUOUS
 62
               3
  5
260
 10
561.6183996954469
 20
-1068.3568645130501
 30
0.0
 11
656.95464673716788
 21
-1068.3568645130501
 31
0.0
  0
ARC
  8
0
  6
CONTINUOUS
 62
               3
  5
261
 10
621.7901348656892
 20
-1037.6504668854307
 30
0.0
 40
54.763804151667173
 50
141.3859176367296
 51
145.15009542084252
  0
ARC
  8
0
  6
CONTINUOUS
 62
               3
  5
262
 10
609.28652321630807
 20
-1046.3568645130497
 30
0.0
 40
51.5
 50
334.7109884732011
 51
410.95932736332554
  0
ARC
  8
0
  6
CONTINUOUS
 62
               3
  5
263
 10
609.28652321630807
 20
-1046.3568645130497
 30
0.0
 40
51.5
 50
129.04067263626098
 51
205.289011526385
  0
ARC
  8
0
  6
CONTINUOUS
 62
               3
  5
264
 10
609.28652321630807
 20
-1046.3568645130497
 30
0.0
 40
77.5
 50
104.95524831656299
 51
128.57288309093474
  0
ARC
  8
0
  6
CONTINUOUS
 62
               3
  5
265
 10
609.28652321630807
 20
-1046.3568645130497
 30
0.0
 40
77.5
 50
14.95524831663182
 51
75.044751683299182
  0
ARC
  8
0
  6
CONTINUOUS
 62
               3
  5
266
 10
609.28652321630807
 20
-1046.3568645130497
 30
0.0
 40
77.5
 50
321.42711690871977
 51
345.04475168309216
  0
LINE
  8
0
  6
CONTINUOUS
 62
               3
  5
267
 10
469.2865232163079
 20
-1101.3568645130497
 30
0.0
 11
469.95807934227213
 21
-1101.3568645130497
 31
0.0
  0
LINE
  8
0
  6
CONTINUOUS
 62
               3
  5
268
 10
472.45807934227258
 20
-1103.8568645130497
 30
0.0
 11
469.95807934227213
 21
-1101.3568645130497
 31
0.0
  0
LINE
  8
0
  6
CONTINUOUS
 62
               3
  5
269
 10
469.2865232163079
 20
-991.35686451304969
 30
0.0
 11
469.95807934227213
 21
-991.35686451304969
 31
0.0
  0
LINE
  8
0
  6
CONTINUOUS
 62
               3
  5
26A
 10
472.45807934227213
 20
-988.85686451304969
 30
0.0
 11
469.95807934227213
 21
-991.35686451304969
 31
0.0
  0
LINE
  8
0
  6
CONTINUOUS
 62
               3
  5
26B
 10
469.95807934227213
 20
-991.35686451304969
 30
0.0
 11
469.95807934227213
 21
-1101.3568645130497
 31
0.0
  0
LINE
  8
0
  6
CONTINUOUS
 62
               3
  5
26C
 10
563.79618742993011
 20
-985.66726749470808
 30
0.0
 11
472.45807934227213
 21
-988.85686451304969
 31
0.0
  0
LINE
  8
0
  6
CONTINUOUS
 62
               3
  5
26D
 10
544.45005149975691
 20
-1106.3708795780174
 30
0.0
 11
472.4580793422727
 21
-1103.8568645130497
 31
0.0
  0
LINE
  8
0
  6
CONTINUOUS
 62
               3
  5
26E
 10
464.2865232163079
 20
-991.5284206390138
 30
0.0
 11
464.2865232163079
 21
-1101.4568645130496
 31
0.0
  0
LINE
  8
0
  6
CONTINUOUS
 62
               3
  5
26F
 10
469.2865232163079
 20
-1103.9568645130496
 30
0.0
 11
469.2865232163079
 21
-988.75686451304955
 31
0.0
  0
LINE
  8
0
  6
CONTINUOUS
 62
               3
  5
270
 10
469.2865232163079
 20
-988.75686451304955
 30
0.0
 11
466.7865232163079
 21
-988.75686451304955
 31
0.0
  0
LINE
  8
0
  6
CONTINUOUS
 62
               3
  5
271
 10
469.2865232163079
 20
-1103.9568645130496
 30
0.0
 11
466.7865232163079
 21
-1103.9568645130496
 31
0.0
  0
ARC
  8
0
  6
CONTINUOUS
 62
               3
  5
272
 10
466.7865232163079
 20
-1101.4568645130496
 30
0.0
 40
2.5
 50
179.9999999998615
 51
269.99999999979229
  0
ARC
  8
0
  6
CONTINUOUS
 62
               3
  5
273
 10
466.7865232163079
 20
-991.25686451304955
 30
0.0
 40
2.5
 50
89.999999999932058
 51
179.9999999998615
  0
LINE
  8
0
  6
CONTINUOUS
 62
               3
  5
274
 10
576.84812004969035
 20
-1006.3568645130499
 30
0.0
 11
609.28652321630807
 21
-1006.3568645130499
 31
0.0
  0
LINE
  8
0
  6
CONTINUOUS
 62
               3
  5
275
 10
609.28652321630807
 20
-1006.3568645130499
 30
0.0
 11
643.29019948814675
 21
-1006.3568645130499
 31
0.0
  0
LINE
  8
0
  6
CONTINUOUS
 62
               3
  5
276
 10
472.45807934227258
 20
-1103.8568645130497
 30
0.0
 11
472.45807934227213
 21
-988.85686451304969
 31
0.0
  0
ARC
  8
0
  6
CONTINUOUS
 62
               3
  5
277
 10
563.62168994641752
 20
-980.67031335961246
 30
0.0
 40
5.0
 50
271.9999999997919
 51
304.80675787019305
  0
LINE
  8
0
  6
CONTINUOUS
 62
               3
  5
278
 10
664.28652321630784
 20
-1186.3568645130497
 30
0.0
 11
664.28652321630784
 21
-1185.6853083870853
 31
0.0
  0
LINE
  8
0
  6
CONTINUOUS
 62
               3
  5
279
 10
666.78652321630784
 20
-1183.1853083870849
 30
0.0
 11
664.28652321630784
 21
-1185.6853083870853
 31
0.0
  0
LINE
  8
0
  6
CONTINUOUS
 62
               3
  5
27A
 10
554.28652321630784
 20
-1186.3568645130497
 30
0.0
 11
554.28652321630784
 21
-1185.6853083870853
 31
0.0
  0
LINE
  8
0
  6
CONTINUOUS
 62
               3
  5
27B
 10
551.78652321630784
 20
-1183.1853083870853
 30
0.0
 11
554.28652321630784
 21
-1185.6853083870853
 31
0.0
  0
LINE
  8
0
  6
CONTINUOUS
 62
               3
  5
27C
 10
554.28652321630784
 20
-1185.6853083870853
 30
0.0
 11
664.28652321630784
 21
-1185.6853083870853
 31
0.0
  0
LINE
  8
0
  6
CONTINUOUS
 62
               3
  5
27D
 10
554.45807934227196
 20
-1191.3568645130497
 30
0.0
 11
664.38652321630798
 21
-1191.3568645130497
 31
0.0
  0
LINE
  8
0
  6
CONTINUOUS
 62
               3
  5
27E
 10
666.88652321630798
 20
-1186.3568645130497
 30
0.0
 11
551.68652321630793
 21
-1186.3568645130497
 31
0.0
  0
LINE
  8
0
  6
CONTINUOUS
 62
               3
  5
27F
 10
551.68652321630793
 20
-1186.3568645130497
 30
0.0
 11
551.68652321630793
 21
-1188.8568645130497
 31
0.0
  0
LINE
  8
0
  6
CONTINUOUS
 62
               3
  5
280
 10
666.88652321630798
 20
-1186.3568645130497
 30
0.0
 11
666.88652321630798
 21
-1188.8568645130497
 31
0.0
  0
ARC
  8
0
  6
CONTINUOUS
 62
               3
  5
281
 10
664.38652321630798
 20
-1188.8568645130497
 30
0.0
 40
2.5
 50
269.99999999979354
 51
359.999999999723
  0
ARC
  8
0
  6
CONTINUOUS
 62
               3
  5
282
 10
554.18652321630793
 20
-1188.8568645130497
 30
0.0
 40
2.5
 50
179.99999999985891
 51
269.99999999979354
  0
LINE
  8
0
  6
CONTINUOUS
 62
               3
  5
283
 10
666.78652321630784
 20
-1183.1853083870849
 30
0.0
 11
551.78652321630784
 21
-1183.1853083870853
 31
0.0
  0
LINE
  8
0
  6
CONTINUOUS
 62
               3
  5
284
 10
669.97612023464899
 20
-1091.8472002994279
 30
0.0
 11
666.78652321630784
 21
-1183.1853083870849
 31
0.0
  0
ARC
  8
0
  6
CONTINUOUS
 62
               3
  5
285
 10
674.97307436974461
 20
-1092.0216977829407
 30
0.0
 40
5.0
 50
145.19324212946151
 51
177.99999999986429
  0
LINE
  8
0
  6
CONTINUOUS
 62
               3
  5
286
 10
549.27250815133993
 20
-1111.1933362296006
 30
0.0
 11
551.78652321630784
 21
-1183.1853083870853
 31
0.0
  0
ARC
  8
0
  6
CONTINUOUS
 62
               3
  5
287
 10
544.27555401624454
 20
-1111.3678337131125
 30
0.0
 40
5.0
 50
1.9999999999958187
 51
87.999999999932285
  0
LINE
  8
0
  6
CONTINUOUS
 62
               3
  5
288
 10
534.28652321630807
 20
-1354.8562982616338
 30
0.0
 11
684.28652321630807
 21
-1354.8562982616338
 31
0.0
  0
LINE
  8
0
  6
CONTINUOUS
 62
               3
  5
289
 10
520.78652321630784
 20
-1364.8562982616338
 30
0.0
 11
520.78652321630784
 21
-1371.8562982616334
 31
0.0
  0
LINE
  8
0
  6
CONTINUOUS
 62
               3
  5
28A
 10
520.78652321630784
 20
-1364.8562982616338
 30
0.0
 11
534.28652321630807
 21
-1354.8562982616338
 31
0.0
  0
ARC
  8
0
  6
CONTINUOUS
 62
               3
  5
28B
 10
532.28652321630807
 20
-1376.4388739565891
 30
0.0
 40
4.9999999999999991
 50
0.0
 51
66.421821521747205
  0
LINE
  8
0
  6
CONTINUOUS
 62
               3
  5
28C
 10
520.78652321630784
 20
-1371.8562982616334
 30
0.0
 11
697.78652321630761
 21
-1371.8562982616334
 31
0.0
  0
ARC
  8
0
  6
CONTINUOUS
 62
               3
  5
28D
 10
554.28652321630807
 20
-1461.8562982616338
 30
0.0
 40
19.999999999999996
 50
148.2116693828344
 51
167.26981986155914
  0
LINE
  8
0
  6
CONTINUOUS
 62
               3
  5
28E
 10
537.28652321630807
 20
-1376.4388739565891
 30
0.0
 11
537.28652321630807
 21
-1451.320644508781
 31
0.0
  0
LINE
  8
0
  6
CONTINUOUS
 62
               3
  5
28F
 10
681.28652321630784
 20
-1446.3206445087806
 30
0.0
 11
681.28652321630784
 21
-1376.4388739565891
 31
0.0
  0
LINE
  8
0
  6
CONTINUOUS
 62
               3
  5
290
 10
537.28652321630807
 20
-1451.320644508781
 30
0.0
 11
680.7865232163083
 21
-1451.320644508781
 31
0.0
  0
LINE
  8
0
  6
CONTINUOUS
 62
               3
  5
291
 10
589.28652321630807
 20
-1371.8562982616334
 30
0.0
 11
589.28652321630807
 21
-1354.8562982616338
 31
0.0
  0
LINE
  8
0
  6
CONTINUOUS
 62
               3
  5
292
 10
629.28652321630807
 20
-1354.8562982616338
 30
0.0
 11
629.28652321630807
 21
-1371.8562982616334
 31
0.0
  0
LINE
  8
0
  6
CONTINUOUS
 62
               3
  5
293
 10
589.28652321630807
 20
-1364.8562982616338
 30
0.0
 11
629.28652321630807
 21
-1364.8562982616338
 31
0.0
  0
LINE
  8
0
  6
CONTINUOUS
 62
               3
  5
294
 10
537.00236174230258
 20
-1354.8562982616338
 30
0.0
 11
537.00236174230258
 21
-1371.8562982616334
 31
0.0
  0
LINE
  8
0
  6
CONTINUOUS
 62
               3
  5
295
 10
523.07602501568272
 20
-1364.8562982616338
 30
0.0
 11
523.07602501568272
 21
-1371.8562982616334
 31
0.0
  0
LINE
  8
0
  6
CONTINUOUS
 62
               3
  5
296
 10
520.78652321630784
 20
-1364.8562982616338
 30
0.0
 11
523.07602501568272
 21
-1364.8562982616338
 31
0.0
  0
LINE
  8
0
  6
CONTINUOUS
 62
               3
  5
297
 10
523.07602501568272
 20
-1364.8562982616338
 30
0.0
 11
537.00236174230258
 21
-1354.8562982616338
 31
0.0
  0
LINE
  8
0
  6
CONTINUOUS
 62
               3
  5
298
 10
697.78652321630761
 20
-1364.8562982616338
 30
0.0
 11
697.78652321630761
 21
-1371.8562982616334
 31
0.0
  0
LINE
  8
0
  6
CONTINUOUS
 62
               3
  5
299
 10
697.78652321630761
 20
-1364.8562982616338
 30
0.0
 11
684.28652321630807
 21
-1354.8562982616338
 31
0.0
  0
ARC
  8
0
  6
CONTINUOUS
 62
               3
  5
29A
 10
686.28652321630784
 20
-1376.4388739565891
 30
0.0
 40
4.9999999999999991
 50
113.5781784781135
 51
179.9999999998615
  0
LINE
  8
0
  6
CONTINUOUS
 62
               3
  5
29B
 10
681.57068469031219
 20
-1354.8562982616338
 30
0.0
 11
681.57068469031219
 21
-1371.8562982616334
 31
0.0
  0
LINE
  8
0
  6
CONTINUOUS
 62
               3
  5
29C
 10
695.49702141693319
 20
-1364.8562982616338
 30
0.0
 11
695.49702141693319
 21
-1371.8562982616334
 31
0.0
  0
LINE
  8
0
  6
CONTINUOUS
 62
               3
  5
29D
 10
697.78652321630761
 20
-1364.8562982616338
 30
0.0
 11
695.49702141693319
 21
-1364.8562982616338
 31
0.0
  0
LINE
  8
0
  6
CONTINUOUS
 62
               3
  5
29E
 10
695.49702141693319
 20
-1364.8562982616338
 30
0.0
 11
681.57068469031219
 21
-1354.8562982616338
 31
0.0
  0
ARC
  8
0
  6
CONTINUOUS
 62
               3
  5
29F
 10
544.28652321630807
 20
-1583.3562982616338
 30
0.0
 40
2.4999999999999996
 50
89.999999999929457
 51
269.99999999979354
  0
ARC
  8
0
  6
CONTINUOUS
 62
               3
  5
2A0
 10
684.28652321630807
 20
-1583.3562982616338
 30
0.0
 40
2.4999999999999996
 50
269.99999999979354
 51
449.99999999965507
  0
LINE
  8
0
  6
CONTINUOUS
 62
               3
  5
2A1
 10
469.2865232163079
 20
-1575.8562982616338
 30
0.0
 11
469.95807934227224
 21
-1575.8562982616338
 31
0.0
  0
LINE
  8
0
  6
CONTINUOUS
 62
               3
  5
2A2
 10
472.45807934227236
 20
-1578.3562982616334
 30
0.0
 11
469.95807934227224
 21
-1575.8562982616338
 31
0.0
  0
LINE
  8
0
  6
CONTINUOUS
 62
               3
  5
2A3
 10
472.45807934227315
 20
-1578.3562982616338
 30
0.0
 11
514.62318959855065
 21
-1579.828736357488
 31
0.0
  0
LINE
  8
0
  6
CONTINUOUS
 62
               3
  5
2A4
 10
532.82205712224049
 20
-1596.12798768792
 30
0.0
 11
517.98422602097071
 21
-1581.2901565866507
 31
0.0
  0
ARC
  8
0
  6
CONTINUOUS
 62
               3
  5
2A5
 10
529.28652321630807
 20
-1599.6635215938529
 30
0.0
 40
4.9999999999999991
 50
0.0
 51
44.999999999964892
  0
LINE
  8
0
  6
CONTINUOUS
 62
               3
  5
2A6
 10
469.2865232163079
 20
-1465.8562982616338
 30
0.0
 11
469.95807934227224
 21
-1465.8562982616338
 31
0.0
  0
LINE
  8
0
  6
CONTINUOUS
 62
               3
  5
2A7
 10
472.45807934227236
 20
-1463.3562982616338
 30
0.0
 11
469.95807934227224
 21
-1465.8562982616338
 31
0.0
  0
LINE
  8
0
  6
CONTINUOUS
 62
               3
  5
2A8
 10
472.45807934227224
 20
-1463.3562982616338
 30
0.0
 11
530.07555554444662
 21
-1461.3442516564817
 31
0.0
  0
LINE
  8
0
  6
CONTINUOUS
 62
               3
  5
2A9
 10
469.95807934227224
 20
-1465.8562982616338
 30
0.0
 11
469.95807934227224
 21
-1575.8562982616338
 31
0.0
  0
LINE
  8
0
  6
CONTINUOUS
 62
               3
  5
2AA
 10
469.2865232163079
 20
-1578.4562982616337
 30
0.0
 11
469.2865232163079
 21
-1463.2562982616339
 31
0.0
  0
LINE
  8
0
  6
CONTINUOUS
 62
               3
  5
2AB
 10
469.2865232163079
 20
-1463.2562982616339
 30
0.0
 11
466.7865232163079
 21
-1463.2562982616339
 31
0.0
  0
ARC
  8
0
  6
CONTINUOUS
 62
               3
  5
2AC
 10
466.7865232163079
 20
-1465.7562982616339
 30
0.0
 40
2.5
 50
89.999999999932058
 51
179.99999999985891
  0
LINE
  8
0
  6
CONTINUOUS
 62
               3
  5
2AD
 10
464.2865232163079
 20
-1465.7562982616339
 30
0.0
 11
464.2865232163079
 21
-1575.9562982616337
 31
0.0
  0
LINE
  8
0
  6
CONTINUOUS
 62
               3
  5
2AE
 10
469.2865232163079
 20
-1578.4562982616337
 30
0.0
 11
466.7865232163079
 21
-1578.4562982616337
 31
0.0
  0
ARC
  8
0
  6
CONTINUOUS
 62
               3
  5
2AF
 10
466.7865232163079
 20
-1575.9562982616337
 30
0.0
 40
2.5
 50
179.99999999985891
 51
269.99999999979229
  0
LINE
  8
0
  6
CONTINUOUS
 62
               3
  5
2B0
 10
472.45807934227236
 20
-1463.3562982616338
 30
0.0
 11
472.45807934227315
 21
-1578.3562982616338
 31
0.0
  0
ARC
  8
0
  6
CONTINUOUS
 62
               3
  5
2B1
 10
514.44869211503806
 20
-1584.8256904925836
 30
0.0
 40
5.0
 50
44.999999999968587
 51
87.999999999932243
  0
ARC
  8
0
  6
CONTINUOUS
 62
               3
  5
2B2
 10
529.90105806093425
 20
-1456.3472975213861
 30
0.0
 40
5.0
 50
271.9999999997919
 51
347.26981986141988
  0
CIRCLE
  8
0
  6
CONTINUOUS
 62
               3
  5
2B3
 10
609.28652321630807
 20
-1520.8562982616338
 30
0.0
 40
48.5
  0
CIRCLE
  8
0
  6
CONTINUOUS
 62
               3
  5
2B4
 10
609.28652321630807
 20
-1520.8562982616338
 30
0.0
 40
47.299999999999997
  0
LINE
  8
0
  6
CONTINUOUS
 62
               3
  5
2B5
 10
577.46671806291351
 20
-1552.6761034150284
 30
0.0
 11
575.84037246618436
 21
-1554.3024490117575
 31
0.0
  0
LINE
  8
0
  6
CONTINUOUS
 62
               3
  5
2B6
 10
641.10632836970262
 20
-1552.6761034150284
 30
0.0
 11
642.73267396643178
 21
-1554.3024490117575
 31
0.0
  0
ARC
  8
0
  6
CONTINUOUS
 62
               3
  5
2B7
 10
609.28652321630807
 20
-1520.8562982616338
 30
0.0
 40
45.0
 50
224.99999999982745
 51
314.99999999975864
  0
CIRCLE
  8
0
  6
CONTINUOUS
 62
               3
  5
2B8
 10
609.28652321630807
 20
-1520.8562982616338
 30
0.0
 40
57.600000000000001
  0
ARC
  8
0
  6
CONTINUOUS
 62
               3
  5
2B9
 10
586.78652321630852
 20
-1583.3562982616338
 30
0.0
 40
2.4999999999999996
 50
269.99999999979354
 51
449.99999999965507
  0
ARC
  8
0
  6
CONTINUOUS
 62
               3
  5
2BA
 10
631.78652321630852
 20
-1583.3562982616338
 30
0.0
 40
2.4999999999999996
 50
89.999999999929457
 51
269.99999999979354
  0
LINE
  8
0
  6
CONTINUOUS
 62
               3
  5
2BB
 10
544.28652321630807
 20
-1585.8562982616338
 30
0.0
 11
586.78652321630852
 21
-1585.8562982616338
 31
0.0
  0
LINE
  8
0
  6
CONTINUOUS
 62
               3
  5
2BC
 10
544.28652321630807
 20
-1580.8562982616338
 30
0.0
 11
586.78652321630852
 21
-1580.8562982616338
 31
0.0
  0
LINE
  8
0
  6
CONTINUOUS
 62
               3
  5
2BD
 10
631.78652321630852
 20
-1580.8562982616338
 30
0.0
 11
684.28652321630807
 21
-1580.8562982616338
 31
0.0
  0
LINE
  8
0
  6
CONTINUOUS
 62
               3
  5
2BE
 10
631.78652321630852
 20
-1585.8562982616338
 30
0.0
 11
684.28652321630807
 21
-1585.8562982616338
 31
0.0
  0
CIRCLE
  8
0
  6
CONTINUOUS
 62
               3
  5
2BF
 10
609.28652321630807
 20
-1046.3568645130497
 30
0.0
 40
59.0
  0
POINT
  8
0
  6
CONTINUOUS
 62
               5
  5
2C0
 10
0.0000000000003647
 20
403.00000000000006
 30
0.0
  0
POINT
  8
0
  6
CONTINUOUS
 62
               5
  5
2C1
 10
-392.13776905046865
 20
-1104.0413000848405
 30
0.0
  0
POINT
  8
0
  6
CONTINUOUS
 62
               5
  5
2C2
 10
-218.90769754050831
 20
-1105.3320941597296
 30
0.0
  0
POINT
  8
0
  6
CONTINUOUS
 62
               5
  5
2C3
 10
-565.3678405604287
 20
-1105.3320941597292
 30
0.0
  0
POINT
  8
0
  6
CONTINUOUS
 62
               5
  5
2C4
 10
-395.37452052112423
 20
-923.34334450584538
 30
0.0
  0
POINT
  8
0
  6
CONTINUOUS
 62
               5
  5
2C5
 10
493.01659472626824
 20
-1522.147092336523
 30
0.0
  0
POINT
  8
0
  6
CONTINUOUS
 62
               5
  5
2C6
 10
493.01659472626835
 20
-1045.0660704381605
 30
0.0
  0
LINE
  8
0
  6
DASHED2
 62
               4
  5
2C7
 10
-448.5
 20
-482.5
 30
0.0
 11
-448.5
 21
-82.411436813412365
 31
0.0
  0
LINE
  8
0
  6
DASHED2
 62
               4
  5
2C8
 10
-551.5
 20
-482.5
 30
0.0
 11
-551.5
 21
-82.411436813412365
 31
0.0
  0
LINE
  8
0
  6
DASHED2
 62
               4
  5
2C9
 10
-557.0
 20
117.49999999999991
 30
0.0
 11
-443.0
 21
117.49999999999991
 31
0.0
  0
LINE
  8
0
  6
DASHED2
 62
               4
  5
2CA
 10
-51.499999999999943
 20
-482.49999999999994
 30
0.0
 11
-51.5
 21
-82.411436813412308
 31
0.0
  0
LINE
  8
0
  6
DASHED2
 62
               4
  5
2CB
 10
51.500000000000114
 20
-482.49999999999994
 30
0.0
 11
51.5
 21
-82.411436813412294
 31
0.0
  0
LINE
  8
0
  6
DASHED2
 62
               4
  5
2CC
 10
57.0
 20
117.49999999999999
 30
0.0
 11
-57.0
 21
117.49999999999997
 31
0.0
  0
LINE
  8
0
  6
DASHED2
 62
               4
  5
2CD
 10
448.50000000000011
 20
-482.49999999999994
 30
0.0
 11
448.50000000000006
 21
-82.411436813412294
 31
0.0
  0
LINE
  8
0
  6
DASHED2
 62
               4
  5
2CE
 10
551.50000000000011
 20
-482.49999999999989
 30
0.0
 11
551.5
 21
-82.41143681341228
 31
0.0
  0
LINE
  8
0
  6
DASHED2
 62
               4
  5
2CF
 10
557.0
 20
117.5
 30
0.0
 11
443.00000000000006
 21
117.49999999999999
 31
0.0
  0
LINE
  8
0
  6
DASHED2
 62
               4
  5
2D0
 10
-557.50000000000239
 20
-497.50000000000114
 30
0.0
 11
-557.50000000000239
 21
-562.49999999999886
 31
0.0
  0
LINE
  8
0
  6
DASHED2
 62
               4
  5
2D1
 10
-557.50000000000239
 20
-497.50000000000114
 30
0.0
 11
-500.00000000000057
 21
-497.5
 31
0.0
  0
LINE
  8
0
  6
DASHED2
 62
               4
  5
2D2
 10
-442.49999999999773
 20
-497.50000000000114
 30
0.0
 11
-499.99999999999943
 21
-497.5
 31
0.0
  0
LINE
  8
0
  6
DASHED2
 62
               4
  5
2D3
 10
-442.49999999999773
 20
-497.50000000000114
 30
0.0
 11
-442.49999999999773
 21
-562.49999999999886
 31
0.0
  0
LINE
  8
0
  6
DASHED2
 62
               4
  5
2D4
 10
-511.76000000000022
 20
-482.5
 30
0.0
 11
-511.76000000000022
 21
-473.97387150069278
 31
0.0
  0
LINE
  8
0
  6
DASHED2
 62
               4
  5
2D5
 10
-505.87102725426575
 20
-473.97387150069278
 30
0.0
 11
-505.87102725426575
 21
-482.5
 31
0.0
  0
LINE
  8
0
  6
DASHED2
 62
               4
  5
2D6
 10
-508.81551362713287
 20
-472.89999999999986
 30
0.0
 11
-491.1844863728669
 21
-472.89999999999986
 31
0.0
  0
LINE
  8
0
  6
DASHED2
 62
               4
  5
2D7
 10
-488.2399999999999
 20
-482.5
 30
0.0
 11
-488.2399999999999
 21
-473.97387150069278
 31
0.0
  0
LINE
  8
0
  6
DASHED2
 62
               4
  5
2D8
 10
-494.12897274573459
 20
-482.5
 30
0.0
 11
-494.12897274573459
 21
-473.97387150069278
 31
0.0
  0
ARC
  8
0
  6
DASHED2
 62
               4
  5
2D9
 10
-508.81551362713287
 20
-477.47373158411585
 30
0.0
 40
4.5737315841157447
 50
49.925579661612304
 51
130.07442033835341
  0
ARC
  8
0
  6
DASHED2
 62
               4
  5
2DA
 10
-491.1844863728669
 20
-477.47373158411585
 30
0.0
 40
4.5737315841157686
 50
49.925579661612304
 51
130.07442033835341
  0
ARC
  8
0
  6
DASHED2
 62
               4
  5
2DB
 10
-500.0
 20
-489.48585826952035
 30
0.0
 40
16.58585826952007
 50
69.269184858547646
 51
110.73081514141818
  0
LINE
  8
0
  6
DASHED2
 62
               4
  5
2DC
 10
-511.76000000000158
 20
-484.50000000000034
 30
0.0
 11
-511.76000000000158
 21
-493.02612849930756
 31
0.0
  0
LINE
  8
0
  6
DASHED2
 62
               4
  5
2DD
 10
-505.87102725426723
 20
-493.02612849930756
 30
0.0
 11
-505.87102725426723
 21
-484.50000000000034
 31
0.0
  0
LINE
  8
0
  6
DASHED2
 62
               4
  5
2DE
 10
-508.81551362713424
 20
-494.10000000000014
 30
0.0
 11
-491.18448637286861
 21
-494.10000000000014
 31
0.0
  0
LINE
  8
0
  6
DASHED2
 62
               4
  5
2DF
 10
-488.24000000000126
 20
-484.50000000000034
 30
0.0
 11
-488.24000000000126
 21
-493.02612849930756
 31
0.0
  0
LINE
  8
0
  6
DASHED2
 62
               4
  5
2E0
 10
-494.12897274573572
 20
-484.50000000000034
 30
0.0
 11
-494.12897274573572
 21
-493.02612849930756
 31
0.0
  0
ARC
  8
0
  6
DASHED2
 62
               4
  5
2E1
 10
-508.81551362713424
 20
-489.52626841588472
 30
0.0
 40
4.5737315841157447
 50
229.92557966157796
 51
310.07442033831961
  0
ARC
  8
0
  6
DASHED2
 62
               4
  5
2E2
 10
-491.18448637286861
 20
-489.52626841588472
 30
0.0
 40
4.5737315841157686
 50
229.92557966157852
 51
310.07442033831961
  0
ARC
  8
0
  6
DASHED2
 62
               4
  5
2E3
 10
-500.00000000000148
 20
-477.51414173048022
 30
0.0
 40
16.58585826952007
 50
249.26918485851303
 51
290.73081514138352
  0
LINE
  8
0
  6
DASHED2
 62
               4
  5
2E4
 10
-506.0
 20
-494.10000000000014
 30
0.0
 11
-506.0
 21
-504.61936624232476
 31
0.0
  0
LINE
  8
0
  6
DASHED2
 62
               4
  5
2E5
 10
-494.00000000000011
 20
-494.10000000000014
 30
0.0
 11
-494.00000000000011
 21
-504.61936624232476
 31
0.0
  0
LINE
  8
0
  6
DASHED2
 62
               4
  5
2E6
 10
-504.80000000000018
 20
-505.81936624232515
 30
0.0
 11
-495.20000000000016
 21
-505.81936624232515
 31
0.0
  0
LINE
  8
0
  6
DASHED2
 62
               4
  5
2E7
 10
-506.0
 20
-504.61936624232476
 30
0.0
 11
-504.80000000000018
 21
-505.81936624232515
 31
0.0
  0
LINE
  8
0
  6
DASHED2
 62
               4
  5
2E8
 10
-494.00000000000011
 20
-504.61936624232476
 30
0.0
 11
-495.20000000000016
 21
-505.81936624232515
 31
0.0
  0
LINE
  8
0
  6
DASHED2
 62
               4
  5
2E9
 10
-511.76000000000022
 20
-482.5
 30
0.0
 11
-488.2399999999999
 21
-482.5
 31
0.0
  0
LINE
  8
0
  6
DASHED2
 62
               4
  5
2EA
 10
-488.24000000000126
 20
-484.50000000000034
 30
0.0
 11
-511.76000000000158
 21
-484.50000000000034
 31
0.0
  0
LINE
  8
0
  6
DASHED2
 62
               4
  5
2EB
 10
-506.0
 20
-367.4364205240712
 30
0.0
 11
-506.0
 21
-472.89999999999986
 31
0.0
  0
LINE
  8
0
  6
DASHED2
 62
               4
  5
2EC
 10
-494.00000000000011
 20
-367.4364205240712
 30
0.0
 11
-494.00000000000011
 21
-472.89999999999986
 31
0.0
  0
LINE
  8
0
  6
DASHED2
 62
               4
  5
2ED
 10
-494.00000000000011
 20
-367.4364205240712
 30
0.0
 11
-506.0
 21
-367.4364205240712
 31
0.0
  0
LINE
  8
0
  6
DASHED2
 62
               4
  5
2EE
 10
442.49999999999568
 20
-497.50000000000102
 30
0.0
 11
442.49999999999568
 21
-562.49999999999875
 31
0.0
  0
LINE
  8
0
  6
DASHED2
 62
               4
  5
2EF
 10
442.49999999999568
 20
-497.50000000000102
 30
0.0
 11
499.9999999999975
 21
-497.49999999999989
 31
0.0
  0
LINE
  8
0
  6
DASHED2
 62
               4
  5
2F0
 10
557.50000000000034
 20
-497.50000000000102
 30
0.0
 11
499.99999999999864
 21
-497.49999999999989
 31
0.0
  0
LINE
  8
0
  6
DASHED2
 62
               4
  5
2F1
 10
557.50000000000034
 20
-497.50000000000102
 30
0.0
 11
557.50000000000034
 21
-562.49999999999875
 31
0.0
  0
LINE
  8
0
  6
DASHED2
 62
               4
  5
2F2
 10
491.18448637286383
 20
-494.10000000000002
 30
0.0
 11
508.81551362712946
 21
-494.10000000000002
 31
0.0
  0
ARC
  8
0
  6
DASHED2
 62
               4
  5
2F3
 10
491.18448637286383
 20
-489.5262684158846
 30
0.0
 40
4.5737315841157447
 50
229.92557966157796
 51
310.07442033831961
  0
ARC
  8
0
  6
DASHED2
 62
               4
  5
2F4
 10
508.81551362712946
 20
-489.5262684158846
 30
0.0
 40
4.5737315841157686
 50
229.92557966157852
 51
310.07442033831961
  0
ARC
  8
0
  6
DASHED2
 62
               4
  5
2F5
 10
499.99999999999659
 20
-477.51414173048011
 30
0.0
 40
16.58585826952007
 50
249.26918485851303
 51
290.73081514138352
  0
LINE
  8
0
  6
DASHED2
 62
               4
  5
2F6
 10
493.99999999999807
 20
-494.10000000000002
 30
0.0
 11
493.99999999999807
 21
-504.61936624232465
 31
0.0
  0
LINE
  8
0
  6
DASHED2
 62
               4
  5
2F7
 10
505.99999999999795
 20
-494.10000000000002
 30
0.0
 11
505.99999999999795
 21
-504.61936624232465
 31
0.0
  0
LINE
  8
0
  6
DASHED2
 62
               4
  5
2F8
 10
495.19999999999789
 20
-505.81936624232503
 30
0.0
 11
504.79999999999791
 21
-505.81936624232503
 31
0.0
  0
LINE
  8
0
  6
DASHED2
 62
               4
  5
2F9
 10
493.99999999999807
 20
-504.61936624232465
 30
0.0
 11
495.19999999999789
 21
-505.81936624232503
 31
0.0
  0
LINE
  8
0
  6
DASHED2
 62
               4
  5
2FA
 10
505.99999999999795
 20
-504.61936624232465
 30
0.0
 11
504.79999999999791
 21
-505.81936624232503
 31
0.0
  0
LINE
  8
0
  6
DASHED2
 62
               4
  5
2FB
 10
488.23999999999785
 20
-482.49999999999989
 30
0.0
 11
488.23999999999785
 21
-473.97387150069267
 31
0.0
  0
LINE
  8
0
  6
DASHED2
 62
               4
  5
2FC
 10
494.12897274573231
 20
-473.97387150069267
 30
0.0
 11
494.12897274573231
 21
-482.49999999999989
 31
0.0
  0
LINE
  8
0
  6
DASHED2
 62
               4
  5
2FD
 10
491.18448637286519
 20
-472.89999999999975
 30
0.0
 11
508.81551362713117
 21
-472.89999999999975
 31
0.0
  0
LINE
  8
0
  6
DASHED2
 62
               4
  5
2FE
 10
511.75999999999817
 20
-482.49999999999989
 30
0.0
 11
511.75999999999817
 21
-473.97387150069267
 31
0.0
  0
LINE
  8
0
  6
DASHED2
 62
               4
  5
2FF
 10
505.87102725426348
 20
-482.49999999999989
 30
0.0
 11
505.87102725426348
 21
-473.97387150069267
 31
0.0
  0
ARC
  8
0
  6
DASHED2
 62
               4
  5
300
 10
491.18448637286519
 20
-477.47373158411574
 30
0.0
 40
4.5737315841157447
 50
49.925579661612304
 51
130.07442033835341
  0
ARC
  8
0
  6
DASHED2
 62
               4
  5
301
 10
508.81551362713117
 20
-477.47373158411574
 30
0.0
 40
4.5737315841157686
 50
49.925579661612304
 51
130.07442033835341
  0
ARC
  8
0
  6
DASHED2
 62
               4
  5
302
 10
499.99999999999807
 20
-489.48585826952024
 30
0.0
 40
16.58585826952007
 50
69.269184858547646
 51
110.73081514141818
  0
LINE
  8
0
  6
DASHED2
 62
               4
  5
303
 10
488.23999999999648
 20
-484.50000000000023
 30
0.0
 11
488.23999999999648
 21
-493.02612849930745
 31
0.0
  0
LINE
  8
0
  6
DASHED2
 62
               4
  5
304
 10
494.12897274573083
 20
-493.02612849930745
 30
0.0
 11
494.12897274573083
 21
-484.50000000000023
 31
0.0
  0
LINE
  8
0
  6
DASHED2
 62
               4
  5
305
 10
511.75999999999681
 20
-484.50000000000023
 30
0.0
 11
511.75999999999681
 21
-493.02612849930745
 31
0.0
  0
LINE
  8
0
  6
DASHED2
 62
               4
  5
306
 10
505.87102725426234
 20
-484.50000000000023
 30
0.0
 11
505.87102725426234
 21
-493.02612849930745
 31
0.0
  0
LINE
  8
0
  6
DASHED2
 62
               4
  5
307
 10
488.23999999999785
 20
-482.49999999999989
 30
0.0
 11
511.75999999999817
 21
-482.49999999999989
 31
0.0
  0
LINE
  8
0
  6
DASHED2
 62
               4
  5
308
 10
511.75999999999681
 20
-484.50000000000023
 30
0.0
 11
488.23999999999648
 21
-484.50000000000023
 31
0.0
  0
LINE
  8
0
  6
DASHED2
 62
               4
  5
309
 10
493.99999999999807
 20
-367.43642052407108
 30
0.0
 11
493.99999999999807
 21
-472.89999999999975
 31
0.0
  0
LINE
  8
0
  6
DASHED2
 62
               4
  5
30A
 10
505.99999999999795
 20
-367.43642052407108
 30
0.0
 11
505.99999999999795
 21
-472.89999999999975
 31
0.0
  0
LINE
  8
0
  6
DASHED2
 62
               4
  5
30B
 10
505.99999999999795
 20
-367.43642052407108
 30
0.0
 11
493.99999999999807
 21
-367.43642052407108
 31
0.0
  0
LINE
  8
0
  6
DASHED2
 62
               4
  5
30C
 10
-57.500000000002984
 20
-497.50000000000108
 30
0.0
 11
-57.500000000002984
 21
-562.49999999999886
 31
0.0
  0
LINE
  8
0
  6
DASHED2
 62
               4
  5
30D
 10
-57.500000000002984
 20
-497.50000000000108
 30
0.0
 11
-0.0000000000011386
 21
-497.49999999999994
 31
0.0
  0
LINE
  8
0
  6
DASHED2
 62
               4
  5
30E
 10
57.500000000001705
 20
-497.50000000000108
 30
0.0
 11
-0.0000000000000018
 21
-497.49999999999994
 31
0.0
  0
LINE
  8
0
  6
DASHED2
 62
               4
  5
30F
 10
57.500000000001705
 20
-497.50000000000108
 30
0.0
 11
57.500000000001705
 21
-562.49999999999886
 31
0.0
  0
ARC
  8
0
  6
DASHED2
 62
               4
  5
310
 10
116.18448637286801
 20
-489.5262684158842
 30
0.0
 40
4.5737315841157686
 50
229.92557966167917
 51
310.07442033842028
  0
ARC
  8
0
  6
DASHED2
 62
               4
  5
311
 10
125.00000000000082
 20
-477.51414173047971
 30
0.0
 40
16.58585826952007
 50
249.26918485861526
 51
290.73081514148578
  0
LINE
  8
0
  6
DASHED2
 62
               4
  5
312
 10
130.99999999999935
 20
-494.09999999999962
 30
0.0
 11
130.99999999999935
 21
-504.61936624232425
 31
0.0
  0
LINE
  8
0
  6
DASHED2
 62
               4
  5
313
 10
118.99999999999946
 20
-494.09999999999962
 30
0.0
 11
118.99999999999946
 21
-504.61936624232425
 31
0.0
  0
LINE
  8
0
  6
DASHED2
 62
               4
  5
314
 10
129.79999999999959
 20
-505.81936624232463
 30
0.0
 11
120.19999999999951
 21
-505.81936624232463
 31
0.0
  0
LINE
  8
0
  6
DASHED2
 62
               4
  5
315
 10
130.99999999999935
 20
-504.61936624232425
 30
0.0
 11
129.79999999999959
 21
-505.81936624232463
 31
0.0
  0
LINE
  8
0
  6
DASHED2
 62
               4
  5
316
 10
118.99999999999946
 20
-504.61936624232425
 30
0.0
 11
120.19999999999951
 21
-505.81936624232463
 31
0.0
  0
LINE
  8
0
  6
DASHED2
 62
               4
  5
317
 10
-136.76000000000073
 20
-482.49999999999949
 30
0.0
 11
-136.76000000000073
 21
-473.97387150069227
 31
0.0
  0
LINE
  8
0
  6
DASHED2
 62
               4
  5
318
 10
-130.87102725426632
 20
-473.97387150069227
 30
0.0
 11
-130.87102725426632
 21
-482.49999999999949
 31
0.0
  0
LINE
  8
0
  6
DASHED2
 62
               4
  5
319
 10
-133.81551362713338
 20
-472.89999999999935
 30
0.0
 11
-116.18448637286747
 21
-472.89999999999935
 31
0.0
  0
LINE
  8
0
  6
DASHED2
 62
               4
  5
31A
 10
-113.24000000000041
 20
-482.49999999999949
 30
0.0
 11
-113.24000000000041
 21
-473.97387150069227
 31
0.0
  0
LINE
  8
0
  6
DASHED2
 62
               4
  5
31B
 10
-119.1289727457351
 20
-482.49999999999949
 30
0.0
 11
-119.1289727457351
 21
-473.97387150069227
 31
0.0
  0
ARC
  8
0
  6
DASHED2
 62
               4
  5
31C
 10
-133.81551362713338
 20
-477.47373158411534
 30
0.0
 40
4.5737315841157447
 50
49.925579661612304
 51
130.07442033835341
  0
ARC
  8
0
  6
DASHED2
 62
               4
  5
31D
 10
-116.18448637286747
 20
-477.47373158411534
 30
0.0
 40
4.5737315841157686
 50
49.925579661612304
 51
130.07442033835341
  0
ARC
  8
0
  6
DASHED2
 62
               4
  5
31E
 10
-125.00000000000057
 20
-489.48585826951984
 30
0.0
 40
16.58585826952007
 50
69.269184858547646
 51
110.73081514141818
  0
LINE
  8
0
  6
DASHED2
 62
               4
  5
31F
 10
-136.76000000000215
 20
-484.49999999999983
 30
0.0
 11
-136.76000000000215
 21
-493.02612849930705
 31
0.0
  0
LINE
  8
0
  6
DASHED2
 62
               4
  5
320
 10
-130.87102725426774
 20
-493.02612849930705
 30
0.0
 11
-130.87102725426774
 21
-484.49999999999983
 31
0.0
  0
LINE
  8
0
  6
DASHED2
 62
               4
  5
321
 10
-133.81551362713481
 20
-494.09999999999962
 30
0.0
 11
-116.18448637286917
 21
-494.09999999999962
 31
0.0
  0
LINE
  8
0
  6
DASHED2
 62
               4
  5
322
 10
-113.24000000000183
 20
-484.49999999999983
 30
0.0
 11
-113.24000000000183
 21
-493.02612849930705
 31
0.0
  0
LINE
  8
0
  6
DASHED2
 62
               4
  5
323
 10
-119.12897274573623
 20
-484.49999999999983
 30
0.0
 11
-119.12897274573623
 21
-493.02612849930705
 31
0.0
  0
ARC
  8
0
  6
DASHED2
 62
               4
  5
324
 10
-133.81551362713481
 20
-489.5262684158842
 30
0.0
 40
4.5737315841157447
 50
229.92557966157796
 51
310.07442033831961
  0
ARC
  8
0
  6
DASHED2
 62
               4
  5
325
 10
-116.18448637286917
 20
-489.5262684158842
 30
0.0
 40
4.5737315841157686
 50
229.92557966157852
 51
310.07442033831961
  0
ARC
  8
0
  6
DASHED2
 62
               4
  5
326
 10
-125.00000000000199
 20
-477.51414173047971
 30
0.0
 40
16.58585826952007
 50
249.26918485851303
 51
290.73081514138352
  0
LINE
  8
0
  6
DASHED2
 62
               4
  5
327
 10
-131.00000000000051
 20
-494.09999999999962
 30
0.0
 11
-131.00000000000051
 21
-504.61936624232425
 31
0.0
  0
LINE
  8
0
  6
DASHED2
 62
               4
  5
328
 10
-119.00000000000063
 20
-494.09999999999962
 30
0.0
 11
-119.00000000000063
 21
-504.61936624232425
 31
0.0
  0
LINE
  8
0
  6
DASHED2
 62
               4
  5
329
 10
-129.80000000000075
 20
-505.81936624232463
 30
0.0
 11
-120.20000000000067
 21
-505.81936624232463
 31
0.0
  0
LINE
  8
0
  6
DASHED2
 62
               4
  5
32A
 10
-131.00000000000051
 20
-504.61936624232425
 30
0.0
 11
-129.80000000000075
 21
-505.81936624232463
 31
0.0
  0
LINE
  8
0
  6
DASHED2
 62
               4
  5
32B
 10
-119.00000000000063
 20
-504.61936624232425
 30
0.0
 11
-120.20000000000067
 21
-505.81936624232463
 31
0.0
  0
LINE
  8
0
  6
DASHED2
 62
               4
  5
32C
 10
-136.76000000000073
 20
-482.49999999999949
 30
0.0
 11
-113.24000000000041
 21
-482.49999999999949
 31
0.0
  0
LINE
  8
0
  6
DASHED2
 62
               4
  5
32D
 10
-113.24000000000183
 20
-484.49999999999983
 30
0.0
 11
-136.76000000000215
 21
-484.49999999999983
 31
0.0
  0
LINE
  8
0
  6
DASHED2
 62
               4
  5
32E
 10
-131.00000000000051
 20
-367.43642052407068
 30
0.0
 11
-131.00000000000051
 21
-472.89999999999935
 31
0.0
  0
LINE
  8
0
  6
DASHED2
 62
               4
  5
32F
 10
-119.00000000000063
 20
-367.43642052407068
 30
0.0
 11
-119.00000000000063
 21
-472.89999999999935
 31
0.0
  0
LINE
  8
0
  6
DASHED2
 62
               4
  5
330
 10
-119.00000000000063
 20
-367.43642052407068
 30
0.0
 11
-131.00000000000051
 21
-367.43642052407068
 31
0.0
  0
LINE
  8
0
  6
DASHED2
 62
               4
  5
331
 10
136.75999999999956
 20
-482.49999999999949
 30
0.0
 11
136.75999999999956
 21
-473.97387150069227
 31
0.0
  0
LINE
  8
0
  6
DASHED2
 62
               4
  5
332
 10
130.87102725426516
 20
-473.97387150069227
 30
0.0
 11
130.87102725426516
 21
-482.49999999999949
 31
0.0
  0
LINE
  8
0
  6
DASHED2
 62
               4
  5
333
 10
133.81551362713222
 20
-472.89999999999935
 30
0.0
 11
116.1844863728663
 21
-472.89999999999935
 31
0.0
  0
LINE
  8
0
  6
DASHED2
 62
               4
  5
334
 10
113.23999999999924
 20
-482.49999999999949
 30
0.0
 11
113.23999999999924
 21
-473.97387150069227
 31
0.0
  0
LINE
  8
0
  6
DASHED2
 62
               4
  5
335
 10
119.12897274573393
 20
-482.49999999999949
 30
0.0
 11
119.12897274573393
 21
-473.97387150069227
 31
0.0
  0
ARC
  8
0
  6
DASHED2
 62
               4
  5
336
 10
133.81551362713222
 20
-477.47373158411534
 30
0.0
 40
4.5737315841157447
 50
49.925579661646204
 51
130.07442033838728
  0
ARC
  8
0
  6
DASHED2
 62
               4
  5
337
 10
116.1844863728663
 20
-477.47373158411534
 30
0.0
 40
4.5737315841157686
 50
49.925579661646204
 51
130.07442033838728
  0
ARC
  8
0
  6
DASHED2
 62
               4
  5
338
 10
124.9999999999994
 20
-489.48585826951984
 30
0.0
 40
16.58585826952007
 50
69.269184858581426
 51
110.73081514145197
  0
LINE
  8
0
  6
DASHED2
 62
               4
  5
339
 10
136.76000000000099
 20
-484.49999999999983
 30
0.0
 11
136.76000000000099
 21
-493.02612849930705
 31
0.0
  0
LINE
  8
0
  6
DASHED2
 62
               4
  5
33A
 10
130.87102725426658
 20
-493.02612849930705
 30
0.0
 11
130.87102725426658
 21
-484.49999999999983
 31
0.0
  0
LINE
  8
0
  6
DASHED2
 62
               4
  5
33B
 10
133.81551362713364
 20
-494.09999999999962
 30
0.0
 11
116.18448637286801
 21
-494.09999999999962
 31
0.0
  0
LINE
  8
0
  6
DASHED2
 62
               4
  5
33C
 10
113.24000000000066
 20
-484.49999999999983
 30
0.0
 11
113.24000000000066
 21
-493.02612849930705
 31
0.0
  0
LINE
  8
0
  6
DASHED2
 62
               4
  5
33D
 10
119.12897274573507
 20
-484.49999999999983
 30
0.0
 11
119.12897274573507
 21
-493.02612849930705
 31
0.0
  0
ARC
  8
0
  6
DASHED2
 62
               4
  5
33E
 10
133.81551362713364
 20
-489.5262684158842
 30
0.0
 40
4.5737315841157447
 50
229.92557966167917
 51
310.07442033842085
  0
LINE
  8
0
  6
DASHED2
 62
               4
  5
33F
 10
136.75999999999956
 20
-482.49999999999949
 30
0.0
 11
113.23999999999924
 21
-482.49999999999949
 31
0.0
  0
LINE
  8
0
  6
DASHED2
 62
               4
  5
340
 10
113.24000000000066
 20
-484.49999999999983
 30
0.0
 11
136.76000000000099
 21
-484.49999999999983
 31
0.0
  0
LINE
  8
0
  6
DASHED2
 62
               4
  5
341
 10
130.99999999999935
 20
-367.43642052407068
 30
0.0
 11
130.99999999999935
 21
-472.89999999999935
 31
0.0
  0
LINE
  8
0
  6
DASHED2
 62
               4
  5
342
 10
118.99999999999946
 20
-367.43642052407068
 30
0.0
 11
118.99999999999946
 21
-472.89999999999935
 31
0.0
  0
LINE
  8
0
  6
DASHED2
 62
               4
  5
343
 10
118.99999999999946
 20
-367.43642052407068
 30
0.0
 11
130.99999999999935
 21
-367.43642052407068
 31
0.0
  0
LINE
  8
0
  6
DASHED2
 62
               4
  5
344
 10
136.75999999999956
 20
-482.49999999999949
 30
0.0
 11
136.75999999999956
 21
-473.97387150069227
 31
0.0
  0
LINE
  8
0
  6
DASHED2
 62
               4
  5
345
 10
130.87102725426516
 20
-473.97387150069227
 30
0.0
 11
130.87102725426516
 21
-482.49999999999949
 31
0.0
  0
LINE
  8
0
  6
DASHED2
 62
               4
  5
346
 10
133.81551362713222
 20
-472.89999999999935
 30
0.0
 11
116.1844863728663
 21
-472.89999999999935
 31
0.0
  0
LINE
  8
0
  6
DASHED2
 62
               4
  5
347
 10
113.23999999999924
 20
-482.49999999999949
 30
0.0
 11
113.23999999999924
 21
-473.97387150069227
 31
0.0
  0
LINE
  8
0
  6
DASHED2
 62
               4
  5
348
 10
119.12897274573393
 20
-482.49999999999949
 30
0.0
 11
119.12897274573393
 21
-473.97387150069227
 31
0.0
  0
ARC
  8
0
  6
DASHED2
 62
               4
  5
349
 10
133.81551362713222
 20
-477.47373158411534
 30
0.0
 40
4.5737315841157447
 50
49.925579661646204
 51
130.07442033838728
  0
ARC
  8
0
  6
DASHED2
 62
               4
  5
34A
 10
116.1844863728663
 20
-477.47373158411534
 30
0.0
 40
4.5737315841157686
 50
49.925579661646204
 51
130.07442033838728
  0
ARC
  8
0
  6
DASHED2
 62
               4
  5
34B
 10
124.9999999999994
 20
-489.48585826951984
 30
0.0
 40
16.58585826952007
 50
69.269184858581426
 51
110.73081514145197
  0
LINE
  8
0
  6
DASHED2
 62
               4
  5
34C
 10
136.76000000000099
 20
-484.49999999999983
 30
0.0
 11
136.76000000000099
 21
-493.02612849930705
 31
0.0
  0
LINE
  8
0
  6
DASHED2
 62
               4
  5
34D
 10
130.87102725426658
 20
-493.02612849930705
 30
0.0
 11
130.87102725426658
 21
-484.49999999999983
 31
0.0
  0
LINE
  8
0
  6
DASHED2
 62
               4
  5
34E
 10
133.81551362713364
 20
-494.09999999999962
 30
0.0
 11
116.18448637286801
 21
-494.09999999999962
 31
0.0
  0
LINE
  8
0
  6
DASHED2
 62
               4
  5
34F
 10
113.24000000000066
 20
-484.49999999999983
 30
0.0
 11
113.24000000000066
 21
-493.02612849930705
 31
0.0
  0
LINE
  8
0
  6
DASHED2
 62
               4
  5
350
 10
119.12897274573507
 20
-484.49999999999983
 30
0.0
 11
119.12897274573507
 21
-493.02612849930705
 31
0.0
  0
ARC
  8
0
  6
DASHED2
 62
               4
  5
351
 10
133.81551362713364
 20
-489.5262684158842
 30
0.0
 40
4.5737315841157447
 50
229.92557966167917
 51
310.07442033842085
  0
ARC
  8
0
  6
DASHED2
 62
               4
  5
352
 10
116.18448637286801
 20
-489.5262684158842
 30
0.0
 40
4.5737315841157686
 50
229.92557966167917
 51
310.07442033842028
  0
ARC
  8
0
  6
DASHED2
 62
               4
  5
353
 10
125.00000000000082
 20
-477.51414173047971
 30
0.0
 40
16.58585826952007
 50
249.26918485861526
 51
290.73081514148578
  0
LINE
  8
0
  6
DASHED2
 62
               4
  5
354
 10
130.99999999999935
 20
-494.09999999999962
 30
0.0
 11
130.99999999999935
 21
-504.61936624232425
 31
0.0
  0
LINE
  8
0
  6
DASHED2
 62
               4
  5
355
 10
118.99999999999946
 20
-494.09999999999962
 30
0.0
 11
118.99999999999946
 21
-504.61936624232425
 31
0.0
  0
LINE
  8
0
  6
DASHED2
 62
               4
  5
356
 10
129.79999999999959
 20
-505.81936624232463
 30
0.0
 11
120.19999999999951
 21
-505.81936624232463
 31
0.0
  0
LINE
  8
0
  6
DASHED2
 62
               4
  5
357
 10
130.99999999999935
 20
-504.61936624232425
 30
0.0
 11
129.79999999999959
 21
-505.81936624232463
 31
0.0
  0
LINE
  8
0
  6
DASHED2
 62
               4
  5
358
 10
118.99999999999946
 20
-504.61936624232425
 30
0.0
 11
120.19999999999951
 21
-505.81936624232463
 31
0.0
  0
LINE
  8
0
  6
DASHED2
 62
               4
  5
359
 10
136.75999999999956
 20
-482.49999999999949
 30
0.0
 11
113.23999999999924
 21
-482.49999999999949
 31
0.0
  0
LINE
  8
0
  6
DASHED2
 62
               4
  5
35A
 10
113.24000000000066
 20
-484.49999999999983
 30
0.0
 11
136.76000000000099
 21
-484.49999999999983
 31
0.0
  0
LINE
  8
0
  6
DASHED2
 62
               4
  5
35B
 10
552.28652321630807
 20
-1419.8562982616338
 30
0.0
 11
666.28652321630784
 21
-1419.8562982616338
 31
0.0
  0
LINE
  8
0
  6
DASHDOT
 62
               4
  5
35C
 10
-500.0
 20
202.5
 30
0.0
 11
-499.99999999999994
 21
-710.35322790313114
 31
0.0
  0
LINE
  8
0
  6
DASHDOT
 62
               4
  5
35D
 10
-432.5
 20
-10.500000000000085
 30
0.0
 11
-567.5
 21
-10.500000000000083
 31
0.0
  0
LINE
  8
0
  6
DASHDOT
 62
               4
  5
35E
 10
0.0
 20
202.50000000000006
 30
0.0
 11
0.0000000000000559
 21
-710.35322790313103
 31
0.0
  0
LINE
  8
0
  6
DASHDOT
 62
               4
  5
35F
 10
-52.0
 20
-10.5
 30
0.0
 11
-152.0
 21
-10.499999999999998
 31
0.0
  0
LINE
  8
0
  6
DASHDOT
 62
               4
  5
360
 10
500.0
 20
202.50000000000009
 30
0.0
 11
500.00000000000006
 21
-710.35322790313114
 31
0.0
  0
LINE
  8
0
  6
DASHDOT
 62
               4
  5
361
 10
-0.0000000000005534
 20
308.00000000000057
 30
0.0
 11
0.0000000000003374
 21
497.99999999999955
 31
0.0
  0
LINE
  8
0
  6
DASHDOT
 62
               4
  5
362
 10
94.999999999999275
 20
403.00000000000006
 30
0.0
 11
-151.99999999999963
 21
403.00000000000006
 31
0.0
  0
LINE
  8
0
  6
DASHDOT
 62
               4
  5
363
 10
-125.00000000000057
 20
-361.5098980019946
 30
0.0
 11
-125.00000000000057
 21
-525.88825962148508
 31
0.0
  0
LINE
  8
0
  6
DASHDOT
 62
               4
  5
364
 10
-392.13776905046865
 20
-1168.5413000848405
 30
0.0
 11
-392.13776905046853
 21
-1039.5413000848407
 31
0.0
  0
LINE
  8
0
  6
DASHDOT
 62
               4
  5
365
 10
-450.13776905046853
 20
-1110.5413000848405
 30
0.0
 11
-334.13776905046865
 21
-1110.5413000848405
 31
0.0
  0
LINE
  8
0
  6
DASHDOT
 62
               4
  5
366
 10
-461.94094753457608
 20
-1104.0413000848405
 30
0.0
 11
-327.63776905046865
 21
-1104.0413000848405
 31
0.0
  0
LINE
  8
0
  6
DASHDOT
 62
               4
  5
367
 10
-268.23776905046856
 20
-1104.0413000848405
 30
0.0
 11
-169.63776905046865
 21
-1104.0413000848405
 31
0.0
  0
LINE
  8
0
  6
DASHDOT
 62
               4
  5
368
 10
-302.63776905046865
 20
-1110.5413000848405
 30
0.0
 11
-228.23776905046867
 21
-1110.5413000848405
 31
0.0
  0
LINE
  8
0
  6
DASHDOT
 62
               4
  5
369
 10
-516.03776905046834
 20
-1104.0413000848405
 30
0.0
 11
-614.63776905046848
 21
-1104.04130008484
 31
0.0
  0
LINE
  8
0
  6
DASHDOT
 62
               4
  5
36A
 10
-481.63776905046853
 20
-1110.5413000848405
 30
0.0
 11
-556.03776905046834
 21
-1110.5413000848405
 31
0.0
  0
LINE
  8
0
  6
DASHDOT
 62
               4
  5
36B
 10
-394.08372644623518
 20
-1007.0734160158056
 30
0.0
 11
-394.08372644623518
 21
-874.07341601580561
 31
0.0
  0
LINE
  8
0
  6
DASHDOT
 62
               4
  5
36C
 10
221.63392368588103
 20
-1104.0413000848405
 30
0.0
 11
320.23392368588117
 21
-1104.0413000848405
 31
0.0
  0
LINE
  8
0
  6
DASHDOT
 62
               4
  5
36D
 10
196.63392368588103
 20
-1118.5413000848405
 30
0.0
 11
261.63392368588103
 21
-1118.5413000848405
 31
0.0
  0
LINE
  8
0
  6
DASHDOT
 62
               4
  5
36E
 10
70.877907460638014
 20
-1118.5413000848405
 30
0.0
 11
170.87790746063826
 21
-1118.5413000848405
 31
0.0
  0
LINE
  8
0
  6
DASHDOT
 62
               4
  5
36F
 10
120.87790746063801
 20
-1168.5413000848405
 30
0.0
 11
120.87790746063824
 21
-1039.5413000848407
 31
0.0
  0
LINE
  8
0
  6
DASHDOT
 62
               4
  5
370
 10
56.377907460638021
 20
-1104.0413000848405
 30
0.0
 11
190.92191724058927
 21
-1104.0413000848405
 31
0.0
  0
LINE
  8
0
  6
DASHDOT
 62
               4
  5
371
 10
20.121891235395246
 20
-1104.0413000848405
 30
0.0
 11
-78.478108764604784
 21
-1104.0413000848405
 31
0.0
  0
LINE
  8
0
  6
DASHDOT
 62
               4
  5
372
 10
45.121891235395246
 20
-1118.5413000848405
 30
0.0
 11
-19.878108764604754
 21
-1118.5413000848405
 31
0.0
  0
LINE
  8
0
  6
DASHDOT
 62
               4
  5
373
 10
120.87790746063824
 20
-1017.7852838595979
 30
0.0
 11
120.87790746063824
 21
-894.1852838595978
 31
0.0
  0
LINE
  8
0
  6
DASHDOT
 62
               4
  5
374
 10
609.28652321630807
 20
-937.85686451304969
 30
0.0
 11
609.28652321630807
 21
-1208.403651312876
 31
0.0
  0
LINE
  8
0
  6
DASHDOT
 62
               4
  5
375
 10
447.28652321630801
 20
-1046.3568645130497
 30
0.0
 11
717.7865232163083
 21
-1046.3568645130497
 31
0.0
  0
LINE
  8
0
  6
DASHDOT
 62
               4
  5
376
 10
677.81174799153268
 20
-1520.8562982616338
 30
0.0
 11
447.55790992287967
 21
-1520.8562982616338
 31
0.0
  0
LINE
  8
0
  6
DASHDOT
 62
               4
  5
377
 10
609.28652321630807
 20
-1334.8562982616338
 30
0.0
 11
609.28652321630807
 21
-1585.8562982616338
 31
0.0
  0
LINE
  8
0
  6
DASHDOT
 62
               4
  5
378
 10
559.28652321630807
 20
-1535.3562982616338
 30
0.0
 11
659.2865232163083
 21
-1535.3562982616338
 31
0.0
  0
LINE
  8
0
  6
DASHDOT
 62
               4
  5
379
 10
609.28652321630807
 20
-1236.9568645130496
 30
0.0
 11
609.28652321630807
 21
-1113.3568645130492
 31
0.0
  0
LINE
  8
0
  6
DASHDOT
 62
               4
  5
37A
 10
409.2865232163079
 20
-1527.3562982616338
 30
0.0
 11
483.68652321630788
 21
-1527.3562982616338
 31
0.0
  0
LINE
  8
0
  6
DASHDOT
 62
               4
  5
37B
 10
409.28652321630813
 20
-1046.3568645130495
 30
0.0
 11
542.2865232163083
 21
-1046.3568645130495
 31
0.0
  0
ARC
  8
0
  6
DIVIDE
 62
               4
  5
37C
 10
-528.5
 20
-729.43298130416849
 30
0.0
 40
55.0
 50
58.789629707489617
 51
121.21037029250985
  0
ARC
  8
0
  6
DIVIDE
 62
               4
  5
37D
 10
-528.5
 20
-635.35322790313103
 30
0.0
 40
55.0
 50
238.78962970748935
 51
301.21037029250937
  0
ARC
  8
0
  6
DIVIDE
 62
               4
  5
37E
 10
-532.5
 20
-704.89560203944632
 30
0.0
 40
65.0
 50
59.999999999999723
 51
119.99999999999987
  0
ARC
  8
0
  6
DIVIDE
 62
               4
  5
37F
 10
-471.49999999999989
 20
-635.35322790313114
 30
0.0
 40
55.0
 50
238.78962970748941
 51
301.21037029250959
  0
ARC
  8
0
  6
DIVIDE
 62
               4
  5
380
 10
-467.5
 20
-592.31229954746937
 30
0.0
 40
65.0
 50
239.99999999999966
 51
299.99999999999932
  0
LINE
  8
0
  6
DIVIDE
 62
               4
  5
381
 10
-556.99999999999989
 20
-644.68970531827779
 30
0.0
 11
-556.99999999999989
 21
-682.39310460364982
 31
0.0
  0
LINE
  8
0
  6
DIVIDE
 62
               4
  5
382
 10
-442.99999999999983
 20
-652.51819626863778
 30
0.0
 11
-442.99999999999983
 21
-682.39310460364982
 31
0.0
  0
ARC
  8
0
  6
DIVIDE
 62
               4
  5
383
 10
-532.5
 20
-592.31229954746948
 30
0.0
 40
65.0
 50
239.99999999999929
 51
247.85677929855132
  0
LINE
  8
0
  6
DIVIDE
 62
               4
  5
384
 10
-435.0
 20
-562.49999999999886
 30
0.0
 11
-435.0
 21
-648.6039507934579
 31
0.0
  0
LINE
  8
0
  6
DIVIDE
 62
               4
  5
385
 10
-565.0
 20
-562.49999999999886
 30
0.0
 11
-565.0
 21
-648.6039507934579
 31
0.0
  0
ARC
  8
0
  6
DIVIDE
 62
               4
  5
386
 10
471.49999999999818
 20
-729.43298130416849
 30
0.0
 40
55.0
 50
58.789629707489617
 51
121.21037029250985
  0
ARC
  8
0
  6
DIVIDE
 62
               4
  5
387
 10
471.49999999999818
 20
-635.35322790313091
 30
0.0
 40
55.0
 50
238.78962970748935
 51
301.21037029250937
  0
ARC
  8
0
  6
DIVIDE
 62
               4
  5
388
 10
467.49999999999807
 20
-704.89560203944632
 30
0.0
 40
65.0
 50
59.999999999999723
 51
119.99999999999987
  0
ARC
  8
0
  6
DIVIDE
 62
               4
  5
389
 10
528.49999999999818
 20
-635.35322790313114
 30
0.0
 40
55.0
 50
238.78962970748941
 51
301.21037029250959
  0
ARC
  8
0
  6
DIVIDE
 62
               4
  5
38A
 10
532.49999999999807
 20
-592.31229954746925
 30
0.0
 40
65.0
 50
239.99999999999966
 51
299.99999999999932
  0
LINE
  8
0
  6
DIVIDE
 62
               4
  5
38B
 10
442.99999999999818
 20
-644.68970531827779
 30
0.0
 11
442.99999999999818
 21
-682.3931046036497
 31
0.0
  0
LINE
  8
0
  6
DIVIDE
 62
               4
  5
38C
 10
556.99999999999818
 20
-652.51819626863778
 30
0.0
 11
556.99999999999818
 21
-682.3931046036497
 31
0.0
  0
ARC
  8
0
  6
DIVIDE
 62
               4
  5
38D
 10
467.49999999999807
 20
-592.31229954746948
 30
0.0
 40
65.0
 50
239.99999999999929
 51
247.85677929855132
  0
LINE
  8
0
  6
DIVIDE
 62
               4
  5
38E
 10
564.99999999999807
 20
-562.49999999999875
 30
0.0
 11
564.99999999999807
 21
-648.60395079345778
 31
0.0
  0
LINE
  8
0
  6
DIVIDE
 62
               4
  5
38F
 10
434.99999999999807
 20
-562.49999999999875
 30
0.0
 11
434.99999999999807
 21
-648.60395079345778
 31
0.0
  0
ARC
  8
0
  6
DIVIDE
 62
               4
  5
390
 10
-28.500000000000512
 20
-729.43298130416838
 30
0.0
 40
55.0
 50
58.789629707489617
 51
121.21037029250985
  0
ARC
  8
0
  6
DIVIDE
 62
               4
  5
391
 10
-28.500000000000512
 20
-635.3532279031308
 30
0.0
 40
55.0
 50
238.78962970748935
 51
301.21037029250937
  0
ARC
  8
0
  6
DIVIDE
 62
               4
  5
392
 10
-32.500000000000568
 20
-704.8956020394462
 30
0.0
 40
65.0
 50
59.999999999999723
 51
119.99999999999987
  0
ARC
  8
0
  6
DIVIDE
 62
               4
  5
393
 10
28.499999999999517
 20
-635.35322790313103
 30
0.0
 40
55.0
 50
238.78962970748941
 51
301.21037029250959
  0
ARC
  8
0
  6
DIVIDE
 62
               4
  5
394
 10
32.499999999999432
 20
-592.31229954746914
 30
0.0
 40
65.0
 50
239.99999999999966
 51
299.99999999999932
  0
LINE
  8
0
  6
DIVIDE
 62
               4
  5
395
 10
-57.000000000000455
 20
-644.68970531827767
 30
0.0
 11
-57.000000000000455
 21
-682.39310460364959
 31
0.0
  0
LINE
  8
0
  6
DIVIDE
 62
               4
  5
396
 10
56.999999999999602
 20
-652.51819626863767
 30
0.0
 11
56.999999999999602
 21
-682.39310460364959
 31
0.0
  0
ARC
  8
0
  6
DIVIDE
 62
               4
  5
397
 10
-32.500000000000568
 20
-592.31229954746937
 30
0.0
 40
65.0
 50
239.99999999999929
 51
247.85677929855132
  0
LINE
  8
0
  6
DIVIDE
 62
               4
  5
398
 10
64.999999999999403
 20
-562.49999999999886
 30
0.0
 11
64.999999999999403
 21
-648.60395079345767
 31
0.0
  0
LINE
  8
0
  6
DIVIDE
 62
               4
  5
399
 10
-65.000000000000568
 20
-562.49999999999886
 30
0.0
 11
-65.000000000000568
 21
-648.60395079345767
 31
0.0
  0
LINE
  8
0
  6
CONTINUOUS
 62
               4
  5
39A
 10
-565.50000000000091
 20
-587.49999999999886
 30
0.0
 11
-434.49999999999903
 21
-587.49999999999886
 31
0.0
  0
LINE
  8
0
  6
CONTINUOUS
 62
               4
  5
39B
 10
434.49999999999704
 20
-587.49999999999875
 30
0.0
 11
565.49999999999909
 21
-587.49999999999875
 31
0.0
  0
LINE
  8
0
  6
CONTINUOUS
 62
               4
  5
39C
 10
-65.500000000001535
 20
-587.49999999999864
 30
0.0
 11
65.500000000000369
 21
-587.49999999999864
 31
0.0
  0
LINE
  8
0
  6
CONTINUOUS
 62
               4
  5
39D
 10
-91.000000000000512
 20
-488.24522178732235
 30
0.0
 11
-91.000000000000512
 21
-478.37093558026658
 31
0.0
  0
LINE
  8
0
  6
CONTINUOUS
 62
               4
  5
39E
 10
90.999999999999233
 20
-488.24522178732235
 30
0.0
 11
90.999999999999233
 21
-478.37093558026658
 31
0.0
  0
POINT
  8
0
  6
CONTINUOUS
 62
               4
  5
39F
 10
-247.03776905046863
 20
-1059.5413000848405
 30
0.0
  0
POINT
  8
0
  6
CONTINUOUS
 62
               4
  5
3A0
 10
-537.23776905046839
 20
-1059.5413000848405
 30
0.0
  0
POINT
  8
0
  6
CONTINUOUS
 62
               4
  5
3A1
 10
-349.58372644623518
 20
-951.4734160158057
 30
0.0
  0
POINT
  8
0
  6
CONTINUOUS
 62
               4
  5
3A2
 10
242.83392368588108
 20
-1059.5413000848405
 30
0.0
  0
POINT
  8
0
  6
CONTINUOUS
 62
               4
  5
3A3
 10
-1.0781087646048002
 20
-1059.5413000848405
 30
0.0
  0
POINT
  8
0
  6
CONTINUOUS
 62
               4
  5
3A4
 10
165.37790746063826
 20
-971.58528385959789
 30
0.0
  0
LINE
  8
0
  6
CONTINUOUS
 62
               4
  5
3A5
 10
686.28652321630784
 20
-1451.320644508781
 30
0.0
 11
681.28652321630784
 21
-1446.320644508781
 31
0.0
  0
ARC
  8
0
  6
CONTINUOUS
 62
               4
  5
3A6
 10
663.78652321630784
 20
-1461.8562982616338
 30
0.0
 40
19.999999999999996
 50
0.0
 51
31.788330617027277
  0
LINE
  8
0
  6
CONTINUOUS
 62
               4
  5
3A7
 10
680.7865232163083
 20
-1451.320644508781
 30
0.0
 11
680.7865232163083
 21
-1446.3206445087806
 31
0.0
  0
LINE
  8
0
  6
CONTINUOUS
 62
               4
  5
3A8
 10
681.28652321630784
 20
-1446.320644508781
 30
0.0
 11
680.7865232163083
 21
-1446.320644508781
 31
0.0
  0
LINE
  8
0
  6
CONTINUOUS
 62
               4
  5
3A9
 10
686.03652321630807
 20
-1451.570644508781
 30
0.0
 11
680.7865232163083
 21
-1446.320644508781
 31
0.0
  0
LINE
  8
0
  6
CONTINUOUS
 62
               4
  5
3AA
 10
686.03652321630807
 20
-1451.570644508781
 30
0.0
 11
686.28652321630784
 21
-1451.320644508781
 31
0.0
  0
LINE
  8
0
  6
CONTINUOUS
 62
               4
  5
3AB
 10
686.28652321630784
 20
-1451.320644508781
 30
0.0
 11
686.28652321630784
 21
-1582.009321858751
 31
0.0
  0
LINE
  8
0
  6
CONTINUOUS
 62
               4
  5
3AC
 10
686.03652321630807
 20
-1451.570644508781
 30
0.0
 11
686.03652321630807
 21
-1581.7239647516155
 31
0.0
  0
LINE
  8
0
  6
CONTINUOUS
 62
               4
  5
3AD
 10
683.78652321630784
 20
-1461.7032746645166
 30
0.0
 11
683.78652321630784
 21
-1580.8562982616338
 31
0.0
  0
POINT
  8
0
  6
CONTINUOUS
 62
               4
  5
3AE
 10
653.78652321630807
 20
-1190.7568645130498
 30
0.0
  0
POINT
  8
0
  6
CONTINUOUS
 62
               4
  5
3AF
 10
464.88652321630792
 20
-1476.3562982616338
 30
0.0
  0
POINT
  8
0
  6
CONTINUOUS
 62
               4
  5
3B0
 10
464.88652321630803
 20
-1090.8568645130492
 30
0.0
  0
CIRCLE
  8
0
  6
CONTINUOUS
 62
               7
  5
3B1
 10
-392.13776905046865
 20
-1110.5413000848405
 30
0.0
 40
38.0
  0
CIRCLE
  8
0
  6
CONTINUOUS
 62
               7
  5
3B2
 10
-392.13776905046865
 20
-1110.5413000848405
 30
0.0
 40
33.5
  0
LINE
  8
0
  6
CONTINUOUS
 62
               7
  5
3B3
 10
-247.63776905046865
 20
-1059.5413000848405
 30
0.0
 11
-247.63776905046865
 21
-1148.536063964166
 31
0.0
  0
LINE
  8
0
  6
CONTINUOUS
 62
               7
  5
3B4
 10
-247.03776905046863
 20
-1059.5413000848405
 30
0.0
 11
-247.63776905046865
 21
-1059.5413000848405
 31
0.0
  0
LINE
  8
0
  6
CONTINUOUS
 62
               7
  5
3B5
 10
-282.63776905046865
 20
-1147.5413000848405
 30
0.0
 11
-282.63776905046865
 21
-1073.5413000848405
 31
0.0
  0
LINE
  8
0
  6
CONTINUOUS
 62
               7
  5
3B6
 10
-189.63776905046865
 20
-1147.5413000848405
 30
0.0
 11
-189.63776905046865
 21
-1060.5413000848405
 31
0.0
  0
LINE
  8
0
  6
CONTINUOUS
 62
               7
  5
3B7
 10
-247.63776905046865
 20
-1059.5413000848405
 30
0.0
 11
-190.63776905046865
 21
-1059.5413000848405
 31
0.0
  0
LINE
  8
0
  6
CONTINUOUS
 62
               7
  5
3B8
 10
-281.63776905046865
 20
-1148.5413000848405
 30
0.0
 11
-190.63776905046865
 21
-1148.5413000848405
 31
0.0
  0
LINE
  8
0
  6
CONTINUOUS
 62
               7
  5
3B9
 10
-190.63776905046865
 20
-1059.5413000848405
 30
0.0
 11
-189.63776905046865
 21
-1060.5413000848405
 31
0.0
  0
LINE
  8
0
  6
CONTINUOUS
 62
               7
  5
3BA
 10
-189.63776905046865
 20
-1147.5413000848405
 30
0.0
 11
-190.63776905046865
 21
-1148.5413000848405
 31
0.0
  0
LINE
  8
0
  6
CONTINUOUS
 62
               7
  5
3BB
 10
-281.63776905046865
 20
-1072.5413000848405
 30
0.0
 11
-247.63776905046865
 21
-1072.5413000848405
 31
0.0
  0
CIRCLE
  8
0
  6
CONTINUOUS
 62
               7
  5
3BC
 10
-392.13776905046865
 20
-1104.0413000848405
 30
0.0
 40
44.5
  0
LINE
  8
0
  6
CONTINUOUS
 62
               7
  5
3BD
 10
-281.63776905046865
 20
-1072.5413000848405
 30
0.0
 11
-282.63776905046865
 21
-1073.5413000848405
 31
0.0
  0
LINE
  8
0
  6
CONTINUOUS
 62
               7
  5
3BE
 10
-282.63776905046865
 20
-1147.5413000848405
 30
0.0
 11
-281.63776905046865
 21
-1148.5413000848405
 31
0.0
  0
LINE
  8
0
  6
CONTINUOUS
 62
               7
  5
3BF
 10
-536.63776905046848
 20
-1059.5413000848405
 30
0.0
 11
-536.63776905046848
 21
-1148.536063964166
 31
0.0
  0
LINE
  8
0
  6
CONTINUOUS
 62
               7
  5
3C0
 10
-537.23776905046839
 20
-1059.5413000848405
 30
0.0
 11
-536.63776905046848
 21
-1059.5413000848405
 31
0.0
  0
LINE
  8
0
  6
CONTINUOUS
 62
               7
  5
3C1
 10
-501.63776905046853
 20
-1147.5413000848405
 30
0.0
 11
-501.63776905046853
 21
-1073.5413000848405
 31
0.0
  0
LINE
  8
0
  6
CONTINUOUS
 62
               7
  5
3C2
 10
-594.63776905046848
 20
-1147.5413000848405
 30
0.0
 11
-594.63776905046848
 21
-1060.5413000848405
 31
0.0
  0
LINE
  8
0
  6
CONTINUOUS
 62
               7
  5
3C3
 10
-536.63776905046848
 20
-1059.5413000848405
 30
0.0
 11
-593.63776905046848
 21
-1059.5413000848405
 31
0.0
  0
LINE
  8
0
  6
CONTINUOUS
 62
               7
  5
3C4
 10
-502.63776905046853
 20
-1148.5413000848405
 30
0.0
 11
-593.63776905046848
 21
-1148.5413000848405
 31
0.0
  0
LINE
  8
0
  6
CONTINUOUS
 62
               7
  5
3C5
 10
-593.63776905046848
 20
-1059.5413000848405
 30
0.0
 11
-594.63776905046848
 21
-1060.5413000848405
 31
0.0
  0
LINE
  8
0
  6
CONTINUOUS
 62
               7
  5
3C6
 10
-594.63776905046848
 20
-1147.5413000848405
 30
0.0
 11
-593.63776905046848
 21
-1148.5413000848405
 31
0.0
  0
LINE
  8
0
  6
CONTINUOUS
 62
               7
  5
3C7
 10
-502.63776905046853
 20
-1072.5413000848405
 30
0.0
 11
-536.63776905046848
 21
-1072.5413000848405
 31
0.0
  0
LINE
  8
0
  6
CONTINUOUS
 62
               7
  5
3C8
 10
-502.63776905046853
 20
-1072.5413000848405
 30
0.0
 11
-501.63776905046853
 21
-1073.5413000848405
 31
0.0
  0
LINE
  8
0
  6
CONTINUOUS
 62
               7
  5
3C9
 10
-501.63776905046853
 20
-1147.5413000848405
 30
0.0
 11
-502.63776905046853
 21
-1148.5413000848405
 31
0.0
  0
LINE
  8
0
  6
CONTINUOUS
 62
               7
  5
3CA
 10
-349.58372644623518
 20
-952.07341601580583
 30
0.0
 11
-438.57849032556061
 21
-952.07341601580561
 31
0.0
  0
LINE
  8
0
  6
CONTINUOUS
 62
               7
  5
3CB
 10
-349.58372644623518
 20
-951.4734160158057
 30
0.0
 11
-349.58372644623518
 21
-952.07341601580583
 31
0.0
  0
LINE
  8
0
  6
CONTINUOUS
 62
               7
  5
3CC
 10
-431.08372644623506
 20
-987.07341601580561
 30
0.0
 11
-357.08372644623518
 21
-987.07341601580583
 31
0.0
  0
LINE
  8
0
  6
CONTINUOUS
 62
               7
  5
3CD
 10
-437.58372644623506
 20
-894.07341601580561
 30
0.0
 11
-350.58372644623518
 21
-894.07341601580583
 31
0.0
  0
LINE
  8
0
  6
CONTINUOUS
 62
               7
  5
3CE
 10
-349.58372644623518
 20
-952.07341601580583
 30
0.0
 11
-349.58372644623518
 21
-895.07341601580583
 31
0.0
  0
LINE
  8
0
  6
CONTINUOUS
 62
               7
  5
3CF
 10
-432.08372644623506
 20
-986.07341601580561
 30
0.0
 11
-432.08372644623506
 21
-952.07341601580561
 31
0.0
  0
LINE
  8
0
  6
CONTINUOUS
 62
               7
  5
3D0
 10
-349.58372644623518
 20
-895.07341601580583
 30
0.0
 11
-350.58372644623518
 21
-894.07341601580583
 31
0.0
  0
LINE
  8
0
  6
CONTINUOUS
 62
               7
  5
3D1
 10
-437.58372644623506
 20
-894.07341601580561
 30
0.0
 11
-438.58372644623506
 21
-895.07341601580561
 31
0.0
  0
LINE
  8
0
  6
CONTINUOUS
 62
               7
  5
3D2
 10
-356.08372644623518
 20
-986.07341601580583
 30
0.0
 11
-356.08372644623518
 21
-952.07341601580561
 31
0.0
  0
LINE
  8
0
  6
CONTINUOUS
 62
               7
  5
3D3
 10
-356.08372644623518
 20
-986.07341601580583
 30
0.0
 11
-357.08372644623518
 21
-987.07341601580583
 31
0.0
  0
LINE
  8
0
  6
CONTINUOUS
 62
               7
  5
3D4
 10
-431.08372644623506
 20
-987.07341601580561
 30
0.0
 11
-432.08372644623506
 21
-986.07341601580561
 31
0.0
  0
LINE
  8
0
  6
CONTINUOUS
 62
               7
  5
3D5
 10
-438.58372644623506
 20
-952.07341601580561
 30
0.0
 11
-438.58372644623506
 21
-895.07341601580561
 31
0.0
  0
LINE
  8
0
  6
CONTINUOUS
 62
               7
  5
3D6
 10
216.63392368588103
 20
-1147.5413000848405
 30
0.0
 11
216.63392368588103
 21
-1089.5413000848405
 31
0.0
  0
LINE
  8
0
  6
CONTINUOUS
 62
               7
  5
3D7
 10
242.23392368588094
 20
-1059.5413000848405
 30
0.0
 11
242.23392368588094
 21
-1148.5413000848405
 31
0.0
  0
LINE
  8
0
  6
CONTINUOUS
 62
               7
  5
3D8
 10
242.83392368588108
 20
-1059.5413000848405
 30
0.0
 11
242.23392368588094
 21
-1059.5413000848405
 31
0.0
  0
LINE
  8
0
  6
CONTINUOUS
 62
               7
  5
3D9
 10
300.23392368588117
 20
-1147.5413000848405
 30
0.0
 11
300.23392368588117
 21
-1060.5413000848405
 31
0.0
  0
CIRCLE
  8
0
  6
CONTINUOUS
 62
               7
  5
3DA
 10
120.87790746063801
 20
-1118.5413000848405
 30
0.0
 40
30.0
  0
CIRCLE
  8
0
  6
CONTINUOUS
 62
               7
  5
3DB
 10
120.87790746063801
 20
-1118.5413000848405
 30
0.0
 40
25.5
  0
CIRCLE
  8
0
  6
CONTINUOUS
 62
               7
  5
3DC
 10
120.87790746063801
 20
-1104.0413000848405
 30
0.0
 40
44.5
  0
LINE
  8
0
  6
CONTINUOUS
 62
               7
  5
3DD
 10
242.36837543136136
 20
-1059.5413000848405
 30
0.0
 11
299.23392368588117
 21
-1059.5413000848405
 31
0.0
  0
LINE
  8
0
  6
CONTINUOUS
 62
               7
  5
3DE
 10
217.63392368588103
 20
-1148.5413000848405
 30
0.0
 11
299.23392368588117
 21
-1148.5413000848405
 31
0.0
  0
LINE
  8
0
  6
CONTINUOUS
 62
               7
  5
3DF
 10
217.63392368588103
 20
-1088.5413000848405
 30
0.0
 11
242.23392368588094
 21
-1088.5413000848405
 31
0.0
  0
LINE
  8
0
  6
CONTINUOUS
 62
               7
  5
3E0
 10
217.63392368588103
 20
-1088.5413000848405
 30
0.0
 11
216.63392368588103
 21
-1089.5413000848405
 31
0.0
  0
LINE
  8
0
  6
CONTINUOUS
 62
               7
  5
3E1
 10
299.23392368588117
 20
-1059.5413000848405
 30
0.0
 11
300.23392368588117
 21
-1060.5413000848405
 31
0.0
  0
LINE
  8
0
  6
CONTINUOUS
 62
               7
  5
3E2
 10
216.63392368588103
 20
-1147.5413000848405
 30
0.0
 11
217.63392368588103
 21
-1148.5413000848405
 31
0.0
  0
LINE
  8
0
  6
CONTINUOUS
 62
               7
  5
3E3
 10
300.23392368588117
 20
-1147.5413000848405
 30
0.0
 11
299.23392368588117
 21
-1148.5413000848405
 31
0.0
  0
LINE
  8
0
  6
CONTINUOUS
 62
               7
  5
3E4
 10
25.121891235395246
 20
-1147.5413000848405
 30
0.0
 11
25.121891235395246
 21
-1089.5413000848405
 31
0.0
  0
LINE
  8
0
  6
CONTINUOUS
 62
               7
  5
3E5
 10
-0.4781087646047774
 20
-1059.5413000848405
 30
0.0
 11
-0.4781087646047774
 21
-1148.5413000848405
 31
0.0
  0
LINE
  8
0
  6
CONTINUOUS
 62
               7
  5
3E6
 10
-1.0781087646048002
 20
-1059.5413000848405
 30
0.0
 11
-0.4781087646047774
 21
-1059.5413000848405
 31
0.0
  0
LINE
  8
0
  6
CONTINUOUS
 62
               7
  5
3E7
 10
-58.478108764604777
 20
-1147.5413000848405
 30
0.0
 11
-58.478108764604777
 21
-1060.5413000848405
 31
0.0
  0
LINE
  8
0
  6
CONTINUOUS
 62
               7
  5
3E8
 10
-0.6125605100850828
 20
-1059.5413000848405
 30
0.0
 11
-57.478108764604777
 21
-1059.5413000848405
 31
0.0
  0
LINE
  8
0
  6
CONTINUOUS
 62
               7
  5
3E9
 10
24.121891235395246
 20
-1148.5413000848405
 30
0.0
 11
-57.478108764604777
 21
-1148.5413000848405
 31
0.0
  0
LINE
  8
0
  6
CONTINUOUS
 62
               7
  5
3EA
 10
24.121891235395246
 20
-1088.5413000848405
 30
0.0
 11
-0.4781087646047774
 21
-1088.5413000848405
 31
0.0
  0
LINE
  8
0
  6
CONTINUOUS
 62
               7
  5
3EB
 10
24.121891235395246
 20
-1088.5413000848405
 30
0.0
 11
25.121891235395246
 21
-1089.5413000848405
 31
0.0
  0
LINE
  8
0
  6
CONTINUOUS
 62
               7
  5
3EC
 10
-57.478108764604777
 20
-1059.5413000848405
 30
0.0
 11
-58.478108764604777
 21
-1060.5413000848405
 31
0.0
  0
LINE
  8
0
  6
CONTINUOUS
 62
               7
  5
3ED
 10
25.121891235395246
 20
-1147.5413000848405
 30
0.0
 11
24.121891235395246
 21
-1148.5413000848405
 31
0.0
  0
LINE
  8
0
  6
CONTINUOUS
 62
               7
  5
3EE
 10
-58.478108764604777
 20
-1147.5413000848405
 30
0.0
 11
-57.478108764604777
 21
-1148.5413000848405
 31
0.0
  0
LINE
  8
0
  6
CONTINUOUS
 62
               7
  5
3EF
 10
91.877907460638241
 20
-997.78528385959794
 30
0.0
 11
149.87790746063826
 21
-997.78528385959794
 31
0.0
  0
LINE
  8
0
  6
CONTINUOUS
 62
               7
  5
3F0
 10
165.37790746063826
 20
-972.1852838595978
 30
0.0
 11
76.377907460638241
 21
-972.1852838595978
 31
0.0
  0
LINE
  8
0
  6
CONTINUOUS
 62
               7
  5
3F1
 10
165.37790746063826
 20
-971.58528385959789
 30
0.0
 11
165.37790746063826
 21
-972.1852838595978
 31
0.0
  0
LINE
  8
0
  6
CONTINUOUS
 62
               7
  5
3F2
 10
77.377907460638241
 20
-914.1852838595978
 30
0.0
 11
164.37790746063826
 21
-914.1852838595978
 31
0.0
  0
LINE
  8
0
  6
CONTINUOUS
 62
               7
  5
3F3
 10
165.37790746063826
 20
-972.05083211411761
 30
0.0
 11
165.37790746063826
 21
-915.1852838595978
 31
0.0
  0
LINE
  8
0
  6
CONTINUOUS
 62
               7
  5
3F4
 10
90.877907460638241
 20
-996.78528385959794
 30
0.0
 11
90.877907460638241
 21
-972.1852838595978
 31
0.0
  0
LINE
  8
0
  6
CONTINUOUS
 62
               7
  5
3F5
 10
150.87790746063826
 20
-996.78528385959794
 30
0.0
 11
150.87790746063826
 21
-972.1852838595978
 31
0.0
  0
LINE
  8
0
  6
CONTINUOUS
 62
               7
  5
3F6
 10
150.87790746063826
 20
-996.78528385959794
 30
0.0
 11
149.87790746063826
 21
-997.78528385959794
 31
0.0
  0
LINE
  8
0
  6
CONTINUOUS
 62
               7
  5
3F7
 10
165.37790746063826
 20
-915.1852838595978
 30
0.0
 11
164.37790746063826
 21
-914.1852838595978
 31
0.0
  0
LINE
  8
0
  6
CONTINUOUS
 62
               7
  5
3F8
 10
91.877907460638241
 20
-997.78528385959794
 30
0.0
 11
90.877907460638241
 21
-996.78528385959794
 31
0.0
  0
LINE
  8
0
  6
CONTINUOUS
 62
               7
  5
3F9
 10
77.377907460638241
 20
-914.1852838595978
 30
0.0
 11
76.377907460638241
 21
-915.1852838595978
 31
0.0
  0
LINE
  8
0
  6
CONTINUOUS
 62
               7
  5
3FA
 10
76.377907460638241
 20
-972.05083211411738
 30
0.0
 11
76.377907460638241
 21
-915.1852838595978
 31
0.0
  0
CIRCLE
  8
0
  6
CONTINUOUS
 62
               7
  5
3FB
 10
609.28652321630807
 20
-1535.3562982616338
 30
0.0
 40
25.5
  0
CIRCLE
  8
0
  6
CONTINUOUS
 62
               7
  5
3FC
 10
609.28652321630807
 20
-1520.8562982616338
 30
0.0
 40
44.5
  0
CIRCLE
  8
0
  6
CONTINUOUS
 62
               7
  5
3FD
 10
609.28652321630807
 20
-1535.3562982616338
 30
0.0
 40
30.0
  0
LINE
  8
0
  6
CONTINUOUS
 62
               7
  5
3FE
 10
580.28652321630807
 20
-1216.9568645130496
 30
0.0
 11
638.28652321630807
 21
-1216.9568645130496
 31
0.0
  0
LINE
  8
0
  6
CONTINUOUS
 62
               7
  5
3FF
 10
653.78652321630807
 20
-1191.3568645130497
 30
0.0
 11
564.78652321630807
 21
-1191.3568645130497
 31
0.0
  0
LINE
  8
0
  6
CONTINUOUS
 62
               7
  5
400
 10
653.78652321630807
 20
-1190.7568645130498
 30
0.0
 11
653.78652321630807
 21
-1191.3568645130497
 31
0.0
  0
LINE
  8
0
  6
CONTINUOUS
 62
               7
  5
401
 10
565.78652321630807
 20
-1133.3568645130492
 30
0.0
 11
652.78652321630807
 21
-1133.3568645130492
 31
0.0
  0
LINE
  8
0
  6
CONTINUOUS
 62
               7
  5
402
 10
653.78652321630807
 20
-1191.2224127675693
 30
0.0
 11
653.78652321630807
 21
-1134.3568645130492
 31
0.0
  0
LINE
  8
0
  6
CONTINUOUS
 62
               7
  5
403
 10
579.28652321630807
 20
-1215.9568645130496
 30
0.0
 11
579.28652321630807
 21
-1191.3568645130497
 31
0.0
  0
LINE
  8
0
  6
CONTINUOUS
 62
               7
  5
404
 10
639.28652321630807
 20
-1215.9568645130496
 30
0.0
 11
639.28652321630807
 21
-1191.3568645130497
 31
0.0
  0
LINE
  8
0
  6
CONTINUOUS
 62
               7
  5
405
 10
639.28652321630807
 20
-1215.9568645130496
 30
0.0
 11
638.28652321630807
 21
-1216.9568645130496
 31
0.0
  0
LINE
  8
0
  6
CONTINUOUS
 62
               7
  5
406
 10
653.78652321630807
 20
-1134.3568645130492
 30
0.0
 11
652.78652321630807
 21
-1133.3568645130492
 31
0.0
  0
LINE
  8
0
  6
CONTINUOUS
 62
               7
  5
407
 10
580.28652321630807
 20
-1216.9568645130496
 30
0.0
 11
579.28652321630807
 21
-1215.9568645130496
 31
0.0
  0
LINE
  8
0
  6
CONTINUOUS
 62
               7
  5
408
 10
565.78652321630807
 20
-1133.3568645130492
 30
0.0
 11
564.78652321630807
 21
-1134.3568645130492
 31
0.0
  0
LINE
  8
0
  6
CONTINUOUS
 62
               7
  5
409
 10
564.78652321630807
 20
-1191.2224127675693
 30
0.0
 11
564.78652321630807
 21
-1134.3568645130492
 31
0.0
  0
LINE
  8
0
  6
CONTINUOUS
 62
               7
  5
40A
 10
464.2865232163079
 20
-1476.3562982616338
 30
0.0
 11
464.2865232163079
 21
-1565.3510621409594
 31
0.0
  0
LINE
  8
0
  6
CONTINUOUS
 62
               7
  5
40B
 10
464.88652321630792
 20
-1476.3562982616338
 30
0.0
 11
464.2865232163079
 21
-1476.3562982616338
 31
0.0
  0
LINE
  8
0
  6
CONTINUOUS
 62
               7
  5
40C
 10
429.2865232163079
 20
-1564.3562982616338
 30
0.0
 11
429.2865232163079
 21
-1490.3562982616338
 31
0.0
  0
LINE
  8
0
  6
CONTINUOUS
 62
               7
  5
40D
 10
522.28652321630807
 20
-1564.3562982616338
 30
0.0
 11
522.28652321630807
 21
-1477.3562982616338
 31
0.0
  0
LINE
  8
0
  6
CONTINUOUS
 62
               7
  5
40E
 10
464.2865232163079
 20
-1476.3562982616338
 30
0.0
 11
521.28652321630807
 21
-1476.3562982616338
 31
0.0
  0
LINE
  8
0
  6
CONTINUOUS
 62
               7
  5
40F
 10
430.2865232163079
 20
-1565.3562982616338
 30
0.0
 11
521.28652321630807
 21
-1565.3562982616338
 31
0.0
  0
LINE
  8
0
  6
CONTINUOUS
 62
               7
  5
410
 10
521.28652321630807
 20
-1476.3562982616338
 30
0.0
 11
522.28652321630807
 21
-1477.3562982616338
 31
0.0
  0
LINE
  8
0
  6
CONTINUOUS
 62
               7
  5
411
 10
522.28652321630807
 20
-1564.3562982616338
 30
0.0
 11
521.28652321630807
 21
-1565.3562982616338
 31
0.0
  0
LINE
  8
0
  6
CONTINUOUS
 62
               7
  5
412
 10
430.2865232163079
 20
-1489.3562982616338
 30
0.0
 11
464.2865232163079
 21
-1489.3562982616338
 31
0.0
  0
LINE
  8
0
  6
CONTINUOUS
 62
               7
  5
413
 10
430.2865232163079
 20
-1489.3562982616338
 30
0.0
 11
429.2865232163079
 21
-1490.3562982616338
 31
0.0
  0
LINE
  8
0
  6
CONTINUOUS
 62
               7
  5
414
 10
429.2865232163079
 20
-1564.3562982616338
 30
0.0
 11
430.2865232163079
 21
-1565.3562982616338
 31
0.0
  0
LINE
  8
0
  6
CONTINUOUS
 62
               7
  5
415
 10
464.2865232163079
 20
-1090.8568645130492
 30
0.0
 11
464.28652321630813
 21
-1001.8621006337239
 31
0.0
  0
LINE
  8
0
  6
CONTINUOUS
 62
               7
  5
416
 10
464.88652321630803
 20
-1090.8568645130492
 30
0.0
 11
464.2865232163079
 21
-1090.8568645130492
 31
0.0
  0
LINE
  8
0
  6
CONTINUOUS
 62
               7
  5
417
 10
429.28652321630813
 20
-1009.3568645130495
 30
0.0
 11
429.2865232163079
 21
-1083.3568645130492
 31
0.0
  0
LINE
  8
0
  6
CONTINUOUS
 62
               7
  5
418
 10
522.2865232163083
 20
-1002.8568645130497
 30
0.0
 11
522.28652321630807
 21
-1089.8568645130492
 31
0.0
  0
LINE
  8
0
  6
CONTINUOUS
 62
               7
  5
419
 10
464.2865232163079
 20
-1090.8568645130492
 30
0.0
 11
521.28652321630807
 21
-1090.8568645130492
 31
0.0
  0
LINE
  8
0
  6
CONTINUOUS
 62
               7
  5
41A
 10
430.28652321630813
 20
-1008.3568645130495
 30
0.0
 11
464.28652321630813
 21
-1008.3568645130495
 31
0.0
  0
LINE
  8
0
  6
CONTINUOUS
 62
               7
  5
41B
 10
521.28652321630807
 20
-1090.8568645130492
 30
0.0
 11
522.28652321630807
 21
-1089.8568645130492
 31
0.0
  0
LINE
  8
0
  6
CONTINUOUS
 62
               7
  5
41C
 10
522.2865232163083
 20
-1002.8568645130497
 30
0.0
 11
521.2865232163083
 21
-1001.8568645130497
 31
0.0
  0
LINE
  8
0
  6
CONTINUOUS
 62
               7
  5
41D
 10
430.2865232163079
 20
-1084.3568645130492
 30
0.0
 11
464.28652321630813
 21
-1084.3568645130492
 31
0.0
  0
LINE
  8
0
  6
CONTINUOUS
 62
               7
  5
41E
 10
430.2865232163079
 20
-1084.3568645130492
 30
0.0
 11
429.2865232163079
 21
-1083.3568645130492
 31
0.0
  0
LINE
  8
0
  6
CONTINUOUS
 62
               7
  5
41F
 10
429.28652321630813
 20
-1009.3568645130495
 30
0.0
 11
430.28652321630813
 21
-1008.3568645130495
 31
0.0
  0
LINE
  8
0
  6
CONTINUOUS
 62
               7
  5
420
 10
464.28652321630813
 20
-1001.8568645130495
 30
0.0
 11
521.2865232163083
 21
-1001.8568645130495
 31
0.0
  0
CIRCLE
  8
0
  6
DASHED
 62
               7
  5
421
 10
-392.13776905046865
 20
-1104.0413000848405
 30
0.0
 40
40.0
  0
CIRCLE
  8
0
  6
DASHED
 62
               7
  5
422
 10
120.87790746063801
 20
-1104.0413000848405
 30
0.0
 40
40.0
  0
CIRCLE
  8
0
  6
DASHED
 62
               7
  5
423
 10
609.28652321630807
 20
-1520.8562982616338
 30
0.0
 40
40.0
  0
TEXT
  8
0
 62
               3
  5
424
 10
-392.13776905046865
 20
-1188.5413000848405
 30
0.0
 40
40.0
  1
EMB_80×65
 41
0.8
 72
               1
 11
-392.13776905046865
 21
-1188.5413000848405
 31
0.0
 73
               3
  0
TEXT
  8
0
 62
               3
  5
425
 10
120.87790746063801
 20
-1188.5413000848405
 30
0.0
 40
40.0
  1
EMB_80×50
 41
0.8
 72
               1
 11
120.87790746063801
 21
-1188.5413000848405
 31
0.0
 73
               3
  0
TEXT
  8
0
 62
               3
  5
426
 10
605.58911923866776
 20
-866.91049600783026
 30
0.0
 40
40.0
  1
EMB使用例
 41
0.8
 72
               1
 11
605.58911923866776
 21
-866.91049600783026
 31
0.0
 73
               3
  0
TEXT
  8
0
 62
               3
  5
427
 10
-123.74270409089085
 20
-812.55036010749086
 30
0.0
 40
35.0
  1
横枝管に呼び６５、５０の管を接続するときは、EMBをご使用ください。
 41
0.8
 72
               1
 11
-123.74270409089085
 21
-812.55036010749086
 31
0.0
 73
               3
  0
ENDSEC
  0
EOF
