  0
SECTION
  2
HEADER
  9
$ACADVER
  1
AC1009
  9
$INSBASE
 10
0.0
 20
0.0
 30
0.0
  9
$EXTMIN
 10
-624.37127241175222
 20
-700.15826829115008
 30
0.0
  9
$EXTMAX
 10
598.07500503566985
 20
640.72393510091092
 30
0.0
  9
$LIMMIN
 10
-662.57271858198419
 20
-742.06083714715203
  9
$LIMMAX
 10
636.27645120590182
 20
682.62650395691287
  9
$ORTHOMODE
 70
               0
  9
$REGENMODE
 70
               1
  9
$FILLMODE
 70
               1
  9
$QTEXTMODE
 70
               0
  9
$MIRRTEXT
 70
               1
  9
$DRAGMODE
 70
               2
  9
$LTSCALE
 40
1.0
  9
$OSMODE
 70
               0
  9
$ATTMODE
 70
               1
  9
$TEXTSIZE
 40
0.2
  9
$TRACEWID
 40
0.05
  9
$TEXTSTYLE
  7
STANDARD
  9
$CLAYER
  8
0
  9
$CELTYPE
  6
CONTINUOUS
  9
$CECOLOR
 62
             256
  9
$DIMSCALE
 40
1.0
  9
$DIMASZ
 40
0.18
  9
$DIMEXO
 40
0.0625
  9
$DIMDLI
 40
0.38
  9
$DIMRND
 40
0.0
  9
$DIMDLE
 40
0.0
  9
$DIMEXE
 40
0.18
  9
$DIMTP
 40
0.0
  9
$DIMTM
 40
0.0
  9
$DIMTXT
 40
0.18
  9
$DIMCEN
 40
0.09
  9
$DIMTSZ
 40
0.0
  9
$DIMTOL
 70
               0
  9
$DIMLIM
 70
               0
  9
$DIMTIH
 70
               1
  9
$DIMTOH
 70
               1
  9
$DIMSE1
 70
               0
  9
$DIMSE2
 70
               0
  9
$DIMTAD
 70
               0
  9
$DIMZIN
 70
               0
  9
$DIMBLK
  1

  9
$DIMASO
 70
               1
  9
$DIMSHO
 70
               1
  9
$DIMPOST
  1

  9
$DIMAPOST
  1

  9
$DIMALT
 70
               0
  9
$DIMALTD
 70
               2
  9
$DIMALTF
 40
25.399999999999999
  9
$DIMLFAC
 40
1.0
  9
$DIMTOFL
 70
               0
  9
$DIMTVP
 40
0.0
  9
$DIMTIX
 70
               0
  9
$DIMSOXD
 70
               0
  9
$DIMSAH
 70
               0
  9
$DIMBLK1
  1

  9
$DIMBLK2
  1

  9
$DIMSTYLE
  2
STANDARD
  9
$DIMCLRD
 70
               0
  9
$DIMCLRE
 70
               0
  9
$DIMCLRT
 70
               0
  9
$DIMTFAC
 40
1.0
  9
$DIMGAP
 40
0.09
  9
$LUNITS
 70
               2
  9
$LUPREC
 70
               4
  9
$AXISMODE
 70
               0
  9
$AXISUNIT
 10
0.0
 20
0.0
  9
$SKETCHINC
 40
0.1
  9
$FILLETRAD
 40
0.0
  9
$AUNITS
 70
               0
  9
$AUPREC
 70
               0
  9
$MENU
  1
acad
  9
$ELEVATION
 40
0.0
  9
$PELEVATION
 40
0.0
  9
$THICKNESS
 40
0.0
  9
$LIMCHECK
 70
               0
  9
$BLIPMODE
 70
               1
  9
$CHAMFERA
 40
0.0
  9
$CHAMFERB
 40
0.0
  9
$SKPOLY
 70
               0
  9
$TDCREATE
 40
0.000000000
  9
$TDUPDATE
 40
0.000000000
  9
$TDINDWG
 40
0.0000000000
  9
$TDUSRTIMER
 40
0.0000000000
  9
$USRTIMER
 70
               1
  9
$ANGBASE
 50
0.0
  9
$ANGDIR
 70
               0
  9
$PDMODE
 70
               0
  9
$PDSIZE
 40
1.0
  9
$PLINEWID
 40
0.0
  9
$COORDS
 70
               1
  9
$SPLFRAME
 70
               0
  9
$SPLINETYPE
 70
               6
  9
$SPLINESEGS
 70
               8
  9
$ATTDIA
 70
               0
  9
$ATTREQ
 70
               1
  9
$HANDLING
 70
               1
  9
$HANDSEED
  5
35E
  9
$SURFTAB1
 70
               6
  9
$SURFTAB2
 70
               6
  9
$SURFTYPE
 70
               6
  9
$SURFU
 70
               6
  9
$SURFV
 70
               6
  9
$UCSNAME
  2

  9
$UCSORG
 10
0.0
 20
0.0
 30
0.0
  9
$UCSXDIR
 10
1.0
 20
0.0
 30
0.0
  9
$UCSYDIR
 10
0.0
 20
1.0
 30
0.0
  9
$PUCSNAME
  2

  9
$PUCSORG
 10
0.0
 20
0.0
 30
0.0
  9
$PUCSXDIR
 10
1.0
 20
0.0
 30
0.0
  9
$PUCSYDIR
 10
0.0
 20
1.0
 30
0.0
  9
$USERI1
 70
               0
  9
$USERI2
 70
               0
  9
$USERI3
 70
               0
  9
$USERI4
 70
               0
  9
$USERI5
 70
               0
  9
$USERR1
 40
0.0
  9
$USERR2
 40
0.0
  9
$USERR3
 40
0.0
  9
$USERR4
 40
0.0
  9
$USERR5
 40
0.0
  9
$WORLDVIEW
 70
               1
  9
$SHADEDGE
 70
               3
  9
$SHADEDIF
 70
              70
  9
$TILEMODE
 70
               1
  9
$MAXACTVP
 70
              16
  9
$PINSBASE
 10
0.0
 20
0.0
 30
0.0
  9
$PLIMCHECK
 70
               0
  9
$PEXTMIN
 10
1.0000000000000000E+20
 20
1.0000000000000000E+20
 30
1.0000000000000000E+20
  9
$PEXTMAX
 10
-1.0000000000000000E+20
 20
-1.0000000000000000E+20
 30
-1.0000000000000000E+20
  9
$PLIMMIN
 10
0.0
 20
0.0
  9
$PLIMMAX
 10
12.0
 20
9.0
  9
$UNITMODE
 70
               0
  9
$VISRETAIN
 70
               0
  9
$PLINEGEN
 70
               1
  9
$PSLTSCALE
 70
               0
  9
$TREEDEPTH
 70
            3020
  9
$DWGCODEPAGE
  3
dos932
  0
ENDSEC
  0
SECTION
  2
TABLES
  0
TABLE
  2
VPORT
 70
               1
  0
VPORT
  2
*ACTIVE
 70
               0
 10
0.0
 20
0.0
 11
1.0
 21
1.0
 12
-13.148133688041185
 22
-29.717166595119579
 13
0.0
 23
0.0
 14
1.0
 24
1.0
 15
0.0
 25
0.0
 16
0.0
 26
0.0
 36
1.0
 17
0.0
 27
0.0
 37
0.0
 40
1424.6873411040649
 41
0.9116731315808139
 42
50.0
 43
0.0
 44
0.0
 50
0.0
 51
0.0
 71
               0
 72
             100
 73
               1
 74
               1
 75
               0
 76
               0
 77
               0
 78
               0
  0
ENDTAB
  0
TABLE
  2
LTYPE
 70
              26
  0
LTYPE
  2
CONTINUOUS
 70
               0
  3
Solid line
 72
              65
 73
               0
 40
0.0
  0
LTYPE
  2
HIDDENX2
 70
               0
  3
CADPAC FUSION LINETYPE
 72
              65
 73
               2
 40
80.0
 49
60.0
 49
-20.0
  0
LTYPE
  2
HIDDEN
 70
               0
  3
CADPAC FUSION LINETYPE
 72
              65
 73
               2
 40
60.0
 49
40.0
 49
-20.0
  0
LTYPE
  2
HIDDEN2
 70
               0
  3
CADPAC FUSION LINETYPE
 72
              65
 73
               2
 40
50.0
 49
30.0
 49
-20.0
  0
LTYPE
  2
DASHED
 70
               0
  3
CADPAC FUSION LINETYPE
 72
              65
 73
               2
 40
60.0
 49
40.0
 49
-20.0
  0
LTYPE
  2
DASHED2
 70
               0
  3
CADPAC FUSION LINETYPE
 72
              65
 73
               2
 40
45.0
 49
30.0
 49
-15.0
  0
LTYPE
  2
DASHEDX2
 70
               0
  3
CADPAC FUSION LINETYPE
 72
              65
 73
               2
 40
90.0
 49
60.0
 49
-30.0
  0
LTYPE
  2
DOTX2
 70
               0
  3
CADPAC FUSION LINETYPE
 72
              65
 73
               2
 40
25.0
 49
0.0
 49
-25.0
  0
LTYPE
  2
DOT
 70
               0
  3
CADPAC FUSION LINETYPE
 72
              65
 73
               2
 40
20.0
 49
0.0
 49
-20.0
  0
LTYPE
  2
DOTS
 70
               0
  3
CADPAC FUSION LINETYPE
 72
              65
 73
               2
 40
20.0
 49
0.0
 49
-20.0
  0
LTYPE
  2
DOT2
 70
               0
  3
CADPAC FUSION LINETYPE
 72
              65
 73
               2
 40
15.0
 49
0.0
 49
-15.0
  0
LTYPE
  2
CENTERX2
 70
               0
  3
CADPAC FUSION LINETYPE
 72
              65
 73
               4
 40
120.0
 49
50.0
 49
-25.0
 49
20.0
 49
-25.0
  0
LTYPE
  2
CENTER
 70
               0
  3
CADPAC FUSION LINETYPE
 72
              65
 73
               4
 40
92.0
 49
40.0
 49
-20.0
 49
12.0
 49
-20.0
  0
LTYPE
  2
CENTER2
 70
               0
  3
CADPAC FUSION LINETYPE
 72
              65
 73
               4
 40
64.0
 49
30.0
 49
-15.0
 49
4.0
 49
-15.0
  0
LTYPE
  2
DASHDOTX2
 70
               0
  3
CADPAC FUSION LINETYPE
 72
              65
 73
               4
 40
100.0
 49
50.0
 49
-25.0
 49
0.0
 49
-25.0
  0
LTYPE
  2
DASHDOT
 70
               0
  3
CADPAC FUSION LINETYPE
 72
              65
 73
               4
 40
80.0
 49
40.0
 49
-20.0
 49
0.0
 49
-20.0
  0
LTYPE
  2
DASHDOT2
 70
               0
  3
CADPAC FUSION LINETYPE
 72
              65
 73
               4
 40
60.0
 49
30.0
 49
-15.0
 49
0.0
 49
-15.0
  0
LTYPE
  2
DIVIDEX2
 70
               0
  3
CADPAC FUSION LINETYPE
 72
              65
 73
               6
 40
125.0
 49
50.0
 49
-25.0
 49
0.0
 49
-25.0
 49
0.0
 49
-25.0
  0
LTYPE
  2
DIVIDE
 70
               0
  3
CADPAC FUSION LINETYPE
 72
              65
 73
               6
 40
100.0
 49
40.0
 49
-20.0
 49
0.0
 49
-20.0
 49
0.0
 49
-20.0
  0
LTYPE
  2
DIVIDE2
 70
               0
  3
CADPAC FUSION LINETYPE
 72
              65
 73
               6
 40
75.0
 49
30.0
 49
-15.0
 49
0.0
 49
-15.0
 49
0.0
 49
-15.0
  0
LTYPE
  2
BORDERX2
 70
               0
  3
CADPAC FUSION LINETYPE
 72
              65
 73
               6
 40
175.0
 49
50.0
 49
-25.0
 49
50.0
 49
-25.0
 49
0.0
 49
-25.0
  0
LTYPE
  2
BORDER
 70
               0
  3
CADPAC FUSION LINETYPE
 72
              65
 73
               6
 40
140.0
 49
40.0
 49
-20.0
 49
40.0
 49
-20.0
 49
0.0
 49
-20.0
  0
LTYPE
  2
BORDER2
 70
               0
  3
CADPAC FUSION LINETYPE
 72
              65
 73
               6
 40
105.0
 49
30.0
 49
-15.0
 49
30.0
 49
-15.0
 49
0.0
 49
-15.0
  0
LTYPE
  2
PHANTOMX2
 70
               0
  3
CADPAC FUSION LINETYPE
 72
              65
 73
               6
 40
150.0
 49
50.0
 49
-20.0
 49
20.0
 49
-20.0
 49
20.0
 49
-20.0
  0
LTYPE
  2
PHANTOM
 70
               0
  3
CADPAC FUSION LINETYPE
 72
              65
 73
               6
 40
124.0
 49
40.0
 49
-20.0
 49
12.0
 49
-20.0
 49
12.0
 49
-20.0
  0
LTYPE
  2
PHANTOM2
 70
               0
  3
CADPAC FUSION LINETYPE
 72
              65
 73
               6
 40
106.0
 49
30.0
 49
-20.0
 49
8.0
 49
-20.0
 49
8.0
 49
-20.0
  0
ENDTAB
  0
TABLE
  2
LAYER
 70
             256
  0
LAYER
  2
0
 70
               0
 62
               7
  6
CONTINUOUS
  0
LAYER
  2
LAYER001
 70
               0
 62
               7
  6
CONTINUOUS
  0
LAYER
  2
LAYER002
 70
               0
 62
               7
  6
CONTINUOUS
  0
LAYER
  2
LAYER003
 70
               0
 62
               7
  6
CONTINUOUS
  0
LAYER
  2
LAYER004
 70
               0
 62
               7
  6
CONTINUOUS
  0
LAYER
  2
LAYER005
 70
               0
 62
               7
  6
CONTINUOUS
  0
LAYER
  2
LAYER006
 70
               0
 62
               7
  6
CONTINUOUS
  0
LAYER
  2
LAYER007
 70
               0
 62
               7
  6
CONTINUOUS
  0
LAYER
  2
LAYER008
 70
               0
 62
               7
  6
CONTINUOUS
  0
LAYER
  2
LAYER009
 70
               0
 62
               7
  6
CONTINUOUS
  0
LAYER
  2
LAYER010
 70
               0
 62
               7
  6
CONTINUOUS
  0
LAYER
  2
LAYER011
 70
               0
 62
               7
  6
CONTINUOUS
  0
LAYER
  2
LAYER012
 70
               0
 62
               7
  6
CONTINUOUS
  0
LAYER
  2
LAYER013
 70
               0
 62
               7
  6
CONTINUOUS
  0
LAYER
  2
LAYER014
 70
               0
 62
               7
  6
CONTINUOUS
  0
LAYER
  2
LAYER015
 70
               0
 62
               7
  6
CONTINUOUS
  0
LAYER
  2
LAYER016
 70
               0
 62
               7
  6
CONTINUOUS
  0
LAYER
  2
LAYER017
 70
               0
 62
               7
  6
CONTINUOUS
  0
LAYER
  2
LAYER018
 70
               0
 62
               7
  6
CONTINUOUS
  0
LAYER
  2
LAYER019
 70
               0
 62
               7
  6
CONTINUOUS
  0
LAYER
  2
LAYER020
 70
               0
 62
               7
  6
CONTINUOUS
  0
LAYER
  2
LAYER021
 70
               0
 62
               7
  6
CONTINUOUS
  0
LAYER
  2
LAYER022
 70
               0
 62
               7
  6
CONTINUOUS
  0
LAYER
  2
LAYER023
 70
               0
 62
               7
  6
CONTINUOUS
  0
LAYER
  2
LAYER024
 70
               0
 62
               7
  6
CONTINUOUS
  0
LAYER
  2
LAYER025
 70
               0
 62
               7
  6
CONTINUOUS
  0
LAYER
  2
LAYER026
 70
               0
 62
               7
  6
CONTINUOUS
  0
LAYER
  2
LAYER027
 70
               0
 62
               7
  6
CONTINUOUS
  0
LAYER
  2
LAYER028
 70
               0
 62
               7
  6
CONTINUOUS
  0
LAYER
  2
LAYER029
 70
               0
 62
               7
  6
CONTINUOUS
  0
LAYER
  2
LAYER030
 70
               0
 62
               7
  6
CONTINUOUS
  0
LAYER
  2
LAYER031
 70
               0
 62
               7
  6
CONTINUOUS
  0
LAYER
  2
LAYER032
 70
               0
 62
               7
  6
CONTINUOUS
  0
LAYER
  2
LAYER033
 70
               0
 62
               7
  6
CONTINUOUS
  0
LAYER
  2
LAYER034
 70
               0
 62
               7
  6
CONTINUOUS
  0
LAYER
  2
LAYER035
 70
               0
 62
               7
  6
CONTINUOUS
  0
LAYER
  2
LAYER036
 70
               0
 62
               7
  6
CONTINUOUS
  0
LAYER
  2
LAYER037
 70
               0
 62
               7
  6
CONTINUOUS
  0
LAYER
  2
LAYER038
 70
               0
 62
               7
  6
CONTINUOUS
  0
LAYER
  2
LAYER039
 70
               0
 62
               7
  6
CONTINUOUS
  0
LAYER
  2
LAYER040
 70
               0
 62
               7
  6
CONTINUOUS
  0
LAYER
  2
LAYER041
 70
               0
 62
               7
  6
CONTINUOUS
  0
LAYER
  2
LAYER042
 70
               0
 62
               7
  6
CONTINUOUS
  0
LAYER
  2
LAYER043
 70
               0
 62
               7
  6
CONTINUOUS
  0
LAYER
  2
LAYER044
 70
               0
 62
               7
  6
CONTINUOUS
  0
LAYER
  2
LAYER045
 70
               0
 62
               7
  6
CONTINUOUS
  0
LAYER
  2
LAYER046
 70
               0
 62
               7
  6
CONTINUOUS
  0
LAYER
  2
LAYER047
 70
               0
 62
               7
  6
CONTINUOUS
  0
LAYER
  2
LAYER048
 70
               0
 62
               7
  6
CONTINUOUS
  0
LAYER
  2
LAYER049
 70
               0
 62
               7
  6
CONTINUOUS
  0
LAYER
  2
LAYER050
 70
               0
 62
               7
  6
CONTINUOUS
  0
LAYER
  2
LAYER051
 70
               0
 62
               7
  6
CONTINUOUS
  0
LAYER
  2
LAYER052
 70
               0
 62
               7
  6
CONTINUOUS
  0
LAYER
  2
LAYER053
 70
               0
 62
               7
  6
CONTINUOUS
  0
LAYER
  2
LAYER054
 70
               0
 62
               7
  6
CONTINUOUS
  0
LAYER
  2
LAYER055
 70
               0
 62
               7
  6
CONTINUOUS
  0
LAYER
  2
LAYER056
 70
               0
 62
               7
  6
CONTINUOUS
  0
LAYER
  2
LAYER057
 70
               0
 62
               7
  6
CONTINUOUS
  0
LAYER
  2
LAYER058
 70
               0
 62
               7
  6
CONTINUOUS
  0
LAYER
  2
LAYER059
 70
               0
 62
               7
  6
CONTINUOUS
  0
LAYER
  2
LAYER060
 70
               0
 62
               7
  6
CONTINUOUS
  0
LAYER
  2
LAYER061
 70
               0
 62
               7
  6
CONTINUOUS
  0
LAYER
  2
LAYER062
 70
               0
 62
               7
  6
CONTINUOUS
  0
LAYER
  2
LAYER063
 70
               0
 62
               7
  6
CONTINUOUS
  0
LAYER
  2
LAYER064
 70
               0
 62
               7
  6
CONTINUOUS
  0
LAYER
  2
LAYER065
 70
               0
 62
               7
  6
CONTINUOUS
  0
LAYER
  2
LAYER066
 70
               0
 62
               7
  6
CONTINUOUS
  0
LAYER
  2
LAYER067
 70
               0
 62
               7
  6
CONTINUOUS
  0
LAYER
  2
LAYER068
 70
               0
 62
               7
  6
CONTINUOUS
  0
LAYER
  2
LAYER069
 70
               0
 62
               7
  6
CONTINUOUS
  0
LAYER
  2
LAYER070
 70
               0
 62
               7
  6
CONTINUOUS
  0
LAYER
  2
LAYER071
 70
               0
 62
               7
  6
CONTINUOUS
  0
LAYER
  2
LAYER072
 70
               0
 62
               7
  6
CONTINUOUS
  0
LAYER
  2
LAYER073
 70
               0
 62
               7
  6
CONTINUOUS
  0
LAYER
  2
LAYER074
 70
               0
 62
               7
  6
CONTINUOUS
  0
LAYER
  2
LAYER075
 70
               0
 62
               7
  6
CONTINUOUS
  0
LAYER
  2
LAYER076
 70
               0
 62
               7
  6
CONTINUOUS
  0
LAYER
  2
LAYER077
 70
               0
 62
               7
  6
CONTINUOUS
  0
LAYER
  2
LAYER078
 70
               0
 62
               7
  6
CONTINUOUS
  0
LAYER
  2
LAYER079
 70
               0
 62
               7
  6
CONTINUOUS
  0
LAYER
  2
LAYER080
 70
               0
 62
               7
  6
CONTINUOUS
  0
LAYER
  2
LAYER081
 70
               0
 62
               7
  6
CONTINUOUS
  0
LAYER
  2
LAYER082
 70
               0
 62
               7
  6
CONTINUOUS
  0
LAYER
  2
LAYER083
 70
               0
 62
               7
  6
CONTINUOUS
  0
LAYER
  2
LAYER084
 70
               0
 62
               7
  6
CONTINUOUS
  0
LAYER
  2
LAYER085
 70
               0
 62
               7
  6
CONTINUOUS
  0
LAYER
  2
LAYER086
 70
               0
 62
               7
  6
CONTINUOUS
  0
LAYER
  2
LAYER087
 70
               0
 62
               7
  6
CONTINUOUS
  0
LAYER
  2
LAYER088
 70
               0
 62
               7
  6
CONTINUOUS
  0
LAYER
  2
LAYER089
 70
               0
 62
               7
  6
CONTINUOUS
  0
LAYER
  2
LAYER090
 70
               0
 62
               7
  6
CONTINUOUS
  0
LAYER
  2
LAYER091
 70
               0
 62
               7
  6
CONTINUOUS
  0
LAYER
  2
LAYER092
 70
               0
 62
               7
  6
CONTINUOUS
  0
LAYER
  2
LAYER093
 70
               0
 62
               7
  6
CONTINUOUS
  0
LAYER
  2
LAYER094
 70
               0
 62
               7
  6
CONTINUOUS
  0
LAYER
  2
LAYER095
 70
               0
 62
               7
  6
CONTINUOUS
  0
LAYER
  2
LAYER096
 70
               0
 62
               7
  6
CONTINUOUS
  0
LAYER
  2
LAYER097
 70
               0
 62
               7
  6
CONTINUOUS
  0
LAYER
  2
LAYER098
 70
               0
 62
               7
  6
CONTINUOUS
  0
LAYER
  2
LAYER099
 70
               0
 62
               7
  6
CONTINUOUS
  0
LAYER
  2
LAYER100
 70
               0
 62
               7
  6
CONTINUOUS
  0
LAYER
  2
LAYER101
 70
               0
 62
               7
  6
CONTINUOUS
  0
LAYER
  2
LAYER102
 70
               0
 62
               7
  6
CONTINUOUS
  0
LAYER
  2
LAYER103
 70
               0
 62
               7
  6
CONTINUOUS
  0
LAYER
  2
LAYER104
 70
               0
 62
               7
  6
CONTINUOUS
  0
LAYER
  2
LAYER105
 70
               0
 62
               7
  6
CONTINUOUS
  0
LAYER
  2
LAYER106
 70
               0
 62
               7
  6
CONTINUOUS
  0
LAYER
  2
LAYER107
 70
               0
 62
               7
  6
CONTINUOUS
  0
LAYER
  2
LAYER108
 70
               0
 62
               7
  6
CONTINUOUS
  0
LAYER
  2
LAYER109
 70
               0
 62
               7
  6
CONTINUOUS
  0
LAYER
  2
LAYER110
 70
               0
 62
               7
  6
CONTINUOUS
  0
LAYER
  2
LAYER111
 70
               0
 62
               7
  6
CONTINUOUS
  0
LAYER
  2
LAYER112
 70
               0
 62
               7
  6
CONTINUOUS
  0
LAYER
  2
LAYER113
 70
               0
 62
               7
  6
CONTINUOUS
  0
LAYER
  2
LAYER114
 70
               0
 62
               7
  6
CONTINUOUS
  0
LAYER
  2
LAYER115
 70
               0
 62
               7
  6
CONTINUOUS
  0
LAYER
  2
LAYER116
 70
               0
 62
               7
  6
CONTINUOUS
  0
LAYER
  2
LAYER117
 70
               0
 62
               7
  6
CONTINUOUS
  0
LAYER
  2
LAYER118
 70
               0
 62
               7
  6
CONTINUOUS
  0
LAYER
  2
LAYER119
 70
               0
 62
               7
  6
CONTINUOUS
  0
LAYER
  2
LAYER120
 70
               0
 62
               7
  6
CONTINUOUS
  0
LAYER
  2
LAYER121
 70
               0
 62
               7
  6
CONTINUOUS
  0
LAYER
  2
LAYER122
 70
               0
 62
               7
  6
CONTINUOUS
  0
LAYER
  2
LAYER123
 70
               0
 62
               7
  6
CONTINUOUS
  0
LAYER
  2
LAYER124
 70
               0
 62
               7
  6
CONTINUOUS
  0
LAYER
  2
LAYER125
 70
               0
 62
               7
  6
CONTINUOUS
  0
LAYER
  2
LAYER126
 70
               0
 62
               7
  6
CONTINUOUS
  0
LAYER
  2
LAYER127
 70
               0
 62
               7
  6
CONTINUOUS
  0
LAYER
  2
LAYER128
 70
               0
 62
               7
  6
CONTINUOUS
  0
LAYER
  2
LAYER129
 70
               0
 62
               7
  6
CONTINUOUS
  0
LAYER
  2
LAYER130
 70
               0
 62
               7
  6
CONTINUOUS
  0
LAYER
  2
LAYER131
 70
               0
 62
               7
  6
CONTINUOUS
  0
LAYER
  2
LAYER132
 70
               0
 62
               7
  6
CONTINUOUS
  0
LAYER
  2
LAYER133
 70
               0
 62
               7
  6
CONTINUOUS
  0
LAYER
  2
LAYER134
 70
               0
 62
               7
  6
CONTINUOUS
  0
LAYER
  2
LAYER135
 70
               0
 62
               7
  6
CONTINUOUS
  0
LAYER
  2
LAYER136
 70
               0
 62
               7
  6
CONTINUOUS
  0
LAYER
  2
LAYER137
 70
               0
 62
               7
  6
CONTINUOUS
  0
LAYER
  2
LAYER138
 70
               0
 62
               7
  6
CONTINUOUS
  0
LAYER
  2
LAYER139
 70
               0
 62
               7
  6
CONTINUOUS
  0
LAYER
  2
LAYER140
 70
               0
 62
               7
  6
CONTINUOUS
  0
LAYER
  2
LAYER141
 70
               0
 62
               7
  6
CONTINUOUS
  0
LAYER
  2
LAYER142
 70
               0
 62
               7
  6
CONTINUOUS
  0
LAYER
  2
LAYER143
 70
               0
 62
               7
  6
CONTINUOUS
  0
LAYER
  2
LAYER144
 70
               0
 62
               7
  6
CONTINUOUS
  0
LAYER
  2
LAYER145
 70
               0
 62
               7
  6
CONTINUOUS
  0
LAYER
  2
LAYER146
 70
               0
 62
               7
  6
CONTINUOUS
  0
LAYER
  2
LAYER147
 70
               0
 62
               7
  6
CONTINUOUS
  0
LAYER
  2
LAYER148
 70
               0
 62
               7
  6
CONTINUOUS
  0
LAYER
  2
LAYER149
 70
               0
 62
               7
  6
CONTINUOUS
  0
LAYER
  2
LAYER150
 70
               0
 62
               7
  6
CONTINUOUS
  0
LAYER
  2
LAYER151
 70
               0
 62
               7
  6
CONTINUOUS
  0
LAYER
  2
LAYER152
 70
               0
 62
               7
  6
CONTINUOUS
  0
LAYER
  2
LAYER153
 70
               0
 62
               7
  6
CONTINUOUS
  0
LAYER
  2
LAYER154
 70
               0
 62
               7
  6
CONTINUOUS
  0
LAYER
  2
LAYER155
 70
               0
 62
               7
  6
CONTINUOUS
  0
LAYER
  2
LAYER156
 70
               0
 62
               7
  6
CONTINUOUS
  0
LAYER
  2
LAYER157
 70
               0
 62
               7
  6
CONTINUOUS
  0
LAYER
  2
LAYER158
 70
               0
 62
               7
  6
CONTINUOUS
  0
LAYER
  2
LAYER159
 70
               0
 62
               7
  6
CONTINUOUS
  0
LAYER
  2
LAYER160
 70
               0
 62
               7
  6
CONTINUOUS
  0
LAYER
  2
LAYER161
 70
               0
 62
               7
  6
CONTINUOUS
  0
LAYER
  2
LAYER162
 70
               0
 62
               7
  6
CONTINUOUS
  0
LAYER
  2
LAYER163
 70
               0
 62
               7
  6
CONTINUOUS
  0
LAYER
  2
LAYER164
 70
               0
 62
               7
  6
CONTINUOUS
  0
LAYER
  2
LAYER165
 70
               0
 62
               7
  6
CONTINUOUS
  0
LAYER
  2
LAYER166
 70
               0
 62
               7
  6
CONTINUOUS
  0
LAYER
  2
LAYER167
 70
               0
 62
               7
  6
CONTINUOUS
  0
LAYER
  2
LAYER168
 70
               0
 62
               7
  6
CONTINUOUS
  0
LAYER
  2
LAYER169
 70
               0
 62
               7
  6
CONTINUOUS
  0
LAYER
  2
LAYER170
 70
               0
 62
               7
  6
CONTINUOUS
  0
LAYER
  2
LAYER171
 70
               0
 62
               7
  6
CONTINUOUS
  0
LAYER
  2
LAYER172
 70
               0
 62
               7
  6
CONTINUOUS
  0
LAYER
  2
LAYER173
 70
               0
 62
               7
  6
CONTINUOUS
  0
LAYER
  2
LAYER174
 70
               0
 62
               7
  6
CONTINUOUS
  0
LAYER
  2
LAYER175
 70
               0
 62
               7
  6
CONTINUOUS
  0
LAYER
  2
LAYER176
 70
               0
 62
               7
  6
CONTINUOUS
  0
LAYER
  2
LAYER177
 70
               0
 62
               7
  6
CONTINUOUS
  0
LAYER
  2
LAYER178
 70
               0
 62
               7
  6
CONTINUOUS
  0
LAYER
  2
LAYER179
 70
               0
 62
               7
  6
CONTINUOUS
  0
LAYER
  2
LAYER180
 70
               0
 62
               7
  6
CONTINUOUS
  0
LAYER
  2
LAYER181
 70
               0
 62
               7
  6
CONTINUOUS
  0
LAYER
  2
LAYER182
 70
               0
 62
               7
  6
CONTINUOUS
  0
LAYER
  2
LAYER183
 70
               0
 62
               7
  6
CONTINUOUS
  0
LAYER
  2
LAYER184
 70
               0
 62
               7
  6
CONTINUOUS
  0
LAYER
  2
LAYER185
 70
               0
 62
               7
  6
CONTINUOUS
  0
LAYER
  2
LAYER186
 70
               0
 62
               7
  6
CONTINUOUS
  0
LAYER
  2
LAYER187
 70
               0
 62
               7
  6
CONTINUOUS
  0
LAYER
  2
LAYER188
 70
               0
 62
               7
  6
CONTINUOUS
  0
LAYER
  2
LAYER189
 70
               0
 62
               7
  6
CONTINUOUS
  0
LAYER
  2
LAYER190
 70
               0
 62
               7
  6
CONTINUOUS
  0
LAYER
  2
LAYER191
 70
               0
 62
               7
  6
CONTINUOUS
  0
LAYER
  2
LAYER192
 70
               0
 62
               7
  6
CONTINUOUS
  0
LAYER
  2
LAYER193
 70
               0
 62
               7
  6
CONTINUOUS
  0
LAYER
  2
LAYER194
 70
               0
 62
               7
  6
CONTINUOUS
  0
LAYER
  2
LAYER195
 70
               0
 62
               7
  6
CONTINUOUS
  0
LAYER
  2
LAYER196
 70
               0
 62
               7
  6
CONTINUOUS
  0
LAYER
  2
LAYER197
 70
               0
 62
               7
  6
CONTINUOUS
  0
LAYER
  2
LAYER198
 70
               0
 62
               7
  6
CONTINUOUS
  0
LAYER
  2
LAYER199
 70
               0
 62
               7
  6
CONTINUOUS
  0
LAYER
  2
LAYER200
 70
               0
 62
               7
  6
CONTINUOUS
  0
LAYER
  2
LAYER201
 70
               0
 62
               7
  6
CONTINUOUS
  0
LAYER
  2
LAYER202
 70
               0
 62
               7
  6
CONTINUOUS
  0
LAYER
  2
LAYER203
 70
               0
 62
               7
  6
CONTINUOUS
  0
LAYER
  2
LAYER204
 70
               0
 62
               7
  6
CONTINUOUS
  0
LAYER
  2
LAYER205
 70
               0
 62
               7
  6
CONTINUOUS
  0
LAYER
  2
LAYER206
 70
               0
 62
               7
  6
CONTINUOUS
  0
LAYER
  2
LAYER207
 70
               0
 62
               7
  6
CONTINUOUS
  0
LAYER
  2
LAYER208
 70
               0
 62
               7
  6
CONTINUOUS
  0
LAYER
  2
LAYER209
 70
               0
 62
               7
  6
CONTINUOUS
  0
LAYER
  2
LAYER210
 70
               0
 62
               7
  6
CONTINUOUS
  0
LAYER
  2
LAYER211
 70
               0
 62
               7
  6
CONTINUOUS
  0
LAYER
  2
LAYER212
 70
               0
 62
               7
  6
CONTINUOUS
  0
LAYER
  2
LAYER213
 70
               0
 62
               7
  6
CONTINUOUS
  0
LAYER
  2
LAYER214
 70
               0
 62
               7
  6
CONTINUOUS
  0
LAYER
  2
LAYER215
 70
               0
 62
               7
  6
CONTINUOUS
  0
LAYER
  2
LAYER216
 70
               0
 62
               7
  6
CONTINUOUS
  0
LAYER
  2
LAYER217
 70
               0
 62
               7
  6
CONTINUOUS
  0
LAYER
  2
LAYER218
 70
               0
 62
               7
  6
CONTINUOUS
  0
LAYER
  2
LAYER219
 70
               0
 62
               7
  6
CONTINUOUS
  0
LAYER
  2
LAYER220
 70
               0
 62
               7
  6
CONTINUOUS
  0
LAYER
  2
LAYER221
 70
               0
 62
               7
  6
CONTINUOUS
  0
LAYER
  2
LAYER222
 70
               0
 62
               7
  6
CONTINUOUS
  0
LAYER
  2
LAYER223
 70
               0
 62
               7
  6
CONTINUOUS
  0
LAYER
  2
LAYER224
 70
               0
 62
               7
  6
CONTINUOUS
  0
LAYER
  2
LAYER225
 70
               0
 62
               7
  6
CONTINUOUS
  0
LAYER
  2
LAYER226
 70
               0
 62
               7
  6
CONTINUOUS
  0
LAYER
  2
LAYER227
 70
               0
 62
               7
  6
CONTINUOUS
  0
LAYER
  2
LAYER228
 70
               0
 62
               7
  6
CONTINUOUS
  0
LAYER
  2
LAYER229
 70
               0
 62
               7
  6
CONTINUOUS
  0
LAYER
  2
LAYER230
 70
               0
 62
               7
  6
CONTINUOUS
  0
LAYER
  2
LAYER231
 70
               0
 62
               7
  6
CONTINUOUS
  0
LAYER
  2
LAYER232
 70
               0
 62
               7
  6
CONTINUOUS
  0
LAYER
  2
LAYER233
 70
               0
 62
               7
  6
CONTINUOUS
  0
LAYER
  2
LAYER234
 70
               0
 62
               7
  6
CONTINUOUS
  0
LAYER
  2
LAYER235
 70
               0
 62
               7
  6
CONTINUOUS
  0
LAYER
  2
LAYER236
 70
               0
 62
               7
  6
CONTINUOUS
  0
LAYER
  2
LAYER237
 70
               0
 62
               7
  6
CONTINUOUS
  0
LAYER
  2
LAYER238
 70
               0
 62
               7
  6
CONTINUOUS
  0
LAYER
  2
LAYER239
 70
               0
 62
               7
  6
CONTINUOUS
  0
LAYER
  2
LAYER240
 70
               0
 62
               7
  6
CONTINUOUS
  0
LAYER
  2
LAYER241
 70
               0
 62
               7
  6
CONTINUOUS
  0
LAYER
  2
LAYER242
 70
               0
 62
               7
  6
CONTINUOUS
  0
LAYER
  2
LAYER243
 70
               0
 62
               7
  6
CONTINUOUS
  0
LAYER
  2
LAYER244
 70
               0
 62
               7
  6
CONTINUOUS
  0
LAYER
  2
LAYER245
 70
               0
 62
               7
  6
CONTINUOUS
  0
LAYER
  2
LAYER246
 70
               0
 62
               7
  6
CONTINUOUS
  0
LAYER
  2
LAYER247
 70
               0
 62
               7
  6
CONTINUOUS
  0
LAYER
  2
LAYER248
 70
               0
 62
               7
  6
CONTINUOUS
  0
LAYER
  2
LAYER249
 70
               0
 62
               7
  6
CONTINUOUS
  0
LAYER
  2
LAYER250
 70
               0
 62
               7
  6
CONTINUOUS
  0
LAYER
  2
LAYER251
 70
               0
 62
               7
  6
CONTINUOUS
  0
LAYER
  2
LAYER252
 70
               0
 62
               7
  6
CONTINUOUS
  0
LAYER
  2
LAYER253
 70
               0
 62
               7
  6
CONTINUOUS
  0
LAYER
  2
LAYER254
 70
               0
 62
               7
  6
CONTINUOUS
  0
LAYER
  2
LAYER255
 70
               0
 62
               7
  6
CONTINUOUS
  0
ENDTAB
  0
TABLE
  2
STYLE
 70
               1
  0
STYLE
  2
STANDARD
 70
               0
 40
0.0
 41
1.0
 50
0.0
 71
               0
 42
0.0
  3
txt
  4

  0
ENDTAB
  0
TABLE
  2
VIEW
 70
               0
  0
VIEW
  2
QQQQ
 70
               0
 40
1424.6873411040649
 10
-13.148133688041185
 20
-29.717166595119579
 41
1298.849169787886
 11
0.0
 21
0.0
 31
1.0
 12
100.0
 22
100.0
 32
0.0
 42
50.0
 43
0.0
 44
0.0
 50
0.0
 71
               0
  0
ENDTAB
  0
TABLE
  2
UCS
 70
               0
  0
ENDTAB
  0
TABLE
  2
APPID
 70
               1
  0
APPID
  2
ACAD
 70
               0
  0
ENDTAB
  0
TABLE
  2
DIMSTYLE
 70
               1
  0
DIMSTYLE
  2
STANDARD
 70
               0
  3

  4

  5

  6

  7

 40
1.0
 41
0.18
 42
0.0625
 43
0.38
 44
0.18
 45
0.0
 46
0.0
 47
0.0
 48
0.0
140
0.18
141
0.09
142
0.0
143
25.399999999999999
144
1.0
145
0.0
146
1.0
147
0.09
 71
               0
 72
               0
 73
               1
 74
               1
 75
               0
 76
               0
 77
               0
 78
               0
170
               0
171
               2
172
               0
173
               0
174
               0
175
               0
176
               0
177
               0
178
               0
  0
ENDTAB
  0
ENDSEC
  0
SECTION
  2
BLOCKS
  0
ENDSEC
  0
SECTION
  2
ENTITIES
  0
LINE
  8
0
  6
CONTINUOUS
 62
               3
  5
136
 10
-64.999999999999972
 20
-20.635667206254936
 30
0.0
 11
-64.999999999999986
 21
-67.846976402882717
 31
0.0
  0
ARC
  8
0
  6
CONTINUOUS
 62
               3
  5
137
 10
-54.999999999999986
 20
-2.5
 30
0.0
 40
2.4999999999999996
 50
89.999999999999801
 51
269.99999999999937
  0
ARC
  8
0
  6
CONTINUOUS
 62
               3
  5
138
 10
65.0
 20
-2.5
 30
0.0
 40
2.4999999999999996
 50
269.99999999999937
 51
449.99999999999898
  0
LINE
  8
0
  6
CONTINUOUS
 62
               3
  5
139
 10
66.999999999999886
 20
-3.9999999999997726
 30
0.0
 11
66.999999999999886
 21
-67.960544633137943
 31
0.0
  0
LINE
  8
0
  6
CONTINUOUS
 62
               3
  5
13A
 10
64.499999999999886
 20
-5.0
 30
0.0
 11
64.499999999999886
 21
-67.818584345318413
 31
0.0
  0
LINE
  8
0
  6
CONTINUOUS
 62
               3
  5
13B
 10
66.750000000000114
 20
-4.2853571071358942
 30
0.0
 11
66.750000000000114
 21
-67.946348604355933
 31
0.0
  0
LINE
  8
0
  6
CONTINUOUS
 62
               3
  5
13C
 10
66.999999999999886
 20
50.204856604206896
 30
0.0
 11
66.999999999999886
 21
-0.9999999999999432
 31
0.0
  0
LINE
  8
0
  6
CONTINUOUS
 62
               3
  5
13D
 10
66.750000000000114
 20
50.050552857407382
 30
0.0
 11
66.750000000000114
 21
-0.71464289286439
 31
0.0
  0
LINE
  8
0
  6
CONTINUOUS
 62
               3
  5
13E
 10
64.499999999999886
 20
45.874729585284797
 30
0.0
 11
64.499999999999886
 21
0.0
 31
0.0
  0
LINE
  8
0
  6
CONTINUOUS
 62
               3
  5
13F
 10
-64.999999999999986
 20
113.67961763158604
 30
0.0
 11
-64.999999999999986
 21
109.48754071059399
 31
0.0
  0
LINE
  8
0
  6
CONTINUOUS
 62
               3
  5
140
 10
-54.999999999999986
 20
0.0
 30
0.0
 11
65.0
 21
0.0
 31
0.0
  0
LINE
  8
0
  6
CONTINUOUS
 62
               3
  5
141
 10
-54.999999999999986
 20
-5.0
 30
0.0
 11
65.0
 21
-5.0
 31
0.0
  0
LINE
  8
0
  6
CONTINUOUS
 62
               3
  5
142
 10
-20.000000000000192
 20
434.60287517928816
 30
0.0
 11
-20.000000000000185
 21
449.05343713324243
 31
0.0
  0
LINE
  8
0
  6
CONTINUOUS
 62
               3
  5
143
 10
19.999999999999805
 20
448.71758079605172
 30
0.0
 11
19.999999999999805
 21
434.60287517928816
 31
0.0
  0
ARC
  8
0
  6
CONTINUOUS
 62
               3
  5
144
 10
-0.0000000000001599
 20
508.31337337991317
 30
0.0
 40
76.375634498080188
 50
254.81932855955753
 51
285.18067144044119
  0
LINE
  8
0
  6
CONTINUOUS
 62
               3
  5
145
 10
71.834863702544595
 20
486.43773888183307
 30
0.0
 11
58.086368194002688
 21
486.43773888183307
 31
0.0
  0
LINE
  8
0
  6
CONTINUOUS
 62
               3
  5
146
 10
58.137462938722742
 20
526.43773888183307
 30
0.0
 11
71.834863702544595
 21
526.43773888183307
 31
0.0
  0
ARC
  8
0
  6
CONTINUOUS
 62
               3
  5
147
 10
-1.8756344980803519
 20
506.43773888183307
 30
0.0
 40
76.375634498080188
 50
344.81932855955733
 51
375.18067144044102
  0
LINE
  8
0
  6
CONTINUOUS
 62
               3
  5
148
 10
19.999999999999929
 20
578.27260258437786
 30
0.0
 11
19.999999999999929
 21
564.30512153228165
 31
0.0
  0
LINE
  8
0
  6
CONTINUOUS
 62
               3
  5
149
 10
-20.000000000000078
 20
563.96926519509088
 30
0.0
 11
-20.000000000000075
 21
578.27260258437786
 31
0.0
  0
ARC
  8
0
  6
CONTINUOUS
 62
               3
  5
14A
 10
-0.0000000000001066
 20
504.56210438375297
 30
0.0
 40
76.375634498080188
 50
74.819328559557945
 51
105.18067144044161
  0
LINE
  8
0
  6
CONTINUOUS
 62
               3
  5
14B
 10
-71.834863702544936
 20
526.43773888183307
 30
0.0
 11
-57.16976272429001
 21
526.43773888183307
 31
0.0
  0
LINE
  8
0
  6
CONTINUOUS
 62
               3
  5
14C
 10
-57.118667979569949
 20
486.43773888183307
 30
0.0
 11
-71.834863702544936
 21
486.43773888183307
 31
0.0
  0
ARC
  8
0
  6
CONTINUOUS
 62
               3
  5
14D
 10
1.8756344980800144
 20
506.43773888183307
 30
0.0
 40
76.375634498080188
 50
164.81932855955776
 51
195.18067144044142
  0
ARC
  8
0
  6
CONTINUOUS
 62
               3
  5
14E
 10
-0.0000000000001155
 20
506.43773888183307
 30
0.0
 40
67.499999999999957
 50
287.23528525708718
 51
342.76471474291139
  0
ARC
  8
0
  6
CONTINUOUS
 62
               3
  5
14F
 10
-0.0000000000001688
 20
506.43773888183307
 30
0.0
 40
65.0
 50
287.92021313939165
 51
342.07978686060699
  0
ARC
  8
0
  6
CONTINUOUS
 62
               3
  5
150
 10
-0.0000000000001155
 20
506.43773888183307
 30
0.0
 40
67.499999999999957
 50
233.15185435864163
 51
252.76471474291148
  0
ARC
  8
0
  6
CONTINUOUS
 62
               3
  5
151
 10
-0.0000000000001688
 20
506.43773888183307
 30
0.0
 40
65.0
 50
197.92021313939182
 51
252.07978686060716
  0
ARC
  8
0
  6
CONTINUOUS
 62
               3
  5
152
 10
-0.0000000000001155
 20
506.43773888183307
 30
0.0
 40
67.499999999999957
 50
17.235285257087856
 51
72.764714742911892
  0
ARC
  8
0
  6
CONTINUOUS
 62
               3
  5
153
 10
-0.0000000000001155
 20
506.43773888183307
 30
0.0
 40
67.499999999999957
 50
107.23528525708761
 51
126.84814564135633
  0
ARC
  8
0
  6
CONTINUOUS
 62
               3
  5
154
 10
-0.0000000000001688
 20
506.43773888183307
 30
0.0
 40
65.0
 50
17.920213139392249
 51
72.079786860607399
  0
ARC
  8
0
  6
CONTINUOUS
 62
               3
  5
155
 10
-0.0000000000001688
 20
506.43773888183307
 30
0.0
 40
65.0
 50
107.92021313939196
 51
162.07978686060736
  0
LINE
  8
0
  6
CONTINUOUS
 62
               3
  5
156
 10
-565.0
 20
-5.0
 30
0.0
 11
-565.0
 21
-67.846976402882717
 31
0.0
  0
ARC
  8
0
  6
CONTINUOUS
 62
               3
  5
157
 10
-435.0
 20
-2.5
 30
0.0
 40
2.4999999999999996
 50
269.99999999999937
 51
449.99999999999898
  0
LINE
  8
0
  6
CONTINUOUS
 62
               3
  5
158
 10
-564.99999999999989
 20
113.67961763158604
 30
0.0
 11
-565.0
 21
0.0
 31
0.0
  0
ARC
  8
0
  6
CONTINUOUS
 62
               3
  5
159
 10
-565.0
 20
-2.5
 30
0.0
 40
2.4999999999999996
 50
89.999999999999787
 51
269.99999999999937
  0
LINE
  8
0
  6
CONTINUOUS
 62
               3
  5
15A
 10
-435.0
 20
-5.0
 30
0.0
 11
-435.00000000000011
 21
-67.846976402882717
 31
0.0
  0
LINE
  8
0
  6
CONTINUOUS
 62
               3
  5
15B
 10
-435.00000000000011
 20
113.67961763158604
 30
0.0
 11
-435.0
 21
0.0
 31
0.0
  0
ARC
  8
0
  6
CONTINUOUS
 62
               3
  5
15C
 10
-522.49999999999943
 20
-2.5
 30
0.0
 40
2.4999999999999996
 50
269.99999999999937
 51
449.99999999999898
  0
ARC
  8
0
  6
CONTINUOUS
 62
               3
  5
15D
 10
-477.49999999999943
 20
-2.5
 30
0.0
 40
2.4999999999999996
 50
89.999999999999801
 51
269.99999999999937
  0
LINE
  8
0
  6
CONTINUOUS
 62
               3
  5
15E
 10
-565.0
 20
-5.0
 30
0.0
 11
-522.49999999999943
 21
-5.0
 31
0.0
  0
LINE
  8
0
  6
CONTINUOUS
 62
               3
  5
15F
 10
-477.49999999999943
 20
-5.0
 30
0.0
 11
-435.0
 21
-5.0
 31
0.0
  0
LINE
  8
0
  6
CONTINUOUS
 62
               3
  5
160
 10
-565.0
 20
0.0
 30
0.0
 11
-522.49999999999943
 21
0.0
 31
0.0
  0
LINE
  8
0
  6
CONTINUOUS
 62
               3
  5
161
 10
-477.49999999999943
 20
0.0
 30
0.0
 11
-435.0
 21
0.0
 31
0.0
  0
LINE
  8
0
  6
CONTINUOUS
 62
               3
  5
162
 10
-74.499999999999716
 20
200.08730192372937
 30
0.0
 11
-74.499999999999716
 21
195.08730192372937
 31
0.0
  0
LINE
  8
0
  6
CONTINUOUS
 62
               3
  5
163
 10
-74.499999999999716
 20
200.08730192372937
 30
0.0
 11
-60.999999999999801
 21
210.0
 31
0.0
  0
LINE
  8
0
  6
CONTINUOUS
 62
               3
  5
164
 10
-74.499999999999716
 20
195.08730192372937
 30
0.0
 11
-63.825502516487269
 21
194.71454025766732
 31
0.0
  0
ARC
  8
0
  6
CONTINUOUS
 62
               3
  5
165
 10
-63.999999999999808
 20
189.7175861225719
 30
0.0
 40
5.0
 50
0.0
 51
87.999999999999417
  0
LINE
  8
0
  6
CONTINUOUS
 62
               3
  5
166
 10
74.500000000000057
 20
200.08730192372937
 30
0.0
 11
74.500000000000057
 21
195.08730192372937
 31
0.0
  0
LINE
  8
0
  6
CONTINUOUS
 62
               3
  5
167
 10
74.500000000000057
 20
200.08730192372937
 30
0.0
 11
61.000000000000121
 21
210.0
 31
0.0
  0
LINE
  8
0
  6
CONTINUOUS
 62
               3
  5
168
 10
74.500000000000057
 20
195.08730192372937
 30
0.0
 11
63.825502516487553
 21
194.71454025766732
 31
0.0
  0
ARC
  8
0
  6
CONTINUOUS
 62
               3
  5
169
 10
64.000000000000085
 20
189.7175861225719
 30
0.0
 40
5.0
 50
92.000000000000213
 51
179.99999999999963
  0
LINE
  8
0
  6
CONTINUOUS
 62
               3
  5
16A
 10
-60.999999999999801
 20
210.0
 30
0.0
 11
61.000000000000121
 21
210.0
 31
0.0
  0
LINE
  8
0
  6
CONTINUOUS
 62
               3
  5
16B
 10
-60.511976087981623
 20
193.29999999999984
 30
0.0
 11
60.511976087981942
 21
193.29999999999984
 31
0.0
  0
LINE
  8
0
  6
CONTINUOUS
 62
               3
  5
16C
 10
-19.999999999999822
 20
193.29999999999984
 30
0.0
 11
-19.999999999999822
 21
210.0
 31
0.0
  0
LINE
  8
0
  6
CONTINUOUS
 62
               3
  5
16D
 10
20.000000000000178
 20
210.0
 30
0.0
 11
20.000000000000178
 21
193.29999999999984
 31
0.0
  0
LINE
  8
0
  6
CONTINUOUS
 62
               3
  5
16E
 10
-19.999999999999822
 20
200.08730192372937
 30
0.0
 11
20.000000000000178
 21
200.08730192372937
 31
0.0
  0
LINE
  8
0
  6
CONTINUOUS
 62
               3
  5
16F
 10
20.000000000000178
 20
195.08730192372937
 30
0.0
 11
-19.999999999999822
 21
195.08730192372937
 31
0.0
  0
LINE
  8
0
  6
CONTINUOUS
 62
               3
  5
170
 10
-60.999999999999801
 20
210.0
 30
0.0
 11
-60.999999999999801
 21
193.71758612257182
 31
0.0
  0
LINE
  8
0
  6
CONTINUOUS
 62
               3
  5
171
 10
61.000000000000121
 20
210.0
 30
0.0
 11
61.000000000000121
 21
193.71758612257182
 31
0.0
  0
LINE
  8
0
  6
CONTINUOUS
 62
               3
  5
172
 10
-58.999999999999808
 20
189.7175861225719
 30
0.0
 11
-58.999999999999808
 21
128.17099437777557
 31
0.0
  0
ARC
  8
0
  6
CONTINUOUS
 62
               3
  5
173
 10
-63.999999999999808
 20
128.17099437777557
 30
0.0
 40
5.0
 50
315.01704217218719
 51
359.9999999999992
  0
ARC
  8
0
  6
CONTINUOUS
 62
               3
  5
174
 10
-49.499999999999851
 20
113.67961763158604
 30
0.0
 40
15.5
 50
135.01704217218645
 51
179.9999999999996
  0
LINE
  8
0
  6
CONTINUOUS
 62
               3
  5
175
 10
59.000000000000163
 20
189.7175861225719
 30
0.0
 11
59.000000000000163
 21
130.55508559529619
 31
0.0
  0
LINE
  8
0
  6
CONTINUOUS
 62
               3
  5
176
 10
-574.49999999999977
 20
200.08730192372937
 30
0.0
 11
-574.49999999999977
 21
195.08730192372937
 31
0.0
  0
LINE
  8
0
  6
CONTINUOUS
 62
               3
  5
177
 10
-574.49999999999977
 20
200.08730192372937
 30
0.0
 11
-560.99999999999977
 21
210.0
 31
0.0
  0
LINE
  8
0
  6
CONTINUOUS
 62
               3
  5
178
 10
-574.49999999999977
 20
195.08730192372937
 30
0.0
 11
-563.82550251648729
 21
194.71454025766732
 31
0.0
  0
ARC
  8
0
  6
CONTINUOUS
 62
               3
  5
179
 10
-563.99999999999989
 20
189.7175861225719
 30
0.0
 40
5.0
 50
0.0
 51
87.999999999999417
  0
LINE
  8
0
  6
CONTINUOUS
 62
               3
  5
17A
 10
-425.5
 20
200.08730192372937
 30
0.0
 11
-425.5
 21
195.08730192372937
 31
0.0
  0
LINE
  8
0
  6
CONTINUOUS
 62
               3
  5
17B
 10
-425.5
 20
200.08730192372937
 30
0.0
 11
-438.99999999999989
 21
210.0
 31
0.0
  0
LINE
  8
0
  6
CONTINUOUS
 62
               3
  5
17C
 10
-425.5
 20
195.08730192372937
 30
0.0
 11
-436.17449748351248
 21
194.71454025766732
 31
0.0
  0
ARC
  8
0
  6
CONTINUOUS
 62
               3
  5
17D
 10
-435.99999999999994
 20
189.7175861225719
 30
0.0
 40
5.0
 50
92.000000000000213
 51
179.99999999999963
  0
LINE
  8
0
  6
CONTINUOUS
 62
               3
  5
17E
 10
-560.99999999999977
 20
210.0
 30
0.0
 11
-438.99999999999989
 21
210.0
 31
0.0
  0
LINE
  8
0
  6
CONTINUOUS
 62
               3
  5
17F
 10
-560.51197608798157
 20
193.29999999999984
 30
0.0
 11
-439.48802391201809
 21
193.29999999999984
 31
0.0
  0
LINE
  8
0
  6
CONTINUOUS
 62
               3
  5
180
 10
-519.99999999999989
 20
193.29999999999984
 30
0.0
 11
-519.99999999999989
 21
210.0
 31
0.0
  0
LINE
  8
0
  6
CONTINUOUS
 62
               3
  5
181
 10
-479.99999999999989
 20
210.0
 30
0.0
 11
-479.99999999999989
 21
193.29999999999984
 31
0.0
  0
LINE
  8
0
  6
CONTINUOUS
 62
               3
  5
182
 10
-519.99999999999989
 20
200.08730192372937
 30
0.0
 11
-479.99999999999989
 21
200.08730192372937
 31
0.0
  0
LINE
  8
0
  6
CONTINUOUS
 62
               3
  5
183
 10
-479.99999999999989
 20
195.08730192372937
 30
0.0
 11
-519.99999999999989
 21
195.08730192372937
 31
0.0
  0
LINE
  8
0
  6
CONTINUOUS
 62
               3
  5
184
 10
-560.99999999999977
 20
210.0
 30
0.0
 11
-560.99999999999977
 21
193.71758612257182
 31
0.0
  0
LINE
  8
0
  6
CONTINUOUS
 62
               3
  5
185
 10
-438.99999999999989
 20
210.0
 30
0.0
 11
-438.99999999999989
 21
193.71758612257182
 31
0.0
  0
LINE
  8
0
  6
CONTINUOUS
 62
               3
  5
186
 10
-558.99999999999989
 20
189.7175861225719
 30
0.0
 11
-558.99999999999989
 21
128.17099437777557
 31
0.0
  0
ARC
  8
0
  6
CONTINUOUS
 62
               3
  5
187
 10
-563.99999999999989
 20
128.17099437777557
 30
0.0
 40
5.0
 50
315.01704217218719
 51
359.9999999999992
  0
ARC
  8
0
  6
CONTINUOUS
 62
               3
  5
188
 10
-549.49999999999989
 20
113.67961763158604
 30
0.0
 40
15.5
 50
135.01704217218645
 51
179.9999999999996
  0
LINE
  8
0
  6
CONTINUOUS
 62
               3
  5
189
 10
-440.99999999999989
 20
189.7175861225719
 30
0.0
 11
-440.99999999999989
 21
128.17099437777557
 31
0.0
  0
ARC
  8
0
  6
CONTINUOUS
 62
               3
  5
18A
 10
-436.00000000000017
 20
128.17099437777557
 30
0.0
 40
5.0
 50
179.9999999999996
 51
224.98295782781159
  0
ARC
  8
0
  6
CONTINUOUS
 62
               3
  5
18B
 10
-450.50000000000011
 20
113.67961763158604
 30
0.0
 40
15.5
 50
0.0
 51
44.982957827813138
  0
CIRCLE
  8
0
  6
CONTINUOUS
 62
               3
  5
18C
 10
0.4838501072163659
 20
506.51135116416668
 30
0.0
 40
61.000000000000007
  0
CIRCLE
  8
0
  6
CONTINUOUS
 62
               3
  5
18D
 10
0.0000000000000533
 20
506.43773888183307
 30
0.0
 40
47.0
  0
CIRCLE
  8
0
  6
CONTINUOUS
 62
               3
  5
18E
 10
0.0000000000017586
 20
506.4377388818346
 30
0.0
 40
40.5
  0
LINE
  8
0
  6
CONTINUOUS
 62
               3
  5
18F
 10
-129.99999999999997
 20
554.93773888183296
 30
0.0
 11
-129.32844387403574
 21
554.93773888183296
 31
0.0
  0
LINE
  8
0
  6
CONTINUOUS
 62
               3
  5
190
 10
-126.82844387403495
 20
557.43773888183296
 30
0.0
 11
-129.32844387403574
 21
554.93773888183296
 31
0.0
  0
LINE
  8
0
  6
CONTINUOUS
 62
               3
  5
191
 10
-129.99999999999997
 20
457.9377388818329
 30
0.0
 11
-129.32844387403574
 21
457.9377388818329
 31
0.0
  0
LINE
  8
0
  6
CONTINUOUS
 62
               3
  5
192
 10
-126.82844387403574
 20
455.4377388818329
 30
0.0
 11
-129.32844387403574
 21
457.9377388818329
 31
0.0
  0
LINE
  8
0
  6
CONTINUOUS
 62
               3
  5
193
 10
-129.32844387403574
 20
457.93773888183267
 30
0.0
 11
-129.32844387403574
 21
554.93773888183296
 31
0.0
  0
LINE
  8
0
  6
CONTINUOUS
 62
               3
  5
194
 10
-134.99999999999997
 20
458.08773888183293
 30
0.0
 11
-134.99999999999997
 21
554.78773888183298
 31
0.0
  0
LINE
  8
0
  6
CONTINUOUS
 62
               3
  5
195
 10
-129.99999999999997
 20
557.28773888183298
 30
0.0
 11
-129.99999999999997
 21
455.58773888183293
 31
0.0
  0
LINE
  8
0
  6
CONTINUOUS
 62
               3
  5
196
 10
-129.99999999999997
 20
455.58773888183293
 30
0.0
 11
-132.49999999999997
 21
455.58773888183293
 31
0.0
  0
LINE
  8
0
  6
CONTINUOUS
 62
               3
  5
197
 10
-129.99999999999997
 20
557.28773888183298
 30
0.0
 11
-132.49999999999997
 21
557.28773888183298
 31
0.0
  0
ARC
  8
0
  6
CONTINUOUS
 62
               3
  5
198
 10
-132.49999999999997
 20
554.78773888183298
 30
0.0
 40
2.5
 50
89.999999999930765
 51
179.99999999989637
  0
ARC
  8
0
  6
CONTINUOUS
 62
               3
  5
199
 10
-132.49999999999997
 20
458.08773888183293
 30
0.0
 40
2.5
 50
179.99999999989637
 51
269.99999999986164
  0
LINE
  8
0
  6
CONTINUOUS
 62
               3
  5
19A
 10
-126.82844387403574
 20
455.4377388818329
 30
0.0
 11
-126.82844387403495
 21
557.43773888183296
 31
0.0
  0
LINE
  8
0
  6
CONTINUOUS
 62
               3
  5
19B
 10
-35.918047055291183
 20
560.61239989354499
 30
0.0
 11
-126.82844387403495
 21
557.43773888183296
 31
0.0
  0
LINE
  8
0
  6
CONTINUOUS
 62
               3
  5
19C
 10
-35.918047055292504
 20
452.263077870122
 30
0.0
 11
-126.82844387403574
 21
455.4377388818329
 31
0.0
  0
LINE
  8
0
  6
CONTINUOUS
 62
               3
  5
19D
 10
-126.82844387403571
 20
0.5000000000007105
 30
0.0
 11
-84.485569844027864
 21
-0.9786457436195519
 31
0.0
  0
LINE
  8
0
  6
CONTINUOUS
 62
               3
  5
19E
 10
-66.464466094067291
 20
-17.100133300322128
 30
0.0
 11
-81.124533421607723
 21
-2.4400659727822358
 31
0.0
  0
LINE
  8
0
  6
CONTINUOUS
 62
               3
  5
19F
 10
-126.82844387403571
 20
102.50000000000009
 30
0.0
 11
-69.825502516487504
 21
104.49058657549851
 31
0.0
  0
LINE
  8
0
  6
CONTINUOUS
 62
               3
  5
1A0
 10
-129.99999999999997
 20
3.0
 30
0.0
 11
-129.32844387403574
 21
3.0
 31
0.0
  0
LINE
  8
0
  6
CONTINUOUS
 62
               3
  5
1A1
 10
-126.828443874035
 20
0.5
 30
0.0
 11
-129.32844387403574
 21
3.0
 31
0.0
  0
LINE
  8
0
  6
CONTINUOUS
 62
               3
  5
1A2
 10
-129.99999999999997
 20
100.0
 30
0.0
 11
-129.32844387403574
 21
100.0
 31
0.0
  0
LINE
  8
0
  6
CONTINUOUS
 62
               3
  5
1A3
 10
-126.82844387403574
 20
102.50000000000003
 30
0.0
 11
-129.32844387403574
 21
100.0
 31
0.0
  0
LINE
  8
0
  6
CONTINUOUS
 62
               3
  5
1A4
 10
-129.32844387403574
 20
100.00000000000023
 30
0.0
 11
-129.32844387403574
 21
3.0
 31
0.0
  0
LINE
  8
0
  6
CONTINUOUS
 62
               3
  5
1A5
 10
-134.99999999999997
 20
99.849999999999994
 30
0.0
 11
-134.99999999999997
 21
3.1500000000000057
 31
0.0
  0
LINE
  8
0
  6
CONTINUOUS
 62
               3
  5
1A6
 10
-129.99999999999997
 20
0.6500000000000057
 30
0.0
 11
-129.99999999999997
 21
102.34999999999999
 31
0.0
  0
LINE
  8
0
  6
CONTINUOUS
 62
               3
  5
1A7
 10
-129.99999999999997
 20
102.34999999999999
 30
0.0
 11
-132.49999999999997
 21
102.34999999999999
 31
0.0
  0
LINE
  8
0
  6
CONTINUOUS
 62
               3
  5
1A8
 10
-129.99999999999997
 20
0.6500000000000057
 30
0.0
 11
-132.49999999999997
 21
0.6500000000000057
 31
0.0
  0
ARC
  8
0
  6
CONTINUOUS
 62
               3
  5
1A9
 10
-132.49999999999997
 20
3.1500000000000057
 30
0.0
 40
2.5
 50
179.99999999993088
 51
269.99999999989649
  0
ARC
  8
0
  6
CONTINUOUS
 62
               3
  5
1AA
 10
-132.49999999999997
 20
99.849999999999994
 30
0.0
 40
2.5
 50
89.999999999965596
 51
179.99999999993057
  0
LINE
  8
0
  6
CONTINUOUS
 62
               3
  5
1AB
 10
-126.82844387403571
 20
102.50000000000003
 30
0.0
 11
-126.82844387403497
 21
0.4999999999999716
 31
0.0
  0
ARC
  8
0
  6
CONTINUOUS
 62
               3
  5
1AC
 10
-84.660067327540403
 20
-5.9755998787150304
 30
0.0
 40
5.0
 50
44.999999999983721
 51
87.999999999965766
  0
ARC
  8
0
  6
CONTINUOUS
 62
               3
  5
1AD
 10
-69.999999999999986
 20
109.48754071059399
 30
0.0
 40
5.0
 50
271.99999999999909
 51
359.9999999999992
  0
ARC
  8
0
  6
CONTINUOUS
 62
               3
  5
1AE
 10
-69.999999999999972
 20
-20.635667206254936
 30
0.0
 40
5.0
 50
0.0
 51
45.000000000000945
  0
CIRCLE
  8
0
  6
CONTINUOUS
 62
               3
  5
1AF
 10
-500.0
 20
51.5
 30
0.0
 40
50.850000000000001
  0
LINE
  8
0
  6
CONTINUOUS
 62
               3
  5
1B0
 10
-480.91957809690825
 20
77.499999999999886
 30
0.0
 11
-519.08042190309288
 21
77.499999999999886
 31
0.0
  0
CIRCLE
  8
0
  6
CONTINUOUS
 62
               3
  5
1B1
 10
-500.0
 20
51.5
 30
0.0
 40
41.849999999999994
  0
CIRCLE
  8
0
  6
CONTINUOUS
 62
               3
  5
1B2
 10
-500.0
 20
51.5
 30
0.0
 40
40.75
  0
CIRCLE
  8
0
  6
CONTINUOUS
 62
               3
  5
1B3
 10
-500.00000000000057
 20
51.5
 30
0.0
 40
36.399999999999999
  0
CIRCLE
  8
0
  6
CONTINUOUS
 62
               3
  5
1B4
 10
-500.00000000000057
 20
51.5
 30
0.0
 40
32.25
  0
LINE
  8
0
  6
CONTINUOUS
 62
               3
  5
1B5
 10
-472.95316561961505
 20
24.453165619614538
 30
0.0
 11
-471.18539866664821
 21
22.685398666648098
 31
0.0
  0
LINE
  8
0
  6
CONTINUOUS
 62
               3
  5
1B6
 10
-527.0468343803791
 20
24.453165619607717
 30
0.0
 11
-528.81460133335133
 21
22.685398666647529
 31
0.0
  0
ARC
  8
0
  6
CONTINUOUS
 62
               3
  5
1B7
 10
-500.00000000000057
 20
51.5
 30
0.0
 40
38.25
 50
224.99999999992795
 51
314.9999999998879
  0
LINE
  8
0
  6
CONTINUOUS
 62
               3
  5
1B8
 10
24.438462962570128
 20
523.74371082646189
 30
0.0
 11
-18.217086312155086
 21
542.60938200590931
 31
0.0
  0
ARC
  8
0
  6
CONTINUOUS
 62
               3
  5
1B9
 10
30.271587850719797
 20
536.93248867196758
 30
0.0
 40
14.421137507799237
 50
246.14118011765956
 51
295.69436237361231
  0
LINE
  8
0
  6
CONTINUOUS
 62
               3
  5
1BA
 10
66.999999999999886
 20
122.55508559529581
 30
0.0
 11
58.999999999999517
 21
130.55508559529619
 31
0.0
  0
LINE
  8
0
  6
CONTINUOUS
 62
               3
  5
1BB
 10
58.999999999999517
 20
130.55508559529619
 30
0.0
 11
58.499999999999972
 21
130.55508559529619
 31
0.0
  0
LINE
  8
0
  6
CONTINUOUS
 62
               3
  5
1BC
 10
66.750000000000114
 20
122.30508559529568
 30
0.0
 11
58.499999999999972
 21
130.55508559529619
 31
0.0
  0
LINE
  8
0
  6
CONTINUOUS
 62
               3
  5
1BD
 10
58.499999999999972
 20
125.92706634550198
 30
0.0
 11
58.499999999999972
 21
130.55508559529676
 31
0.0
  0
LINE
  8
0
  6
CONTINUOUS
 62
               3
  5
1BE
 10
66.999999999999886
 20
122.55508559529581
 30
0.0
 11
66.750000000000114
 21
122.30508559529568
 31
0.0
  0
ARC
  8
0
  6
CONTINUOUS
 62
               3
  5
1BF
 10
48.999999999999879
 20
113.67961763158615
 30
0.0
 40
15.5
 50
0.0
 51
52.200277564572296
  0
LINE
  8
0
  6
CONTINUOUS
 62
               3
  5
1C0
 10
64.499999999999886
 20
113.67961763158615
 30
0.0
 11
64.499999999999886
 21
0.0
 31
0.0
  0
LINE
  8
0
  6
CONTINUOUS
 62
               3
  5
1C1
 10
66.999999999999886
 20
122.55508559529581
 30
0.0
 11
66.999999999999886
 21
-0.9999999999999432
 31
0.0
  0
LINE
  8
0
  6
CONTINUOUS
 62
               3
  5
1C2
 10
66.750000000000114
 20
122.30508559529568
 30
0.0
 11
66.750000000000114
 21
-0.71464289286439
 31
0.0
  0
LINE
  8
0
  6
CONTINUOUS
 62
               3
  5
1C3
 10
-45.499999999999993
 20
-238.99627986184794
 30
0.0
 11
-65.0
 21
-67.84697640288266
 31
0.0
  0
LINE
  8
0
  6
CONTINUOUS
 62
               3
  5
1C4
 10
66.999999999999872
 20
-67.960544633137943
 30
0.0
 11
47.771775600348668
 21
-236.72450426149953
 31
0.0
  0
LINE
  8
0
  6
CONTINUOUS
 62
               3
  5
1C5
 10
64.499999999999872
 20
-67.818584345318413
 30
0.0
 11
44.996765133650321
 21
-238.99627986184794
 31
0.0
  0
LINE
  8
0
  6
CONTINUOUS
 62
               3
  5
1C6
 10
64.49676513364976
 20
-67.84697640288266
 30
0.0
 11
66.999999999999872
 21
-67.960544633137943
 31
0.0
  0
LINE
  8
0
  6
CONTINUOUS
 62
               3
  5
1C7
 10
66.750000000000099
 20
-67.946348604355876
 30
0.0
 11
47.494274553678544
 21
-236.95168182153458
 31
0.0
  0
LINE
  8
0
  6
CONTINUOUS
 62
               3
  5
1C8
 10
-64.999999999999986
 20
-67.84697640288266
 30
0.0
 11
64.49676513364976
 21
-67.84697640288266
 31
0.0
  0
LINE
  8
0
  6
CONTINUOUS
 62
               3
  5
1C9
 10
45.499999999999922
 20
-238.99627986184794
 30
0.0
 11
47.771775600348668
 21
-236.72450426149953
 31
0.0
  0
LINE
  8
0
  6
CONTINUOUS
 62
               3
  5
1CA
 10
44.996765133650264
 20
-238.99627986184851
 30
0.0
 11
47.771775600348668
 21
-236.72450426149953
 31
0.0
  0
CIRCLE
  8
0
  6
CONTINUOUS
 62
               3
  5
1CB
 10
-100.62307865726447
 20
-175.09964892838184
 30
0.0
 40
0.2396114958834032
  0
LINE
  8
0
  6
CONTINUOUS
 62
               3
  5
1CC
 10
-45.500000000000526
 20
-303.90624095768442
 30
0.0
 11
-45.499999999999986
 21
-238.99627986184805
 31
0.0
  0
LINE
  8
0
  6
CONTINUOUS
 62
               3
  5
1CD
 10
45.500000000000426
 20
-303.90624095768442
 30
0.0
 11
45.499999999999929
 21
-238.99627986184805
 31
0.0
  0
LINE
  8
0
  6
CONTINUOUS
 62
               3
  5
1CE
 10
-545.50000000000057
 20
-303.90624095768442
 30
0.0
 11
-545.5
 21
-238.99627986184805
 31
0.0
  0
LINE
  8
0
  6
CONTINUOUS
 62
               3
  5
1CF
 10
-454.4999999999996
 20
-303.90624095768442
 30
0.0
 11
-454.50000000000006
 21
-238.99627986184805
 31
0.0
  0
LINE
  8
0
  6
CONTINUOUS
 62
               3
  5
1D0
 10
-545.5
 20
-238.99627986184794
 30
0.0
 11
-565.0
 21
-67.84697640288266
 31
0.0
  0
LINE
  8
0
  6
CONTINUOUS
 62
               3
  5
1D1
 10
-565.0
 20
-67.84697640288266
 30
0.0
 11
-435.0
 21
-67.84697640288266
 31
0.0
  0
CIRCLE
  8
0
  6
CONTINUOUS
 62
               3
  5
1D2
 10
-600.6230786572645
 20
-175.09964892838184
 30
0.0
 40
0.2396114958834032
  0
LINE
  8
0
  6
CONTINUOUS
 62
               3
  5
1D3
 10
-454.5
 20
-238.99627986184794
 30
0.0
 11
-435.0
 21
-67.846976402882646
 31
0.0
  0
LINE
  8
0
  6
CONTINUOUS
 62
               3
  5
1D4
 10
-545.5
 20
-238.99627986184794
 30
0.0
 11
-454.5
 21
-238.99627986184794
 31
0.0
  0
LINE
  8
0
  6
CONTINUOUS
 62
               3
  5
1D5
 10
-45.500000000000526
 20
-238.99627986184794
 30
0.0
 11
45.500000000000426
 21
-238.99627986184794
 31
0.0
  0
LINE
  8
0
  6
CONTINUOUS
 62
               3
  5
1D6
 10
454.56642277706555
 20
-238.99627986184794
 30
0.0
 11
435.06642277706555
 21
-67.84697640288266
 31
0.0
  0
LINE
  8
0
  6
CONTINUOUS
 62
               3
  5
1D7
 10
435.06642277706555
 20
-4.9999999999998863
 30
0.0
 11
435.06642277706555
 21
-67.84697640288266
 31
0.0
  0
ARC
  8
0
  6
CONTINUOUS
 62
               3
  5
1D8
 10
565.06642277706555
 20
-2.5
 30
0.0
 40
2.4999999999999996
 50
269.99999999999937
 51
449.99999999999898
  0
LINE
  8
0
  6
CONTINUOUS
 62
               3
  5
1D9
 10
435.06642277706555
 20
-67.84697640288266
 30
0.0
 11
565.06642277706555
 21
-67.84697640288266
 31
0.0
  0
LINE
  8
0
  6
CONTINUOUS
 62
               3
  5
1DA
 10
435.06642277706555
 20
113.67961763158598
 30
0.0
 11
435.06642277706555
 21
-0.0000000000000142
 31
0.0
  0
LINE
  8
0
  6
CONTINUOUS
 62
               3
  5
1DB
 10
425.56642277706578
 20
200.08730192372934
 30
0.0
 11
425.56642277706578
 21
195.08730192372934
 31
0.0
  0
LINE
  8
0
  6
CONTINUOUS
 62
               3
  5
1DC
 10
425.56642277706578
 20
200.08730192372934
 30
0.0
 11
439.06642277706578
 21
210.0
 31
0.0
  0
LINE
  8
0
  6
CONTINUOUS
 62
               3
  5
1DD
 10
425.56642277706578
 20
195.08730192372934
 30
0.0
 11
436.24092026057826
 21
194.7145402576673
 31
0.0
  0
ARC
  8
0
  6
CONTINUOUS
 62
               3
  5
1DE
 10
436.06642277706578
 20
189.7175861225719
 30
0.0
 40
5.0
 50
0.0
 51
87.999999999999417
  0
LINE
  8
0
  6
CONTINUOUS
 62
               3
  5
1DF
 10
574.56642277706555
 20
200.08730192372934
 30
0.0
 11
574.56642277706555
 21
195.08730192372934
 31
0.0
  0
LINE
  8
0
  6
CONTINUOUS
 62
               3
  5
1E0
 10
574.56642277706555
 20
200.08730192372934
 30
0.0
 11
561.06642277706567
 21
210.0
 31
0.0
  0
LINE
  8
0
  6
CONTINUOUS
 62
               3
  5
1E1
 10
574.56642277706555
 20
195.08730192372934
 30
0.0
 11
563.89192529355307
 21
194.7145402576673
 31
0.0
  0
ARC
  8
0
  6
CONTINUOUS
 62
               3
  5
1E2
 10
564.06642277706555
 20
189.7175861225719
 30
0.0
 40
5.0
 50
92.000000000000213
 51
179.99999999999963
  0
LINE
  8
0
  6
CONTINUOUS
 62
               3
  5
1E3
 10
439.06642277706578
 20
210.0
 30
0.0
 11
561.06642277706567
 21
210.0
 31
0.0
  0
LINE
  8
0
  6
CONTINUOUS
 62
               3
  5
1E4
 10
439.55444668908387
 20
193.29999999999984
 30
0.0
 11
560.57839886504746
 21
193.29999999999984
 31
0.0
  0
LINE
  8
0
  6
CONTINUOUS
 62
               3
  5
1E5
 10
480.06642277706567
 20
193.29999999999984
 30
0.0
 11
480.06642277706567
 21
210.0
 31
0.0
  0
LINE
  8
0
  6
CONTINUOUS
 62
               3
  5
1E6
 10
520.06642277706578
 20
210.0
 30
0.0
 11
520.06642277706578
 21
193.29999999999984
 31
0.0
  0
LINE
  8
0
  6
CONTINUOUS
 62
               3
  5
1E7
 10
480.06642277706567
 20
200.08730192372934
 30
0.0
 11
520.06642277706578
 21
200.08730192372934
 31
0.0
  0
LINE
  8
0
  6
CONTINUOUS
 62
               3
  5
1E8
 10
520.06642277706578
 20
195.08730192372934
 30
0.0
 11
480.06642277706567
 21
195.08730192372934
 31
0.0
  0
LINE
  8
0
  6
CONTINUOUS
 62
               3
  5
1E9
 10
439.06642277706578
 20
210.0
 30
0.0
 11
439.06642277706578
 21
193.71758612257179
 31
0.0
  0
LINE
  8
0
  6
CONTINUOUS
 62
               3
  5
1EA
 10
561.06642277706567
 20
210.0
 30
0.0
 11
561.06642277706567
 21
193.71758612257179
 31
0.0
  0
LINE
  8
0
  6
CONTINUOUS
 62
               3
  5
1EB
 10
441.06642277706578
 20
189.7175861225719
 30
0.0
 11
441.06642277706578
 21
128.17099437777563
 31
0.0
  0
ARC
  8
0
  6
CONTINUOUS
 62
               3
  5
1EC
 10
436.06642277706578
 20
128.17099437777563
 30
0.0
 40
5.0
 50
315.01704217218719
 51
359.9999999999992
  0
ARC
  8
0
  6
CONTINUOUS
 62
               3
  5
1ED
 10
450.56642277706567
 20
113.67961763158598
 30
0.0
 40
15.5
 50
135.01704217218645
 51
179.9999999999996
  0
LINE
  8
0
  6
CONTINUOUS
 62
               3
  5
1EE
 10
559.06642277706567
 20
189.7175861225719
 30
0.0
 11
559.06642277706567
 21
126.17099437777563
 31
0.0
  0
ARC
  8
0
  6
CONTINUOUS
 62
               3
  5
1EF
 10
435.06642277706555
 20
-2.5000000000000142
 30
0.0
 40
2.4999999999999996
 50
89.999999999999815
 51
269.99999999999937
  0
LINE
  8
0
  6
CONTINUOUS
 62
               3
  5
1F0
 10
565.06642277706555
 20
113.67961763158598
 30
0.0
 11
565.06642277706555
 21
0.0
 31
0.0
  0
ARC
  8
0
  6
CONTINUOUS
 62
               3
  5
1F1
 10
564.06642277706533
 20
128.17099437777563
 30
0.0
 40
5.0
 50
179.9999999999996
 51
224.98295782781162
  0
ARC
  8
0
  6
CONTINUOUS
 62
               3
  5
1F2
 10
549.56642277706544
 20
113.67961763158598
 30
0.0
 40
15.5
 50
0.0000000000000078
 51
44.982957827813145
  0
LINE
  8
0
  6
CONTINUOUS
 62
               3
  5
1F3
 10
545.56642277706555
 20
-238.99627986184794
 30
0.0
 11
565.06642277706555
 21
-67.846976402882646
 31
0.0
  0
LINE
  8
0
  6
CONTINUOUS
 62
               3
  5
1F4
 10
565.06642277706555
 20
-4.9999999999998721
 30
0.0
 11
565.06642277706555
 21
-67.846976402882646
 31
0.0
  0
LINE
  8
0
  6
CONTINUOUS
 62
               3
  5
1F5
 10
454.56642277706499
 20
-303.90624095768442
 30
0.0
 11
454.56642277706555
 21
-238.99627986184805
 31
0.0
  0
LINE
  8
0
  6
CONTINUOUS
 62
               3
  5
1F6
 10
545.56642277706601
 20
-303.90624095768442
 30
0.0
 11
545.56642277706555
 21
-238.99627986184805
 31
0.0
  0
LINE
  8
0
  6
CONTINUOUS
 62
               3
  5
1F7
 10
435.06642277706555
 20
-0.0000000000000142
 30
0.0
 11
491.93835546658465
 21
0.0
 31
0.0
  0
LINE
  8
0
  6
CONTINUOUS
 62
               3
  5
1F8
 10
508.2170000000001
 20
0.0
 30
0.0
 11
565.06642277706555
 21
0.0000000000000071
 31
0.0
  0
LINE
  8
0
  6
CONTINUOUS
 62
               3
  5
1F9
 10
435.06642277706555
 20
-4.9999999999998863
 30
0.0
 11
491.93835546658465
 21
-4.9999999999998721
 31
0.0
  0
LINE
  8
0
  6
CONTINUOUS
 62
               3
  5
1FA
 10
508.06164453341512
 20
-5.0
 30
0.0
 11
565.06642277706555
 21
-4.9999999999999858
 31
0.0
  0
LINE
  8
0
  6
CONTINUOUS
 62
               3
  5
1FB
 10
454.56642277706499
 20
-238.99627986184794
 30
0.0
 11
545.56642277706601
 21
-238.99627986184794
 31
0.0
  0
LINE
  8
0
  6
CONTINUOUS
 62
               3
  5
1FC
 10
455.49999999999932
 20
-304.90624095768442
 30
0.0
 11
454.49999999999955
 21
-303.90624095768442
 31
0.0
  0
LINE
  8
0
  6
CONTINUOUS
 62
               3
  5
1FD
 10
544.50000000000045
 20
-304.90624095768442
 30
0.0
 11
545.50000000000045
 21
-303.90624095768442
 31
0.0
  0
LINE
  8
0
  6
CONTINUOUS
 62
               3
  5
1FE
 10
455.49999999999932
 20
-304.90624095768442
 30
0.0
 11
544.50000000000045
 21
-304.90624095768442
 31
0.0
  0
LINE
  8
0
  6
CONTINUOUS
 62
               3
  5
1FF
 10
545.50000000000045
 20
-303.90624095768442
 30
0.0
 11
454.49999999999955
 21
-303.90624095768442
 31
0.0
  0
LINE
  8
0
  6
CONTINUOUS
 62
               3
  5
200
 10
455.5
 20
-340.0
 30
0.0
 11
455.5
 21
-304.90624095768442
 31
0.0
  0
LINE
  8
0
  6
CONTINUOUS
 62
               3
  5
201
 10
544.5
 20
-340.0
 30
0.0
 11
544.5
 21
-304.90624095768442
 31
0.0
  0
LINE
  8
0
  6
CONTINUOUS
 62
               3
  5
202
 10
447.5000000000008
 20
-470.0
 30
0.0
 11
552.50000000000159
 21
-469.99999999999886
 31
0.0
  0
LINE
  8
0
  6
CONTINUOUS
 62
               3
  5
203
 10
450.50000000000091
 20
-470.0
 30
0.0
 11
450.50000000000091
 21
-455.00000000000091
 31
0.0
  0
LINE
  8
0
  6
CONTINUOUS
 62
               3
  5
204
 10
549.49999999999932
 20
-469.99999999999977
 30
0.0
 11
549.49999999999932
 21
-455.00000000000091
 31
0.0
  0
ARC
  8
0
  6
CONTINUOUS
 62
               3
  5
205
 10
440.00000000000193
 20
-451.00000000000091
 30
0.0
 40
4.0
 50
179.99999999996601
 51
269.99999999994901
  0
LINE
  8
0
  6
CONTINUOUS
 62
               3
  5
206
 10
436.00000000000193
 20
-451.00000000000091
 30
0.0
 11
436.00000000000193
 21
-430.00000000000068
 31
0.0
  0
LINE
  8
0
  6
CONTINUOUS
 62
               3
  5
207
 10
484.00000000000045
 20
-429.99999999999989
 30
0.0
 11
436.00000000000216
 21
-430.00000000000068
 31
0.0
  0
LINE
  8
0
  6
CONTINUOUS
 62
               3
  5
208
 10
484.00000000000045
 20
-454.99999999999977
 30
0.0
 11
439.99999999999841
 21
-455.00000000000091
 31
0.0
  0
LINE
  8
0
  6
CONTINUOUS
 62
               3
  5
209
 10
515.99999999999932
 20
-429.99999999999989
 30
0.0
 11
563.99999999999773
 21
-430.00000000000068
 31
0.0
  0
LINE
  8
0
  6
CONTINUOUS
 62
               3
  5
20A
 10
515.99999999999932
 20
-454.99999999999977
 30
0.0
 11
560.00000000000148
 21
-455.00000000000091
 31
0.0
  0
ARC
  8
0
  6
CONTINUOUS
 62
               3
  5
20B
 10
559.99999999999795
 20
-451.00000000000091
 30
0.0
 40
4.0
 50
270.00000000004979
 51
360.0000000000328
  0
LINE
  8
0
  6
CONTINUOUS
 62
               3
  5
20C
 10
563.99999999999795
 20
-451.00000000000091
 30
0.0
 11
563.99999999999773
 21
-430.00000000000068
 31
0.0
  0
ARC
  8
0
  6
CONTINUOUS
 62
               3
  5
20D
 10
439.99999999999977
 20
-344.00000000000068
 30
0.0
 40
4.0
 50
89.999999999982236
 51
179.99999999996518
  0
LINE
  8
0
  6
CONTINUOUS
 62
               3
  5
20E
 10
435.99999999999977
 20
-343.99999999999829
 30
0.0
 11
435.99999999999955
 21
-365.0
 31
0.0
  0
LINE
  8
0
  6
CONTINUOUS
 62
               3
  5
20F
 10
484.00000000000045
 20
-339.99999999999977
 30
0.0
 11
439.99999999999977
 21
-340.00000000000068
 31
0.0
  0
LINE
  8
0
  6
CONTINUOUS
 62
               3
  5
210
 10
435.99999999999955
 20
-365.0
 30
0.0
 11
484.00000000000045
 21
-364.99999999999966
 31
0.0
  0
LINE
  8
0
  6
CONTINUOUS
 62
               3
  5
211
 10
516.00000000000102
 20
-339.99999999999955
 30
0.0
 11
559.99999999999955
 21
-339.99999999999966
 31
0.0
  0
LINE
  8
0
  6
CONTINUOUS
 62
               3
  5
212
 10
563.99999999999966
 20
-364.99999999999898
 30
0.0
 11
516.00000000000102
 21
-364.99999999999943
 31
0.0
  0
ARC
  8
0
  6
CONTINUOUS
 62
               3
  5
213
 10
559.99999999999955
 20
-344.00000000000057
 30
0.0
 40
4.0
 50
0.0000000000345138
 51
90.000000000017465
  0
LINE
  8
0
  6
CONTINUOUS
 62
               3
  5
214
 10
563.99999999999966
 20
-344.00000000000057
 30
0.0
 11
563.99999999999966
 21
-364.99999999999898
 31
0.0
  0
LINE
  8
0
  6
CONTINUOUS
 62
               3
  5
215
 10
438.99999999999955
 20
-365.0
 30
0.0
 11
439.00000000000068
 21
-430.00000000000068
 31
0.0
  0
LINE
  8
0
  6
CONTINUOUS
 62
               3
  5
216
 10
560.99999999999977
 20
-364.99999999999989
 30
0.0
 11
560.99999999999875
 21
-430.00000000000057
 31
0.0
  0
LINE
  8
0
  6
CONTINUOUS
 62
               3
  5
217
 10
484.00000000000045
 20
-456.5999999999998
 30
0.0
 11
516.00000000000102
 21
-456.59999999999934
 31
0.0
  0
LINE
  8
0
  6
CONTINUOUS
 62
               3
  5
218
 10
484.00000000000045
 20
-338.39999999999964
 30
0.0
 11
484.00000000000045
 21
-456.5999999999998
 31
0.0
  0
LINE
  8
0
  6
CONTINUOUS
 62
               3
  5
219
 10
516.00000000000102
 20
-456.59999999999934
 30
0.0
 11
516.00000000000057
 21
-338.39999999999964
 31
0.0
  0
LINE
  8
0
  6
CONTINUOUS
 62
               3
  5
21A
 10
483.99999999999977
 20
-338.39999999999964
 30
0.0
 11
515.99999999999989
 21
-338.39999999999964
 31
0.0
  0
LINE
  8
0
  6
CONTINUOUS
 62
               3
  5
21B
 10
484.00000000000045
 20
-396.150000000001
 30
0.0
 11
516.00000000000102
 21
-396.150000000001
 31
0.0
  0
LINE
  8
0
  6
CONTINUOUS
 62
               3
  5
21C
 10
484.00000000000045
 20
-394.55000000000098
 30
0.0
 11
516.00000000000102
 21
-394.55000000000098
 31
0.0
  0
LINE
  8
0
  6
CONTINUOUS
 62
               3
  5
21D
 10
484.00000000000045
 20
-397.75000000000102
 30
0.0
 11
516.00000000000102
 21
-397.75000000000102
 31
0.0
  0
LINE
  8
0
  6
CONTINUOUS
 62
               3
  5
21E
 10
-544.50000000000068
 20
-304.90624095768442
 30
0.0
 11
-545.50000000000045
 21
-303.90624095768447
 31
0.0
  0
LINE
  8
0
  6
CONTINUOUS
 62
               3
  5
21F
 10
-455.49999999999955
 20
-304.90624095768442
 30
0.0
 11
-454.49999999999955
 21
-303.90624095768447
 31
0.0
  0
LINE
  8
0
  6
CONTINUOUS
 62
               3
  5
220
 10
-544.50000000000068
 20
-304.90624095768442
 30
0.0
 11
-455.49999999999955
 21
-304.90624095768442
 31
0.0
  0
LINE
  8
0
  6
CONTINUOUS
 62
               3
  5
221
 10
-454.49999999999955
 20
-303.90624095768447
 30
0.0
 11
-545.50000000000045
 21
-303.90624095768447
 31
0.0
  0
LINE
  8
0
  6
CONTINUOUS
 62
               3
  5
222
 10
-544.5
 20
-340.00000000000006
 30
0.0
 11
-544.5
 21
-304.90624095768442
 31
0.0
  0
LINE
  8
0
  6
CONTINUOUS
 62
               3
  5
223
 10
-455.5
 20
-340.00000000000006
 30
0.0
 11
-455.5
 21
-304.90624095768442
 31
0.0
  0
LINE
  8
0
  6
CONTINUOUS
 62
               3
  5
224
 10
-44.500000000000668
 20
-304.90624095768436
 30
0.0
 11
-45.500000000000441
 21
-303.90624095768442
 31
0.0
  0
LINE
  8
0
  6
CONTINUOUS
 62
               3
  5
225
 10
44.500000000000469
 20
-304.90624095768436
 30
0.0
 11
45.500000000000469
 21
-303.90624095768442
 31
0.0
  0
LINE
  8
0
  6
CONTINUOUS
 62
               3
  5
226
 10
-44.500000000000668
 20
-304.90624095768436
 30
0.0
 11
44.500000000000469
 21
-304.90624095768436
 31
0.0
  0
LINE
  8
0
  6
CONTINUOUS
 62
               3
  5
227
 10
45.500000000000469
 20
-303.90624095768442
 30
0.0
 11
-45.500000000000441
 21
-303.90624095768442
 31
0.0
  0
LINE
  8
0
  6
CONTINUOUS
 62
               3
  5
228
 10
-44.499999999999986
 20
-340.0
 30
0.0
 11
-44.499999999999986
 21
-304.90624095768436
 31
0.0
  0
LINE
  8
0
  6
CONTINUOUS
 62
               3
  5
229
 10
44.500000000000014
 20
-340.0
 30
0.0
 11
44.500000000000014
 21
-304.90624095768436
 31
0.0
  0
LINE
  8
0
  6
CONTINUOUS
 62
               3
  5
22A
 10
-135.00000000000037
 20
-394.55000000000155
 30
0.0
 11
-135.00000000000037
 21
-396.15000000000157
 31
0.0
  0
LINE
  8
0
  6
CONTINUOUS
 62
               3
  5
22B
 10
-135.00000000000037
 20
-397.75000000000148
 30
0.0
 11
-135.00000000000037
 21
-396.15000000000157
 31
0.0
  0
LINE
  8
0
  6
CONTINUOUS
 62
               3
  5
22C
 10
-78.75000000000027
 20
-393.05000000000109
 30
0.0
 11
-78.75000000000027
 21
-394.55000000000109
 31
0.0
  0
LINE
  8
0
  6
CONTINUOUS
 62
               3
  5
22D
 10
-78.75000000000027
 20
-397.75000000000136
 30
0.0
 11
-78.75000000000027
 21
-399.25000000000125
 31
0.0
  0
LINE
  8
0
  6
CONTINUOUS
 62
               3
  5
22E
 10
-49.499999999999019
 20
-470.00000000000057
 30
0.0
 11
-49.499999999999019
 21
-455.00000000000148
 31
0.0
  0
LINE
  8
0
  6
CONTINUOUS
 62
               3
  5
22F
 10
-52.499999999999133
 20
-470.00000000000057
 30
0.0
 11
52.50000000000172
 21
-469.99999999999955
 31
0.0
  0
ARC
  8
0
  6
CONTINUOUS
 62
               3
  5
230
 10
-59.999999999999702
 20
-344.00000000000125
 30
0.0
 40
4.0
 50
89.999999999982236
 51
179.99999999996518
  0
ARC
  8
0
  6
CONTINUOUS
 62
               3
  5
231
 10
-62.999999999999815
 20
-341.00000000000125
 30
0.0
 40
1.0000000000000004
 50
89.999999999981483
 51
179.99999999996524
  0
LINE
  8
0
  6
CONTINUOUS
 62
               3
  5
232
 10
-65.599999999999724
 20
-341.00000000000125
 30
0.0
 11
-65.599999999999724
 21
-393.55000000000109
 31
0.0
  0
LINE
  8
0
  6
CONTINUOUS
 62
               3
  5
233
 10
-64.000000000000043
 20
-341.00000000000125
 30
0.0
 11
-64.000000000000043
 21
-393.55000000000109
 31
0.0
  0
LINE
  8
0
  6
CONTINUOUS
 62
               3
  5
234
 10
-66.599999999999952
 20
-396.15000000000111
 30
0.0
 11
-135.00000000000037
 21
-396.15000000000157
 31
0.0
  0
LINE
  8
0
  6
CONTINUOUS
 62
               3
  5
235
 10
-66.599999999999952
 20
-394.55000000000109
 30
0.0
 11
-135.00000000000037
 21
-394.55000000000155
 31
0.0
  0
LINE
  8
0
  6
CONTINUOUS
 62
               3
  5
236
 10
-49.999999999999702
 20
-338.40000000000134
 30
0.0
 11
-62.999999999999815
 21
-338.40000000000134
 31
0.0
  0
LINE
  8
0
  6
CONTINUOUS
 62
               3
  5
237
 10
0.0000000000002964
 20
-340.00000000000023
 30
0.0
 11
-62.999999999999815
 21
-340.00000000000136
 31
0.0
  0
LINE
  8
0
  6
CONTINUOUS
 62
               3
  5
238
 10
-49.999999999999702
 20
-338.40000000000134
 30
0.0
 11
-49.999999999999702
 21
-340.00000000000114
 31
0.0
  0
LINE
  8
0
  6
CONTINUOUS
 62
               3
  5
239
 10
-49.999999999997996
 20
-456.60000000000127
 30
0.0
 11
-62.999999999999247
 21
-456.60000000000127
 31
0.0
  0
ARC
  8
0
  6
CONTINUOUS
 62
               3
  5
23A
 10
-62.999999999997542
 20
-454.00000000000148
 30
0.0
 40
1.0000000000000004
 50
179.99999999996601
 51
269.99999999994748
  0
ARC
  8
0
  6
CONTINUOUS
 62
               3
  5
23B
 10
-59.999999999997996
 20
-451.00000000000159
 30
0.0
 40
4.0
 50
179.99999999996601
 51
269.99999999994901
  0
LINE
  8
0
  6
CONTINUOUS
 62
               3
  5
23C
 10
-49.999999999997996
 20
-456.60000000000127
 30
0.0
 11
-49.999999999997996
 21
-455.00000000000148
 31
0.0
  0
LINE
  8
0
  6
CONTINUOUS
 62
               3
  5
23D
 10
-63.999999999997769
 20
-454.00000000000148
 30
0.0
 11
-64.000000000000611
 21
-398.75000000000102
 31
0.0
  0
LINE
  8
0
  6
CONTINUOUS
 62
               3
  5
23E
 10
0.0000000000014333
 20
-455.00000000000023
 30
0.0
 11
-62.999999999997542
 21
-455.00000000000148
 31
0.0
  0
LINE
  8
0
  6
CONTINUOUS
 62
               3
  5
23F
 10
0.0000000000014333
 20
-430.00000000000023
 30
0.0
 11
-63.999999999997769
 21
-430.00000000000136
 31
0.0
  0
LINE
  8
0
  6
CONTINUOUS
 62
               3
  5
240
 10
-66.599999999999952
 20
-397.75000000000114
 30
0.0
 11
-135.00000000000037
 21
-397.75000000000148
 31
0.0
  0
LINE
  8
0
  6
CONTINUOUS
 62
               3
  5
241
 10
-64.000000000000043
 20
-365.00000000000057
 30
0.0
 11
0.0000000000002964
 21
-365.00000000000023
 31
0.0
  0
LINE
  8
0
  6
CONTINUOUS
 62
               3
  5
242
 10
-60.999999999999929
 20
-365.00000000000057
 30
0.0
 11
-60.999999999998792
 21
-430.00000000000136
 31
0.0
  0
LINE
  8
0
  6
CONTINUOUS
 62
               3
  5
243
 10
-71.25000000000027
 20
-393.05000000000109
 30
0.0
 11
-78.75000000000027
 21
-393.05000000000109
 31
0.0
  0
LINE
  8
0
  6
CONTINUOUS
 62
               3
  5
244
 10
-71.25000000000027
 20
-399.25000000000114
 30
0.0
 11
-78.75000000000027
 21
-399.25000000000125
 31
0.0
  0
LINE
  8
0
  6
CONTINUOUS
 62
               3
  5
245
 10
-71.25000000000027
 20
-393.05000000000109
 30
0.0
 11
-71.25000000000027
 21
-394.55000000000109
 31
0.0
  0
LINE
  8
0
  6
CONTINUOUS
 62
               3
  5
246
 10
-71.25000000000027
 20
-397.75000000000114
 30
0.0
 11
-71.25000000000027
 21
-399.25000000000114
 31
0.0
  0
LINE
  8
0
  6
CONTINUOUS
 62
               3
  5
247
 10
0.0000000000002964
 20
-340.00000000000023
 30
0.0
 11
62.999999999999844
 21
-340.00000000000034
 31
0.0
  0
LINE
  8
0
  6
CONTINUOUS
 62
               3
  5
248
 10
0.0000000000014333
 20
-455.00000000000023
 30
0.0
 11
62.999999999999844
 21
-455.00000000000057
 31
0.0
  0
LINE
  8
0
  6
CONTINUOUS
 62
               3
  5
249
 10
0.0000000000014333
 20
-430.00000000000023
 30
0.0
 11
64.000000000000071
 21
-430.00000000000034
 31
0.0
  0
LINE
  8
0
  6
CONTINUOUS
 62
               3
  5
24A
 10
64.000000000000071
 20
-364.99999999999955
 30
0.0
 11
0.0000000000002964
 21
-365.00000000000023
 31
0.0
  0
ARC
  8
0
  6
CONTINUOUS
 62
               3
  5
24B
 10
-62.999999999999815
 20
-341.00000000000125
 30
0.0
 40
2.6000000000000001
 50
89.999999999999801
 51
179.9999999999996
  0
ARC
  8
0
  6
CONTINUOUS
 62
               3
  5
24C
 10
-66.599999999999952
 20
-393.55000000000109
 30
0.0
 40
2.6000000000000001
 50
269.99999999999937
 51
359.9999999999992
  0
ARC
  8
0
  6
CONTINUOUS
 62
               3
  5
24D
 10
-66.599999999999952
 20
-393.55000000000109
 30
0.0
 40
1.0
 50
269.99999999999937
 51
359.9999999999992
  0
ARC
  8
0
  6
CONTINUOUS
 62
               3
  5
24E
 10
-66.599999999999952
 20
-398.75000000000114
 30
0.0
 40
2.6000000000000001
 50
0.0000000000006647
 51
90.000000000000469
  0
ARC
  8
0
  6
CONTINUOUS
 62
               3
  5
24F
 10
-66.599999999999952
 20
-398.75000000000114
 30
0.0
 40
1.0
 50
0.0000000000006647
 51
90.000000000000469
  0
LINE
  8
0
  6
CONTINUOUS
 62
               3
  5
250
 10
-65.599999999999156
 20
-454.00000000000148
 30
0.0
 11
-65.599999999999724
 21
-398.75000000000102
 31
0.0
  0
ARC
  8
0
  6
CONTINUOUS
 62
               3
  5
251
 10
-62.999999999999247
 20
-454.00000000000148
 30
0.0
 40
2.6000000000000001
 50
179.9999999999996
 51
269.99999999999937
  0
LINE
  8
0
  6
CONTINUOUS
 62
               3
  5
252
 10
49.499999999999332
 20
-470.00000000000045
 30
0.0
 11
49.499999999999332
 21
-455.00000000000148
 31
0.0
  0
ARC
  8
0
  6
CONTINUOUS
 62
               3
  5
253
 10
59.99999999999973
 20
-344.00000000000125
 30
0.0
 40
4.0
 50
0.0000000000345138
 51
90.000000000017465
  0
ARC
  8
0
  6
CONTINUOUS
 62
               3
  5
254
 10
62.999999999999844
 20
-341.00000000000114
 30
0.0
 40
1.0000000000000004
 50
0.0000000000344629
 51
90.000000000018233
  0
LINE
  8
0
  6
CONTINUOUS
 62
               3
  5
255
 10
65.599999999999753
 20
-341.00000000000114
 30
0.0
 11
65.599999999999753
 21
-393.55000000000086
 31
0.0
  0
LINE
  8
0
  6
CONTINUOUS
 62
               3
  5
256
 10
64.000000000000071
 20
-341.00000000000114
 30
0.0
 11
64.000000000000071
 21
-393.55000000000086
 31
0.0
  0
LINE
  8
0
  6
CONTINUOUS
 62
               3
  5
257
 10
66.59999999999998
 20
-396.150000000001
 30
0.0
 11
135.0000000000002
 21
-396.15000000000123
 31
0.0
  0
LINE
  8
0
  6
CONTINUOUS
 62
               3
  5
258
 10
66.59999999999998
 20
-394.55000000000098
 30
0.0
 11
135.0000000000002
 21
-394.55000000000132
 31
0.0
  0
LINE
  8
0
  6
CONTINUOUS
 62
               3
  5
259
 10
49.99999999999973
 20
-338.40000000000123
 30
0.0
 11
62.999999999999844
 21
-338.40000000000123
 31
0.0
  0
LINE
  8
0
  6
CONTINUOUS
 62
               3
  5
25A
 10
49.99999999999973
 20
-338.40000000000123
 30
0.0
 11
49.99999999999973
 21
-340.00000000000102
 31
0.0
  0
LINE
  8
0
  6
CONTINUOUS
 62
               3
  5
25B
 10
49.999999999998025
 20
-456.60000000000116
 30
0.0
 11
62.999999999999275
 21
-456.60000000000116
 31
0.0
  0
ARC
  8
0
  6
CONTINUOUS
 62
               3
  5
25C
 10
62.999999999997854
 20
-454.00000000000136
 30
0.0
 40
1.0000000000000004
 50
270.00000000005139
 51
360.00000000003286
  0
ARC
  8
0
  6
CONTINUOUS
 62
               3
  5
25D
 10
59.999999999998025
 20
-451.00000000000136
 30
0.0
 40
4.0
 50
270.00000000004985
 51
360.00000000003286
  0
LINE
  8
0
  6
CONTINUOUS
 62
               3
  5
25E
 10
49.999999999998025
 20
-456.60000000000116
 30
0.0
 11
49.999999999998025
 21
-455.00000000000148
 31
0.0
  0
LINE
  8
0
  6
CONTINUOUS
 62
               3
  5
25F
 10
63.999999999997797
 20
-454.00000000000136
 30
0.0
 11
64.000000000000639
 21
-398.75000000000091
 31
0.0
  0
LINE
  8
0
  6
CONTINUOUS
 62
               3
  5
260
 10
66.59999999999998
 20
-397.75000000000091
 30
0.0
 11
135.0000000000002
 21
-397.75000000000125
 31
0.0
  0
LINE
  8
0
  6
CONTINUOUS
 62
               3
  5
261
 10
60.999999999999957
 20
-365.00000000000045
 30
0.0
 11
60.99999999999882
 21
-430.00000000000114
 31
0.0
  0
LINE
  8
0
  6
CONTINUOUS
 62
               3
  5
262
 10
135.0000000000002
 20
-394.55000000000132
 30
0.0
 11
135.0000000000002
 21
-396.15000000000123
 31
0.0
  0
LINE
  8
0
  6
CONTINUOUS
 62
               3
  5
263
 10
135.0000000000002
 20
-397.75000000000125
 30
0.0
 11
135.0000000000002
 21
-396.15000000000123
 31
0.0
  0
LINE
  8
0
  6
CONTINUOUS
 62
               3
  5
264
 10
71.250000000000298
 20
-393.05000000000098
 30
0.0
 11
78.750000000000298
 21
-393.05000000000098
 31
0.0
  0
LINE
  8
0
  6
CONTINUOUS
 62
               3
  5
265
 10
71.250000000000298
 20
-399.25000000000102
 30
0.0
 11
78.750000000000298
 21
-399.25000000000114
 31
0.0
  0
LINE
  8
0
  6
CONTINUOUS
 62
               3
  5
266
 10
71.250000000000298
 20
-393.05000000000098
 30
0.0
 11
71.250000000000298
 21
-394.55000000000098
 31
0.0
  0
LINE
  8
0
  6
CONTINUOUS
 62
               3
  5
267
 10
71.250000000000298
 20
-397.75000000000091
 30
0.0
 11
71.250000000000298
 21
-399.25000000000102
 31
0.0
  0
LINE
  8
0
  6
CONTINUOUS
 62
               3
  5
268
 10
78.750000000000298
 20
-393.05000000000098
 30
0.0
 11
78.750000000000298
 21
-394.55000000000098
 31
0.0
  0
LINE
  8
0
  6
CONTINUOUS
 62
               3
  5
269
 10
78.750000000000298
 20
-397.75000000000125
 30
0.0
 11
78.750000000000298
 21
-399.25000000000114
 31
0.0
  0
ARC
  8
0
  6
CONTINUOUS
 62
               3
  5
26A
 10
62.999999999999844
 20
-341.00000000000114
 30
0.0
 40
2.6000000000000001
 50
0.0000000000001059
 51
89.999999999999915
  0
ARC
  8
0
  6
CONTINUOUS
 62
               3
  5
26B
 10
66.59999999999998
 20
-393.55000000000086
 30
0.0
 40
2.6000000000000001
 50
179.99999999999969
 51
269.99999999999949
  0
ARC
  8
0
  6
CONTINUOUS
 62
               3
  5
26C
 10
66.59999999999998
 20
-393.55000000000086
 30
0.0
 40
1.0
 50
179.99999999999969
 51
269.99999999999949
  0
ARC
  8
0
  6
CONTINUOUS
 62
               3
  5
26D
 10
66.59999999999998
 20
-398.75000000000102
 30
0.0
 40
2.6000000000000001
 50
89.999999999999233
 51
179.99999999999903
  0
ARC
  8
0
  6
CONTINUOUS
 62
               3
  5
26E
 10
66.59999999999998
 20
-398.75000000000102
 30
0.0
 40
1.0
 50
89.999999999999233
 51
179.99999999999903
  0
LINE
  8
0
  6
CONTINUOUS
 62
               3
  5
26F
 10
65.599999999999184
 20
-454.00000000000148
 30
0.0
 11
65.599999999999753
 21
-398.75000000000102
 31
0.0
  0
ARC
  8
0
  6
CONTINUOUS
 62
               3
  5
270
 10
62.999999999999275
 20
-454.00000000000148
 30
0.0
 40
2.6000000000000001
 50
269.99999999999949
 51
359.99999999999932
  0
LINE
  8
0
  6
CONTINUOUS
 62
               3
  5
271
 10
-552.4999999999992
 20
-470.0
 30
0.0
 11
-447.49999999999835
 21
-469.99999999999898
 31
0.0
  0
LINE
  8
0
  6
CONTINUOUS
 62
               3
  5
272
 10
-549.49999999999909
 20
-470.0
 30
0.0
 11
-549.49999999999909
 21
-455.00000000000091
 31
0.0
  0
LINE
  8
0
  6
CONTINUOUS
 62
               3
  5
273
 10
-450.50000000000074
 20
-469.99999999999989
 30
0.0
 11
-450.50000000000074
 21
-455.00000000000091
 31
0.0
  0
ARC
  8
0
  6
CONTINUOUS
 62
               3
  5
274
 10
-559.99999999999807
 20
-451.00000000000097
 30
0.0
 40
4.0
 50
179.99999999996601
 51
269.99999999994901
  0
LINE
  8
0
  6
CONTINUOUS
 62
               3
  5
275
 10
-563.99999999999807
 20
-451.00000000000097
 30
0.0
 11
-563.99999999999807
 21
-430.00000000000074
 31
0.0
  0
LINE
  8
0
  6
CONTINUOUS
 62
               3
  5
276
 10
-515.99999999999955
 20
-429.99999999999989
 30
0.0
 11
-563.99999999999784
 21
-430.00000000000074
 31
0.0
  0
LINE
  8
0
  6
CONTINUOUS
 62
               3
  5
277
 10
-515.99999999999955
 20
-454.99999999999977
 30
0.0
 11
-560.00000000000159
 21
-455.00000000000097
 31
0.0
  0
LINE
  8
0
  6
CONTINUOUS
 62
               3
  5
278
 10
-484.00000000000063
 20
-429.99999999999989
 30
0.0
 11
-436.00000000000227
 21
-430.00000000000074
 31
0.0
  0
LINE
  8
0
  6
CONTINUOUS
 62
               3
  5
279
 10
-484.00000000000063
 20
-454.99999999999977
 30
0.0
 11
-439.99999999999852
 21
-455.00000000000097
 31
0.0
  0
ARC
  8
0
  6
CONTINUOUS
 62
               3
  5
27A
 10
-440.00000000000205
 20
-451.00000000000097
 30
0.0
 40
4.0
 50
270.00000000004979
 51
360.0000000000328
  0
LINE
  8
0
  6
CONTINUOUS
 62
               3
  5
27B
 10
-436.00000000000205
 20
-451.00000000000097
 30
0.0
 11
-436.00000000000227
 21
-430.00000000000074
 31
0.0
  0
ARC
  8
0
  6
CONTINUOUS
 62
               3
  5
27C
 10
-560.00000000000023
 20
-344.00000000000068
 30
0.0
 40
4.0
 50
89.999999999982236
 51
179.99999999996518
  0
LINE
  8
0
  6
CONTINUOUS
 62
               3
  5
27D
 10
-564.00000000000023
 20
-343.99999999999829
 30
0.0
 11
-564.00000000000045
 21
-365.0
 31
0.0
  0
LINE
  8
0
  6
CONTINUOUS
 62
               3
  5
27E
 10
-515.99999999999955
 20
-339.99999999999983
 30
0.0
 11
-560.00000000000023
 21
-340.00000000000068
 31
0.0
  0
LINE
  8
0
  6
CONTINUOUS
 62
               3
  5
27F
 10
-564.00000000000045
 20
-365.0
 30
0.0
 11
-515.99999999999955
 21
-364.99999999999966
 31
0.0
  0
LINE
  8
0
  6
CONTINUOUS
 62
               3
  5
280
 10
-483.99999999999898
 20
-339.9999999999996
 30
0.0
 11
-440.00000000000045
 21
-339.99999999999972
 31
0.0
  0
LINE
  8
0
  6
CONTINUOUS
 62
               3
  5
281
 10
-436.00000000000034
 20
-364.99999999999903
 30
0.0
 11
-483.99999999999898
 21
-364.99999999999943
 31
0.0
  0
ARC
  8
0
  6
CONTINUOUS
 62
               3
  5
282
 10
-440.00000000000045
 20
-344.00000000000057
 30
0.0
 40
4.0
 50
0.0000000000345138
 51
90.000000000017465
  0
LINE
  8
0
  6
CONTINUOUS
 62
               3
  5
283
 10
-436.00000000000034
 20
-344.00000000000057
 30
0.0
 11
-436.00000000000034
 21
-364.99999999999903
 31
0.0
  0
LINE
  8
0
  6
CONTINUOUS
 62
               3
  5
284
 10
-561.00000000000045
 20
-365.0
 30
0.0
 11
-560.99999999999932
 21
-430.00000000000068
 31
0.0
  0
LINE
  8
0
  6
CONTINUOUS
 62
               3
  5
285
 10
-439.00000000000023
 20
-364.99999999999989
 30
0.0
 11
-439.00000000000125
 21
-430.00000000000057
 31
0.0
  0
LINE
  8
0
  6
CONTINUOUS
 62
               3
  5
286
 10
-515.99999999999955
 20
-456.5999999999998
 30
0.0
 11
-483.99999999999898
 21
-456.59999999999934
 31
0.0
  0
LINE
  8
0
  6
CONTINUOUS
 62
               3
  5
287
 10
-515.99999999999955
 20
-338.39999999999964
 30
0.0
 11
-515.99999999999955
 21
-456.5999999999998
 31
0.0
  0
LINE
  8
0
  6
CONTINUOUS
 62
               3
  5
288
 10
-483.99999999999898
 20
-456.59999999999934
 30
0.0
 11
-483.99999999999943
 21
-338.39999999999964
 31
0.0
  0
LINE
  8
0
  6
CONTINUOUS
 62
               3
  5
289
 10
-516.00000000000023
 20
-338.39999999999964
 30
0.0
 11
-484.00000000000011
 21
-338.39999999999964
 31
0.0
  0
LINE
  8
0
  6
CONTINUOUS
 62
               3
  5
28A
 10
-515.99999999999955
 20
-396.150000000001
 30
0.0
 11
-483.99999999999898
 21
-396.150000000001
 31
0.0
  0
LINE
  8
0
  6
CONTINUOUS
 62
               3
  5
28B
 10
-515.99999999999955
 20
-394.55000000000098
 30
0.0
 11
-483.99999999999898
 21
-394.55000000000098
 31
0.0
  0
LINE
  8
0
  6
CONTINUOUS
 62
               3
  5
28C
 10
-515.99999999999955
 20
-397.75000000000102
 30
0.0
 11
-483.99999999999898
 21
-397.75000000000102
 31
0.0
  0
LINE
  8
0
  6
DASHED2
 62
               3
  5
28D
 10
-126.76000000000055
 20
-394.55000000000109
 30
0.0
 11
-103.24000000000022
 21
-394.55000000000109
 31
0.0
  0
LINE
  8
0
  6
DASHED2
 62
               3
  5
28E
 10
-103.24000000000164
 20
-397.75000000000136
 30
0.0
 11
-126.76000000000197
 21
-397.75000000000136
 31
0.0
  0
LINE
  8
0
  6
DASHED2
 62
               3
  5
28F
 10
126.76000000000035
 20
-394.55000000000086
 30
0.0
 11
103.24000000000002
 21
-394.55000000000086
 31
0.0
  0
LINE
  8
0
  6
DASHED2
 62
               3
  5
290
 10
103.24000000000144
 20
-397.75000000000125
 30
0.0
 11
126.76000000000177
 21
-397.75000000000125
 31
0.0
  0
LINE
  8
0
  6
DASHDOT
 62
               4
  5
291
 10
-0.0000000000001688
 20
614.93773888183284
 30
0.0
 11
-0.0000000000000533
 21
397.93773888183307
 31
0.0
  0
LINE
  8
0
  6
DASHDOT
 62
               4
  5
292
 10
-151.99999999999986
 20
506.43773888183307
 30
0.0
 11
108.50000000000024
 21
506.43773888183307
 31
0.0
  0
LINE
  8
0
  6
DASHDOT
 62
               4
  5
293
 10
-436.72987788865555
 20
51.5
 30
0.0
 11
-562.63049692766594
 21
51.5
 31
0.0
  0
LINE
  8
0
  6
DASHDOT
 62
               4
  5
294
 10
500.0
 20
254.92742304476062
 30
0.0
 11
500.00000000000006
 21
-674.372072072072
 31
0.0
  0
LINE
  8
0
  6
DASHDOT
 62
               4
  5
295
 10
0.0000000000000122
 20
254.92742304476059
 30
0.0
 11
0.0000000000000691
 21
-674.372072072072
 31
0.0
  0
LINE
  8
0
  6
DASHDOT
 62
               4
  5
296
 10
-500.00000000000006
 20
254.92742304476059
 30
0.0
 11
-500.0
 21
-674.372072072072
 31
0.0
  0
LINE
  8
0
  6
DASHDOT
 62
               4
  5
297
 10
-115.00000000000038
 20
-284.00989800199523
 30
0.0
 11
-115.00000000000038
 21
-448.38825962148564
 31
0.0
  0
LINE
  8
0
  6
DASHDOT
 62
               4
  5
298
 10
115.00000000000018
 20
-284.009898001995
 30
0.0
 11
115.00000000000018
 21
-448.38825962148553
 31
0.0
  0
LINE
  8
0
  6
DASHDOT
 62
               4
  5
299
 10
-76.828443874035543
 20
51.500000000000171
 30
0.0
 11
-157.49999999999983
 21
51.500000000000014
 31
0.0
  0
LINE
  8
0
  6
DASHED2
 62
               4
  5
29A
 10
-44.5
 20
145.0
 30
0.0
 11
44.500000000000014
 21
145.0
 31
0.0
  0
LINE
  8
0
  6
DASHED2
 62
               4
  5
29B
 10
-544.5
 20
145.0
 30
0.0
 11
-455.5
 21
145.0
 31
0.0
  0
LINE
  8
0
  6
DASHED2
 62
               4
  5
29C
 10
455.56642277706555
 20
145.0
 30
0.0
 11
544.56642277706555
 21
145.0
 31
0.0
  0
LINE
  8
0
  6
DASHED2
 62
               4
  5
29D
 10
455.5
 20
-405.0
 30
0.0
 11
544.5
 21
-405.0
 31
0.0
  0
LINE
  8
0
  6
DASHED2
 62
               4
  5
29E
 10
544.5
 20
-340.0
 30
0.0
 11
544.5
 21
-405.0
 31
0.0
  0
LINE
  8
0
  6
DASHED2
 62
               4
  5
29F
 10
455.5
 20
-340.09842774545109
 30
0.0
 11
455.5
 21
-405.0
 31
0.0
  0
LINE
  8
0
  6
DASHED2
 62
               4
  5
2A0
 10
454.99999999999795
 20
-415.00000000000114
 30
0.0
 11
454.99999999999852
 21
-470.0
 31
0.0
  0
LINE
  8
0
  6
DASHED2
 62
               4
  5
2A1
 10
454.99999999999795
 20
-415.00000000000114
 30
0.0
 11
500.00000000000023
 21
-414.99999999999966
 31
0.0
  0
LINE
  8
0
  6
DASHED2
 62
               4
  5
2A2
 10
545.00000000000341
 20
-415.00000000000011
 30
0.0
 11
500.00000000000136
 21
-414.99999999999966
 31
0.0
  0
LINE
  8
0
  6
DASHED2
 62
               4
  5
2A3
 10
545.00000000000341
 20
-415.00000000000011
 30
0.0
 11
545.00000000000387
 21
-469.99999999999886
 31
0.0
  0
LINE
  8
0
  6
DASHED2
 62
               4
  5
2A4
 10
488.23999999999967
 20
-394.55000000000121
 30
0.0
 11
488.23999999999967
 21
-386.02387150069399
 31
0.0
  0
LINE
  8
0
  6
DASHED2
 62
               4
  5
2A5
 10
494.12897274573413
 20
-386.02387150069399
 30
0.0
 11
494.12897274573413
 21
-394.55000000000121
 31
0.0
  0
LINE
  8
0
  6
DASHED2
 62
               4
  5
2A6
 10
491.18448637286713
 20
-384.95000000000107
 30
0.0
 11
508.8155136271331
 21
-384.95000000000107
 31
0.0
  0
LINE
  8
0
  6
DASHED2
 62
               4
  5
2A7
 10
511.7600000000001
 20
-394.55000000000121
 30
0.0
 11
511.7600000000001
 21
-386.02387150069399
 31
0.0
  0
LINE
  8
0
  6
DASHED2
 62
               4
  5
2A8
 10
505.87102725426541
 20
-394.55000000000121
 30
0.0
 11
505.87102725426541
 21
-386.02387150069399
 31
0.0
  0
ARC
  8
0
  6
DASHED2
 62
               4
  5
2A9
 10
491.18448637286713
 20
-389.52373158411706
 30
0.0
 40
4.5737315841157447
 50
49.925579661612304
 51
130.07442033835341
  0
ARC
  8
0
  6
DASHED2
 62
               4
  5
2AA
 10
508.8155136271331
 20
-389.52373158411706
 30
0.0
 40
4.5737315841157686
 50
49.925579661612304
 51
130.07442033835341
  0
ARC
  8
0
  6
DASHED2
 62
               4
  5
2AB
 10
499.99999999999989
 20
-401.53585826952155
 30
0.0
 40
16.58585826952007
 50
69.269184858547646
 51
110.73081514141818
  0
LINE
  8
0
  6
DASHED2
 62
               4
  5
2AC
 10
488.2399999999983
 20
-397.75000000000159
 30
0.0
 11
488.2399999999983
 21
-406.27612849930881
 31
0.0
  0
LINE
  8
0
  6
DASHED2
 62
               4
  5
2AD
 10
494.12897274573277
 20
-406.27612849930881
 30
0.0
 11
494.12897274573277
 21
-397.75000000000159
 31
0.0
  0
LINE
  8
0
  6
DASHED2
 62
               4
  5
2AE
 10
491.18448637286576
 20
-407.35000000000139
 30
0.0
 11
508.81551362713128
 21
-407.35000000000139
 31
0.0
  0
LINE
  8
0
  6
DASHED2
 62
               4
  5
2AF
 10
511.75999999999874
 20
-397.75000000000159
 30
0.0
 11
511.75999999999874
 21
-406.27612849930881
 31
0.0
  0
LINE
  8
0
  6
DASHED2
 62
               4
  5
2B0
 10
505.87102725426428
 20
-397.75000000000159
 30
0.0
 11
505.87102725426428
 21
-406.27612849930881
 31
0.0
  0
ARC
  8
0
  6
DASHED2
 62
               4
  5
2B1
 10
491.18448637286576
 20
-402.77626841588597
 30
0.0
 40
4.5737315841157447
 50
229.92557966157796
 51
310.07442033831961
  0
ARC
  8
0
  6
DASHED2
 62
               4
  5
2B2
 10
508.81551362713128
 20
-402.77626841588597
 30
0.0
 40
4.5737315841157686
 50
229.92557966157852
 51
310.07442033831961
  0
ARC
  8
0
  6
DASHED2
 62
               4
  5
2B3
 10
499.99999999999852
 20
-390.76414173048147
 30
0.0
 40
16.58585826952007
 50
249.26918485851303
 51
290.73081514138352
  0
LINE
  8
0
  6
DASHED2
 62
               4
  5
2B4
 10
493.99999999999989
 20
-407.35000000000139
 30
0.0
 11
493.99999999999989
 21
-417.86936624232533
 31
0.0
  0
LINE
  8
0
  6
DASHED2
 62
               4
  5
2B5
 10
505.99999999999989
 20
-407.35000000000139
 30
0.0
 11
505.99999999999989
 21
-417.86936624232533
 31
0.0
  0
LINE
  8
0
  6
DASHED2
 62
               4
  5
2B6
 10
495.1999999999997
 20
-419.06936624232571
 30
0.0
 11
504.79999999999984
 21
-419.06936624232571
 31
0.0
  0
LINE
  8
0
  6
DASHED2
 62
               4
  5
2B7
 10
493.99999999999989
 20
-417.86936624232533
 30
0.0
 11
495.1999999999997
 21
-419.06936624232571
 31
0.0
  0
LINE
  8
0
  6
DASHED2
 62
               4
  5
2B8
 10
505.99999999999989
 20
-417.86936624232533
 30
0.0
 11
504.79999999999984
 21
-419.06936624232571
 31
0.0
  0
LINE
  8
0
  6
DASHED2
 62
               4
  5
2B9
 10
488.23999999999967
 20
-394.55000000000121
 30
0.0
 11
511.7600000000001
 21
-394.55000000000121
 31
0.0
  0
LINE
  8
0
  6
DASHED2
 62
               4
  5
2BA
 10
511.75999999999874
 20
-397.75000000000159
 30
0.0
 11
488.2399999999983
 21
-397.75000000000159
 31
0.0
  0
LINE
  8
0
  6
DASHED2
 62
               4
  5
2BB
 10
493.99999999999989
 20
-289.93642052407063
 30
0.0
 11
493.99999999999989
 21
-384.95000000000107
 31
0.0
  0
LINE
  8
0
  6
DASHED2
 62
               4
  5
2BC
 10
505.99999999999989
 20
-289.93642052407063
 30
0.0
 11
505.99999999999989
 21
-384.95000000000107
 31
0.0
  0
LINE
  8
0
  6
DASHED2
 62
               4
  5
2BD
 10
505.99999999999989
 20
-289.93642052407063
 30
0.0
 11
493.99999999999989
 21
-289.93642052407063
 31
0.0
  0
LINE
  8
0
  6
DASHED2
 62
               4
  5
2BE
 10
-544.5
 20
-405.00000000000006
 30
0.0
 11
-455.5
 21
-405.00000000000006
 31
0.0
  0
LINE
  8
0
  6
DASHED2
 62
               4
  5
2BF
 10
-455.5
 20
-340.00000000000006
 30
0.0
 11
-455.5
 21
-405.00000000000006
 31
0.0
  0
LINE
  8
0
  6
DASHED2
 62
               4
  5
2C0
 10
-544.5
 20
-340.09842774545115
 30
0.0
 11
-544.5
 21
-405.00000000000006
 31
0.0
  0
LINE
  8
0
  6
DASHED2
 62
               4
  5
2C1
 10
-44.499999999999986
 20
-405.0
 30
0.0
 11
44.500000000000014
 21
-405.0
 31
0.0
  0
LINE
  8
0
  6
DASHED2
 62
               4
  5
2C2
 10
44.500000000000014
 20
-340.0
 30
0.0
 11
44.500000000000014
 21
-405.0
 31
0.0
  0
LINE
  8
0
  6
DASHED2
 62
               4
  5
2C3
 10
-44.499999999999986
 20
-340.09842774545109
 30
0.0
 11
-44.499999999999986
 21
-405.0
 31
0.0
  0
LINE
  8
0
  6
DASHED2
 62
               4
  5
2C4
 10
-126.76000000000055
 20
-394.55000000000109
 30
0.0
 11
-126.76000000000055
 21
-386.02387150069399
 31
0.0
  0
LINE
  8
0
  6
DASHED2
 62
               4
  5
2C5
 10
-120.87102725426614
 20
-386.02387150069399
 30
0.0
 11
-120.87102725426614
 21
-394.55000000000109
 31
0.0
  0
LINE
  8
0
  6
DASHED2
 62
               4
  5
2C6
 10
-123.8155136271332
 20
-384.95000000000095
 30
0.0
 11
-106.18448637286728
 21
-384.95000000000095
 31
0.0
  0
LINE
  8
0
  6
DASHED2
 62
               4
  5
2C7
 10
-103.24000000000022
 20
-394.55000000000109
 30
0.0
 11
-103.24000000000022
 21
-386.02387150069399
 31
0.0
  0
LINE
  8
0
  6
DASHED2
 62
               4
  5
2C8
 10
-109.12897274573491
 20
-394.55000000000109
 30
0.0
 11
-109.12897274573491
 21
-386.02387150069399
 31
0.0
  0
ARC
  8
0
  6
DASHED2
 62
               4
  5
2C9
 10
-123.8155136271332
 20
-389.52373158411694
 30
0.0
 40
4.5737315841157447
 50
49.925579661612304
 51
130.07442033835341
  0
ARC
  8
0
  6
DASHED2
 62
               4
  5
2CA
 10
-106.18448637286728
 20
-389.52373158411694
 30
0.0
 40
4.5737315841157686
 50
49.925579661612304
 51
130.07442033835341
  0
ARC
  8
0
  6
DASHED2
 62
               4
  5
2CB
 10
-115.00000000000038
 20
-401.53585826952144
 30
0.0
 40
16.58585826952007
 50
69.269184858547646
 51
110.73081514141818
  0
LINE
  8
0
  6
DASHED2
 62
               4
  5
2CC
 10
-126.76000000000197
 20
-397.75000000000136
 30
0.0
 11
-126.76000000000197
 21
-406.27612849930858
 31
0.0
  0
LINE
  8
0
  6
DASHED2
 62
               4
  5
2CD
 10
-120.87102725426756
 20
-406.27612849930858
 30
0.0
 11
-120.87102725426756
 21
-397.75000000000136
 31
0.0
  0
LINE
  8
0
  6
DASHED2
 62
               4
  5
2CE
 10
-123.81551362713462
 20
-407.35000000000116
 30
0.0
 11
-106.18448637286899
 21
-407.35000000000116
 31
0.0
  0
LINE
  8
0
  6
DASHED2
 62
               4
  5
2CF
 10
-103.24000000000164
 20
-397.75000000000136
 30
0.0
 11
-103.24000000000164
 21
-406.27612849930858
 31
0.0
  0
LINE
  8
0
  6
DASHED2
 62
               4
  5
2D0
 10
-109.12897274573605
 20
-397.75000000000136
 30
0.0
 11
-109.12897274573605
 21
-406.27612849930858
 31
0.0
  0
ARC
  8
0
  6
DASHED2
 62
               4
  5
2D1
 10
-123.81551362713462
 20
-402.77626841588574
 30
0.0
 40
4.5737315841157447
 50
229.92557966157796
 51
310.07442033831961
  0
ARC
  8
0
  6
DASHED2
 62
               4
  5
2D2
 10
-106.18448637286899
 20
-402.77626841588574
 30
0.0
 40
4.5737315841157686
 50
229.92557966157852
 51
310.07442033831961
  0
ARC
  8
0
  6
DASHED2
 62
               4
  5
2D3
 10
-115.0000000000018
 20
-390.76414173048124
 30
0.0
 40
16.58585826952007
 50
249.26918485851303
 51
290.73081514138352
  0
LINE
  8
0
  6
DASHED2
 62
               4
  5
2D4
 10
-121.00000000000033
 20
-407.35000000000116
 30
0.0
 11
-121.00000000000033
 21
-417.8693662423259
 31
0.0
  0
LINE
  8
0
  6
DASHED2
 62
               4
  5
2D5
 10
-109.00000000000044
 20
-407.35000000000116
 30
0.0
 11
-109.00000000000044
 21
-417.8693662423259
 31
0.0
  0
LINE
  8
0
  6
DASHED2
 62
               4
  5
2D6
 10
-119.80000000000057
 20
-419.06936624232617
 30
0.0
 11
-110.20000000000049
 21
-419.06936624232617
 31
0.0
  0
LINE
  8
0
  6
DASHED2
 62
               4
  5
2D7
 10
-121.00000000000033
 20
-417.8693662423259
 30
0.0
 11
-119.80000000000057
 21
-419.06936624232617
 31
0.0
  0
LINE
  8
0
  6
DASHED2
 62
               4
  5
2D8
 10
-109.00000000000044
 20
-417.8693662423259
 30
0.0
 11
-110.20000000000049
 21
-419.06936624232617
 31
0.0
  0
LINE
  8
0
  6
DASHED2
 62
               4
  5
2D9
 10
-121.00000000000033
 20
-289.93642052407131
 30
0.0
 11
-121.00000000000033
 21
-385.55000000000098
 31
0.0
  0
LINE
  8
0
  6
DASHED2
 62
               4
  5
2DA
 10
-109.00000000000044
 20
-289.93642052407131
 30
0.0
 11
-109.00000000000044
 21
-385.55000000000098
 31
0.0
  0
LINE
  8
0
  6
DASHED2
 62
               4
  5
2DB
 10
-109.00000000000044
 20
-289.93642052407131
 30
0.0
 11
-121.00000000000033
 21
-289.93642052407131
 31
0.0
  0
LINE
  8
0
  6
DASHED2
 62
               4
  5
2DC
 10
-45.000000000001975
 20
-415.00000000000171
 30
0.0
 11
-45.000000000001407
 21
-470.00000000000057
 31
0.0
  0
LINE
  8
0
  6
DASHED2
 62
               4
  5
2DD
 10
-45.000000000001975
 20
-415.00000000000171
 30
0.0
 11
0.0000000000002964
 21
-415.00000000000023
 31
0.0
  0
LINE
  8
0
  6
DASHED2
 62
               4
  5
2DE
 10
45.000000000003425
 20
-415.00000000000068
 30
0.0
 11
0.0000000000014333
 21
-415.00000000000023
 31
0.0
  0
LINE
  8
0
  6
DASHED2
 62
               4
  5
2DF
 10
45.000000000003425
 20
-415.00000000000068
 30
0.0
 11
45.000000000003993
 21
-469.99999999999955
 31
0.0
  0
LINE
  8
0
  6
DASHED2
 62
               4
  5
2E0
 10
126.76000000000035
 20
-394.55000000000086
 30
0.0
 11
126.76000000000035
 21
-386.02387150069364
 31
0.0
  0
LINE
  8
0
  6
DASHED2
 62
               4
  5
2E1
 10
120.87102725426594
 20
-386.02387150069364
 30
0.0
 11
120.87102725426594
 21
-394.55000000000086
 31
0.0
  0
LINE
  8
0
  6
DASHED2
 62
               4
  5
2E2
 10
123.815513627133
 20
-384.95000000000073
 30
0.0
 11
106.18448637286708
 21
-384.95000000000073
 31
0.0
  0
LINE
  8
0
  6
DASHED2
 62
               4
  5
2E3
 10
103.24000000000002
 20
-394.55000000000086
 30
0.0
 11
103.24000000000002
 21
-386.02387150069364
 31
0.0
  0
LINE
  8
0
  6
DASHED2
 62
               4
  5
2E4
 10
109.12897274573471
 20
-394.55000000000086
 30
0.0
 11
109.12897274573471
 21
-386.02387150069364
 31
0.0
  0
ARC
  8
0
  6
DASHED2
 62
               4
  5
2E5
 10
123.815513627133
 20
-389.52373158411683
 30
0.0
 40
4.5737315841157447
 50
49.92557966164631
 51
130.07442033838743
  0
ARC
  8
0
  6
DASHED2
 62
               4
  5
2E6
 10
106.18448637286708
 20
-389.52373158411683
 30
0.0
 40
4.5737315841157686
 50
49.92557966164631
 51
130.07442033838743
  0
ARC
  8
0
  6
DASHED2
 62
               4
  5
2E7
 10
115.00000000000018
 20
-401.53585826952121
 30
0.0
 40
16.58585826952007
 50
69.269184858581539
 51
110.73081514145206
  0
LINE
  8
0
  6
DASHED2
 62
               4
  5
2E8
 10
126.76000000000177
 20
-397.75000000000125
 30
0.0
 11
126.76000000000177
 21
-406.27612849930847
 31
0.0
  0
LINE
  8
0
  6
DASHED2
 62
               4
  5
2E9
 10
120.87102725426736
 20
-406.27612849930847
 30
0.0
 11
120.87102725426736
 21
-397.75000000000125
 31
0.0
  0
LINE
  8
0
  6
DASHED2
 62
               4
  5
2EA
 10
123.81551362713442
 20
-407.35000000000105
 30
0.0
 11
106.18448637286879
 21
-407.35000000000105
 31
0.0
  0
LINE
  8
0
  6
DASHED2
 62
               4
  5
2EB
 10
103.24000000000144
 20
-397.75000000000125
 30
0.0
 11
103.24000000000144
 21
-406.27612849930847
 31
0.0
  0
LINE
  8
0
  6
DASHED2
 62
               4
  5
2EC
 10
109.12897274573585
 20
-397.75000000000125
 30
0.0
 11
109.12897274573585
 21
-406.27612849930847
 31
0.0
  0
ARC
  8
0
  6
DASHED2
 62
               4
  5
2ED
 10
123.81551362713442
 20
-402.77626841588562
 30
0.0
 40
4.5737315841157447
 50
229.92557966167928
 51
310.07442033842091
  0
ARC
  8
0
  6
DASHED2
 62
               4
  5
2EE
 10
106.18448637286879
 20
-402.77626841588562
 30
0.0
 40
4.5737315841157686
 50
229.92557966167928
 51
310.0744203384204
  0
ARC
  8
0
  6
DASHED2
 62
               4
  5
2EF
 10
115.00000000000161
 20
-390.76414173048113
 30
0.0
 40
16.58585826952007
 50
249.26918485861538
 51
290.73081514148589
  0
LINE
  8
0
  6
DASHED2
 62
               4
  5
2F0
 10
121.00000000000013
 20
-407.35000000000105
 30
0.0
 11
121.00000000000041
 21
-417.86936624232555
 31
0.0
  0
LINE
  8
0
  6
DASHED2
 62
               4
  5
2F1
 10
109.00000000000024
 20
-407.35000000000105
 30
0.0
 11
109.00000000000024
 21
-417.86936624232567
 31
0.0
  0
LINE
  8
0
  6
DASHED2
 62
               4
  5
2F2
 10
119.80000000000037
 20
-419.06936624232605
 30
0.0
 11
110.20000000000029
 21
-419.06936624232605
 31
0.0
  0
LINE
  8
0
  6
DASHED2
 62
               4
  5
2F3
 10
121.00000000000041
 20
-417.86936624232555
 30
0.0
 11
119.80000000000037
 21
-419.06936624232605
 31
0.0
  0
LINE
  8
0
  6
DASHED2
 62
               4
  5
2F4
 10
109.00000000000024
 20
-417.86936624232567
 30
0.0
 11
110.20000000000029
 21
-419.06936624232605
 31
0.0
  0
LINE
  8
0
  6
DASHED2
 62
               4
  5
2F5
 10
120.99999999999984
 20
-289.93642052407108
 30
0.0
 11
121.00000000000013
 21
-385.55000000000064
 31
0.0
  0
LINE
  8
0
  6
DASHED2
 62
               4
  5
2F6
 10
108.99999999999996
 20
-289.93642052407108
 30
0.0
 11
109.00000000000024
 21
-385.55000000000086
 31
0.0
  0
LINE
  8
0
  6
DASHED2
 62
               4
  5
2F7
 10
108.99999999999996
 20
-289.93642052407108
 30
0.0
 11
120.99999999999984
 21
-289.93642052407108
 31
0.0
  0
LINE
  8
0
  6
DASHED2
 62
               4
  5
2F8
 10
-545.00000000000205
 20
-415.00000000000114
 30
0.0
 11
-545.00000000000148
 21
-470.0
 31
0.0
  0
LINE
  8
0
  6
DASHED2
 62
               4
  5
2F9
 10
-545.00000000000205
 20
-415.00000000000114
 30
0.0
 11
-499.99999999999977
 21
-414.99999999999966
 31
0.0
  0
LINE
  8
0
  6
DASHED2
 62
               4
  5
2FA
 10
-454.99999999999665
 20
-415.00000000000011
 30
0.0
 11
-499.99999999999864
 21
-414.99999999999966
 31
0.0
  0
LINE
  8
0
  6
DASHED2
 62
               4
  5
2FB
 10
-454.99999999999665
 20
-415.00000000000011
 30
0.0
 11
-454.99999999999608
 21
-469.99999999999898
 31
0.0
  0
LINE
  8
0
  6
DASHED2
 62
               4
  5
2FC
 10
-511.76000000000033
 20
-394.55000000000121
 30
0.0
 11
-511.76000000000033
 21
-386.02387150069399
 31
0.0
  0
LINE
  8
0
  6
DASHED2
 62
               4
  5
2FD
 10
-505.87102725426587
 20
-386.02387150069399
 30
0.0
 11
-505.87102725426587
 21
-394.55000000000121
 31
0.0
  0
LINE
  8
0
  6
DASHED2
 62
               4
  5
2FE
 10
-508.81551362713287
 20
-384.95000000000107
 30
0.0
 11
-491.1844863728669
 21
-384.95000000000107
 31
0.0
  0
LINE
  8
0
  6
DASHED2
 62
               4
  5
2FF
 10
-488.2399999999999
 20
-394.55000000000121
 30
0.0
 11
-488.2399999999999
 21
-386.02387150069399
 31
0.0
  0
LINE
  8
0
  6
DASHED2
 62
               4
  5
300
 10
-494.12897274573459
 20
-394.55000000000121
 30
0.0
 11
-494.12897274573459
 21
-386.02387150069399
 31
0.0
  0
ARC
  8
0
  6
DASHED2
 62
               4
  5
301
 10
-508.81551362713287
 20
-389.52373158411706
 30
0.0
 40
4.5737315841157447
 50
49.925579661612304
 51
130.07442033835341
  0
ARC
  8
0
  6
DASHED2
 62
               4
  5
302
 10
-491.1844863728669
 20
-389.52373158411706
 30
0.0
 40
4.5737315841157686
 50
49.925579661612304
 51
130.07442033835341
  0
ARC
  8
0
  6
DASHED2
 62
               4
  5
303
 10
-500.00000000000011
 20
-401.53585826952155
 30
0.0
 40
16.58585826952007
 50
69.269184858547646
 51
110.73081514141818
  0
LINE
  8
0
  6
DASHED2
 62
               4
  5
304
 10
-511.7600000000017
 20
-397.75000000000159
 30
0.0
 11
-511.7600000000017
 21
-406.27612849930881
 31
0.0
  0
LINE
  8
0
  6
DASHED2
 62
               4
  5
305
 10
-505.87102725426723
 20
-406.27612849930881
 30
0.0
 11
-505.87102725426723
 21
-397.75000000000159
 31
0.0
  0
LINE
  8
0
  6
DASHED2
 62
               4
  5
306
 10
-508.81551362713424
 20
-407.35000000000139
 30
0.0
 11
-491.18448637286872
 21
-407.35000000000139
 31
0.0
  0
LINE
  8
0
  6
DASHED2
 62
               4
  5
307
 10
-488.24000000000126
 20
-397.75000000000159
 30
0.0
 11
-488.24000000000126
 21
-406.27612849930881
 31
0.0
  0
LINE
  8
0
  6
DASHED2
 62
               4
  5
308
 10
-494.12897274573572
 20
-397.75000000000159
 30
0.0
 11
-494.12897274573572
 21
-406.27612849930881
 31
0.0
  0
ARC
  8
0
  6
DASHED2
 62
               4
  5
309
 10
-508.81551362713424
 20
-402.77626841588597
 30
0.0
 40
4.5737315841157447
 50
229.92557966157796
 51
310.07442033831961
  0
ARC
  8
0
  6
DASHED2
 62
               4
  5
30A
 10
-491.18448637286872
 20
-402.77626841588597
 30
0.0
 40
4.5737315841157686
 50
229.92557966157852
 51
310.07442033831961
  0
ARC
  8
0
  6
DASHED2
 62
               4
  5
30B
 10
-500.00000000000148
 20
-390.76414173048147
 30
0.0
 40
16.58585826952007
 50
249.26918485851303
 51
290.73081514138352
  0
LINE
  8
0
  6
DASHED2
 62
               4
  5
30C
 10
-506.00000000000011
 20
-407.35000000000139
 30
0.0
 11
-506.00000000000011
 21
-417.86936624232533
 31
0.0
  0
LINE
  8
0
  6
DASHED2
 62
               4
  5
30D
 10
-494.00000000000011
 20
-407.35000000000139
 30
0.0
 11
-494.00000000000011
 21
-417.86936624232533
 31
0.0
  0
LINE
  8
0
  6
DASHED2
 62
               4
  5
30E
 10
-504.8000000000003
 20
-419.06936624232571
 30
0.0
 11
-495.20000000000016
 21
-419.06936624232571
 31
0.0
  0
LINE
  8
0
  6
DASHED2
 62
               4
  5
30F
 10
-506.00000000000011
 20
-417.86936624232533
 30
0.0
 11
-504.8000000000003
 21
-419.06936624232571
 31
0.0
  0
LINE
  8
0
  6
DASHED2
 62
               4
  5
310
 10
-494.00000000000011
 20
-417.86936624232533
 30
0.0
 11
-495.20000000000016
 21
-419.06936624232571
 31
0.0
  0
LINE
  8
0
  6
DASHED2
 62
               4
  5
311
 10
-511.76000000000033
 20
-394.55000000000121
 30
0.0
 11
-488.2399999999999
 21
-394.55000000000121
 31
0.0
  0
LINE
  8
0
  6
DASHED2
 62
               4
  5
312
 10
-488.24000000000126
 20
-397.75000000000159
 30
0.0
 11
-511.7600000000017
 21
-397.75000000000159
 31
0.0
  0
LINE
  8
0
  6
DASHED2
 62
               4
  5
313
 10
-506.00000000000011
 20
-289.93642052407068
 30
0.0
 11
-506.00000000000011
 21
-384.95000000000107
 31
0.0
  0
LINE
  8
0
  6
DASHED2
 62
               4
  5
314
 10
-494.00000000000011
 20
-289.93642052407068
 30
0.0
 11
-494.00000000000011
 21
-384.95000000000107
 31
0.0
  0
LINE
  8
0
  6
DASHED2
 62
               4
  5
315
 10
-494.00000000000011
 20
-289.93642052407068
 30
0.0
 11
-506.00000000000011
 21
-289.93642052407068
 31
0.0
  0
LINE
  8
0
  6
CONTINUOUS
 62
               4
  5
316
 10
511.7270000000002
 20
125.92706634550245
 30
0.0
 11
554.0
 21
125.92706634550245
 31
0.0
  0
LINE
  8
0
  6
CONTINUOUS
 62
               4
  5
317
 10
446.0
 20
125.92706634550245
 30
0.0
 11
488.2729999999998
 21
125.92706634550245
 31
0.0
  0
LINE
  8
0
  6
CONTINUOUS
 62
               4
  5
318
 10
447.00000000000011
 20
-495.0
 30
0.0
 11
553.00000000000261
 21
-494.99999999999909
 31
0.0
  0
LINE
  8
0
  6
CONTINUOUS
 62
               4
  5
319
 10
-75.00000000000027
 20
-400.89522178732398
 30
0.0
 11
-75.00000000000027
 21
-391.02093558026809
 31
0.0
  0
LINE
  8
0
  6
CONTINUOUS
 62
               4
  5
31A
 10
-52.999999999999815
 20
-495.00000000000057
 30
0.0
 11
53.000000000002686
 21
-494.99999999999977
 31
0.0
  0
LINE
  8
0
  6
CONTINUOUS
 62
               4
  5
31B
 10
75.000000000000298
 20
-400.89522178732386
 30
0.0
 11
75.000000000000298
 21
-391.02093558026797
 31
0.0
  0
LINE
  8
0
  6
CONTINUOUS
 62
               4
  5
31C
 10
-552.99999999999989
 20
-495.0
 30
0.0
 11
-446.99999999999739
 21
-494.9999999999992
 31
0.0
  0
LINE
  8
0
  6
CONTINUOUS
 62
               4
  5
31D
 10
-553.99999999999989
 20
125.92706634550245
 30
0.0
 11
-446.0
 21
125.92706634550245
 31
0.0
  0
LINE
  8
0
  6
CONTINUOUS
 62
               4
  5
31E
 10
-53.999999999999886
 20
125.92706634550245
 30
0.0
 11
54.000000000000014
 21
125.92706634550245
 31
0.0
  0
LINE
  8
0
  6
DIVIDE
 62
               4
  5
31F
 10
455.50000000000091
 20
-552.18970531827881
 30
0.0
 11
455.50000000000091
 21
-589.89310460365095
 31
0.0
  0
LINE
  8
0
  6
DIVIDE
 62
               4
  5
320
 10
544.50000000000182
 20
-560.0789931777615
 30
0.0
 11
544.50000000000182
 21
-589.89310460365004
 31
0.0
  0
LINE
  8
0
  6
DIVIDE
 62
               4
  5
321
 10
552.50000000000159
 20
-469.99999999999886
 30
0.0
 11
552.50000000000159
 21
-556.10395079345813
 31
0.0
  0
LINE
  8
0
  6
DIVIDE
 62
               4
  5
322
 10
447.5000000000008
 20
-470.0
 30
0.0
 11
447.5000000000008
 21
-556.10395079345903
 31
0.0
  0
ARC
  8
0
  6
DIVIDE
 62
               4
  5
323
 10
473.75000000000136
 20
-598.89582634506974
 30
0.0
 40
50.201664446754734
 50
58.473623406651711
 51
121.5263765933481
  0
ARC
  8
0
  6
DIVIDE
 62
               4
  5
324
 10
526.24999999999909
 20
-513.31207524184811
 30
0.0
 40
50.201664446754734
 50
238.47362340665123
 51
301.52637659334755
  0
ARC
  8
0
  6
DIVIDE
 62
               4
  5
325
 10
473.75000000000136
 20
-513.31207524184811
 30
0.0
 40
50.201664446754734
 50
238.47362340665111
 51
248.68262418372507
  0
ARC
  8
0
  6
DIVIDE
 62
               4
  5
326
 10
477.75000000000023
 20
-623.22356630691138
 30
0.0
 40
40.074707451863929
 50
56.274610560473491
 51
123.72538943952613
  0
ARC
  8
0
  6
DIVIDE
 62
               4
  5
327
 10
477.75000000000023
 20
-556.56264290039144
 30
0.0
 40
40.074707451863929
 50
236.27461056047306
 51
303.72538943952571
  0
ARC
  8
0
  6
DIVIDE
 62
               4
  5
328
 10
522.24999999999989
 20
-556.56264290039144
 30
0.0
 40
40.074707451863929
 50
236.27461056047318
 51
303.72538943952583
  0
LINE
  8
0
  6
DIVIDE
 62
               4
  5
329
 10
-50.500000000000213
 20
-340.0
 30
0.0
 11
50.500000000000242
 21
-340.0
 31
0.0
  0
LINE
  8
0
  6
DIVIDE
 62
               4
  5
32A
 10
-44.499999999999019
 20
-552.18970531827949
 30
0.0
 11
-44.499999999999019
 21
-589.89310460365164
 31
0.0
  0
LINE
  8
0
  6
DIVIDE
 62
               4
  5
32B
 10
44.50000000000189
 20
-560.07899317776207
 30
0.0
 11
44.50000000000189
 21
-589.89310460365061
 31
0.0
  0
LINE
  8
0
  6
DIVIDE
 62
               4
  5
32C
 10
52.50000000000172
 20
-469.99999999999955
 30
0.0
 11
52.50000000000172
 21
-556.10395079345881
 31
0.0
  0
LINE
  8
0
  6
DIVIDE
 62
               4
  5
32D
 10
-52.499999999999133
 20
-470.00000000000057
 30
0.0
 11
-52.499999999999133
 21
-556.10395079345972
 31
0.0
  0
ARC
  8
0
  6
DIVIDE
 62
               4
  5
32E
 10
-26.249999999998568
 20
-598.89582634507042
 30
0.0
 40
50.201664446754734
 50
58.473623406651711
 51
121.5263765933481
  0
ARC
  8
0
  6
DIVIDE
 62
               4
  5
32F
 10
26.249999999999158
 20
-513.31207524184879
 30
0.0
 40
50.201664446754734
 50
238.47362340665123
 51
301.52637659334755
  0
ARC
  8
0
  6
DIVIDE
 62
               4
  5
330
 10
-26.249999999998568
 20
-513.31207524184867
 30
0.0
 40
50.201664446754734
 50
238.47362340665111
 51
248.68262418372507
  0
ARC
  8
0
  6
DIVIDE
 62
               4
  5
331
 10
-22.249999999999648
 20
-623.22356630691206
 30
0.0
 40
40.074707451863929
 50
56.274610560473491
 51
123.72538943952613
  0
ARC
  8
0
  6
DIVIDE
 62
               4
  5
332
 10
-22.249999999999648
 20
-556.56264290039212
 30
0.0
 40
40.074707451863929
 50
236.27461056047306
 51
303.72538943952571
  0
ARC
  8
0
  6
DIVIDE
 62
               4
  5
333
 10
22.249999999999954
 20
-556.56264290039212
 30
0.0
 40
40.074707451863929
 50
236.27461056047318
 51
303.72538943952583
  0
LINE
  8
0
  6
DIVIDE
 62
               4
  5
334
 10
-544.49999999999909
 20
-552.18970531827893
 30
0.0
 11
-544.49999999999909
 21
-589.89310460365107
 31
0.0
  0
LINE
  8
0
  6
DIVIDE
 62
               4
  5
335
 10
-455.49999999999818
 20
-560.0789931777615
 30
0.0
 11
-455.49999999999818
 21
-589.89310460365004
 31
0.0
  0
LINE
  8
0
  6
DIVIDE
 62
               4
  5
336
 10
-447.49999999999835
 20
-469.99999999999898
 30
0.0
 11
-447.49999999999835
 21
-556.10395079345824
 31
0.0
  0
LINE
  8
0
  6
DIVIDE
 62
               4
  5
337
 10
-552.4999999999992
 20
-470.0
 30
0.0
 11
-552.4999999999992
 21
-556.10395079345915
 31
0.0
  0
ARC
  8
0
  6
DIVIDE
 62
               4
  5
338
 10
-526.24999999999864
 20
-598.89582634506985
 30
0.0
 40
50.201664446754734
 50
58.473623406651711
 51
121.5263765933481
  0
ARC
  8
0
  6
DIVIDE
 62
               4
  5
339
 10
-473.75000000000091
 20
-513.31207524184822
 30
0.0
 40
50.201664446754734
 50
238.47362340665123
 51
301.52637659334755
  0
ARC
  8
0
  6
DIVIDE
 62
               4
  5
33A
 10
-526.24999999999864
 20
-513.31207524184811
 30
0.0
 40
50.201664446754734
 50
238.47362340665111
 51
248.68262418372507
  0
ARC
  8
0
  6
DIVIDE
 62
               4
  5
33B
 10
-522.24999999999977
 20
-623.22356630691149
 30
0.0
 40
40.074707451863929
 50
56.274610560473491
 51
123.72538943952613
  0
ARC
  8
0
  6
DIVIDE
 62
               4
  5
33C
 10
-522.24999999999977
 20
-556.56264290039155
 30
0.0
 40
40.074707451863929
 50
236.27461056047306
 51
303.72538943952571
  0
ARC
  8
0
  6
DIVIDE
 62
               4
  5
33D
 10
-477.75000000000011
 20
-556.56264290039155
 30
0.0
 40
40.074707451863929
 50
236.27461056047318
 51
303.72538943952583
  0
LINE
  8
0
  6
CONTINUOUS
 62
               7
  5
33E
 10
505.99999999999955
 20
-1.0859201515333439
 30
0.0
 11
493.99999999999966
 21
-1.0859201515333439
 31
0.0
  0
ARC
  8
0
  6
CONTINUOUS
 62
               7
  5
33F
 10
491.93835546658465
 20
-2.5
 30
0.0
 40
2.4999999999999996
 50
34.446185822144464
 51
89.999999999999801
  0
ARC
  8
0
  6
CONTINUOUS
 62
               7
  5
340
 10
508.06164453341512
 20
-2.5
 30
0.0
 40
2.4999999999999996
 50
89.999999999999801
 51
145.55381417785514
  0
LINE
  8
0
  6
CONTINUOUS
 62
               7
  5
341
 10
505.99999999999955
 20
-3.9140798484663719
 30
0.0
 11
493.99999999999966
 21
-3.9140798484663719
 31
0.0
  0
ARC
  8
0
  6
CONTINUOUS
 62
               7
  5
342
 10
491.93835546658465
 20
-2.5
 30
0.0
 40
2.4999999999999996
 50
269.99999999999937
 51
325.55381417785475
  0
ARC
  8
0
  6
CONTINUOUS
 62
               7
  5
343
 10
508.06164453341512
 20
-2.5
 30
0.0
 40
2.4999999999999996
 50
214.44618582214406
 51
269.99999999999937
  0
LINE
  8
0
  6
CONTINUOUS
 62
               7
  5
344
 10
491.78299999999979
 20
115.39141259264977
 30
0.0
 11
491.78299999999967
 21
0.0
 31
0.0
  0
LINE
  8
0
  6
CONTINUOUS
 62
               7
  5
345
 10
508.21699999999964
 20
115.39141259264977
 30
0.0
 11
508.2170000000001
 21
0.0
 31
0.0
  0
LINE
  8
0
  6
CONTINUOUS
 62
               7
  5
346
 10
505.99999999999955
 20
-0.9140798484665424
 30
0.0
 11
505.99999999999966
 21
125.92706634550245
 31
0.0
  0
LINE
  8
0
  6
CONTINUOUS
 62
               7
  5
347
 10
493.99999999999966
 20
125.92706634550245
 30
0.0
 11
493.99999999999966
 21
-0.9140798484665424
 31
0.0
  0
LINE
  8
0
  6
CONTINUOUS
 62
               7
  5
348
 10
508.21699999999953
 20
-5.0
 30
0.0
 11
508.06164453341512
 21
-5.0
 31
0.0
  0
LINE
  8
0
  6
CONTINUOUS
 62
               7
  5
349
 10
508.2170000000001
 20
0.0
 30
0.0
 11
508.06164453341512
 21
0.0
 31
0.0
  0
LINE
  8
0
  6
CONTINUOUS
 62
               7
  5
34A
 10
491.78299999999967
 20
0.0
 30
0.0
 11
491.93835546658465
 21
0.0
 31
0.0
  0
LINE
  8
0
  6
CONTINUOUS
 62
               7
  5
34B
 10
491.78299999999967
 20
-5.0
 30
0.0
 11
491.93835546658465
 21
-5.0
 31
0.0
  0
LINE
  8
0
  6
CONTINUOUS
 62
               7
  5
34C
 10
491.78299999999967
 20
-5.0
 30
0.0
 11
491.78299999999967
 21
-238.99627986184794
 31
0.0
  0
LINE
  8
0
  6
CONTINUOUS
 62
               7
  5
34D
 10
508.21699999999953
 20
-5.0
 30
0.0
 11
508.21699999999953
 21
-238.99627986184794
 31
0.0
  0
LINE
  8
0
  6
CONTINUOUS
 62
               7
  5
34E
 10
493.99999999999966
 20
-3.9140798484663719
 30
0.0
 11
493.99999999999966
 21
-236.72450426149896
 31
0.0
  0
LINE
  8
0
  6
CONTINUOUS
 62
               7
  5
34F
 10
505.99999999999955
 20
-236.72450426149896
 30
0.0
 11
505.99999999999955
 21
-3.9140798484663719
 31
0.0
  0
LINE
  8
0
  6
CONTINUOUS
 62
               7
  5
350
 10
508.21699999999953
 20
-67.846976402882717
 30
0.0
 11
491.78299999999967
 21
-67.846976402882717
 31
0.0
  0
LINE
  8
0
  6
CONTINUOUS
 62
               7
  5
351
 10
493.99999999999966
 20
-236.72450426149896
 30
0.0
 11
505.99999999999955
 21
-236.72450426149896
 31
0.0
  0
LINE
  8
0
  6
CONTINUOUS
 62
               7
  5
352
 10
491.78299999999967
 20
-238.99627986184794
 30
0.0
 11
493.99999999999966
 21
-236.72450426149896
 31
0.0
  0
LINE
  8
0
  6
CONTINUOUS
 62
               7
  5
353
 10
505.99999999999955
 20
-236.72450426149896
 30
0.0
 11
508.21699999999953
 21
-238.99627986184794
 31
0.0
  0
ARC
  8
0
  6
CONTINUOUS
 62
               7
  5
354
 10
474.21603418803386
 20
115.39141259264977
 30
0.0
 40
17.566965811965957
 50
0.0
 51
36.851448659230869
  0
LINE
  8
0
  6
CONTINUOUS
 62
               7
  5
355
 10
511.7270000000002
 20
130.92706634550245
 30
0.0
 11
488.2729999999998
 21
130.92706634550245
 31
0.0
  0
ARC
  8
0
  6
CONTINUOUS
 62
               7
  5
356
 10
525.78396581196557
 20
115.39141259264977
 30
0.0
 40
17.566965811965957
 50
143.14855134076873
 51
179.9999999999996
  0
LINE
  8
0
  6
CONTINUOUS
 62
               7
  5
357
 10
488.2729999999998
 20
125.92706634550245
 30
0.0
 11
488.2729999999998
 21
130.92706634550245
 31
0.0
  0
LINE
  8
0
  6
CONTINUOUS
 62
               7
  5
358
 10
511.7270000000002
 20
125.92706634550245
 30
0.0
 11
511.7270000000002
 21
130.92706634550245
 31
0.0
  0
LINE
  8
0
  6
CONTINUOUS
 62
               7
  5
359
 10
488.2729999999998
 20
130.92706634550245
 30
0.0
 11
493.99999999999977
 21
125.92706634550245
 31
0.0
  0
LINE
  8
0
  6
CONTINUOUS
 62
               7
  5
35A
 10
505.99999999999966
 20
125.92706634550245
 30
0.0
 11
511.7270000000002
 21
130.92706634550245
 31
0.0
  0
LINE
  8
0
  6
CONTINUOUS
 62
               7
  5
35B
 10
493.99999999999966
 20
125.92706634550245
 30
0.0
 11
505.99999999999955
 21
125.92706634550245
 31
0.0
  0
ENDSEC
  0
EOF
