  0
SECTION
  2
HEADER
  9
$ACADVER
  1
AC1009
  9
$INSBASE
 10
0.0
 20
0.0
 30
0.0
  9
$EXTMIN
 10
-624.37127241175233
 20
-699.92826829115006
 30
0.0
  9
$EXTMAX
 10
598.07500503566985
 20
628.99393510091124
 30
0.0
  9
$LIMMIN
 10
-662.5727185819843
 20
-741.45708714715192
  9
$LIMMAX
 10
636.27645120590182
 20
670.52275395691322
  9
$ORTHOMODE
 70
               0
  9
$REGENMODE
 70
               1
  9
$FILLMODE
 70
               1
  9
$QTEXTMODE
 70
               0
  9
$MIRRTEXT
 70
               1
  9
$DRAGMODE
 70
               2
  9
$LTSCALE
 40
1.0
  9
$OSMODE
 70
               0
  9
$ATTMODE
 70
               1
  9
$TEXTSIZE
 40
0.2
  9
$TRACEWID
 40
0.05
  9
$TEXTSTYLE
  7
STANDARD
  9
$CLAYER
  8
0
  9
$CELTYPE
  6
CONTINUOUS
  9
$CECOLOR
 62
             256
  9
$DIMSCALE
 40
1.0
  9
$DIMASZ
 40
0.18
  9
$DIMEXO
 40
0.0625
  9
$DIMDLI
 40
0.38
  9
$DIMRND
 40
0.0
  9
$DIMDLE
 40
0.0
  9
$DIMEXE
 40
0.18
  9
$DIMTP
 40
0.0
  9
$DIMTM
 40
0.0
  9
$DIMTXT
 40
0.18
  9
$DIMCEN
 40
0.09
  9
$DIMTSZ
 40
0.0
  9
$DIMTOL
 70
               0
  9
$DIMLIM
 70
               0
  9
$DIMTIH
 70
               1
  9
$DIMTOH
 70
               1
  9
$DIMSE1
 70
               0
  9
$DIMSE2
 70
               0
  9
$DIMTAD
 70
               0
  9
$DIMZIN
 70
               0
  9
$DIMBLK
  1

  9
$DIMASO
 70
               1
  9
$DIMSHO
 70
               1
  9
$DIMPOST
  1

  9
$DIMAPOST
  1

  9
$DIMALT
 70
               0
  9
$DIMALTD
 70
               2
  9
$DIMALTF
 40
25.399999999999999
  9
$DIMLFAC
 40
1.0
  9
$DIMTOFL
 70
               0
  9
$DIMTVP
 40
0.0
  9
$DIMTIX
 70
               0
  9
$DIMSOXD
 70
               0
  9
$DIMSAH
 70
               0
  9
$DIMBLK1
  1

  9
$DIMBLK2
  1

  9
$DIMSTYLE
  2
STANDARD
  9
$DIMCLRD
 70
               0
  9
$DIMCLRE
 70
               0
  9
$DIMCLRT
 70
               0
  9
$DIMTFAC
 40
1.0
  9
$DIMGAP
 40
0.09
  9
$LUNITS
 70
               2
  9
$LUPREC
 70
               4
  9
$AXISMODE
 70
               0
  9
$AXISUNIT
 10
0.0
 20
0.0
  9
$SKETCHINC
 40
0.1
  9
$FILLETRAD
 40
0.0
  9
$AUNITS
 70
               0
  9
$AUPREC
 70
               0
  9
$MENU
  1
acad
  9
$ELEVATION
 40
0.0
  9
$PELEVATION
 40
0.0
  9
$THICKNESS
 40
0.0
  9
$LIMCHECK
 70
               0
  9
$BLIPMODE
 70
               1
  9
$CHAMFERA
 40
0.0
  9
$CHAMFERB
 40
0.0
  9
$SKPOLY
 70
               0
  9
$TDCREATE
 40
0.000000000
  9
$TDUPDATE
 40
0.000000000
  9
$TDINDWG
 40
0.0000000000
  9
$TDUSRTIMER
 40
0.0000000000
  9
$USRTIMER
 70
               1
  9
$ANGBASE
 50
0.0
  9
$ANGDIR
 70
               0
  9
$PDMODE
 70
               0
  9
$PDSIZE
 40
1.0
  9
$PLINEWID
 40
0.0
  9
$COORDS
 70
               1
  9
$SPLFRAME
 70
               0
  9
$SPLINETYPE
 70
               6
  9
$SPLINESEGS
 70
               8
  9
$ATTDIA
 70
               0
  9
$ATTREQ
 70
               1
  9
$HANDLING
 70
               1
  9
$HANDSEED
  5
35C
  9
$SURFTAB1
 70
               6
  9
$SURFTAB2
 70
               6
  9
$SURFTYPE
 70
               6
  9
$SURFU
 70
               6
  9
$SURFV
 70
               6
  9
$UCSNAME
  2

  9
$UCSORG
 10
0.0
 20
0.0
 30
0.0
  9
$UCSXDIR
 10
1.0
 20
0.0
 30
0.0
  9
$UCSYDIR
 10
0.0
 20
1.0
 30
0.0
  9
$PUCSNAME
  2

  9
$PUCSORG
 10
0.0
 20
0.0
 30
0.0
  9
$PUCSXDIR
 10
1.0
 20
0.0
 30
0.0
  9
$PUCSYDIR
 10
0.0
 20
1.0
 30
0.0
  9
$USERI1
 70
               0
  9
$USERI2
 70
               0
  9
$USERI3
 70
               0
  9
$USERI4
 70
               0
  9
$USERI5
 70
               0
  9
$USERR1
 40
0.0
  9
$USERR2
 40
0.0
  9
$USERR3
 40
0.0
  9
$USERR4
 40
0.0
  9
$USERR5
 40
0.0
  9
$WORLDVIEW
 70
               1
  9
$SHADEDGE
 70
               3
  9
$SHADEDIF
 70
              70
  9
$TILEMODE
 70
               1
  9
$MAXACTVP
 70
              16
  9
$PINSBASE
 10
0.0
 20
0.0
 30
0.0
  9
$PLIMCHECK
 70
               0
  9
$PEXTMIN
 10
1.0000000000000000E+20
 20
1.0000000000000000E+20
 30
1.0000000000000000E+20
  9
$PEXTMAX
 10
-1.0000000000000000E+20
 20
-1.0000000000000000E+20
 30
-1.0000000000000000E+20
  9
$PLIMMIN
 10
0.0
 20
0.0
  9
$PLIMMAX
 10
12.0
 20
9.0
  9
$UNITMODE
 70
               0
  9
$VISRETAIN
 70
               0
  9
$PLINEGEN
 70
               1
  9
$PSLTSCALE
 70
               0
  9
$TREEDEPTH
 70
            3020
  9
$DWGCODEPAGE
  3
dos932
  0
ENDSEC
  0
SECTION
  2
TABLES
  0
TABLE
  2
VPORT
 70
               1
  0
VPORT
  2
*ACTIVE
 70
               0
 10
0.0
 20
0.0
 11
1.0
 21
1.0
 12
-13.148133688041241
 22
-35.467166595119352
 13
0.0
 23
0.0
 14
1.0
 24
1.0
 15
0.0
 25
0.0
 16
0.0
 26
0.0
 36
1.0
 17
0.0
 27
0.0
 37
0.0
 40
1411.9798411040651
 41
0.9198779840739659
 42
50.0
 43
0.0
 44
0.0
 50
0.0
 51
0.0
 71
               0
 72
             100
 73
               1
 74
               1
 75
               0
 76
               0
 77
               0
 78
               0
  0
ENDTAB
  0
TABLE
  2
LTYPE
 70
              26
  0
LTYPE
  2
CONTINUOUS
 70
               0
  3
Solid line
 72
              65
 73
               0
 40
0.0
  0
LTYPE
  2
HIDDENX2
 70
               0
  3
CADPAC FUSION LINETYPE
 72
              65
 73
               2
 40
80.0
 49
60.0
 49
-20.0
  0
LTYPE
  2
HIDDEN
 70
               0
  3
CADPAC FUSION LINETYPE
 72
              65
 73
               2
 40
60.0
 49
40.0
 49
-20.0
  0
LTYPE
  2
HIDDEN2
 70
               0
  3
CADPAC FUSION LINETYPE
 72
              65
 73
               2
 40
50.0
 49
30.0
 49
-20.0
  0
LTYPE
  2
DASHED
 70
               0
  3
CADPAC FUSION LINETYPE
 72
              65
 73
               2
 40
60.0
 49
40.0
 49
-20.0
  0
LTYPE
  2
DASHED2
 70
               0
  3
CADPAC FUSION LINETYPE
 72
              65
 73
               2
 40
45.0
 49
30.0
 49
-15.0
  0
LTYPE
  2
DASHEDX2
 70
               0
  3
CADPAC FUSION LINETYPE
 72
              65
 73
               2
 40
90.0
 49
60.0
 49
-30.0
  0
LTYPE
  2
DOTX2
 70
               0
  3
CADPAC FUSION LINETYPE
 72
              65
 73
               2
 40
25.0
 49
0.0
 49
-25.0
  0
LTYPE
  2
DOT
 70
               0
  3
CADPAC FUSION LINETYPE
 72
              65
 73
               2
 40
20.0
 49
0.0
 49
-20.0
  0
LTYPE
  2
DOTS
 70
               0
  3
CADPAC FUSION LINETYPE
 72
              65
 73
               2
 40
20.0
 49
0.0
 49
-20.0
  0
LTYPE
  2
DOT2
 70
               0
  3
CADPAC FUSION LINETYPE
 72
              65
 73
               2
 40
15.0
 49
0.0
 49
-15.0
  0
LTYPE
  2
CENTERX2
 70
               0
  3
CADPAC FUSION LINETYPE
 72
              65
 73
               4
 40
120.0
 49
50.0
 49
-25.0
 49
20.0
 49
-25.0
  0
LTYPE
  2
CENTER
 70
               0
  3
CADPAC FUSION LINETYPE
 72
              65
 73
               4
 40
92.0
 49
40.0
 49
-20.0
 49
12.0
 49
-20.0
  0
LTYPE
  2
CENTER2
 70
               0
  3
CADPAC FUSION LINETYPE
 72
              65
 73
               4
 40
64.0
 49
30.0
 49
-15.0
 49
4.0
 49
-15.0
  0
LTYPE
  2
DASHDOTX2
 70
               0
  3
CADPAC FUSION LINETYPE
 72
              65
 73
               4
 40
100.0
 49
50.0
 49
-25.0
 49
0.0
 49
-25.0
  0
LTYPE
  2
DASHDOT
 70
               0
  3
CADPAC FUSION LINETYPE
 72
              65
 73
               4
 40
80.0
 49
40.0
 49
-20.0
 49
0.0
 49
-20.0
  0
LTYPE
  2
DASHDOT2
 70
               0
  3
CADPAC FUSION LINETYPE
 72
              65
 73
               4
 40
60.0
 49
30.0
 49
-15.0
 49
0.0
 49
-15.0
  0
LTYPE
  2
DIVIDEX2
 70
               0
  3
CADPAC FUSION LINETYPE
 72
              65
 73
               6
 40
125.0
 49
50.0
 49
-25.0
 49
0.0
 49
-25.0
 49
0.0
 49
-25.0
  0
LTYPE
  2
DIVIDE
 70
               0
  3
CADPAC FUSION LINETYPE
 72
              65
 73
               6
 40
100.0
 49
40.0
 49
-20.0
 49
0.0
 49
-20.0
 49
0.0
 49
-20.0
  0
LTYPE
  2
DIVIDE2
 70
               0
  3
CADPAC FUSION LINETYPE
 72
              65
 73
               6
 40
75.0
 49
30.0
 49
-15.0
 49
0.0
 49
-15.0
 49
0.0
 49
-15.0
  0
LTYPE
  2
BORDERX2
 70
               0
  3
CADPAC FUSION LINETYPE
 72
              65
 73
               6
 40
175.0
 49
50.0
 49
-25.0
 49
50.0
 49
-25.0
 49
0.0
 49
-25.0
  0
LTYPE
  2
BORDER
 70
               0
  3
CADPAC FUSION LINETYPE
 72
              65
 73
               6
 40
140.0
 49
40.0
 49
-20.0
 49
40.0
 49
-20.0
 49
0.0
 49
-20.0
  0
LTYPE
  2
BORDER2
 70
               0
  3
CADPAC FUSION LINETYPE
 72
              65
 73
               6
 40
105.0
 49
30.0
 49
-15.0
 49
30.0
 49
-15.0
 49
0.0
 49
-15.0
  0
LTYPE
  2
PHANTOMX2
 70
               0
  3
CADPAC FUSION LINETYPE
 72
              65
 73
               6
 40
150.0
 49
50.0
 49
-20.0
 49
20.0
 49
-20.0
 49
20.0
 49
-20.0
  0
LTYPE
  2
PHANTOM
 70
               0
  3
CADPAC FUSION LINETYPE
 72
              65
 73
               6
 40
124.0
 49
40.0
 49
-20.0
 49
12.0
 49
-20.0
 49
12.0
 49
-20.0
  0
LTYPE
  2
PHANTOM2
 70
               0
  3
CADPAC FUSION LINETYPE
 72
              65
 73
               6
 40
106.0
 49
30.0
 49
-20.0
 49
8.0
 49
-20.0
 49
8.0
 49
-20.0
  0
ENDTAB
  0
TABLE
  2
LAYER
 70
             256
  0
LAYER
  2
0
 70
               0
 62
               7
  6
CONTINUOUS
  0
LAYER
  2
LAYER001
 70
               0
 62
               7
  6
CONTINUOUS
  0
LAYER
  2
LAYER002
 70
               0
 62
               7
  6
CONTINUOUS
  0
LAYER
  2
LAYER003
 70
               0
 62
               7
  6
CONTINUOUS
  0
LAYER
  2
LAYER004
 70
               0
 62
               7
  6
CONTINUOUS
  0
LAYER
  2
LAYER005
 70
               0
 62
               7
  6
CONTINUOUS
  0
LAYER
  2
LAYER006
 70
               0
 62
               7
  6
CONTINUOUS
  0
LAYER
  2
LAYER007
 70
               0
 62
               7
  6
CONTINUOUS
  0
LAYER
  2
LAYER008
 70
               0
 62
               7
  6
CONTINUOUS
  0
LAYER
  2
LAYER009
 70
               0
 62
               7
  6
CONTINUOUS
  0
LAYER
  2
LAYER010
 70
               0
 62
               7
  6
CONTINUOUS
  0
LAYER
  2
LAYER011
 70
               0
 62
               7
  6
CONTINUOUS
  0
LAYER
  2
LAYER012
 70
               0
 62
               7
  6
CONTINUOUS
  0
LAYER
  2
LAYER013
 70
               0
 62
               7
  6
CONTINUOUS
  0
LAYER
  2
LAYER014
 70
               0
 62
               7
  6
CONTINUOUS
  0
LAYER
  2
LAYER015
 70
               0
 62
               7
  6
CONTINUOUS
  0
LAYER
  2
LAYER016
 70
               0
 62
               7
  6
CONTINUOUS
  0
LAYER
  2
LAYER017
 70
               0
 62
               7
  6
CONTINUOUS
  0
LAYER
  2
LAYER018
 70
               0
 62
               7
  6
CONTINUOUS
  0
LAYER
  2
LAYER019
 70
               0
 62
               7
  6
CONTINUOUS
  0
LAYER
  2
LAYER020
 70
               0
 62
               7
  6
CONTINUOUS
  0
LAYER
  2
LAYER021
 70
               0
 62
               7
  6
CONTINUOUS
  0
LAYER
  2
LAYER022
 70
               0
 62
               7
  6
CONTINUOUS
  0
LAYER
  2
LAYER023
 70
               0
 62
               7
  6
CONTINUOUS
  0
LAYER
  2
LAYER024
 70
               0
 62
               7
  6
CONTINUOUS
  0
LAYER
  2
LAYER025
 70
               0
 62
               7
  6
CONTINUOUS
  0
LAYER
  2
LAYER026
 70
               0
 62
               7
  6
CONTINUOUS
  0
LAYER
  2
LAYER027
 70
               0
 62
               7
  6
CONTINUOUS
  0
LAYER
  2
LAYER028
 70
               0
 62
               7
  6
CONTINUOUS
  0
LAYER
  2
LAYER029
 70
               0
 62
               7
  6
CONTINUOUS
  0
LAYER
  2
LAYER030
 70
               0
 62
               7
  6
CONTINUOUS
  0
LAYER
  2
LAYER031
 70
               0
 62
               7
  6
CONTINUOUS
  0
LAYER
  2
LAYER032
 70
               0
 62
               7
  6
CONTINUOUS
  0
LAYER
  2
LAYER033
 70
               0
 62
               7
  6
CONTINUOUS
  0
LAYER
  2
LAYER034
 70
               0
 62
               7
  6
CONTINUOUS
  0
LAYER
  2
LAYER035
 70
               0
 62
               7
  6
CONTINUOUS
  0
LAYER
  2
LAYER036
 70
               0
 62
               7
  6
CONTINUOUS
  0
LAYER
  2
LAYER037
 70
               0
 62
               7
  6
CONTINUOUS
  0
LAYER
  2
LAYER038
 70
               0
 62
               7
  6
CONTINUOUS
  0
LAYER
  2
LAYER039
 70
               0
 62
               7
  6
CONTINUOUS
  0
LAYER
  2
LAYER040
 70
               0
 62
               7
  6
CONTINUOUS
  0
LAYER
  2
LAYER041
 70
               0
 62
               7
  6
CONTINUOUS
  0
LAYER
  2
LAYER042
 70
               0
 62
               7
  6
CONTINUOUS
  0
LAYER
  2
LAYER043
 70
               0
 62
               7
  6
CONTINUOUS
  0
LAYER
  2
LAYER044
 70
               0
 62
               7
  6
CONTINUOUS
  0
LAYER
  2
LAYER045
 70
               0
 62
               7
  6
CONTINUOUS
  0
LAYER
  2
LAYER046
 70
               0
 62
               7
  6
CONTINUOUS
  0
LAYER
  2
LAYER047
 70
               0
 62
               7
  6
CONTINUOUS
  0
LAYER
  2
LAYER048
 70
               0
 62
               7
  6
CONTINUOUS
  0
LAYER
  2
LAYER049
 70
               0
 62
               7
  6
CONTINUOUS
  0
LAYER
  2
LAYER050
 70
               0
 62
               7
  6
CONTINUOUS
  0
LAYER
  2
LAYER051
 70
               0
 62
               7
  6
CONTINUOUS
  0
LAYER
  2
LAYER052
 70
               0
 62
               7
  6
CONTINUOUS
  0
LAYER
  2
LAYER053
 70
               0
 62
               7
  6
CONTINUOUS
  0
LAYER
  2
LAYER054
 70
               0
 62
               7
  6
CONTINUOUS
  0
LAYER
  2
LAYER055
 70
               0
 62
               7
  6
CONTINUOUS
  0
LAYER
  2
LAYER056
 70
               0
 62
               7
  6
CONTINUOUS
  0
LAYER
  2
LAYER057
 70
               0
 62
               7
  6
CONTINUOUS
  0
LAYER
  2
LAYER058
 70
               0
 62
               7
  6
CONTINUOUS
  0
LAYER
  2
LAYER059
 70
               0
 62
               7
  6
CONTINUOUS
  0
LAYER
  2
LAYER060
 70
               0
 62
               7
  6
CONTINUOUS
  0
LAYER
  2
LAYER061
 70
               0
 62
               7
  6
CONTINUOUS
  0
LAYER
  2
LAYER062
 70
               0
 62
               7
  6
CONTINUOUS
  0
LAYER
  2
LAYER063
 70
               0
 62
               7
  6
CONTINUOUS
  0
LAYER
  2
LAYER064
 70
               0
 62
               7
  6
CONTINUOUS
  0
LAYER
  2
LAYER065
 70
               0
 62
               7
  6
CONTINUOUS
  0
LAYER
  2
LAYER066
 70
               0
 62
               7
  6
CONTINUOUS
  0
LAYER
  2
LAYER067
 70
               0
 62
               7
  6
CONTINUOUS
  0
LAYER
  2
LAYER068
 70
               0
 62
               7
  6
CONTINUOUS
  0
LAYER
  2
LAYER069
 70
               0
 62
               7
  6
CONTINUOUS
  0
LAYER
  2
LAYER070
 70
               0
 62
               7
  6
CONTINUOUS
  0
LAYER
  2
LAYER071
 70
               0
 62
               7
  6
CONTINUOUS
  0
LAYER
  2
LAYER072
 70
               0
 62
               7
  6
CONTINUOUS
  0
LAYER
  2
LAYER073
 70
               0
 62
               7
  6
CONTINUOUS
  0
LAYER
  2
LAYER074
 70
               0
 62
               7
  6
CONTINUOUS
  0
LAYER
  2
LAYER075
 70
               0
 62
               7
  6
CONTINUOUS
  0
LAYER
  2
LAYER076
 70
               0
 62
               7
  6
CONTINUOUS
  0
LAYER
  2
LAYER077
 70
               0
 62
               7
  6
CONTINUOUS
  0
LAYER
  2
LAYER078
 70
               0
 62
               7
  6
CONTINUOUS
  0
LAYER
  2
LAYER079
 70
               0
 62
               7
  6
CONTINUOUS
  0
LAYER
  2
LAYER080
 70
               0
 62
               7
  6
CONTINUOUS
  0
LAYER
  2
LAYER081
 70
               0
 62
               7
  6
CONTINUOUS
  0
LAYER
  2
LAYER082
 70
               0
 62
               7
  6
CONTINUOUS
  0
LAYER
  2
LAYER083
 70
               0
 62
               7
  6
CONTINUOUS
  0
LAYER
  2
LAYER084
 70
               0
 62
               7
  6
CONTINUOUS
  0
LAYER
  2
LAYER085
 70
               0
 62
               7
  6
CONTINUOUS
  0
LAYER
  2
LAYER086
 70
               0
 62
               7
  6
CONTINUOUS
  0
LAYER
  2
LAYER087
 70
               0
 62
               7
  6
CONTINUOUS
  0
LAYER
  2
LAYER088
 70
               0
 62
               7
  6
CONTINUOUS
  0
LAYER
  2
LAYER089
 70
               0
 62
               7
  6
CONTINUOUS
  0
LAYER
  2
LAYER090
 70
               0
 62
               7
  6
CONTINUOUS
  0
LAYER
  2
LAYER091
 70
               0
 62
               7
  6
CONTINUOUS
  0
LAYER
  2
LAYER092
 70
               0
 62
               7
  6
CONTINUOUS
  0
LAYER
  2
LAYER093
 70
               0
 62
               7
  6
CONTINUOUS
  0
LAYER
  2
LAYER094
 70
               0
 62
               7
  6
CONTINUOUS
  0
LAYER
  2
LAYER095
 70
               0
 62
               7
  6
CONTINUOUS
  0
LAYER
  2
LAYER096
 70
               0
 62
               7
  6
CONTINUOUS
  0
LAYER
  2
LAYER097
 70
               0
 62
               7
  6
CONTINUOUS
  0
LAYER
  2
LAYER098
 70
               0
 62
               7
  6
CONTINUOUS
  0
LAYER
  2
LAYER099
 70
               0
 62
               7
  6
CONTINUOUS
  0
LAYER
  2
LAYER100
 70
               0
 62
               7
  6
CONTINUOUS
  0
LAYER
  2
LAYER101
 70
               0
 62
               7
  6
CONTINUOUS
  0
LAYER
  2
LAYER102
 70
               0
 62
               7
  6
CONTINUOUS
  0
LAYER
  2
LAYER103
 70
               0
 62
               7
  6
CONTINUOUS
  0
LAYER
  2
LAYER104
 70
               0
 62
               7
  6
CONTINUOUS
  0
LAYER
  2
LAYER105
 70
               0
 62
               7
  6
CONTINUOUS
  0
LAYER
  2
LAYER106
 70
               0
 62
               7
  6
CONTINUOUS
  0
LAYER
  2
LAYER107
 70
               0
 62
               7
  6
CONTINUOUS
  0
LAYER
  2
LAYER108
 70
               0
 62
               7
  6
CONTINUOUS
  0
LAYER
  2
LAYER109
 70
               0
 62
               7
  6
CONTINUOUS
  0
LAYER
  2
LAYER110
 70
               0
 62
               7
  6
CONTINUOUS
  0
LAYER
  2
LAYER111
 70
               0
 62
               7
  6
CONTINUOUS
  0
LAYER
  2
LAYER112
 70
               0
 62
               7
  6
CONTINUOUS
  0
LAYER
  2
LAYER113
 70
               0
 62
               7
  6
CONTINUOUS
  0
LAYER
  2
LAYER114
 70
               0
 62
               7
  6
CONTINUOUS
  0
LAYER
  2
LAYER115
 70
               0
 62
               7
  6
CONTINUOUS
  0
LAYER
  2
LAYER116
 70
               0
 62
               7
  6
CONTINUOUS
  0
LAYER
  2
LAYER117
 70
               0
 62
               7
  6
CONTINUOUS
  0
LAYER
  2
LAYER118
 70
               0
 62
               7
  6
CONTINUOUS
  0
LAYER
  2
LAYER119
 70
               0
 62
               7
  6
CONTINUOUS
  0
LAYER
  2
LAYER120
 70
               0
 62
               7
  6
CONTINUOUS
  0
LAYER
  2
LAYER121
 70
               0
 62
               7
  6
CONTINUOUS
  0
LAYER
  2
LAYER122
 70
               0
 62
               7
  6
CONTINUOUS
  0
LAYER
  2
LAYER123
 70
               0
 62
               7
  6
CONTINUOUS
  0
LAYER
  2
LAYER124
 70
               0
 62
               7
  6
CONTINUOUS
  0
LAYER
  2
LAYER125
 70
               0
 62
               7
  6
CONTINUOUS
  0
LAYER
  2
LAYER126
 70
               0
 62
               7
  6
CONTINUOUS
  0
LAYER
  2
LAYER127
 70
               0
 62
               7
  6
CONTINUOUS
  0
LAYER
  2
LAYER128
 70
               0
 62
               7
  6
CONTINUOUS
  0
LAYER
  2
LAYER129
 70
               0
 62
               7
  6
CONTINUOUS
  0
LAYER
  2
LAYER130
 70
               0
 62
               7
  6
CONTINUOUS
  0
LAYER
  2
LAYER131
 70
               0
 62
               7
  6
CONTINUOUS
  0
LAYER
  2
LAYER132
 70
               0
 62
               7
  6
CONTINUOUS
  0
LAYER
  2
LAYER133
 70
               0
 62
               7
  6
CONTINUOUS
  0
LAYER
  2
LAYER134
 70
               0
 62
               7
  6
CONTINUOUS
  0
LAYER
  2
LAYER135
 70
               0
 62
               7
  6
CONTINUOUS
  0
LAYER
  2
LAYER136
 70
               0
 62
               7
  6
CONTINUOUS
  0
LAYER
  2
LAYER137
 70
               0
 62
               7
  6
CONTINUOUS
  0
LAYER
  2
LAYER138
 70
               0
 62
               7
  6
CONTINUOUS
  0
LAYER
  2
LAYER139
 70
               0
 62
               7
  6
CONTINUOUS
  0
LAYER
  2
LAYER140
 70
               0
 62
               7
  6
CONTINUOUS
  0
LAYER
  2
LAYER141
 70
               0
 62
               7
  6
CONTINUOUS
  0
LAYER
  2
LAYER142
 70
               0
 62
               7
  6
CONTINUOUS
  0
LAYER
  2
LAYER143
 70
               0
 62
               7
  6
CONTINUOUS
  0
LAYER
  2
LAYER144
 70
               0
 62
               7
  6
CONTINUOUS
  0
LAYER
  2
LAYER145
 70
               0
 62
               7
  6
CONTINUOUS
  0
LAYER
  2
LAYER146
 70
               0
 62
               7
  6
CONTINUOUS
  0
LAYER
  2
LAYER147
 70
               0
 62
               7
  6
CONTINUOUS
  0
LAYER
  2
LAYER148
 70
               0
 62
               7
  6
CONTINUOUS
  0
LAYER
  2
LAYER149
 70
               0
 62
               7
  6
CONTINUOUS
  0
LAYER
  2
LAYER150
 70
               0
 62
               7
  6
CONTINUOUS
  0
LAYER
  2
LAYER151
 70
               0
 62
               7
  6
CONTINUOUS
  0
LAYER
  2
LAYER152
 70
               0
 62
               7
  6
CONTINUOUS
  0
LAYER
  2
LAYER153
 70
               0
 62
               7
  6
CONTINUOUS
  0
LAYER
  2
LAYER154
 70
               0
 62
               7
  6
CONTINUOUS
  0
LAYER
  2
LAYER155
 70
               0
 62
               7
  6
CONTINUOUS
  0
LAYER
  2
LAYER156
 70
               0
 62
               7
  6
CONTINUOUS
  0
LAYER
  2
LAYER157
 70
               0
 62
               7
  6
CONTINUOUS
  0
LAYER
  2
LAYER158
 70
               0
 62
               7
  6
CONTINUOUS
  0
LAYER
  2
LAYER159
 70
               0
 62
               7
  6
CONTINUOUS
  0
LAYER
  2
LAYER160
 70
               0
 62
               7
  6
CONTINUOUS
  0
LAYER
  2
LAYER161
 70
               0
 62
               7
  6
CONTINUOUS
  0
LAYER
  2
LAYER162
 70
               0
 62
               7
  6
CONTINUOUS
  0
LAYER
  2
LAYER163
 70
               0
 62
               7
  6
CONTINUOUS
  0
LAYER
  2
LAYER164
 70
               0
 62
               7
  6
CONTINUOUS
  0
LAYER
  2
LAYER165
 70
               0
 62
               7
  6
CONTINUOUS
  0
LAYER
  2
LAYER166
 70
               0
 62
               7
  6
CONTINUOUS
  0
LAYER
  2
LAYER167
 70
               0
 62
               7
  6
CONTINUOUS
  0
LAYER
  2
LAYER168
 70
               0
 62
               7
  6
CONTINUOUS
  0
LAYER
  2
LAYER169
 70
               0
 62
               7
  6
CONTINUOUS
  0
LAYER
  2
LAYER170
 70
               0
 62
               7
  6
CONTINUOUS
  0
LAYER
  2
LAYER171
 70
               0
 62
               7
  6
CONTINUOUS
  0
LAYER
  2
LAYER172
 70
               0
 62
               7
  6
CONTINUOUS
  0
LAYER
  2
LAYER173
 70
               0
 62
               7
  6
CONTINUOUS
  0
LAYER
  2
LAYER174
 70
               0
 62
               7
  6
CONTINUOUS
  0
LAYER
  2
LAYER175
 70
               0
 62
               7
  6
CONTINUOUS
  0
LAYER
  2
LAYER176
 70
               0
 62
               7
  6
CONTINUOUS
  0
LAYER
  2
LAYER177
 70
               0
 62
               7
  6
CONTINUOUS
  0
LAYER
  2
LAYER178
 70
               0
 62
               7
  6
CONTINUOUS
  0
LAYER
  2
LAYER179
 70
               0
 62
               7
  6
CONTINUOUS
  0
LAYER
  2
LAYER180
 70
               0
 62
               7
  6
CONTINUOUS
  0
LAYER
  2
LAYER181
 70
               0
 62
               7
  6
CONTINUOUS
  0
LAYER
  2
LAYER182
 70
               0
 62
               7
  6
CONTINUOUS
  0
LAYER
  2
LAYER183
 70
               0
 62
               7
  6
CONTINUOUS
  0
LAYER
  2
LAYER184
 70
               0
 62
               7
  6
CONTINUOUS
  0
LAYER
  2
LAYER185
 70
               0
 62
               7
  6
CONTINUOUS
  0
LAYER
  2
LAYER186
 70
               0
 62
               7
  6
CONTINUOUS
  0
LAYER
  2
LAYER187
 70
               0
 62
               7
  6
CONTINUOUS
  0
LAYER
  2
LAYER188
 70
               0
 62
               7
  6
CONTINUOUS
  0
LAYER
  2
LAYER189
 70
               0
 62
               7
  6
CONTINUOUS
  0
LAYER
  2
LAYER190
 70
               0
 62
               7
  6
CONTINUOUS
  0
LAYER
  2
LAYER191
 70
               0
 62
               7
  6
CONTINUOUS
  0
LAYER
  2
LAYER192
 70
               0
 62
               7
  6
CONTINUOUS
  0
LAYER
  2
LAYER193
 70
               0
 62
               7
  6
CONTINUOUS
  0
LAYER
  2
LAYER194
 70
               0
 62
               7
  6
CONTINUOUS
  0
LAYER
  2
LAYER195
 70
               0
 62
               7
  6
CONTINUOUS
  0
LAYER
  2
LAYER196
 70
               0
 62
               7
  6
CONTINUOUS
  0
LAYER
  2
LAYER197
 70
               0
 62
               7
  6
CONTINUOUS
  0
LAYER
  2
LAYER198
 70
               0
 62
               7
  6
CONTINUOUS
  0
LAYER
  2
LAYER199
 70
               0
 62
               7
  6
CONTINUOUS
  0
LAYER
  2
LAYER200
 70
               0
 62
               7
  6
CONTINUOUS
  0
LAYER
  2
LAYER201
 70
               0
 62
               7
  6
CONTINUOUS
  0
LAYER
  2
LAYER202
 70
               0
 62
               7
  6
CONTINUOUS
  0
LAYER
  2
LAYER203
 70
               0
 62
               7
  6
CONTINUOUS
  0
LAYER
  2
LAYER204
 70
               0
 62
               7
  6
CONTINUOUS
  0
LAYER
  2
LAYER205
 70
               0
 62
               7
  6
CONTINUOUS
  0
LAYER
  2
LAYER206
 70
               0
 62
               7
  6
CONTINUOUS
  0
LAYER
  2
LAYER207
 70
               0
 62
               7
  6
CONTINUOUS
  0
LAYER
  2
LAYER208
 70
               0
 62
               7
  6
CONTINUOUS
  0
LAYER
  2
LAYER209
 70
               0
 62
               7
  6
CONTINUOUS
  0
LAYER
  2
LAYER210
 70
               0
 62
               7
  6
CONTINUOUS
  0
LAYER
  2
LAYER211
 70
               0
 62
               7
  6
CONTINUOUS
  0
LAYER
  2
LAYER212
 70
               0
 62
               7
  6
CONTINUOUS
  0
LAYER
  2
LAYER213
 70
               0
 62
               7
  6
CONTINUOUS
  0
LAYER
  2
LAYER214
 70
               0
 62
               7
  6
CONTINUOUS
  0
LAYER
  2
LAYER215
 70
               0
 62
               7
  6
CONTINUOUS
  0
LAYER
  2
LAYER216
 70
               0
 62
               7
  6
CONTINUOUS
  0
LAYER
  2
LAYER217
 70
               0
 62
               7
  6
CONTINUOUS
  0
LAYER
  2
LAYER218
 70
               0
 62
               7
  6
CONTINUOUS
  0
LAYER
  2
LAYER219
 70
               0
 62
               7
  6
CONTINUOUS
  0
LAYER
  2
LAYER220
 70
               0
 62
               7
  6
CONTINUOUS
  0
LAYER
  2
LAYER221
 70
               0
 62
               7
  6
CONTINUOUS
  0
LAYER
  2
LAYER222
 70
               0
 62
               7
  6
CONTINUOUS
  0
LAYER
  2
LAYER223
 70
               0
 62
               7
  6
CONTINUOUS
  0
LAYER
  2
LAYER224
 70
               0
 62
               7
  6
CONTINUOUS
  0
LAYER
  2
LAYER225
 70
               0
 62
               7
  6
CONTINUOUS
  0
LAYER
  2
LAYER226
 70
               0
 62
               7
  6
CONTINUOUS
  0
LAYER
  2
LAYER227
 70
               0
 62
               7
  6
CONTINUOUS
  0
LAYER
  2
LAYER228
 70
               0
 62
               7
  6
CONTINUOUS
  0
LAYER
  2
LAYER229
 70
               0
 62
               7
  6
CONTINUOUS
  0
LAYER
  2
LAYER230
 70
               0
 62
               7
  6
CONTINUOUS
  0
LAYER
  2
LAYER231
 70
               0
 62
               7
  6
CONTINUOUS
  0
LAYER
  2
LAYER232
 70
               0
 62
               7
  6
CONTINUOUS
  0
LAYER
  2
LAYER233
 70
               0
 62
               7
  6
CONTINUOUS
  0
LAYER
  2
LAYER234
 70
               0
 62
               7
  6
CONTINUOUS
  0
LAYER
  2
LAYER235
 70
               0
 62
               7
  6
CONTINUOUS
  0
LAYER
  2
LAYER236
 70
               0
 62
               7
  6
CONTINUOUS
  0
LAYER
  2
LAYER237
 70
               0
 62
               7
  6
CONTINUOUS
  0
LAYER
  2
LAYER238
 70
               0
 62
               7
  6
CONTINUOUS
  0
LAYER
  2
LAYER239
 70
               0
 62
               7
  6
CONTINUOUS
  0
LAYER
  2
LAYER240
 70
               0
 62
               7
  6
CONTINUOUS
  0
LAYER
  2
LAYER241
 70
               0
 62
               7
  6
CONTINUOUS
  0
LAYER
  2
LAYER242
 70
               0
 62
               7
  6
CONTINUOUS
  0
LAYER
  2
LAYER243
 70
               0
 62
               7
  6
CONTINUOUS
  0
LAYER
  2
LAYER244
 70
               0
 62
               7
  6
CONTINUOUS
  0
LAYER
  2
LAYER245
 70
               0
 62
               7
  6
CONTINUOUS
  0
LAYER
  2
LAYER246
 70
               0
 62
               7
  6
CONTINUOUS
  0
LAYER
  2
LAYER247
 70
               0
 62
               7
  6
CONTINUOUS
  0
LAYER
  2
LAYER248
 70
               0
 62
               7
  6
CONTINUOUS
  0
LAYER
  2
LAYER249
 70
               0
 62
               7
  6
CONTINUOUS
  0
LAYER
  2
LAYER250
 70
               0
 62
               7
  6
CONTINUOUS
  0
LAYER
  2
LAYER251
 70
               0
 62
               7
  6
CONTINUOUS
  0
LAYER
  2
LAYER252
 70
               0
 62
               7
  6
CONTINUOUS
  0
LAYER
  2
LAYER253
 70
               0
 62
               7
  6
CONTINUOUS
  0
LAYER
  2
LAYER254
 70
               0
 62
               7
  6
CONTINUOUS
  0
LAYER
  2
LAYER255
 70
               0
 62
               7
  6
CONTINUOUS
  0
ENDTAB
  0
TABLE
  2
STYLE
 70
               1
  0
STYLE
  2
STANDARD
 70
               0
 40
0.0
 41
1.0
 50
0.0
 71
               0
 42
0.0
  3
txt
  4

  0
ENDTAB
  0
TABLE
  2
VIEW
 70
               0
  0
VIEW
  2
QQQQ
 70
               0
 40
1411.9798411040651
 10
-13.148133688041241
 20
-35.467166595119352
 41
1298.8491697878862
 11
0.0
 21
0.0
 31
1.0
 12
100.0
 22
100.0
 32
0.0
 42
50.0
 43
0.0
 44
0.0
 50
0.0
 71
               0
  0
ENDTAB
  0
TABLE
  2
UCS
 70
               0
  0
ENDTAB
  0
TABLE
  2
APPID
 70
               1
  0
APPID
  2
ACAD
 70
               0
  0
ENDTAB
  0
TABLE
  2
DIMSTYLE
 70
               1
  0
DIMSTYLE
  2
STANDARD
 70
               0
  3

  4

  5

  6

  7

 40
1.0
 41
0.18
 42
0.0625
 43
0.38
 44
0.18
 45
0.0
 46
0.0
 47
0.0
 48
0.0
140
0.18
141
0.09
142
0.0
143
25.399999999999999
144
1.0
145
0.0
146
1.0
147
0.09
 71
               0
 72
               0
 73
               1
 74
               1
 75
               0
 76
               0
 77
               0
 78
               0
170
               0
171
               2
172
               0
173
               0
174
               0
175
               0
176
               0
177
               0
178
               0
  0
ENDTAB
  0
ENDSEC
  0
SECTION
  2
BLOCKS
  0
ENDSEC
  0
SECTION
  2
ENTITIES
  0
LINE
  8
0
  6
DASHDOT
 62
               4
  5
136
 10
0.0000000000000122
 20
254.92742304476059
 30
0.0
 11
0.0000000000000691
 21
-674.372072072072
 31
0.0
  0
LINE
  8
0
  6
DASHDOT
 62
               4
  5
137
 10
500.0
 20
254.92742304476062
 30
0.0
 11
500.00000000000006
 21
-674.372072072072
 31
0.0
  0
LINE
  8
0
  6
DASHDOT
 62
               4
  5
138
 10
-500.00000000000006
 20
254.92742304476059
 30
0.0
 11
-500.0
 21
-674.372072072072
 31
0.0
  0
LINE
  8
0
  6
DASHDOT
 62
               4
  5
139
 10
0.0000000000002096
 20
603.43773888183318
 30
0.0
 11
0.0000000000002203
 21
417.14070701652867
 31
0.0
  0
LINE
  8
0
  6
DASHDOT
 62
               4
  5
13A
 10
-152.00000000000003
 20
510.1657228867316
 30
0.0
 11
83.801408176557402
 21
510.1657228867316
 31
0.0
  0
LINE
  8
0
  6
DASHDOT
 62
               4
  5
13B
 10
-446.92150000000066
 20
43.999999999999687
 30
0.0
 11
-553.07850000000053
 21
43.999999999999687
 31
0.0
  0
LINE
  8
0
  6
DASHDOT
 62
               4
  5
13C
 10
-115.00000000000038
 20
-284.00989800199523
 30
0.0
 11
-115.00000000000038
 21
-448.38825962148564
 31
0.0
  0
LINE
  8
0
  6
DASHDOT
 62
               4
  5
13D
 10
115.00000000000018
 20
-284.009898001995
 30
0.0
 11
115.00000000000018
 21
-448.38825962148553
 31
0.0
  0
LINE
  8
0
  6
DASHDOT
 62
               4
  5
13E
 10
-76.999999999999858
 20
44.00000000000022
 30
0.0
 11
-157.49999999999983
 21
44.000000000000071
 31
0.0
  0
LINE
  8
0
  6
DASHED2
 62
               4
  5
13F
 10
-44.5
 20
145.0
 30
0.0
 11
44.500000000000014
 21
145.0
 31
0.0
  0
LINE
  8
0
  6
DASHED2
 62
               4
  5
140
 10
-544.5
 20
145.00000000000003
 30
0.0
 11
-455.50000000000006
 21
145.00000000000003
 31
0.0
  0
LINE
  8
0
  6
DASHED2
 62
               4
  5
141
 10
455.56642277706555
 20
145.0
 30
0.0
 11
544.56642277706555
 21
145.0
 31
0.0
  0
LINE
  8
0
  6
DASHED2
 62
               4
  5
142
 10
-544.5
 20
-405.0
 30
0.0
 11
-455.50000000000006
 21
-405.0
 31
0.0
  0
LINE
  8
0
  6
DASHED2
 62
               4
  5
143
 10
-455.50000000000006
 20
-340.0
 30
0.0
 11
-455.50000000000006
 21
-405.0
 31
0.0
  0
LINE
  8
0
  6
DASHED2
 62
               4
  5
144
 10
-544.5
 20
-340.09842774545109
 30
0.0
 11
-544.5
 21
-405.0
 31
0.0
  0
LINE
  8
0
  6
DASHED2
 62
               4
  5
145
 10
-44.499999999999986
 20
-405.0
 30
0.0
 11
44.500000000000014
 21
-405.0
 31
0.0
  0
LINE
  8
0
  6
DASHED2
 62
               4
  5
146
 10
44.500000000000014
 20
-340.0
 30
0.0
 11
44.500000000000014
 21
-405.0
 31
0.0
  0
LINE
  8
0
  6
DASHED2
 62
               4
  5
147
 10
-44.499999999999986
 20
-340.09842774545109
 30
0.0
 11
-44.499999999999986
 21
-405.0
 31
0.0
  0
LINE
  8
0
  6
DASHED2
 62
               4
  5
148
 10
-126.76000000000055
 20
-394.55000000000109
 30
0.0
 11
-126.76000000000055
 21
-386.02387150069399
 31
0.0
  0
LINE
  8
0
  6
DASHED2
 62
               4
  5
149
 10
-120.87102725426614
 20
-386.02387150069399
 30
0.0
 11
-120.87102725426614
 21
-394.55000000000109
 31
0.0
  0
LINE
  8
0
  6
DASHED2
 62
               4
  5
14A
 10
-123.8155136271332
 20
-384.95000000000095
 30
0.0
 11
-106.18448637286728
 21
-384.95000000000095
 31
0.0
  0
LINE
  8
0
  6
DASHED2
 62
               4
  5
14B
 10
-103.24000000000022
 20
-394.55000000000109
 30
0.0
 11
-103.24000000000022
 21
-386.02387150069399
 31
0.0
  0
LINE
  8
0
  6
DASHED2
 62
               4
  5
14C
 10
-109.12897274573491
 20
-394.55000000000109
 30
0.0
 11
-109.12897274573491
 21
-386.02387150069399
 31
0.0
  0
ARC
  8
0
  6
DASHED2
 62
               4
  5
14D
 10
-123.8155136271332
 20
-389.52373158411694
 30
0.0
 40
4.5737315841157447
 50
49.925579661612304
 51
130.07442033835341
  0
ARC
  8
0
  6
DASHED2
 62
               4
  5
14E
 10
-106.18448637286728
 20
-389.52373158411694
 30
0.0
 40
4.5737315841157686
 50
49.925579661612304
 51
130.07442033835341
  0
ARC
  8
0
  6
DASHED2
 62
               4
  5
14F
 10
-115.00000000000038
 20
-401.53585826952144
 30
0.0
 40
16.58585826952007
 50
69.269184858547646
 51
110.73081514141818
  0
LINE
  8
0
  6
DASHED2
 62
               4
  5
150
 10
-126.76000000000197
 20
-397.75000000000136
 30
0.0
 11
-126.76000000000197
 21
-406.27612849930858
 31
0.0
  0
LINE
  8
0
  6
DASHED2
 62
               4
  5
151
 10
-120.87102725426756
 20
-406.27612849930858
 30
0.0
 11
-120.87102725426756
 21
-397.75000000000136
 31
0.0
  0
LINE
  8
0
  6
DASHED2
 62
               4
  5
152
 10
-123.81551362713462
 20
-407.35000000000116
 30
0.0
 11
-106.18448637286899
 21
-407.35000000000116
 31
0.0
  0
LINE
  8
0
  6
DASHED2
 62
               4
  5
153
 10
-103.24000000000164
 20
-397.75000000000136
 30
0.0
 11
-103.24000000000164
 21
-406.27612849930858
 31
0.0
  0
LINE
  8
0
  6
DASHED2
 62
               4
  5
154
 10
-109.12897274573605
 20
-397.75000000000136
 30
0.0
 11
-109.12897274573605
 21
-406.27612849930858
 31
0.0
  0
ARC
  8
0
  6
DASHED2
 62
               4
  5
155
 10
-123.81551362713462
 20
-402.77626841588574
 30
0.0
 40
4.5737315841157447
 50
229.92557966157796
 51
310.07442033831961
  0
ARC
  8
0
  6
DASHED2
 62
               4
  5
156
 10
-106.18448637286899
 20
-402.77626841588574
 30
0.0
 40
4.5737315841157686
 50
229.92557966157852
 51
310.07442033831961
  0
ARC
  8
0
  6
DASHED2
 62
               4
  5
157
 10
-115.0000000000018
 20
-390.76414173048124
 30
0.0
 40
16.58585826952007
 50
249.26918485851303
 51
290.73081514138352
  0
LINE
  8
0
  6
DASHED2
 62
               4
  5
158
 10
-121.00000000000033
 20
-407.35000000000116
 30
0.0
 11
-121.00000000000033
 21
-417.8693662423259
 31
0.0
  0
LINE
  8
0
  6
DASHED2
 62
               4
  5
159
 10
-109.00000000000044
 20
-407.35000000000116
 30
0.0
 11
-109.00000000000044
 21
-417.8693662423259
 31
0.0
  0
LINE
  8
0
  6
DASHED2
 62
               4
  5
15A
 10
-119.80000000000057
 20
-419.06936624232617
 30
0.0
 11
-110.20000000000049
 21
-419.06936624232617
 31
0.0
  0
LINE
  8
0
  6
DASHED2
 62
               4
  5
15B
 10
-121.00000000000033
 20
-417.8693662423259
 30
0.0
 11
-119.80000000000057
 21
-419.06936624232617
 31
0.0
  0
LINE
  8
0
  6
DASHED2
 62
               4
  5
15C
 10
-109.00000000000044
 20
-417.8693662423259
 30
0.0
 11
-110.20000000000049
 21
-419.06936624232617
 31
0.0
  0
LINE
  8
0
  6
DASHED2
 62
               4
  5
15D
 10
-121.00000000000033
 20
-289.93642052407131
 30
0.0
 11
-121.00000000000033
 21
-385.55000000000098
 31
0.0
  0
LINE
  8
0
  6
DASHED2
 62
               4
  5
15E
 10
-109.00000000000044
 20
-289.93642052407131
 30
0.0
 11
-109.00000000000044
 21
-385.55000000000098
 31
0.0
  0
LINE
  8
0
  6
DASHED2
 62
               4
  5
15F
 10
-109.00000000000044
 20
-289.93642052407131
 30
0.0
 11
-121.00000000000033
 21
-289.93642052407131
 31
0.0
  0
LINE
  8
0
  6
DASHED2
 62
               4
  5
160
 10
-45.000000000001975
 20
-415.00000000000171
 30
0.0
 11
-45.000000000001407
 21
-470.00000000000057
 31
0.0
  0
LINE
  8
0
  6
DASHED2
 62
               4
  5
161
 10
-45.000000000001975
 20
-415.00000000000171
 30
0.0
 11
0.0000000000002964
 21
-415.00000000000023
 31
0.0
  0
LINE
  8
0
  6
DASHED2
 62
               4
  5
162
 10
45.000000000003425
 20
-415.00000000000068
 30
0.0
 11
0.0000000000014333
 21
-415.00000000000023
 31
0.0
  0
LINE
  8
0
  6
DASHED2
 62
               4
  5
163
 10
45.000000000003425
 20
-415.00000000000068
 30
0.0
 11
45.000000000003993
 21
-469.99999999999955
 31
0.0
  0
LINE
  8
0
  6
DASHED2
 62
               4
  5
164
 10
126.76000000000035
 20
-394.55000000000086
 30
0.0
 11
126.76000000000035
 21
-386.02387150069364
 31
0.0
  0
LINE
  8
0
  6
DASHED2
 62
               4
  5
165
 10
120.87102725426594
 20
-386.02387150069364
 30
0.0
 11
120.87102725426594
 21
-394.55000000000086
 31
0.0
  0
LINE
  8
0
  6
DASHED2
 62
               4
  5
166
 10
123.815513627133
 20
-384.95000000000073
 30
0.0
 11
106.18448637286708
 21
-384.95000000000073
 31
0.0
  0
LINE
  8
0
  6
DASHED2
 62
               4
  5
167
 10
103.24000000000002
 20
-394.55000000000086
 30
0.0
 11
103.24000000000002
 21
-386.02387150069364
 31
0.0
  0
LINE
  8
0
  6
DASHED2
 62
               4
  5
168
 10
109.12897274573471
 20
-394.55000000000086
 30
0.0
 11
109.12897274573471
 21
-386.02387150069364
 31
0.0
  0
ARC
  8
0
  6
DASHED2
 62
               4
  5
169
 10
123.815513627133
 20
-389.52373158411683
 30
0.0
 40
4.5737315841157447
 50
49.92557966164631
 51
130.07442033838743
  0
ARC
  8
0
  6
DASHED2
 62
               4
  5
16A
 10
106.18448637286708
 20
-389.52373158411683
 30
0.0
 40
4.5737315841157686
 50
49.92557966164631
 51
130.07442033838743
  0
ARC
  8
0
  6
DASHED2
 62
               4
  5
16B
 10
115.00000000000018
 20
-401.53585826952121
 30
0.0
 40
16.58585826952007
 50
69.269184858581539
 51
110.73081514145206
  0
LINE
  8
0
  6
DASHED2
 62
               4
  5
16C
 10
126.76000000000177
 20
-397.75000000000125
 30
0.0
 11
126.76000000000177
 21
-406.27612849930847
 31
0.0
  0
LINE
  8
0
  6
DASHED2
 62
               4
  5
16D
 10
120.87102725426736
 20
-406.27612849930847
 30
0.0
 11
120.87102725426736
 21
-397.75000000000125
 31
0.0
  0
LINE
  8
0
  6
DASHED2
 62
               4
  5
16E
 10
123.81551362713442
 20
-407.35000000000105
 30
0.0
 11
106.18448637286879
 21
-407.35000000000105
 31
0.0
  0
LINE
  8
0
  6
DASHED2
 62
               4
  5
16F
 10
103.24000000000144
 20
-397.75000000000125
 30
0.0
 11
103.24000000000144
 21
-406.27612849930847
 31
0.0
  0
LINE
  8
0
  6
DASHED2
 62
               4
  5
170
 10
109.12897274573585
 20
-397.75000000000125
 30
0.0
 11
109.12897274573585
 21
-406.27612849930847
 31
0.0
  0
ARC
  8
0
  6
DASHED2
 62
               4
  5
171
 10
123.81551362713442
 20
-402.77626841588562
 30
0.0
 40
4.5737315841157447
 50
229.92557966167928
 51
310.07442033842091
  0
ARC
  8
0
  6
DASHED2
 62
               4
  5
172
 10
106.18448637286879
 20
-402.77626841588562
 30
0.0
 40
4.5737315841157686
 50
229.92557966167928
 51
310.0744203384204
  0
ARC
  8
0
  6
DASHED2
 62
               4
  5
173
 10
115.00000000000161
 20
-390.76414173048113
 30
0.0
 40
16.58585826952007
 50
249.26918485861538
 51
290.73081514148589
  0
LINE
  8
0
  6
DASHED2
 62
               4
  5
174
 10
121.00000000000013
 20
-407.35000000000105
 30
0.0
 11
121.00000000000041
 21
-417.86936624232555
 31
0.0
  0
LINE
  8
0
  6
DASHED2
 62
               4
  5
175
 10
109.00000000000024
 20
-407.35000000000105
 30
0.0
 11
109.00000000000024
 21
-417.86936624232567
 31
0.0
  0
LINE
  8
0
  6
DASHED2
 62
               4
  5
176
 10
119.80000000000037
 20
-419.06936624232605
 30
0.0
 11
110.20000000000029
 21
-419.06936624232605
 31
0.0
  0
LINE
  8
0
  6
DASHED2
 62
               4
  5
177
 10
121.00000000000041
 20
-417.86936624232555
 30
0.0
 11
119.80000000000037
 21
-419.06936624232605
 31
0.0
  0
LINE
  8
0
  6
DASHED2
 62
               4
  5
178
 10
109.00000000000024
 20
-417.86936624232567
 30
0.0
 11
110.20000000000029
 21
-419.06936624232605
 31
0.0
  0
LINE
  8
0
  6
DASHED2
 62
               4
  5
179
 10
120.99999999999984
 20
-289.93642052407108
 30
0.0
 11
121.00000000000013
 21
-385.55000000000064
 31
0.0
  0
LINE
  8
0
  6
DASHED2
 62
               4
  5
17A
 10
108.99999999999996
 20
-289.93642052407108
 30
0.0
 11
109.00000000000024
 21
-385.55000000000086
 31
0.0
  0
LINE
  8
0
  6
DASHED2
 62
               4
  5
17B
 10
108.99999999999996
 20
-289.93642052407108
 30
0.0
 11
120.99999999999984
 21
-289.93642052407108
 31
0.0
  0
LINE
  8
0
  6
DASHED2
 62
               4
  5
17C
 10
-545.00000000000205
 20
-415.00000000000114
 30
0.0
 11
-545.00000000000159
 21
-470.0
 31
0.0
  0
LINE
  8
0
  6
DASHED2
 62
               4
  5
17D
 10
-545.00000000000205
 20
-415.00000000000114
 30
0.0
 11
-499.99999999999983
 21
-414.99999999999966
 31
0.0
  0
LINE
  8
0
  6
DASHED2
 62
               4
  5
17E
 10
-454.9999999999967
 20
-415.00000000000011
 30
0.0
 11
-499.99999999999869
 21
-414.99999999999966
 31
0.0
  0
LINE
  8
0
  6
DASHED2
 62
               4
  5
17F
 10
-454.9999999999967
 20
-415.00000000000011
 30
0.0
 11
-454.99999999999613
 21
-469.99999999999898
 31
0.0
  0
LINE
  8
0
  6
DASHED2
 62
               4
  5
180
 10
-511.76000000000039
 20
-394.55000000000121
 30
0.0
 11
-511.76000000000039
 21
-386.02387150069399
 31
0.0
  0
LINE
  8
0
  6
DASHED2
 62
               4
  5
181
 10
-505.87102725426593
 20
-386.02387150069399
 30
0.0
 11
-505.87102725426593
 21
-394.55000000000121
 31
0.0
  0
LINE
  8
0
  6
DASHED2
 62
               4
  5
182
 10
-508.81551362713293
 20
-384.95000000000107
 30
0.0
 11
-491.18448637286696
 21
-384.95000000000107
 31
0.0
  0
LINE
  8
0
  6
DASHED2
 62
               4
  5
183
 10
-488.23999999999995
 20
-394.55000000000121
 30
0.0
 11
-488.23999999999995
 21
-386.02387150069399
 31
0.0
  0
LINE
  8
0
  6
DASHED2
 62
               4
  5
184
 10
-494.12897274573464
 20
-394.55000000000121
 30
0.0
 11
-494.12897274573464
 21
-386.02387150069399
 31
0.0
  0
ARC
  8
0
  6
DASHED2
 62
               4
  5
185
 10
-508.81551362713293
 20
-389.52373158411706
 30
0.0
 40
4.5737315841157447
 50
49.925579661612304
 51
130.07442033835341
  0
ARC
  8
0
  6
DASHED2
 62
               4
  5
186
 10
-491.18448637286696
 20
-389.52373158411706
 30
0.0
 40
4.5737315841157686
 50
49.925579661612304
 51
130.07442033835341
  0
ARC
  8
0
  6
DASHED2
 62
               4
  5
187
 10
-500.00000000000017
 20
-401.53585826952155
 30
0.0
 40
16.58585826952007
 50
69.269184858547646
 51
110.73081514141818
  0
LINE
  8
0
  6
DASHED2
 62
               4
  5
188
 10
-511.76000000000175
 20
-397.75000000000159
 30
0.0
 11
-511.76000000000175
 21
-406.27612849930881
 31
0.0
  0
LINE
  8
0
  6
DASHED2
 62
               4
  5
189
 10
-505.87102725426729
 20
-406.27612849930881
 30
0.0
 11
-505.87102725426729
 21
-397.75000000000159
 31
0.0
  0
LINE
  8
0
  6
DASHED2
 62
               4
  5
18A
 10
-508.81551362713429
 20
-407.35000000000139
 30
0.0
 11
-491.18448637286878
 21
-407.35000000000139
 31
0.0
  0
LINE
  8
0
  6
DASHED2
 62
               4
  5
18B
 10
-488.24000000000132
 20
-397.75000000000159
 30
0.0
 11
-488.24000000000132
 21
-406.27612849930881
 31
0.0
  0
LINE
  8
0
  6
DASHED2
 62
               4
  5
18C
 10
-494.12897274573578
 20
-397.75000000000159
 30
0.0
 11
-494.12897274573578
 21
-406.27612849930881
 31
0.0
  0
ARC
  8
0
  6
DASHED2
 62
               4
  5
18D
 10
-508.81551362713429
 20
-402.77626841588597
 30
0.0
 40
4.5737315841157447
 50
229.92557966157796
 51
310.07442033831961
  0
ARC
  8
0
  6
DASHED2
 62
               4
  5
18E
 10
-491.18448637286878
 20
-402.77626841588597
 30
0.0
 40
4.5737315841157686
 50
229.92557966157852
 51
310.07442033831961
  0
ARC
  8
0
  6
DASHED2
 62
               4
  5
18F
 10
-500.00000000000153
 20
-390.76414173048147
 30
0.0
 40
16.58585826952007
 50
249.26918485851303
 51
290.73081514138352
  0
LINE
  8
0
  6
DASHED2
 62
               4
  5
190
 10
-506.00000000000017
 20
-407.35000000000139
 30
0.0
 11
-506.00000000000017
 21
-417.86936624232533
 31
0.0
  0
LINE
  8
0
  6
DASHED2
 62
               4
  5
191
 10
-494.00000000000017
 20
-407.35000000000139
 30
0.0
 11
-494.00000000000017
 21
-417.86936624232533
 31
0.0
  0
LINE
  8
0
  6
DASHED2
 62
               4
  5
192
 10
-504.80000000000035
 20
-419.06936624232571
 30
0.0
 11
-495.20000000000022
 21
-419.06936624232571
 31
0.0
  0
LINE
  8
0
  6
DASHED2
 62
               4
  5
193
 10
-506.00000000000017
 20
-417.86936624232533
 30
0.0
 11
-504.80000000000035
 21
-419.06936624232571
 31
0.0
  0
LINE
  8
0
  6
DASHED2
 62
               4
  5
194
 10
-494.00000000000017
 20
-417.86936624232533
 30
0.0
 11
-495.20000000000022
 21
-419.06936624232571
 31
0.0
  0
LINE
  8
0
  6
DASHED2
 62
               4
  5
195
 10
-511.76000000000039
 20
-394.55000000000121
 30
0.0
 11
-488.23999999999995
 21
-394.55000000000121
 31
0.0
  0
LINE
  8
0
  6
DASHED2
 62
               4
  5
196
 10
-488.24000000000132
 20
-397.75000000000159
 30
0.0
 11
-511.76000000000175
 21
-397.75000000000159
 31
0.0
  0
LINE
  8
0
  6
DASHED2
 62
               4
  5
197
 10
-506.00000000000017
 20
-289.93642052407063
 30
0.0
 11
-506.00000000000017
 21
-384.95000000000107
 31
0.0
  0
LINE
  8
0
  6
DASHED2
 62
               4
  5
198
 10
-494.00000000000017
 20
-289.93642052407063
 30
0.0
 11
-494.00000000000017
 21
-384.95000000000107
 31
0.0
  0
LINE
  8
0
  6
DASHED2
 62
               4
  5
199
 10
-494.00000000000017
 20
-289.93642052407063
 30
0.0
 11
-506.00000000000017
 21
-289.93642052407063
 31
0.0
  0
LINE
  8
0
  6
DASHED2
 62
               4
  5
19A
 10
455.5
 20
-405.0
 30
0.0
 11
544.5
 21
-405.0
 31
0.0
  0
LINE
  8
0
  6
DASHED2
 62
               4
  5
19B
 10
544.5
 20
-340.0
 30
0.0
 11
544.5
 21
-405.0
 31
0.0
  0
LINE
  8
0
  6
DASHED2
 62
               4
  5
19C
 10
455.5
 20
-340.09842774545109
 30
0.0
 11
455.5
 21
-405.0
 31
0.0
  0
LINE
  8
0
  6
DASHED2
 62
               4
  5
19D
 10
454.99999999999795
 20
-415.00000000000108
 30
0.0
 11
454.99999999999852
 21
-470.0
 31
0.0
  0
LINE
  8
0
  6
DASHED2
 62
               4
  5
19E
 10
454.99999999999795
 20
-415.00000000000108
 30
0.0
 11
500.00000000000023
 21
-414.9999999999996
 31
0.0
  0
LINE
  8
0
  6
DASHED2
 62
               4
  5
19F
 10
545.00000000000341
 20
-415.00000000000006
 30
0.0
 11
500.00000000000136
 21
-414.9999999999996
 31
0.0
  0
LINE
  8
0
  6
DASHED2
 62
               4
  5
1A0
 10
545.00000000000341
 20
-415.00000000000006
 30
0.0
 11
545.00000000000387
 21
-469.99999999999886
 31
0.0
  0
LINE
  8
0
  6
DASHED2
 62
               4
  5
1A1
 10
488.23999999999967
 20
-394.55000000000115
 30
0.0
 11
488.23999999999967
 21
-386.02387150069393
 31
0.0
  0
LINE
  8
0
  6
DASHED2
 62
               4
  5
1A2
 10
494.12897274573413
 20
-386.02387150069393
 30
0.0
 11
494.12897274573413
 21
-394.55000000000115
 31
0.0
  0
LINE
  8
0
  6
DASHED2
 62
               4
  5
1A3
 10
491.18448637286713
 20
-384.95000000000101
 30
0.0
 11
508.8155136271331
 21
-384.95000000000101
 31
0.0
  0
LINE
  8
0
  6
DASHED2
 62
               4
  5
1A4
 10
511.7600000000001
 20
-394.55000000000115
 30
0.0
 11
511.7600000000001
 21
-386.02387150069393
 31
0.0
  0
LINE
  8
0
  6
DASHED2
 62
               4
  5
1A5
 10
505.87102725426541
 20
-394.55000000000115
 30
0.0
 11
505.87102725426541
 21
-386.02387150069393
 31
0.0
  0
ARC
  8
0
  6
DASHED2
 62
               4
  5
1A6
 10
491.18448637286713
 20
-389.523731584117
 30
0.0
 40
4.5737315841157447
 50
49.925579661612304
 51
130.07442033835341
  0
ARC
  8
0
  6
DASHED2
 62
               4
  5
1A7
 10
508.8155136271331
 20
-389.523731584117
 30
0.0
 40
4.5737315841157686
 50
49.925579661612304
 51
130.07442033835341
  0
ARC
  8
0
  6
DASHED2
 62
               4
  5
1A8
 10
499.99999999999989
 20
-401.5358582695215
 30
0.0
 40
16.58585826952007
 50
69.269184858547646
 51
110.73081514141818
  0
LINE
  8
0
  6
DASHED2
 62
               4
  5
1A9
 10
488.2399999999983
 20
-397.75000000000153
 30
0.0
 11
488.2399999999983
 21
-406.27612849930875
 31
0.0
  0
LINE
  8
0
  6
DASHED2
 62
               4
  5
1AA
 10
494.12897274573277
 20
-406.27612849930875
 30
0.0
 11
494.12897274573277
 21
-397.75000000000153
 31
0.0
  0
LINE
  8
0
  6
DASHED2
 62
               4
  5
1AB
 10
491.18448637286576
 20
-407.35000000000133
 30
0.0
 11
508.81551362713128
 21
-407.35000000000133
 31
0.0
  0
LINE
  8
0
  6
DASHED2
 62
               4
  5
1AC
 10
511.75999999999874
 20
-397.75000000000153
 30
0.0
 11
511.75999999999874
 21
-406.27612849930875
 31
0.0
  0
LINE
  8
0
  6
DASHED2
 62
               4
  5
1AD
 10
505.87102725426428
 20
-397.75000000000153
 30
0.0
 11
505.87102725426428
 21
-406.27612849930875
 31
0.0
  0
ARC
  8
0
  6
DASHED2
 62
               4
  5
1AE
 10
491.18448637286576
 20
-402.77626841588591
 30
0.0
 40
4.5737315841157447
 50
229.92557966157796
 51
310.07442033831961
  0
ARC
  8
0
  6
DASHED2
 62
               4
  5
1AF
 10
508.81551362713128
 20
-402.77626841588591
 30
0.0
 40
4.5737315841157686
 50
229.92557966157852
 51
310.07442033831961
  0
ARC
  8
0
  6
DASHED2
 62
               4
  5
1B0
 10
499.99999999999852
 20
-390.76414173048141
 30
0.0
 40
16.58585826952007
 50
249.26918485851303
 51
290.73081514138352
  0
LINE
  8
0
  6
DASHED2
 62
               4
  5
1B1
 10
493.99999999999989
 20
-407.35000000000133
 30
0.0
 11
493.99999999999989
 21
-417.86936624232527
 31
0.0
  0
LINE
  8
0
  6
DASHED2
 62
               4
  5
1B2
 10
505.99999999999989
 20
-407.35000000000133
 30
0.0
 11
505.99999999999989
 21
-417.86936624232527
 31
0.0
  0
LINE
  8
0
  6
DASHED2
 62
               4
  5
1B3
 10
495.1999999999997
 20
-419.06936624232566
 30
0.0
 11
504.79999999999984
 21
-419.06936624232566
 31
0.0
  0
LINE
  8
0
  6
DASHED2
 62
               4
  5
1B4
 10
493.99999999999989
 20
-417.86936624232527
 30
0.0
 11
495.1999999999997
 21
-419.06936624232566
 31
0.0
  0
LINE
  8
0
  6
DASHED2
 62
               4
  5
1B5
 10
505.99999999999989
 20
-417.86936624232527
 30
0.0
 11
504.79999999999984
 21
-419.06936624232566
 31
0.0
  0
LINE
  8
0
  6
DASHED2
 62
               4
  5
1B6
 10
488.23999999999967
 20
-394.55000000000115
 30
0.0
 11
511.7600000000001
 21
-394.55000000000115
 31
0.0
  0
LINE
  8
0
  6
DASHED2
 62
               4
  5
1B7
 10
511.75999999999874
 20
-397.75000000000153
 30
0.0
 11
488.2399999999983
 21
-397.75000000000153
 31
0.0
  0
LINE
  8
0
  6
DASHED2
 62
               4
  5
1B8
 10
493.99999999999989
 20
-289.93642052407063
 30
0.0
 11
493.99999999999989
 21
-384.95000000000101
 31
0.0
  0
LINE
  8
0
  6
DASHED2
 62
               4
  5
1B9
 10
505.99999999999989
 20
-289.93642052407063
 30
0.0
 11
505.99999999999989
 21
-384.95000000000101
 31
0.0
  0
LINE
  8
0
  6
DASHED2
 62
               4
  5
1BA
 10
505.99999999999989
 20
-289.93642052407063
 30
0.0
 11
493.99999999999989
 21
-289.93642052407063
 31
0.0
  0
LINE
  8
0
  6
CONTINUOUS
 62
               4
  5
1BB
 10
-53.999999999999886
 20
125.92706634550245
 30
0.0
 11
54.000000000000014
 21
125.92706634550245
 31
0.0
  0
LINE
  8
0
  6
CONTINUOUS
 62
               4
  5
1BC
 10
-554.0
 20
125.92706634550248
 30
0.0
 11
-446.00000000000006
 21
125.92706634550248
 31
0.0
  0
LINE
  8
0
  6
CONTINUOUS
 62
               4
  5
1BD
 10
511.7270000000002
 20
125.92706634550245
 30
0.0
 11
554.0
 21
125.92706634550245
 31
0.0
  0
LINE
  8
0
  6
CONTINUOUS
 62
               4
  5
1BE
 10
446.0
 20
125.92706634550245
 30
0.0
 11
488.2729999999998
 21
125.92706634550245
 31
0.0
  0
LINE
  8
0
  6
CONTINUOUS
 62
               4
  5
1BF
 10
-75.00000000000027
 20
-400.89522178732398
 30
0.0
 11
-75.00000000000027
 21
-391.02093558026809
 31
0.0
  0
LINE
  8
0
  6
CONTINUOUS
 62
               4
  5
1C0
 10
-52.999999999999815
 20
-495.00000000000057
 30
0.0
 11
53.000000000002686
 21
-494.99999999999977
 31
0.0
  0
LINE
  8
0
  6
CONTINUOUS
 62
               4
  5
1C1
 10
75.000000000000298
 20
-400.89522178732386
 30
0.0
 11
75.000000000000298
 21
-391.02093558026797
 31
0.0
  0
LINE
  8
0
  6
CONTINUOUS
 62
               4
  5
1C2
 10
-553.0
 20
-495.0
 30
0.0
 11
-446.99999999999744
 21
-494.9999999999992
 31
0.0
  0
LINE
  8
0
  6
CONTINUOUS
 62
               4
  5
1C3
 10
447.00000000000011
 20
-495.0
 30
0.0
 11
553.00000000000261
 21
-494.99999999999909
 31
0.0
  0
LINE
  8
0
  6
DIVIDE
 62
               4
  5
1C4
 10
-50.500000000000213
 20
-340.0
 30
0.0
 11
50.500000000000242
 21
-340.0
 31
0.0
  0
LINE
  8
0
  6
DIVIDE
 62
               4
  5
1C5
 10
-44.499999999999019
 20
-552.18970531827949
 30
0.0
 11
-44.499999999999019
 21
-589.89310460365164
 31
0.0
  0
LINE
  8
0
  6
DIVIDE
 62
               4
  5
1C6
 10
44.50000000000189
 20
-560.07899317776207
 30
0.0
 11
44.50000000000189
 21
-589.89310460365061
 31
0.0
  0
LINE
  8
0
  6
DIVIDE
 62
               4
  5
1C7
 10
52.50000000000172
 20
-469.99999999999955
 30
0.0
 11
52.50000000000172
 21
-556.10395079345881
 31
0.0
  0
LINE
  8
0
  6
DIVIDE
 62
               4
  5
1C8
 10
-52.499999999999133
 20
-470.00000000000057
 30
0.0
 11
-52.499999999999133
 21
-556.10395079345972
 31
0.0
  0
ARC
  8
0
  6
DIVIDE
 62
               4
  5
1C9
 10
-26.249999999998568
 20
-598.89582634507042
 30
0.0
 40
50.201664446754734
 50
58.473623406651711
 51
121.5263765933481
  0
ARC
  8
0
  6
DIVIDE
 62
               4
  5
1CA
 10
26.249999999999158
 20
-513.31207524184879
 30
0.0
 40
50.201664446754734
 50
238.47362340665123
 51
301.52637659334755
  0
ARC
  8
0
  6
DIVIDE
 62
               4
  5
1CB
 10
-26.249999999998568
 20
-513.31207524184867
 30
0.0
 40
50.201664446754734
 50
238.47362340665111
 51
248.68262418372507
  0
ARC
  8
0
  6
DIVIDE
 62
               4
  5
1CC
 10
-22.249999999999648
 20
-623.22356630691206
 30
0.0
 40
40.074707451863929
 50
56.274610560473491
 51
123.72538943952613
  0
ARC
  8
0
  6
DIVIDE
 62
               4
  5
1CD
 10
-22.249999999999648
 20
-556.56264290039212
 30
0.0
 40
40.074707451863929
 50
236.27461056047306
 51
303.72538943952571
  0
ARC
  8
0
  6
DIVIDE
 62
               4
  5
1CE
 10
22.249999999999954
 20
-556.56264290039212
 30
0.0
 40
40.074707451863929
 50
236.27461056047318
 51
303.72538943952583
  0
LINE
  8
0
  6
DIVIDE
 62
               4
  5
1CF
 10
-544.49999999999909
 20
-552.18970531827893
 30
0.0
 11
-544.49999999999909
 21
-589.89310460365107
 31
0.0
  0
LINE
  8
0
  6
DIVIDE
 62
               4
  5
1D0
 10
-455.49999999999824
 20
-560.0789931777615
 30
0.0
 11
-455.49999999999824
 21
-589.89310460365004
 31
0.0
  0
LINE
  8
0
  6
DIVIDE
 62
               4
  5
1D1
 10
-447.49999999999841
 20
-469.99999999999898
 30
0.0
 11
-447.49999999999841
 21
-556.10395079345824
 31
0.0
  0
LINE
  8
0
  6
DIVIDE
 62
               4
  5
1D2
 10
-552.49999999999932
 20
-470.0
 30
0.0
 11
-552.49999999999932
 21
-556.10395079345915
 31
0.0
  0
ARC
  8
0
  6
DIVIDE
 62
               4
  5
1D3
 10
-526.24999999999864
 20
-598.89582634506985
 30
0.0
 40
50.201664446754734
 50
58.473623406651711
 51
121.5263765933481
  0
ARC
  8
0
  6
DIVIDE
 62
               4
  5
1D4
 10
-473.75000000000097
 20
-513.31207524184822
 30
0.0
 40
50.201664446754734
 50
238.47362340665123
 51
301.52637659334755
  0
ARC
  8
0
  6
DIVIDE
 62
               4
  5
1D5
 10
-526.24999999999864
 20
-513.31207524184811
 30
0.0
 40
50.201664446754734
 50
238.47362340665111
 51
248.68262418372507
  0
ARC
  8
0
  6
DIVIDE
 62
               4
  5
1D6
 10
-522.24999999999977
 20
-623.22356630691149
 30
0.0
 40
40.074707451863929
 50
56.274610560473491
 51
123.72538943952613
  0
ARC
  8
0
  6
DIVIDE
 62
               4
  5
1D7
 10
-522.24999999999977
 20
-556.56264290039155
 30
0.0
 40
40.074707451863929
 50
236.27461056047306
 51
303.72538943952571
  0
ARC
  8
0
  6
DIVIDE
 62
               4
  5
1D8
 10
-477.75000000000017
 20
-556.56264290039155
 30
0.0
 40
40.074707451863929
 50
236.27461056047318
 51
303.72538943952583
  0
LINE
  8
0
  6
DIVIDE
 62
               4
  5
1D9
 10
455.50000000000091
 20
-552.18970531827881
 30
0.0
 11
455.50000000000091
 21
-589.89310460365095
 31
0.0
  0
LINE
  8
0
  6
DIVIDE
 62
               4
  5
1DA
 10
544.50000000000182
 20
-560.0789931777615
 30
0.0
 11
544.50000000000182
 21
-589.89310460365004
 31
0.0
  0
LINE
  8
0
  6
DIVIDE
 62
               4
  5
1DB
 10
552.50000000000159
 20
-469.99999999999886
 30
0.0
 11
552.50000000000159
 21
-556.10395079345813
 31
0.0
  0
LINE
  8
0
  6
DIVIDE
 62
               4
  5
1DC
 10
447.5000000000008
 20
-470.0
 30
0.0
 11
447.5000000000008
 21
-556.10395079345903
 31
0.0
  0
ARC
  8
0
  6
DIVIDE
 62
               4
  5
1DD
 10
473.75000000000136
 20
-598.89582634506974
 30
0.0
 40
50.201664446754734
 50
58.473623406651711
 51
121.5263765933481
  0
ARC
  8
0
  6
DIVIDE
 62
               4
  5
1DE
 10
526.24999999999909
 20
-513.31207524184811
 30
0.0
 40
50.201664446754734
 50
238.47362340665123
 51
301.52637659334755
  0
ARC
  8
0
  6
DIVIDE
 62
               4
  5
1DF
 10
473.75000000000136
 20
-513.31207524184811
 30
0.0
 40
50.201664446754734
 50
238.47362340665111
 51
248.68262418372507
  0
ARC
  8
0
  6
DIVIDE
 62
               4
  5
1E0
 10
477.75000000000023
 20
-623.22356630691138
 30
0.0
 40
40.074707451863929
 50
56.274610560473491
 51
123.72538943952613
  0
ARC
  8
0
  6
DIVIDE
 62
               4
  5
1E1
 10
477.75000000000023
 20
-556.56264290039144
 30
0.0
 40
40.074707451863929
 50
236.27461056047306
 51
303.72538943952571
  0
ARC
  8
0
  6
DIVIDE
 62
               4
  5
1E2
 10
522.24999999999989
 20
-556.56264290039144
 30
0.0
 40
40.074707451863929
 50
236.27461056047318
 51
303.72538943952583
  0
LINE
  8
0
  6
CONTINUOUS
 62
               3
  5
1E3
 10
-45.499999999999986
 20
-238.99627986184794
 30
0.0
 11
-64.999999999999986
 21
-67.84697640288266
 31
0.0
  0
LINE
  8
0
  6
CONTINUOUS
 62
               3
  5
1E4
 10
-64.999999999999972
 20
-16.557223332219337
 30
0.0
 11
-64.999999999999986
 21
-67.84697640288266
 31
0.0
  0
ARC
  8
0
  6
CONTINUOUS
 62
               3
  5
1E5
 10
-54.999999999999986
 20
-2.5
 30
0.0
 40
2.4999999999999996
 50
89.999999999999801
 51
269.99999999999937
  0
ARC
  8
0
  6
CONTINUOUS
 62
               3
  5
1E6
 10
65.0
 20
-2.5
 30
0.0
 40
2.4999999999999996
 50
269.99999999999937
 51
449.99999999999898
  0
LINE
  8
0
  6
CONTINUOUS
 62
               3
  5
1E7
 10
66.999999999999886
 20
-67.960544633137943
 30
0.0
 11
47.771775600348676
 21
-236.72450426149953
 31
0.0
  0
LINE
  8
0
  6
CONTINUOUS
 62
               3
  5
1E8
 10
64.499999999999886
 20
-5.0
 30
0.0
 11
64.499999999999886
 21
-67.818584345318413
 31
0.0
  0
LINE
  8
0
  6
CONTINUOUS
 62
               3
  5
1E9
 10
64.499999999999886
 20
-67.818584345318413
 30
0.0
 11
44.996765133650328
 21
-238.99627986184794
 31
0.0
  0
LINE
  8
0
  6
CONTINUOUS
 62
               3
  5
1EA
 10
64.496765133649774
 20
-67.84697640288266
 30
0.0
 11
66.999999999999886
 21
-67.960544633137943
 31
0.0
  0
LINE
  8
0
  6
CONTINUOUS
 62
               3
  5
1EB
 10
66.750000000000114
 20
-67.946348604355876
 30
0.0
 11
47.494274553678551
 21
-236.95168182153458
 31
0.0
  0
LINE
  8
0
  6
CONTINUOUS
 62
               3
  5
1EC
 10
-64.999999999999972
 20
-67.84697640288266
 30
0.0
 11
64.496765133649774
 21
-67.84697640288266
 31
0.0
  0
LINE
  8
0
  6
CONTINUOUS
 62
               3
  5
1ED
 10
-64.999999999999986
 20
113.67961763158598
 30
0.0
 11
-64.999999999999972
 21
94.071975456559244
 31
0.0
  0
LINE
  8
0
  6
CONTINUOUS
 62
               3
  5
1EE
 10
-54.999999999999986
 20
0.0
 30
0.0
 11
65.0
 21
0.0
 31
0.0
  0
LINE
  8
0
  6
CONTINUOUS
 62
               3
  5
1EF
 10
-126.99999999999986
 20
87.078443874035429
 30
0.0
 11
-69.825502516487717
 21
89.075021321463851
 31
0.0
  0
LINE
  8
0
  6
CONTINUOUS
 62
               3
  5
1F0
 10
-126.99999999999986
 20
0.921556125964571
 30
0.0
 11
-126.99999999999986
 21
87.078443874035429
 31
0.0
  0
LINE
  8
0
  6
CONTINUOUS
 62
               3
  5
1F1
 10
-126.99999999999986
 20
0.921556125964571
 30
0.0
 11
-80.690152323672891
 21
-0.6956193899384289
 31
0.0
  0
ARC
  8
0
  6
CONTINUOUS
 62
               3
  5
1F2
 10
-69.999999999999972
 20
94.071975456559244
 30
0.0
 40
4.9999999999999991
 50
272.00000000000045
 51
359.9999999999992
  0
ARC
  8
0
  6
CONTINUOUS
 62
               3
  5
1F3
 10
-80.864649807185856
 20
-5.6925735250335947
 30
0.0
 40
4.9999999999999991
 50
44.999999999998977
 51
87.99999999999882
  0
ARC
  8
0
  6
CONTINUOUS
 62
               3
  5
1F4
 10
-69.999999999999972
 20
-16.557223332219337
 30
0.0
 40
4.9999999999999991
 50
0.0
 51
44.999999999999901
  0
LINE
  8
0
  6
CONTINUOUS
 62
               3
  5
1F5
 10
-129.99999999999997
 20
84.750000000000227
 30
0.0
 11
-129.32844387403546
 21
84.750000000000227
 31
0.0
  0
LINE
  8
0
  6
CONTINUOUS
 62
               3
  5
1F6
 10
-129.99999999999997
 20
3.2500000000001137
 30
0.0
 11
-129.32844387403546
 21
3.2500000000001137
 31
0.0
  0
LINE
  8
0
  6
CONTINUOUS
 62
               3
  5
1F7
 10
-126.99999999999986
 20
87.078443874035429
 30
0.0
 11
-129.32844387403546
 21
84.750000000000227
 31
0.0
  0
LINE
  8
0
  6
CONTINUOUS
 62
               3
  5
1F8
 10
-126.99999999999986
 20
0.921556125964571
 30
0.0
 11
-129.32844387403546
 21
3.2500000000001137
 31
0.0
  0
LINE
  8
0
  6
CONTINUOUS
 62
               3
  5
1F9
 10
-129.32844387403546
 20
84.750000000000227
 30
0.0
 11
-129.32844387403546
 21
3.2500000000001137
 31
0.0
  0
LINE
  8
0
  6
CONTINUOUS
 62
               3
  5
1FA
 10
-134.99999999999997
 20
84.578443874035543
 30
0.0
 11
-134.99999999999997
 21
3.421556125964571
 31
0.0
  0
LINE
  8
0
  6
CONTINUOUS
 62
               3
  5
1FB
 10
-129.99999999999997
 20
0.921556125964571
 30
0.0
 11
-129.99999999999997
 21
87.078443874035543
 31
0.0
  0
LINE
  8
0
  6
CONTINUOUS
 62
               3
  5
1FC
 10
-129.99999999999997
 20
87.078443874035543
 30
0.0
 11
-132.49999999999997
 21
87.078443874035543
 31
0.0
  0
LINE
  8
0
  6
CONTINUOUS
 62
               3
  5
1FD
 10
-129.99999999999997
 20
0.921556125964571
 30
0.0
 11
-132.49999999999997
 21
0.921556125964571
 31
0.0
  0
ARC
  8
0
  6
CONTINUOUS
 62
               3
  5
1FE
 10
-132.49999999999997
 20
3.421556125964571
 30
0.0
 40
2.5
 50
179.9999999999996
 51
269.99999999999937
  0
ARC
  8
0
  6
CONTINUOUS
 62
               3
  5
1FF
 10
-132.49999999999997
 20
84.578443874035543
 30
0.0
 40
2.5
 50
89.999999999999801
 51
179.9999999999996
  0
LINE
  8
0
  6
CONTINUOUS
 62
               3
  5
200
 10
45.499999999999929
 20
-238.99627986184794
 30
0.0
 11
47.771775600348676
 21
-236.72450426149953
 31
0.0
  0
LINE
  8
0
  6
CONTINUOUS
 62
               3
  5
201
 10
44.996765133650271
 20
-238.99627986184851
 30
0.0
 11
47.771775600348676
 21
-236.72450426149953
 31
0.0
  0
LINE
  8
0
  6
CONTINUOUS
 62
               3
  5
202
 10
-74.499999999999716
 20
200.08730192372934
 30
0.0
 11
-74.499999999999716
 21
195.08730192372934
 31
0.0
  0
LINE
  8
0
  6
CONTINUOUS
 62
               3
  5
203
 10
-74.499999999999716
 20
200.08730192372934
 30
0.0
 11
-60.999999999999801
 21
210.0
 31
0.0
  0
LINE
  8
0
  6
CONTINUOUS
 62
               3
  5
204
 10
-74.499999999999716
 20
195.08730192372934
 30
0.0
 11
-63.825502516487276
 21
194.7145402576673
 31
0.0
  0
ARC
  8
0
  6
CONTINUOUS
 62
               3
  5
205
 10
-63.999999999999815
 20
189.7175861225719
 30
0.0
 40
5.0
 50
0.0
 51
87.999999999999417
  0
LINE
  8
0
  6
CONTINUOUS
 62
               3
  5
206
 10
74.500000000000057
 20
200.08730192372934
 30
0.0
 11
74.500000000000057
 21
195.08730192372934
 31
0.0
  0
LINE
  8
0
  6
CONTINUOUS
 62
               3
  5
207
 10
74.500000000000057
 20
200.08730192372934
 30
0.0
 11
61.000000000000114
 21
210.0
 31
0.0
  0
LINE
  8
0
  6
CONTINUOUS
 62
               3
  5
208
 10
74.500000000000057
 20
195.08730192372934
 30
0.0
 11
63.825502516487546
 21
194.7145402576673
 31
0.0
  0
ARC
  8
0
  6
CONTINUOUS
 62
               3
  5
209
 10
64.000000000000085
 20
189.7175861225719
 30
0.0
 40
5.0
 50
92.000000000000213
 51
179.99999999999963
  0
LINE
  8
0
  6
CONTINUOUS
 62
               3
  5
20A
 10
-60.999999999999801
 20
210.0
 30
0.0
 11
61.000000000000114
 21
210.0
 31
0.0
  0
LINE
  8
0
  6
CONTINUOUS
 62
               3
  5
20B
 10
-60.511976087981623
 20
193.29999999999984
 30
0.0
 11
60.511976087981935
 21
193.29999999999984
 31
0.0
  0
LINE
  8
0
  6
CONTINUOUS
 62
               3
  5
20C
 10
-19.999999999999822
 20
193.29999999999984
 30
0.0
 11
-19.999999999999822
 21
210.0
 31
0.0
  0
LINE
  8
0
  6
CONTINUOUS
 62
               3
  5
20D
 10
20.000000000000174
 20
210.0
 30
0.0
 11
20.000000000000174
 21
193.29999999999984
 31
0.0
  0
LINE
  8
0
  6
CONTINUOUS
 62
               3
  5
20E
 10
-19.999999999999822
 20
200.08730192372934
 30
0.0
 11
20.000000000000174
 21
200.08730192372934
 31
0.0
  0
LINE
  8
0
  6
CONTINUOUS
 62
               3
  5
20F
 10
20.000000000000174
 20
195.08730192372934
 30
0.0
 11
-19.999999999999822
 21
195.08730192372934
 31
0.0
  0
LINE
  8
0
  6
CONTINUOUS
 62
               3
  5
210
 10
-60.999999999999801
 20
210.0
 30
0.0
 11
-60.999999999999801
 21
193.71758612257179
 31
0.0
  0
LINE
  8
0
  6
CONTINUOUS
 62
               3
  5
211
 10
61.000000000000114
 20
210.0
 30
0.0
 11
61.000000000000114
 21
193.71758612257179
 31
0.0
  0
LINE
  8
0
  6
CONTINUOUS
 62
               3
  5
212
 10
-58.999999999999815
 20
189.7175861225719
 30
0.0
 11
-58.999999999999815
 21
128.17099437777563
 31
0.0
  0
ARC
  8
0
  6
CONTINUOUS
 62
               3
  5
213
 10
-63.999999999999815
 20
128.17099437777563
 30
0.0
 40
5.0
 50
315.01704217218719
 51
359.9999999999992
  0
ARC
  8
0
  6
CONTINUOUS
 62
               3
  5
214
 10
-49.499999999999858
 20
113.67961763158598
 30
0.0
 40
15.5
 50
135.01704217218645
 51
179.9999999999996
  0
CIRCLE
  8
0
  6
CONTINUOUS
 62
               3
  5
215
 10
-100.62307865726446
 20
-175.09964892838184
 30
0.0
 40
0.2396114958834032
  0
LINE
  8
0
  6
CONTINUOUS
 62
               3
  5
216
 10
-74.486155520354103
 20
-4.9999999999998863
 30
0.0
 11
-66.464466094067774
 21
-13.021689426286343
 31
0.0
  0
LINE
  8
0
  6
CONTINUOUS
 62
               3
  5
217
 10
-77.329115901252663
 20
-2.1570396191012833
 30
0.0
 11
-74.486155520354103
 21
-4.9999999999998863
 31
0.0
  0
LINE
  8
0
  6
CONTINUOUS
 62
               3
  5
218
 10
66.999999999999886
 20
-4.0000000000001492
 30
0.0
 11
66.999999999999886
 21
-67.960544633137943
 31
0.0
  0
LINE
  8
0
  6
CONTINUOUS
 62
               3
  5
219
 10
66.750000000000114
 20
-4.2853571071356029
 30
0.0
 11
66.750000000000114
 21
-67.946348604355876
 31
0.0
  0
LINE
  8
0
  6
CONTINUOUS
 62
               3
  5
21A
 10
-45.500000000000512
 20
-303.90624095768442
 30
0.0
 11
-45.499999999999972
 21
-238.99627986184805
 31
0.0
  0
LINE
  8
0
  6
CONTINUOUS
 62
               3
  5
21B
 10
45.500000000000441
 20
-303.90624095768442
 30
0.0
 11
45.499999999999943
 21
-238.99627986184805
 31
0.0
  0
LINE
  8
0
  6
CONTINUOUS
 62
               3
  5
21C
 10
-545.50000000000068
 20
-303.90624095768442
 30
0.0
 11
-545.5
 21
-238.99627986184802
 31
0.0
  0
LINE
  8
0
  6
CONTINUOUS
 62
               3
  5
21D
 10
-454.49999999999966
 20
-303.90624095768442
 30
0.0
 11
-454.50000000000011
 21
-238.99627986184802
 31
0.0
  0
LINE
  8
0
  6
CONTINUOUS
 62
               3
  5
21E
 10
-545.5
 20
-238.99627986184791
 30
0.0
 11
-565.0
 21
-67.846976402882632
 31
0.0
  0
LINE
  8
0
  6
CONTINUOUS
 62
               3
  5
21F
 10
-565.0
 20
-4.9999999999998579
 30
0.0
 11
-565.0
 21
-67.846976402882632
 31
0.0
  0
ARC
  8
0
  6
CONTINUOUS
 62
               3
  5
220
 10
-435.00000000000006
 20
-2.4999999999999716
 30
0.0
 40
2.4999999999999996
 50
269.99999999999937
 51
449.99999999999898
  0
LINE
  8
0
  6
CONTINUOUS
 62
               3
  5
221
 10
-565.0
 20
-67.846976402882632
 30
0.0
 11
-435.00000000000006
 21
-67.846976402882632
 31
0.0
  0
LINE
  8
0
  6
CONTINUOUS
 62
               3
  5
222
 10
-565.0
 20
113.67961763158601
 30
0.0
 11
-565.0
 21
0.0000000000000142
 31
0.0
  0
LINE
  8
0
  6
CONTINUOUS
 62
               3
  5
223
 10
-574.49999999999977
 20
200.08730192372937
 30
0.0
 11
-574.49999999999977
 21
195.08730192372937
 31
0.0
  0
LINE
  8
0
  6
CONTINUOUS
 62
               3
  5
224
 10
-574.49999999999977
 20
200.08730192372937
 30
0.0
 11
-560.99999999999977
 21
210.00000000000003
 31
0.0
  0
LINE
  8
0
  6
CONTINUOUS
 62
               3
  5
225
 10
-574.49999999999977
 20
195.08730192372937
 30
0.0
 11
-563.8255025164874
 21
194.71454025766732
 31
0.0
  0
ARC
  8
0
  6
CONTINUOUS
 62
               3
  5
226
 10
-563.99999999999977
 20
189.71758612257193
 30
0.0
 40
5.0
 50
0.0
 51
87.999999999999417
  0
LINE
  8
0
  6
CONTINUOUS
 62
               3
  5
227
 10
-425.5
 20
200.08730192372937
 30
0.0
 11
-425.5
 21
195.08730192372937
 31
0.0
  0
LINE
  8
0
  6
CONTINUOUS
 62
               3
  5
228
 10
-425.5
 20
200.08730192372937
 30
0.0
 11
-438.99999999999994
 21
210.00000000000003
 31
0.0
  0
LINE
  8
0
  6
CONTINUOUS
 62
               3
  5
229
 10
-425.5
 20
195.08730192372937
 30
0.0
 11
-436.17449748351254
 21
194.71454025766732
 31
0.0
  0
ARC
  8
0
  6
CONTINUOUS
 62
               3
  5
22A
 10
-436.0
 20
189.71758612257193
 30
0.0
 40
5.0
 50
92.000000000000213
 51
179.99999999999963
  0
LINE
  8
0
  6
CONTINUOUS
 62
               3
  5
22B
 10
-560.99999999999977
 20
210.00000000000003
 30
0.0
 11
-438.99999999999994
 21
210.00000000000003
 31
0.0
  0
LINE
  8
0
  6
CONTINUOUS
 62
               3
  5
22C
 10
-560.51197608798179
 20
193.29999999999987
 30
0.0
 11
-439.48802391201815
 21
193.29999999999987
 31
0.0
  0
LINE
  8
0
  6
CONTINUOUS
 62
               3
  5
22D
 10
-520.0
 20
193.29999999999987
 30
0.0
 11
-520.0
 21
210.00000000000003
 31
0.0
  0
LINE
  8
0
  6
CONTINUOUS
 62
               3
  5
22E
 10
-479.99999999999989
 20
210.00000000000003
 30
0.0
 11
-479.99999999999989
 21
193.29999999999987
 31
0.0
  0
LINE
  8
0
  6
CONTINUOUS
 62
               3
  5
22F
 10
-520.0
 20
200.08730192372937
 30
0.0
 11
-479.99999999999989
 21
200.08730192372937
 31
0.0
  0
LINE
  8
0
  6
CONTINUOUS
 62
               3
  5
230
 10
-479.99999999999989
 20
195.08730192372937
 30
0.0
 11
-520.0
 21
195.08730192372937
 31
0.0
  0
LINE
  8
0
  6
CONTINUOUS
 62
               3
  5
231
 10
-560.99999999999977
 20
210.00000000000003
 30
0.0
 11
-560.99999999999977
 21
193.71758612257182
 31
0.0
  0
LINE
  8
0
  6
CONTINUOUS
 62
               3
  5
232
 10
-438.99999999999994
 20
210.00000000000003
 30
0.0
 11
-438.99999999999994
 21
193.71758612257182
 31
0.0
  0
LINE
  8
0
  6
CONTINUOUS
 62
               3
  5
233
 10
-558.99999999999977
 20
189.71758612257193
 30
0.0
 11
-558.99999999999977
 21
128.17099437777566
 31
0.0
  0
ARC
  8
0
  6
CONTINUOUS
 62
               3
  5
234
 10
-563.99999999999977
 20
128.17099437777566
 30
0.0
 40
5.0
 50
315.01704217218719
 51
359.9999999999992
  0
ARC
  8
0
  6
CONTINUOUS
 62
               3
  5
235
 10
-549.5
 20
113.67961763158601
 30
0.0
 40
15.5
 50
135.01704217218645
 51
179.9999999999996
  0
LINE
  8
0
  6
CONTINUOUS
 62
               3
  5
236
 10
-440.99999999999994
 20
189.71758612257193
 30
0.0
 11
-440.99999999999994
 21
126.17099437777566
 31
0.0
  0
CIRCLE
  8
0
  6
CONTINUOUS
 62
               3
  5
237
 10
-600.62307865726461
 20
-175.09964892838181
 30
0.0
 40
0.2396114958834032
  0
ARC
  8
0
  6
CONTINUOUS
 62
               3
  5
238
 10
-565.0
 20
-2.4999999999999858
 30
0.0
 40
2.4999999999999996
 50
89.999999999999815
 51
269.99999999999937
  0
LINE
  8
0
  6
CONTINUOUS
 62
               3
  5
239
 10
-435.00000000000006
 20
113.67961763158601
 30
0.0
 11
-435.00000000000006
 21
0.0000000000000284
 31
0.0
  0
ARC
  8
0
  6
CONTINUOUS
 62
               3
  5
23A
 10
-436.00000000000028
 20
128.17099437777566
 30
0.0
 40
5.0
 50
179.9999999999996
 51
224.98295782781162
  0
ARC
  8
0
  6
CONTINUOUS
 62
               3
  5
23B
 10
-450.50000000000017
 20
113.67961763158601
 30
0.0
 40
15.5
 50
0.0000000000000078
 51
44.982957827813145
  0
LINE
  8
0
  6
CONTINUOUS
 62
               3
  5
23C
 10
-454.50000000000006
 20
-238.99627986184791
 30
0.0
 11
-435.00000000000006
 21
-67.846976402882618
 31
0.0
  0
LINE
  8
0
  6
CONTINUOUS
 62
               3
  5
23D
 10
-435.00000000000006
 20
-4.9999999999998437
 30
0.0
 11
-435.00000000000006
 21
-67.846976402882618
 31
0.0
  0
ARC
  8
0
  6
CONTINUOUS
 62
               3
  5
23E
 10
-522.49999999999955
 20
-2.4999999999999716
 30
0.0
 40
2.4999999999999996
 50
269.99999999999937
 51
449.99999999999898
  0
ARC
  8
0
  6
CONTINUOUS
 62
               3
  5
23F
 10
-477.49999999999949
 20
-2.4999999999999716
 30
0.0
 40
2.4999999999999996
 50
89.999999999999801
 51
269.99999999999937
  0
LINE
  8
0
  6
CONTINUOUS
 62
               3
  5
240
 10
-565.0
 20
0.0000000000000142
 30
0.0
 11
-522.49999999999955
 21
0.0000000000000213
 31
0.0
  0
LINE
  8
0
  6
CONTINUOUS
 62
               3
  5
241
 10
-477.49999999999949
 20
0.0000000000000284
 30
0.0
 11
-435.00000000000006
 21
0.0000000000000284
 31
0.0
  0
LINE
  8
0
  6
CONTINUOUS
 62
               3
  5
242
 10
454.56642277706555
 20
-238.99627986184794
 30
0.0
 11
435.06642277706555
 21
-67.84697640288266
 31
0.0
  0
LINE
  8
0
  6
CONTINUOUS
 62
               3
  5
243
 10
435.06642277706555
 20
-4.9999999999998863
 30
0.0
 11
435.06642277706555
 21
-67.84697640288266
 31
0.0
  0
ARC
  8
0
  6
CONTINUOUS
 62
               3
  5
244
 10
565.06642277706555
 20
-2.5
 30
0.0
 40
2.4999999999999996
 50
269.99999999999937
 51
449.99999999999898
  0
LINE
  8
0
  6
CONTINUOUS
 62
               3
  5
245
 10
435.06642277706555
 20
-67.84697640288266
 30
0.0
 11
565.06642277706555
 21
-67.84697640288266
 31
0.0
  0
LINE
  8
0
  6
CONTINUOUS
 62
               3
  5
246
 10
435.06642277706555
 20
113.67961763158598
 30
0.0
 11
435.06642277706555
 21
-0.0000000000000142
 31
0.0
  0
LINE
  8
0
  6
CONTINUOUS
 62
               3
  5
247
 10
425.56642277706578
 20
200.08730192372934
 30
0.0
 11
425.56642277706578
 21
195.08730192372934
 31
0.0
  0
LINE
  8
0
  6
CONTINUOUS
 62
               3
  5
248
 10
425.56642277706578
 20
200.08730192372934
 30
0.0
 11
439.06642277706578
 21
210.0
 31
0.0
  0
LINE
  8
0
  6
CONTINUOUS
 62
               3
  5
249
 10
425.56642277706578
 20
195.08730192372934
 30
0.0
 11
436.24092026057826
 21
194.7145402576673
 31
0.0
  0
ARC
  8
0
  6
CONTINUOUS
 62
               3
  5
24A
 10
436.06642277706578
 20
189.7175861225719
 30
0.0
 40
5.0
 50
0.0
 51
87.999999999999417
  0
LINE
  8
0
  6
CONTINUOUS
 62
               3
  5
24B
 10
574.56642277706555
 20
200.08730192372934
 30
0.0
 11
574.56642277706555
 21
195.08730192372934
 31
0.0
  0
LINE
  8
0
  6
CONTINUOUS
 62
               3
  5
24C
 10
574.56642277706555
 20
200.08730192372934
 30
0.0
 11
561.06642277706567
 21
210.0
 31
0.0
  0
LINE
  8
0
  6
CONTINUOUS
 62
               3
  5
24D
 10
574.56642277706555
 20
195.08730192372934
 30
0.0
 11
563.89192529355307
 21
194.7145402576673
 31
0.0
  0
ARC
  8
0
  6
CONTINUOUS
 62
               3
  5
24E
 10
564.06642277706555
 20
189.7175861225719
 30
0.0
 40
5.0
 50
92.000000000000213
 51
179.99999999999963
  0
LINE
  8
0
  6
CONTINUOUS
 62
               3
  5
24F
 10
439.06642277706578
 20
210.0
 30
0.0
 11
561.06642277706567
 21
210.0
 31
0.0
  0
LINE
  8
0
  6
CONTINUOUS
 62
               3
  5
250
 10
439.55444668908387
 20
193.29999999999984
 30
0.0
 11
560.57839886504746
 21
193.29999999999984
 31
0.0
  0
LINE
  8
0
  6
CONTINUOUS
 62
               3
  5
251
 10
480.06642277706567
 20
193.29999999999984
 30
0.0
 11
480.06642277706567
 21
210.0
 31
0.0
  0
LINE
  8
0
  6
CONTINUOUS
 62
               3
  5
252
 10
520.06642277706578
 20
210.0
 30
0.0
 11
520.06642277706578
 21
193.29999999999984
 31
0.0
  0
LINE
  8
0
  6
CONTINUOUS
 62
               3
  5
253
 10
480.06642277706567
 20
200.08730192372934
 30
0.0
 11
520.06642277706578
 21
200.08730192372934
 31
0.0
  0
LINE
  8
0
  6
CONTINUOUS
 62
               3
  5
254
 10
520.06642277706578
 20
195.08730192372934
 30
0.0
 11
480.06642277706567
 21
195.08730192372934
 31
0.0
  0
LINE
  8
0
  6
CONTINUOUS
 62
               3
  5
255
 10
439.06642277706578
 20
210.0
 30
0.0
 11
439.06642277706578
 21
193.71758612257179
 31
0.0
  0
LINE
  8
0
  6
CONTINUOUS
 62
               3
  5
256
 10
561.06642277706567
 20
210.0
 30
0.0
 11
561.06642277706567
 21
193.71758612257179
 31
0.0
  0
LINE
  8
0
  6
CONTINUOUS
 62
               3
  5
257
 10
441.06642277706578
 20
189.7175861225719
 30
0.0
 11
441.06642277706578
 21
128.17099437777563
 31
0.0
  0
ARC
  8
0
  6
CONTINUOUS
 62
               3
  5
258
 10
436.06642277706578
 20
128.17099437777563
 30
0.0
 40
5.0
 50
315.01704217218719
 51
359.9999999999992
  0
ARC
  8
0
  6
CONTINUOUS
 62
               3
  5
259
 10
450.56642277706567
 20
113.67961763158598
 30
0.0
 40
15.5
 50
135.01704217218645
 51
179.9999999999996
  0
LINE
  8
0
  6
CONTINUOUS
 62
               3
  5
25A
 10
559.06642277706567
 20
189.7175861225719
 30
0.0
 11
559.06642277706533
 21
128.17099437777563
 31
0.0
  0
CIRCLE
  8
0
  6
CONTINUOUS
 62
               3
  5
25B
 10
399.44334411980105
 20
-175.09964892838184
 30
0.0
 40
0.2396114958834032
  0
ARC
  8
0
  6
CONTINUOUS
 62
               3
  5
25C
 10
435.06642277706555
 20
-2.5000000000000142
 30
0.0
 40
2.4999999999999996
 50
89.999999999999815
 51
269.99999999999937
  0
LINE
  8
0
  6
CONTINUOUS
 62
               3
  5
25D
 10
565.06642277706555
 20
113.67961763158598
 30
0.0
 11
565.06642277706555
 21
0.0
 31
0.0
  0
ARC
  8
0
  6
CONTINUOUS
 62
               3
  5
25E
 10
564.06642277706533
 20
128.17099437777563
 30
0.0
 40
5.0
 50
179.9999999999996
 51
224.98295782781162
  0
ARC
  8
0
  6
CONTINUOUS
 62
               3
  5
25F
 10
549.56642277706544
 20
113.67961763158598
 30
0.0
 40
15.5
 50
0.0000000000000078
 51
44.982957827813145
  0
LINE
  8
0
  6
CONTINUOUS
 62
               3
  5
260
 10
545.56642277706555
 20
-238.99627986184794
 30
0.0
 11
565.06642277706555
 21
-67.846976402882646
 31
0.0
  0
LINE
  8
0
  6
CONTINUOUS
 62
               3
  5
261
 10
565.06642277706555
 20
-4.9999999999998721
 30
0.0
 11
565.06642277706555
 21
-67.846976402882646
 31
0.0
  0
LINE
  8
0
  6
CONTINUOUS
 62
               3
  5
262
 10
454.56642277706499
 20
-303.90624095768442
 30
0.0
 11
454.56642277706555
 21
-238.99627986184805
 31
0.0
  0
LINE
  8
0
  6
CONTINUOUS
 62
               3
  5
263
 10
545.56642277706601
 20
-303.90624095768442
 30
0.0
 11
545.56642277706555
 21
-238.99627986184805
 31
0.0
  0
LINE
  8
0
  6
CONTINUOUS
 62
               3
  5
264
 10
435.06642277706555
 20
-0.0000000000000142
 30
0.0
 11
491.93835546658465
 21
0.0
 31
0.0
  0
LINE
  8
0
  6
CONTINUOUS
 62
               3
  5
265
 10
508.2170000000001
 20
0.0
 30
0.0
 11
565.06642277706555
 21
0.0000000000000071
 31
0.0
  0
LINE
  8
0
  6
CONTINUOUS
 62
               3
  5
266
 10
-54.999999999999986
 20
-4.9999999999998863
 30
0.0
 11
65.0
 21
-4.9999999999998863
 31
0.0
  0
LINE
  8
0
  6
CONTINUOUS
 62
               3
  5
267
 10
-565.0
 20
-4.9999999999998579
 30
0.0
 11
-522.49999999999955
 21
-4.9999999999998579
 31
0.0
  0
LINE
  8
0
  6
CONTINUOUS
 62
               3
  5
268
 10
-477.49999999999949
 20
-4.9999999999998579
 30
0.0
 11
-435.00000000000006
 21
-4.9999999999998579
 31
0.0
  0
LINE
  8
0
  6
CONTINUOUS
 62
               3
  5
269
 10
-545.5
 20
-238.99627986184791
 30
0.0
 11
-454.50000000000006
 21
-238.99627986184791
 31
0.0
  0
ARC
  8
0
  6
CONTINUOUS
 62
               3
  5
26A
 10
64.000000000000156
 20
128.17099437777574
 30
0.0
 40
5.0
 50
179.99999999999963
 51
224.98295782781162
  0
ARC
  8
0
  6
CONTINUOUS
 62
               3
  5
26B
 10
49.500000000000171
 20
113.67961763158621
 30
0.0
 40
15.5
 50
0.0
 51
44.982957827813252
  0
LINE
  8
0
  6
CONTINUOUS
 62
               3
  5
26C
 10
66.414213562373476
 20
122.58578643762689
 30
0.0
 11
59.58578643762705
 21
129.41421356237311
 31
0.0
  0
ARC
  8
0
  6
CONTINUOUS
 62
               3
  5
26D
 10
65.00000000000027
 20
121.17157287525356
 30
0.0
 40
2.0
 50
0.0
 51
44.999999999999901
  0
ARC
  8
0
  6
CONTINUOUS
 62
               3
  5
26E
 10
61.000000000000156
 20
130.82842712474633
 30
0.0
 40
2.0
 50
179.9999999999996
 51
224.99999999999949
  0
LINE
  8
0
  6
CONTINUOUS
 62
               3
  5
26F
 10
65.000000000000028
 20
-0.0000000000001137
 30
0.0
 11
65.000000000000242
 21
113.67961763158621
 31
0.0
  0
LINE
  8
0
  6
CONTINUOUS
 62
               3
  5
270
 10
67.00000000000027
 20
121.17157287525356
 30
0.0
 11
67.000000000000284
 21
-1.0000000000004547
 31
0.0
  0
LINE
  8
0
  6
CONTINUOUS
 62
               3
  5
271
 10
59.000000000000156
 20
189.7175861225719
 30
0.0
 11
59.000000000000156
 21
128.17099437777574
 31
0.0
  0
LINE
  8
0
  6
CONTINUOUS
 62
               3
  5
272
 10
435.06642277706555
 20
-4.9999999999998863
 30
0.0
 11
491.93835546658465
 21
-4.9999999999998721
 31
0.0
  0
LINE
  8
0
  6
CONTINUOUS
 62
               3
  5
273
 10
508.06164453341512
 20
-5.0
 30
0.0
 11
565.06642277706555
 21
-4.9999999999999858
 31
0.0
  0
LINE
  8
0
  6
CONTINUOUS
 62
               3
  5
274
 10
-45.500000000000512
 20
-238.99627986184794
 30
0.0
 11
45.500000000000441
 21
-238.99627986184794
 31
0.0
  0
LINE
  8
0
  6
CONTINUOUS
 62
               3
  5
275
 10
454.56642277706499
 20
-238.99627986184794
 30
0.0
 11
545.56642277706601
 21
-238.99627986184794
 31
0.0
  0
LINE
  8
0
  6
CONTINUOUS
 62
               3
  5
276
 10
-20.000000000000338
 20
438.33085918418669
 30
0.0
 11
-20.000000000000323
 21
452.78142113814101
 31
0.0
  0
LINE
  8
0
  6
CONTINUOUS
 62
               3
  5
277
 10
19.999999999999662
 20
452.44556480095025
 30
0.0
 11
19.999999999999662
 21
438.33085918418669
 31
0.0
  0
LINE
  8
0
  6
CONTINUOUS
 62
               3
  5
278
 10
-46.017395837626559
 20
556.07214161356342
 30
0.0
 11
-127.00000000000003
 21
553.2441667607668
 31
0.0
  0
LINE
  8
0
  6
CONTINUOUS
 62
               3
  5
279
 10
-130.00000000000014
 20
550.91572288673183
 30
0.0
 11
-129.32844387403568
 21
550.91572288673183
 31
0.0
  0
LINE
  8
0
  6
CONTINUOUS
 62
               3
  5
27A
 10
-127.00000000000003
 20
467.08727901269617
 30
0.0
 11
-127.00000000000003
 21
553.2441667607668
 31
0.0
  0
LINE
  8
0
  6
CONTINUOUS
 62
               3
  5
27B
 10
-46.017395837627411
 20
464.25930415990069
 30
0.0
 11
-127.00000000000003
 21
467.08727901269617
 31
0.0
  0
LINE
  8
0
  6
CONTINUOUS
 62
               3
  5
27C
 10
-130.00000000000014
 20
469.4157228867316
 30
0.0
 11
-129.32844387403568
 21
469.4157228867316
 31
0.0
  0
LINE
  8
0
  6
CONTINUOUS
 62
               3
  5
27D
 10
-127.00000000000003
 20
553.2441667607668
 30
0.0
 11
-129.32844387403568
 21
550.91572288673183
 31
0.0
  0
LINE
  8
0
  6
CONTINUOUS
 62
               3
  5
27E
 10
-127.00000000000003
 20
467.08727901269617
 30
0.0
 11
-129.32844387403568
 21
469.4157228867316
 31
0.0
  0
LINE
  8
0
  6
CONTINUOUS
 62
               3
  5
27F
 10
-129.32844387403568
 20
550.91572288673183
 30
0.0
 11
-129.32844387403568
 21
469.4157228867316
 31
0.0
  0
LINE
  8
0
  6
CONTINUOUS
 62
               3
  5
280
 10
-135.00000000000014
 20
550.74416676076703
 30
0.0
 11
-135.00000000000014
 21
469.58727901269617
 31
0.0
  0
LINE
  8
0
  6
CONTINUOUS
 62
               3
  5
281
 10
-130.00000000000014
 20
467.08727901269617
 30
0.0
 11
-130.00000000000014
 21
553.24416676076703
 31
0.0
  0
LINE
  8
0
  6
CONTINUOUS
 62
               3
  5
282
 10
-130.00000000000014
 20
553.24416676076703
 30
0.0
 11
-132.50000000000014
 21
553.24416676076703
 31
0.0
  0
LINE
  8
0
  6
CONTINUOUS
 62
               3
  5
283
 10
-130.00000000000014
 20
467.08727901269617
 30
0.0
 11
-132.50000000000014
 21
467.08727901269617
 31
0.0
  0
ARC
  8
0
  6
CONTINUOUS
 62
               3
  5
284
 10
-132.50000000000014
 20
469.58727901269617
 30
0.0
 40
2.5
 50
179.9999999999996
 51
269.99999999999937
  0
ARC
  8
0
  6
CONTINUOUS
 62
               3
  5
285
 10
-132.50000000000014
 20
550.74416676076703
 30
0.0
 40
2.5
 50
89.999999999999801
 51
179.9999999999996
  0
ARC
  8
0
  6
CONTINUOUS
 62
               3
  5
286
 10
-0.0000000000003029
 20
512.04135738481159
 30
0.0
 40
76.375634498080188
 50
254.81932855955753
 51
285.18067144044119
  0
LINE
  8
0
  6
CONTINUOUS
 62
               3
  5
287
 10
71.834863702544453
 20
490.1657228867316
 30
0.0
 11
58.086368194002539
 21
490.1657228867316
 31
0.0
  0
LINE
  8
0
  6
CONTINUOUS
 62
               3
  5
288
 10
58.137462938722599
 20
530.1657228867316
 30
0.0
 11
71.834863702544453
 21
530.1657228867316
 31
0.0
  0
ARC
  8
0
  6
CONTINUOUS
 62
               3
  5
289
 10
-1.8756344980804984
 20
510.1657228867316
 30
0.0
 40
76.375634498080188
 50
344.81932855955733
 51
375.18067144044102
  0
LINE
  8
0
  6
CONTINUOUS
 62
               3
  5
28A
 10
19.999999999999787
 20
582.00058658927651
 30
0.0
 11
19.999999999999787
 21
568.03310553718029
 31
0.0
  0
LINE
  8
0
  6
CONTINUOUS
 62
               3
  5
28B
 10
-20.000000000000224
 20
567.69724919998953
 30
0.0
 11
-20.00000000000021
 21
582.00058658927651
 31
0.0
  0
ARC
  8
0
  6
CONTINUOUS
 62
               3
  5
28C
 10
-0.0000000000002531
 20
508.29008838865138
 30
0.0
 40
76.375634498080188
 50
74.819328559557945
 51
105.18067144044161
  0
LINE
  8
0
  6
CONTINUOUS
 62
               3
  5
28D
 10
-71.834863702545107
 20
530.1657228867316
 30
0.0
 11
-57.169762724290145
 21
530.1657228867316
 31
0.0
  0
LINE
  8
0
  6
CONTINUOUS
 62
               3
  5
28E
 10
-57.118667979570098
 20
490.1657228867316
 30
0.0
 11
-71.834863702545107
 21
490.1657228867316
 31
0.0
  0
ARC
  8
0
  6
CONTINUOUS
 62
               3
  5
28F
 10
1.8756344980798714
 20
510.1657228867316
 30
0.0
 40
76.375634498080188
 50
164.81932855955776
 51
195.18067144044142
  0
ARC
  8
0
  6
CONTINUOUS
 62
               3
  5
290
 10
-0.0000000000002602
 20
510.1657228867316
 30
0.0
 40
67.499999999999957
 50
287.23528525708718
 51
342.76471474291139
  0
ARC
  8
0
  6
CONTINUOUS
 62
               3
  5
291
 10
-0.00000000000031
 20
510.1657228867316
 30
0.0
 40
65.0
 50
287.92021313939165
 51
342.07978686060699
  0
ARC
  8
0
  6
CONTINUOUS
 62
               3
  5
292
 10
-0.0000000000002602
 20
510.1657228867316
 30
0.0
 40
67.499999999999957
 50
222.70632390520862
 51
252.76471474291148
  0
ARC
  8
0
  6
CONTINUOUS
 62
               3
  5
293
 10
-0.00000000000031
 20
510.1657228867316
 30
0.0
 40
65.0
 50
197.92021313939182
 51
252.07978686060716
  0
ARC
  8
0
  6
CONTINUOUS
 62
               3
  5
294
 10
-0.0000000000002602
 20
510.1657228867316
 30
0.0
 40
67.499999999999957
 50
17.235285257087856
 51
72.764714742911892
  0
ARC
  8
0
  6
CONTINUOUS
 62
               3
  5
295
 10
-0.0000000000002602
 20
510.1657228867316
 30
0.0
 40
67.499999999999957
 50
107.23528525708761
 51
137.29367609478942
  0
ARC
  8
0
  6
CONTINUOUS
 62
               3
  5
296
 10
-0.00000000000031
 20
510.1657228867316
 30
0.0
 40
65.0
 50
17.920213139392249
 51
72.079786860607399
  0
ARC
  8
0
  6
CONTINUOUS
 62
               3
  5
297
 10
-0.00000000000031
 20
510.1657228867316
 30
0.0
 40
65.0
 50
107.92021313939196
 51
162.07978686060736
  0
CIRCLE
  8
0
  6
CONTINUOUS
 62
               3
  5
298
 10
0.4838501072162229
 20
510.23933516906527
 30
0.0
 40
61.000000000000007
  0
CIRCLE
  8
0
  6
CONTINUOUS
 62
               3
  5
299
 10
-0.0000000000000897
 20
510.1657228867316
 30
0.0
 40
47.0
  0
CIRCLE
  8
0
  6
CONTINUOUS
 62
               3
  5
29A
 10
0.0000000000016156
 20
510.16572288673319
 30
0.0
 40
40.5
  0
LINE
  8
0
  6
CONTINUOUS
 62
               3
  5
29B
 10
24.438462962569982
 20
527.47169483136054
 30
0.0
 11
-18.217086312155242
 21
546.33736601080795
 31
0.0
  0
ARC
  8
0
  6
CONTINUOUS
 62
               3
  5
29C
 10
30.271587850719648
 20
540.66047267686622
 30
0.0
 40
14.421137507799237
 50
246.14118011765956
 51
295.69436237361231
  0
LINE
  8
0
  6
CONTINUOUS
 62
               3
  5
29D
 10
-516.62077013859516
 20
61.999999999999801
 30
0.0
 11
-483.37922986140603
 21
61.999999999999801
 31
0.0
  0
CIRCLE
  8
0
  6
CONTINUOUS
 62
               3
  5
29E
 10
-500.00000000000063
 20
43.999999999999687
 30
0.0
 40
34.100000000000001
  0
CIRCLE
  8
0
  6
CONTINUOUS
 62
               3
  5
29F
 10
-500.00000000000063
 20
43.999999999999687
 30
0.0
 40
28.649999999999999
  0
CIRCLE
  8
0
  6
CONTINUOUS
 62
               3
  5
2A0
 10
-500.00000000000063
 20
43.999999999999687
 30
0.0
 40
33.0
  0
CIRCLE
  8
0
  6
CONTINUOUS
 62
               3
  5
2A1
 10
-500.00000000000063
 20
43.999999999999687
 30
0.0
 40
24.5
  0
LINE
  8
0
  6
CONTINUOUS
 62
               3
  5
2A2
 10
-521.56675682619039
 20
22.433243173810098
 30
0.0
 11
-523.33452377915614
 21
20.665476220843203
 31
0.0
  0
LINE
  8
0
  6
CONTINUOUS
 62
               3
  5
2A3
 10
-478.43324317381104
 20
22.433243173810098
 30
0.0
 11
-476.66547622084471
 21
20.665476220843431
 31
0.0
  0
ARC
  8
0
  6
CONTINUOUS
 62
               3
  5
2A4
 10
-500.00000000000074
 20
44.000000000000028
 30
0.0
 40
30.5
 50
224.99999999999949
 51
314.99999999999937
  0
CIRCLE
  8
0
  6
CONTINUOUS
 62
               3
  5
2A5
 10
-500.00000000000063
 20
43.999999999999687
 30
0.0
 40
43.078500000000005
  0
LINE
  8
0
  6
CONTINUOUS
 62
               3
  5
2A6
 10
-544.50000000000068
 20
-304.90624095768442
 30
0.0
 11
-545.50000000000045
 21
-303.90624095768442
 31
0.0
  0
LINE
  8
0
  6
CONTINUOUS
 62
               3
  5
2A7
 10
-455.4999999999996
 20
-304.90624095768442
 30
0.0
 11
-454.4999999999996
 21
-303.90624095768442
 31
0.0
  0
LINE
  8
0
  6
CONTINUOUS
 62
               3
  5
2A8
 10
-544.50000000000068
 20
-304.90624095768442
 30
0.0
 11
-455.4999999999996
 21
-304.90624095768442
 31
0.0
  0
LINE
  8
0
  6
CONTINUOUS
 62
               3
  5
2A9
 10
-454.4999999999996
 20
-303.90624095768442
 30
0.0
 11
-545.50000000000045
 21
-303.90624095768442
 31
0.0
  0
LINE
  8
0
  6
CONTINUOUS
 62
               3
  5
2AA
 10
-544.5
 20
-340.0
 30
0.0
 11
-544.5
 21
-304.90624095768442
 31
0.0
  0
LINE
  8
0
  6
CONTINUOUS
 62
               3
  5
2AB
 10
-455.50000000000006
 20
-340.0
 30
0.0
 11
-455.50000000000006
 21
-304.90624095768442
 31
0.0
  0
LINE
  8
0
  6
CONTINUOUS
 62
               3
  5
2AC
 10
-44.500000000000668
 20
-304.90624095768436
 30
0.0
 11
-45.500000000000441
 21
-303.90624095768442
 31
0.0
  0
LINE
  8
0
  6
CONTINUOUS
 62
               3
  5
2AD
 10
44.500000000000469
 20
-304.90624095768436
 30
0.0
 11
45.500000000000469
 21
-303.90624095768442
 31
0.0
  0
LINE
  8
0
  6
CONTINUOUS
 62
               3
  5
2AE
 10
-44.500000000000668
 20
-304.90624095768436
 30
0.0
 11
44.500000000000469
 21
-304.90624095768436
 31
0.0
  0
LINE
  8
0
  6
CONTINUOUS
 62
               3
  5
2AF
 10
45.500000000000469
 20
-303.90624095768442
 30
0.0
 11
-45.500000000000441
 21
-303.90624095768442
 31
0.0
  0
LINE
  8
0
  6
CONTINUOUS
 62
               3
  5
2B0
 10
-44.499999999999986
 20
-340.0
 30
0.0
 11
-44.499999999999986
 21
-304.90624095768436
 31
0.0
  0
LINE
  8
0
  6
CONTINUOUS
 62
               3
  5
2B1
 10
44.500000000000014
 20
-340.0
 30
0.0
 11
44.500000000000014
 21
-304.90624095768436
 31
0.0
  0
LINE
  8
0
  6
CONTINUOUS
 62
               3
  5
2B2
 10
-135.00000000000037
 20
-394.55000000000155
 30
0.0
 11
-135.00000000000037
 21
-396.15000000000157
 31
0.0
  0
LINE
  8
0
  6
CONTINUOUS
 62
               3
  5
2B3
 10
-135.00000000000037
 20
-397.75000000000148
 30
0.0
 11
-135.00000000000037
 21
-396.15000000000157
 31
0.0
  0
LINE
  8
0
  6
CONTINUOUS
 62
               3
  5
2B4
 10
-78.75000000000027
 20
-393.05000000000109
 30
0.0
 11
-78.75000000000027
 21
-394.55000000000109
 31
0.0
  0
LINE
  8
0
  6
CONTINUOUS
 62
               3
  5
2B5
 10
-78.75000000000027
 20
-397.75000000000136
 30
0.0
 11
-78.75000000000027
 21
-399.25000000000125
 31
0.0
  0
LINE
  8
0
  6
CONTINUOUS
 62
               3
  5
2B6
 10
-49.499999999999019
 20
-470.00000000000057
 30
0.0
 11
-49.499999999999019
 21
-455.00000000000148
 31
0.0
  0
LINE
  8
0
  6
CONTINUOUS
 62
               3
  5
2B7
 10
-52.499999999999133
 20
-470.00000000000057
 30
0.0
 11
52.50000000000172
 21
-469.99999999999955
 31
0.0
  0
ARC
  8
0
  6
CONTINUOUS
 62
               3
  5
2B8
 10
-59.999999999999702
 20
-344.00000000000125
 30
0.0
 40
4.0
 50
89.999999999982236
 51
179.99999999996518
  0
ARC
  8
0
  6
CONTINUOUS
 62
               3
  5
2B9
 10
-62.999999999999815
 20
-341.00000000000125
 30
0.0
 40
1.0000000000000004
 50
89.999999999981483
 51
179.99999999996524
  0
LINE
  8
0
  6
CONTINUOUS
 62
               3
  5
2BA
 10
-65.599999999999724
 20
-341.00000000000125
 30
0.0
 11
-65.599999999999724
 21
-393.55000000000109
 31
0.0
  0
LINE
  8
0
  6
CONTINUOUS
 62
               3
  5
2BB
 10
-64.000000000000043
 20
-341.00000000000125
 30
0.0
 11
-64.000000000000043
 21
-393.55000000000109
 31
0.0
  0
LINE
  8
0
  6
CONTINUOUS
 62
               3
  5
2BC
 10
-66.599999999999952
 20
-396.15000000000111
 30
0.0
 11
-135.00000000000037
 21
-396.15000000000157
 31
0.0
  0
LINE
  8
0
  6
CONTINUOUS
 62
               3
  5
2BD
 10
-66.599999999999952
 20
-394.55000000000109
 30
0.0
 11
-135.00000000000037
 21
-394.55000000000155
 31
0.0
  0
LINE
  8
0
  6
CONTINUOUS
 62
               3
  5
2BE
 10
-49.999999999999702
 20
-338.40000000000134
 30
0.0
 11
-62.999999999999815
 21
-338.40000000000134
 31
0.0
  0
LINE
  8
0
  6
CONTINUOUS
 62
               3
  5
2BF
 10
0.0000000000002964
 20
-340.00000000000023
 30
0.0
 11
-62.999999999999815
 21
-340.00000000000136
 31
0.0
  0
LINE
  8
0
  6
CONTINUOUS
 62
               3
  5
2C0
 10
-49.999999999999702
 20
-338.40000000000134
 30
0.0
 11
-49.999999999999702
 21
-340.00000000000114
 31
0.0
  0
LINE
  8
0
  6
CONTINUOUS
 62
               3
  5
2C1
 10
-49.999999999997996
 20
-456.60000000000127
 30
0.0
 11
-62.999999999999247
 21
-456.60000000000127
 31
0.0
  0
ARC
  8
0
  6
CONTINUOUS
 62
               3
  5
2C2
 10
-62.999999999997542
 20
-454.00000000000148
 30
0.0
 40
1.0000000000000004
 50
179.99999999996601
 51
269.99999999994748
  0
ARC
  8
0
  6
CONTINUOUS
 62
               3
  5
2C3
 10
-59.999999999997996
 20
-451.00000000000159
 30
0.0
 40
4.0
 50
179.99999999996601
 51
269.99999999994901
  0
LINE
  8
0
  6
CONTINUOUS
 62
               3
  5
2C4
 10
-49.999999999997996
 20
-456.60000000000127
 30
0.0
 11
-49.999999999997996
 21
-455.00000000000148
 31
0.0
  0
LINE
  8
0
  6
CONTINUOUS
 62
               3
  5
2C5
 10
-63.999999999997769
 20
-454.00000000000148
 30
0.0
 11
-64.000000000000611
 21
-398.75000000000102
 31
0.0
  0
LINE
  8
0
  6
CONTINUOUS
 62
               3
  5
2C6
 10
0.0000000000014333
 20
-455.00000000000023
 30
0.0
 11
-62.999999999997542
 21
-455.00000000000148
 31
0.0
  0
LINE
  8
0
  6
CONTINUOUS
 62
               3
  5
2C7
 10
0.0000000000014333
 20
-430.00000000000023
 30
0.0
 11
-63.999999999997769
 21
-430.00000000000136
 31
0.0
  0
LINE
  8
0
  6
CONTINUOUS
 62
               3
  5
2C8
 10
-66.599999999999952
 20
-397.75000000000114
 30
0.0
 11
-135.00000000000037
 21
-397.75000000000148
 31
0.0
  0
LINE
  8
0
  6
CONTINUOUS
 62
               3
  5
2C9
 10
-64.000000000000043
 20
-365.00000000000057
 30
0.0
 11
0.0000000000002964
 21
-365.00000000000023
 31
0.0
  0
LINE
  8
0
  6
CONTINUOUS
 62
               3
  5
2CA
 10
-60.999999999999929
 20
-365.00000000000057
 30
0.0
 11
-60.999999999998792
 21
-430.00000000000136
 31
0.0
  0
LINE
  8
0
  6
CONTINUOUS
 62
               3
  5
2CB
 10
-71.25000000000027
 20
-393.05000000000109
 30
0.0
 11
-78.75000000000027
 21
-393.05000000000109
 31
0.0
  0
LINE
  8
0
  6
CONTINUOUS
 62
               3
  5
2CC
 10
-71.25000000000027
 20
-399.25000000000114
 30
0.0
 11
-78.75000000000027
 21
-399.25000000000125
 31
0.0
  0
LINE
  8
0
  6
CONTINUOUS
 62
               3
  5
2CD
 10
-71.25000000000027
 20
-393.05000000000109
 30
0.0
 11
-71.25000000000027
 21
-394.55000000000109
 31
0.0
  0
LINE
  8
0
  6
CONTINUOUS
 62
               3
  5
2CE
 10
-71.25000000000027
 20
-397.75000000000114
 30
0.0
 11
-71.25000000000027
 21
-399.25000000000114
 31
0.0
  0
LINE
  8
0
  6
CONTINUOUS
 62
               3
  5
2CF
 10
0.0000000000002964
 20
-340.00000000000023
 30
0.0
 11
62.999999999999844
 21
-340.00000000000034
 31
0.0
  0
LINE
  8
0
  6
CONTINUOUS
 62
               3
  5
2D0
 10
0.0000000000014333
 20
-455.00000000000023
 30
0.0
 11
62.999999999999844
 21
-455.00000000000057
 31
0.0
  0
LINE
  8
0
  6
CONTINUOUS
 62
               3
  5
2D1
 10
0.0000000000014333
 20
-430.00000000000023
 30
0.0
 11
64.000000000000071
 21
-430.00000000000034
 31
0.0
  0
LINE
  8
0
  6
CONTINUOUS
 62
               3
  5
2D2
 10
64.000000000000071
 20
-364.99999999999955
 30
0.0
 11
0.0000000000002964
 21
-365.00000000000023
 31
0.0
  0
ARC
  8
0
  6
CONTINUOUS
 62
               3
  5
2D3
 10
-62.999999999999815
 20
-341.00000000000125
 30
0.0
 40
2.6000000000000001
 50
89.999999999999801
 51
179.9999999999996
  0
ARC
  8
0
  6
CONTINUOUS
 62
               3
  5
2D4
 10
-66.599999999999952
 20
-393.55000000000109
 30
0.0
 40
2.6000000000000001
 50
269.99999999999937
 51
359.9999999999992
  0
ARC
  8
0
  6
CONTINUOUS
 62
               3
  5
2D5
 10
-66.599999999999952
 20
-393.55000000000109
 30
0.0
 40
1.0
 50
269.99999999999937
 51
359.9999999999992
  0
ARC
  8
0
  6
CONTINUOUS
 62
               3
  5
2D6
 10
-66.599999999999952
 20
-398.75000000000114
 30
0.0
 40
2.6000000000000001
 50
0.0000000000006647
 51
90.000000000000469
  0
ARC
  8
0
  6
CONTINUOUS
 62
               3
  5
2D7
 10
-66.599999999999952
 20
-398.75000000000114
 30
0.0
 40
1.0
 50
0.0000000000006647
 51
90.000000000000469
  0
LINE
  8
0
  6
CONTINUOUS
 62
               3
  5
2D8
 10
-65.599999999999156
 20
-454.00000000000148
 30
0.0
 11
-65.599999999999724
 21
-398.75000000000102
 31
0.0
  0
ARC
  8
0
  6
CONTINUOUS
 62
               3
  5
2D9
 10
-62.999999999999247
 20
-454.00000000000148
 30
0.0
 40
2.6000000000000001
 50
179.9999999999996
 51
269.99999999999937
  0
LINE
  8
0
  6
CONTINUOUS
 62
               3
  5
2DA
 10
49.499999999999332
 20
-470.00000000000045
 30
0.0
 11
49.499999999999332
 21
-455.00000000000148
 31
0.0
  0
ARC
  8
0
  6
CONTINUOUS
 62
               3
  5
2DB
 10
59.99999999999973
 20
-344.00000000000125
 30
0.0
 40
4.0
 50
0.0000000000345138
 51
90.000000000017465
  0
ARC
  8
0
  6
CONTINUOUS
 62
               3
  5
2DC
 10
62.999999999999844
 20
-341.00000000000114
 30
0.0
 40
1.0000000000000004
 50
0.0000000000344629
 51
90.000000000018233
  0
LINE
  8
0
  6
CONTINUOUS
 62
               3
  5
2DD
 10
65.599999999999753
 20
-341.00000000000114
 30
0.0
 11
65.599999999999753
 21
-393.55000000000086
 31
0.0
  0
LINE
  8
0
  6
CONTINUOUS
 62
               3
  5
2DE
 10
64.000000000000071
 20
-341.00000000000114
 30
0.0
 11
64.000000000000071
 21
-393.55000000000086
 31
0.0
  0
LINE
  8
0
  6
CONTINUOUS
 62
               3
  5
2DF
 10
66.59999999999998
 20
-396.150000000001
 30
0.0
 11
135.0000000000002
 21
-396.15000000000123
 31
0.0
  0
LINE
  8
0
  6
CONTINUOUS
 62
               3
  5
2E0
 10
66.59999999999998
 20
-394.55000000000098
 30
0.0
 11
135.0000000000002
 21
-394.55000000000132
 31
0.0
  0
LINE
  8
0
  6
CONTINUOUS
 62
               3
  5
2E1
 10
49.99999999999973
 20
-338.40000000000123
 30
0.0
 11
62.999999999999844
 21
-338.40000000000123
 31
0.0
  0
LINE
  8
0
  6
CONTINUOUS
 62
               3
  5
2E2
 10
49.99999999999973
 20
-338.40000000000123
 30
0.0
 11
49.99999999999973
 21
-340.00000000000102
 31
0.0
  0
LINE
  8
0
  6
CONTINUOUS
 62
               3
  5
2E3
 10
49.999999999998025
 20
-456.60000000000116
 30
0.0
 11
62.999999999999275
 21
-456.60000000000116
 31
0.0
  0
ARC
  8
0
  6
CONTINUOUS
 62
               3
  5
2E4
 10
62.999999999997854
 20
-454.00000000000136
 30
0.0
 40
1.0000000000000004
 50
270.00000000005139
 51
360.00000000003286
  0
ARC
  8
0
  6
CONTINUOUS
 62
               3
  5
2E5
 10
59.999999999998025
 20
-451.00000000000136
 30
0.0
 40
4.0
 50
270.00000000004985
 51
360.00000000003286
  0
LINE
  8
0
  6
CONTINUOUS
 62
               3
  5
2E6
 10
49.999999999998025
 20
-456.60000000000116
 30
0.0
 11
49.999999999998025
 21
-455.00000000000148
 31
0.0
  0
LINE
  8
0
  6
CONTINUOUS
 62
               3
  5
2E7
 10
63.999999999997797
 20
-454.00000000000136
 30
0.0
 11
64.000000000000639
 21
-398.75000000000091
 31
0.0
  0
LINE
  8
0
  6
CONTINUOUS
 62
               3
  5
2E8
 10
66.59999999999998
 20
-397.75000000000091
 30
0.0
 11
135.0000000000002
 21
-397.75000000000125
 31
0.0
  0
LINE
  8
0
  6
CONTINUOUS
 62
               3
  5
2E9
 10
60.999999999999957
 20
-365.00000000000045
 30
0.0
 11
60.99999999999882
 21
-430.00000000000114
 31
0.0
  0
LINE
  8
0
  6
CONTINUOUS
 62
               3
  5
2EA
 10
135.0000000000002
 20
-394.55000000000132
 30
0.0
 11
135.0000000000002
 21
-396.15000000000123
 31
0.0
  0
LINE
  8
0
  6
CONTINUOUS
 62
               3
  5
2EB
 10
135.0000000000002
 20
-397.75000000000125
 30
0.0
 11
135.0000000000002
 21
-396.15000000000123
 31
0.0
  0
LINE
  8
0
  6
CONTINUOUS
 62
               3
  5
2EC
 10
71.250000000000298
 20
-393.05000000000098
 30
0.0
 11
78.750000000000298
 21
-393.05000000000098
 31
0.0
  0
LINE
  8
0
  6
CONTINUOUS
 62
               3
  5
2ED
 10
71.250000000000298
 20
-399.25000000000102
 30
0.0
 11
78.750000000000298
 21
-399.25000000000114
 31
0.0
  0
LINE
  8
0
  6
CONTINUOUS
 62
               3
  5
2EE
 10
71.250000000000298
 20
-393.05000000000098
 30
0.0
 11
71.250000000000298
 21
-394.55000000000098
 31
0.0
  0
LINE
  8
0
  6
CONTINUOUS
 62
               3
  5
2EF
 10
71.250000000000298
 20
-397.75000000000091
 30
0.0
 11
71.250000000000298
 21
-399.25000000000102
 31
0.0
  0
LINE
  8
0
  6
CONTINUOUS
 62
               3
  5
2F0
 10
78.750000000000298
 20
-393.05000000000098
 30
0.0
 11
78.750000000000298
 21
-394.55000000000098
 31
0.0
  0
LINE
  8
0
  6
CONTINUOUS
 62
               3
  5
2F1
 10
78.750000000000298
 20
-397.75000000000125
 30
0.0
 11
78.750000000000298
 21
-399.25000000000114
 31
0.0
  0
ARC
  8
0
  6
CONTINUOUS
 62
               3
  5
2F2
 10
62.999999999999844
 20
-341.00000000000114
 30
0.0
 40
2.6000000000000001
 50
0.0000000000001059
 51
89.999999999999915
  0
ARC
  8
0
  6
CONTINUOUS
 62
               3
  5
2F3
 10
66.59999999999998
 20
-393.55000000000086
 30
0.0
 40
2.6000000000000001
 50
179.99999999999969
 51
269.99999999999949
  0
ARC
  8
0
  6
CONTINUOUS
 62
               3
  5
2F4
 10
66.59999999999998
 20
-393.55000000000086
 30
0.0
 40
1.0
 50
179.99999999999969
 51
269.99999999999949
  0
ARC
  8
0
  6
CONTINUOUS
 62
               3
  5
2F5
 10
66.59999999999998
 20
-398.75000000000102
 30
0.0
 40
2.6000000000000001
 50
89.999999999999233
 51
179.99999999999903
  0
ARC
  8
0
  6
CONTINUOUS
 62
               3
  5
2F6
 10
66.59999999999998
 20
-398.75000000000102
 30
0.0
 40
1.0
 50
89.999999999999233
 51
179.99999999999903
  0
LINE
  8
0
  6
CONTINUOUS
 62
               3
  5
2F7
 10
65.599999999999184
 20
-454.00000000000148
 30
0.0
 11
65.599999999999753
 21
-398.75000000000102
 31
0.0
  0
ARC
  8
0
  6
CONTINUOUS
 62
               3
  5
2F8
 10
62.999999999999275
 20
-454.00000000000148
 30
0.0
 40
2.6000000000000001
 50
269.99999999999949
 51
359.99999999999932
  0
LINE
  8
0
  6
CONTINUOUS
 62
               3
  5
2F9
 10
-552.49999999999932
 20
-470.0
 30
0.0
 11
-447.49999999999841
 21
-469.99999999999898
 31
0.0
  0
LINE
  8
0
  6
CONTINUOUS
 62
               3
  5
2FA
 10
-549.49999999999909
 20
-470.0
 30
0.0
 11
-549.49999999999909
 21
-455.00000000000091
 31
0.0
  0
LINE
  8
0
  6
CONTINUOUS
 62
               3
  5
2FB
 10
-450.5000000000008
 20
-469.99999999999989
 30
0.0
 11
-450.5000000000008
 21
-455.00000000000091
 31
0.0
  0
ARC
  8
0
  6
CONTINUOUS
 62
               3
  5
2FC
 10
-559.99999999999818
 20
-451.00000000000091
 30
0.0
 40
4.0
 50
179.99999999996601
 51
269.99999999994901
  0
LINE
  8
0
  6
CONTINUOUS
 62
               3
  5
2FD
 10
-563.99999999999818
 20
-451.00000000000091
 30
0.0
 11
-563.99999999999818
 21
-430.00000000000068
 31
0.0
  0
LINE
  8
0
  6
CONTINUOUS
 62
               3
  5
2FE
 10
-515.99999999999955
 20
-429.99999999999989
 30
0.0
 11
-563.99999999999795
 21
-430.00000000000068
 31
0.0
  0
LINE
  8
0
  6
CONTINUOUS
 62
               3
  5
2FF
 10
-515.99999999999955
 20
-454.99999999999977
 30
0.0
 11
-560.00000000000159
 21
-455.00000000000091
 31
0.0
  0
LINE
  8
0
  6
CONTINUOUS
 62
               3
  5
300
 10
-484.00000000000068
 20
-429.99999999999989
 30
0.0
 11
-436.00000000000233
 21
-430.00000000000068
 31
0.0
  0
LINE
  8
0
  6
CONTINUOUS
 62
               3
  5
301
 10
-484.00000000000068
 20
-454.99999999999977
 30
0.0
 11
-439.99999999999858
 21
-455.00000000000091
 31
0.0
  0
ARC
  8
0
  6
CONTINUOUS
 62
               3
  5
302
 10
-440.0000000000021
 20
-451.00000000000091
 30
0.0
 40
4.0
 50
270.00000000004979
 51
360.0000000000328
  0
LINE
  8
0
  6
CONTINUOUS
 62
               3
  5
303
 10
-436.0000000000021
 20
-451.00000000000091
 30
0.0
 11
-436.00000000000233
 21
-430.00000000000068
 31
0.0
  0
ARC
  8
0
  6
CONTINUOUS
 62
               3
  5
304
 10
-560.00000000000023
 20
-344.00000000000068
 30
0.0
 40
4.0
 50
89.999999999982236
 51
179.99999999996518
  0
LINE
  8
0
  6
CONTINUOUS
 62
               3
  5
305
 10
-564.00000000000023
 20
-343.99999999999829
 30
0.0
 11
-564.00000000000045
 21
-365.0
 31
0.0
  0
LINE
  8
0
  6
CONTINUOUS
 62
               3
  5
306
 10
-515.99999999999955
 20
-339.99999999999977
 30
0.0
 11
-560.00000000000023
 21
-340.00000000000068
 31
0.0
  0
LINE
  8
0
  6
CONTINUOUS
 62
               3
  5
307
 10
-564.00000000000045
 20
-365.0
 30
0.0
 11
-515.99999999999955
 21
-364.99999999999966
 31
0.0
  0
LINE
  8
0
  6
CONTINUOUS
 62
               3
  5
308
 10
-483.99999999999903
 20
-339.99999999999955
 30
0.0
 11
-440.00000000000051
 21
-339.99999999999966
 31
0.0
  0
LINE
  8
0
  6
CONTINUOUS
 62
               3
  5
309
 10
-436.0000000000004
 20
-364.99999999999898
 30
0.0
 11
-483.99999999999903
 21
-364.99999999999943
 31
0.0
  0
ARC
  8
0
  6
CONTINUOUS
 62
               3
  5
30A
 10
-440.00000000000051
 20
-344.00000000000057
 30
0.0
 40
4.0
 50
0.0000000000345138
 51
90.000000000017465
  0
LINE
  8
0
  6
CONTINUOUS
 62
               3
  5
30B
 10
-436.0000000000004
 20
-344.00000000000057
 30
0.0
 11
-436.0000000000004
 21
-364.99999999999898
 31
0.0
  0
LINE
  8
0
  6
CONTINUOUS
 62
               3
  5
30C
 10
-561.00000000000045
 20
-365.0
 30
0.0
 11
-560.99999999999932
 21
-430.00000000000068
 31
0.0
  0
LINE
  8
0
  6
CONTINUOUS
 62
               3
  5
30D
 10
-439.00000000000028
 20
-364.99999999999989
 30
0.0
 11
-439.00000000000131
 21
-430.00000000000057
 31
0.0
  0
LINE
  8
0
  6
CONTINUOUS
 62
               3
  5
30E
 10
-515.99999999999955
 20
-456.5999999999998
 30
0.0
 11
-483.99999999999903
 21
-456.59999999999934
 31
0.0
  0
LINE
  8
0
  6
CONTINUOUS
 62
               3
  5
30F
 10
-515.99999999999955
 20
-338.39999999999964
 30
0.0
 11
-515.99999999999955
 21
-456.5999999999998
 31
0.0
  0
LINE
  8
0
  6
CONTINUOUS
 62
               3
  5
310
 10
-483.99999999999903
 20
-456.59999999999934
 30
0.0
 11
-483.99999999999949
 21
-338.39999999999964
 31
0.0
  0
LINE
  8
0
  6
CONTINUOUS
 62
               3
  5
311
 10
-516.00000000000023
 20
-338.39999999999964
 30
0.0
 11
-484.00000000000017
 21
-338.39999999999964
 31
0.0
  0
LINE
  8
0
  6
CONTINUOUS
 62
               3
  5
312
 10
-515.99999999999955
 20
-396.150000000001
 30
0.0
 11
-483.99999999999903
 21
-396.150000000001
 31
0.0
  0
LINE
  8
0
  6
CONTINUOUS
 62
               3
  5
313
 10
-515.99999999999955
 20
-394.55000000000098
 30
0.0
 11
-483.99999999999903
 21
-394.55000000000098
 31
0.0
  0
LINE
  8
0
  6
CONTINUOUS
 62
               3
  5
314
 10
-515.99999999999955
 20
-397.75000000000102
 30
0.0
 11
-483.99999999999903
 21
-397.75000000000102
 31
0.0
  0
LINE
  8
0
  6
CONTINUOUS
 62
               3
  5
315
 10
455.49999999999932
 20
-304.90624095768436
 30
0.0
 11
454.49999999999955
 21
-303.90624095768442
 31
0.0
  0
LINE
  8
0
  6
CONTINUOUS
 62
               3
  5
316
 10
544.50000000000045
 20
-304.90624095768436
 30
0.0
 11
545.50000000000045
 21
-303.90624095768442
 31
0.0
  0
LINE
  8
0
  6
CONTINUOUS
 62
               3
  5
317
 10
455.49999999999932
 20
-304.90624095768436
 30
0.0
 11
544.50000000000045
 21
-304.90624095768436
 31
0.0
  0
LINE
  8
0
  6
CONTINUOUS
 62
               3
  5
318
 10
545.50000000000045
 20
-303.90624095768442
 30
0.0
 11
454.49999999999955
 21
-303.90624095768442
 31
0.0
  0
LINE
  8
0
  6
CONTINUOUS
 62
               3
  5
319
 10
455.5
 20
-340.0
 30
0.0
 11
455.5
 21
-304.90624095768436
 31
0.0
  0
LINE
  8
0
  6
CONTINUOUS
 62
               3
  5
31A
 10
544.5
 20
-340.0
 30
0.0
 11
544.5
 21
-304.90624095768436
 31
0.0
  0
LINE
  8
0
  6
CONTINUOUS
 62
               3
  5
31B
 10
447.5000000000008
 20
-470.0
 30
0.0
 11
552.50000000000159
 21
-469.99999999999886
 31
0.0
  0
LINE
  8
0
  6
CONTINUOUS
 62
               3
  5
31C
 10
450.50000000000091
 20
-470.0
 30
0.0
 11
450.50000000000091
 21
-455.00000000000085
 31
0.0
  0
LINE
  8
0
  6
CONTINUOUS
 62
               3
  5
31D
 10
549.49999999999932
 20
-469.99999999999977
 30
0.0
 11
549.49999999999932
 21
-455.00000000000085
 31
0.0
  0
ARC
  8
0
  6
CONTINUOUS
 62
               3
  5
31E
 10
440.00000000000193
 20
-451.00000000000091
 30
0.0
 40
4.0
 50
179.99999999996601
 51
269.99999999994901
  0
LINE
  8
0
  6
CONTINUOUS
 62
               3
  5
31F
 10
436.00000000000193
 20
-451.00000000000091
 30
0.0
 11
436.00000000000193
 21
-430.00000000000068
 31
0.0
  0
LINE
  8
0
  6
CONTINUOUS
 62
               3
  5
320
 10
484.00000000000045
 20
-429.99999999999983
 30
0.0
 11
436.00000000000216
 21
-430.00000000000068
 31
0.0
  0
LINE
  8
0
  6
CONTINUOUS
 62
               3
  5
321
 10
484.00000000000045
 20
-454.99999999999972
 30
0.0
 11
439.99999999999841
 21
-455.00000000000091
 31
0.0
  0
LINE
  8
0
  6
CONTINUOUS
 62
               3
  5
322
 10
515.99999999999932
 20
-429.99999999999983
 30
0.0
 11
563.99999999999773
 21
-430.00000000000068
 31
0.0
  0
LINE
  8
0
  6
CONTINUOUS
 62
               3
  5
323
 10
515.99999999999932
 20
-454.99999999999972
 30
0.0
 11
560.00000000000148
 21
-455.00000000000091
 31
0.0
  0
ARC
  8
0
  6
CONTINUOUS
 62
               3
  5
324
 10
559.99999999999795
 20
-451.00000000000091
 30
0.0
 40
4.0
 50
270.00000000004979
 51
360.0000000000328
  0
LINE
  8
0
  6
CONTINUOUS
 62
               3
  5
325
 10
563.99999999999795
 20
-451.00000000000091
 30
0.0
 11
563.99999999999773
 21
-430.00000000000068
 31
0.0
  0
ARC
  8
0
  6
CONTINUOUS
 62
               3
  5
326
 10
439.99999999999977
 20
-344.00000000000063
 30
0.0
 40
4.0
 50
89.999999999982236
 51
179.99999999996518
  0
LINE
  8
0
  6
CONTINUOUS
 62
               3
  5
327
 10
435.99999999999977
 20
-343.99999999999824
 30
0.0
 11
435.99999999999955
 21
-364.99999999999994
 31
0.0
  0
LINE
  8
0
  6
CONTINUOUS
 62
               3
  5
328
 10
484.00000000000045
 20
-339.99999999999977
 30
0.0
 11
439.99999999999977
 21
-340.00000000000063
 31
0.0
  0
LINE
  8
0
  6
CONTINUOUS
 62
               3
  5
329
 10
435.99999999999955
 20
-364.99999999999994
 30
0.0
 11
484.00000000000045
 21
-364.9999999999996
 31
0.0
  0
LINE
  8
0
  6
CONTINUOUS
 62
               3
  5
32A
 10
516.00000000000102
 20
-339.99999999999955
 30
0.0
 11
559.99999999999955
 21
-339.99999999999966
 31
0.0
  0
LINE
  8
0
  6
CONTINUOUS
 62
               3
  5
32B
 10
563.99999999999966
 20
-364.99999999999898
 30
0.0
 11
516.00000000000102
 21
-364.99999999999937
 31
0.0
  0
ARC
  8
0
  6
CONTINUOUS
 62
               3
  5
32C
 10
559.99999999999955
 20
-344.00000000000051
 30
0.0
 40
4.0
 50
0.0000000000345138
 51
90.000000000017465
  0
LINE
  8
0
  6
CONTINUOUS
 62
               3
  5
32D
 10
563.99999999999966
 20
-344.00000000000051
 30
0.0
 11
563.99999999999966
 21
-364.99999999999898
 31
0.0
  0
LINE
  8
0
  6
CONTINUOUS
 62
               3
  5
32E
 10
438.99999999999955
 20
-364.99999999999994
 30
0.0
 11
439.00000000000068
 21
-430.00000000000063
 31
0.0
  0
LINE
  8
0
  6
CONTINUOUS
 62
               3
  5
32F
 10
560.99999999999977
 20
-364.99999999999983
 30
0.0
 11
560.99999999999875
 21
-430.00000000000051
 31
0.0
  0
LINE
  8
0
  6
CONTINUOUS
 62
               3
  5
330
 10
484.00000000000045
 20
-456.59999999999974
 30
0.0
 11
516.00000000000102
 21
-456.59999999999928
 31
0.0
  0
LINE
  8
0
  6
CONTINUOUS
 62
               3
  5
331
 10
484.00000000000045
 20
-338.39999999999958
 30
0.0
 11
484.00000000000045
 21
-456.59999999999974
 31
0.0
  0
LINE
  8
0
  6
CONTINUOUS
 62
               3
  5
332
 10
516.00000000000102
 20
-456.59999999999928
 30
0.0
 11
516.00000000000057
 21
-338.39999999999958
 31
0.0
  0
LINE
  8
0
  6
CONTINUOUS
 62
               3
  5
333
 10
483.99999999999977
 20
-338.39999999999958
 30
0.0
 11
515.99999999999989
 21
-338.39999999999958
 31
0.0
  0
LINE
  8
0
  6
CONTINUOUS
 62
               3
  5
334
 10
484.00000000000045
 20
-396.15000000000094
 30
0.0
 11
516.00000000000102
 21
-396.15000000000094
 31
0.0
  0
LINE
  8
0
  6
CONTINUOUS
 62
               3
  5
335
 10
484.00000000000045
 20
-394.55000000000092
 30
0.0
 11
516.00000000000102
 21
-394.55000000000092
 31
0.0
  0
LINE
  8
0
  6
CONTINUOUS
 62
               3
  5
336
 10
484.00000000000045
 20
-397.75000000000097
 30
0.0
 11
516.00000000000102
 21
-397.75000000000097
 31
0.0
  0
LINE
  8
0
  6
DASHED2
 62
               3
  5
337
 10
-126.76000000000055
 20
-394.55000000000109
 30
0.0
 11
-103.24000000000022
 21
-394.55000000000109
 31
0.0
  0
LINE
  8
0
  6
DASHED2
 62
               3
  5
338
 10
-103.24000000000164
 20
-397.75000000000136
 30
0.0
 11
-126.76000000000197
 21
-397.75000000000136
 31
0.0
  0
LINE
  8
0
  6
DASHED2
 62
               3
  5
339
 10
126.76000000000035
 20
-394.55000000000086
 30
0.0
 11
103.24000000000002
 21
-394.55000000000086
 31
0.0
  0
LINE
  8
0
  6
DASHED2
 62
               3
  5
33A
 10
103.24000000000144
 20
-397.75000000000125
 30
0.0
 11
126.76000000000177
 21
-397.75000000000125
 31
0.0
  0
LINE
  8
0
  6
CONTINUOUS
 62
               7
  5
33B
 10
505.99999999999955
 20
-1.0859201515333439
 30
0.0
 11
493.99999999999966
 21
-1.0859201515333439
 31
0.0
  0
ARC
  8
0
  6
CONTINUOUS
 62
               7
  5
33C
 10
491.93835546658465
 20
-2.5
 30
0.0
 40
2.4999999999999996
 50
34.446185822144464
 51
89.999999999999801
  0
ARC
  8
0
  6
CONTINUOUS
 62
               7
  5
33D
 10
508.06164453341512
 20
-2.5
 30
0.0
 40
2.4999999999999996
 50
89.999999999999801
 51
145.55381417785514
  0
LINE
  8
0
  6
CONTINUOUS
 62
               7
  5
33E
 10
505.99999999999955
 20
-3.9140798484663719
 30
0.0
 11
493.99999999999966
 21
-3.9140798484663719
 31
0.0
  0
ARC
  8
0
  6
CONTINUOUS
 62
               7
  5
33F
 10
491.93835546658465
 20
-2.5
 30
0.0
 40
2.4999999999999996
 50
269.99999999999937
 51
325.55381417785475
  0
ARC
  8
0
  6
CONTINUOUS
 62
               7
  5
340
 10
508.06164453341512
 20
-2.5
 30
0.0
 40
2.4999999999999996
 50
214.44618582214406
 51
269.99999999999937
  0
LINE
  8
0
  6
CONTINUOUS
 62
               7
  5
341
 10
491.78299999999979
 20
115.39141259264977
 30
0.0
 11
491.78299999999967
 21
0.0
 31
0.0
  0
LINE
  8
0
  6
CONTINUOUS
 62
               7
  5
342
 10
508.21699999999964
 20
115.39141259264977
 30
0.0
 11
508.2170000000001
 21
0.0
 31
0.0
  0
LINE
  8
0
  6
CONTINUOUS
 62
               7
  5
343
 10
505.99999999999955
 20
-0.9140798484665424
 30
0.0
 11
505.99999999999966
 21
125.92706634550245
 31
0.0
  0
LINE
  8
0
  6
CONTINUOUS
 62
               7
  5
344
 10
493.99999999999966
 20
125.92706634550245
 30
0.0
 11
493.99999999999966
 21
-0.9140798484665424
 31
0.0
  0
LINE
  8
0
  6
CONTINUOUS
 62
               7
  5
345
 10
508.21699999999953
 20
-5.0
 30
0.0
 11
508.06164453341512
 21
-5.0
 31
0.0
  0
LINE
  8
0
  6
CONTINUOUS
 62
               7
  5
346
 10
508.2170000000001
 20
0.0
 30
0.0
 11
508.06164453341512
 21
0.0
 31
0.0
  0
LINE
  8
0
  6
CONTINUOUS
 62
               7
  5
347
 10
491.78299999999967
 20
0.0
 30
0.0
 11
491.93835546658465
 21
0.0
 31
0.0
  0
LINE
  8
0
  6
CONTINUOUS
 62
               7
  5
348
 10
491.78299999999967
 20
-5.0
 30
0.0
 11
491.93835546658465
 21
-5.0
 31
0.0
  0
LINE
  8
0
  6
CONTINUOUS
 62
               7
  5
349
 10
491.78299999999967
 20
-5.0
 30
0.0
 11
491.78299999999967
 21
-238.99627986184794
 31
0.0
  0
LINE
  8
0
  6
CONTINUOUS
 62
               7
  5
34A
 10
508.21699999999953
 20
-5.0
 30
0.0
 11
508.21699999999953
 21
-238.99627986184794
 31
0.0
  0
LINE
  8
0
  6
CONTINUOUS
 62
               7
  5
34B
 10
493.99999999999966
 20
-3.9140798484663719
 30
0.0
 11
493.99999999999966
 21
-236.72450426149896
 31
0.0
  0
LINE
  8
0
  6
CONTINUOUS
 62
               7
  5
34C
 10
505.99999999999955
 20
-236.72450426149896
 30
0.0
 11
505.99999999999955
 21
-3.9140798484663719
 31
0.0
  0
LINE
  8
0
  6
CONTINUOUS
 62
               7
  5
34D
 10
508.21699999999953
 20
-67.846976402882717
 30
0.0
 11
491.78299999999967
 21
-67.846976402882717
 31
0.0
  0
LINE
  8
0
  6
CONTINUOUS
 62
               7
  5
34E
 10
493.99999999999966
 20
-236.72450426149896
 30
0.0
 11
505.99999999999955
 21
-236.72450426149896
 31
0.0
  0
LINE
  8
0
  6
CONTINUOUS
 62
               7
  5
34F
 10
491.78299999999967
 20
-238.99627986184794
 30
0.0
 11
493.99999999999966
 21
-236.72450426149896
 31
0.0
  0
LINE
  8
0
  6
CONTINUOUS
 62
               7
  5
350
 10
505.99999999999955
 20
-236.72450426149896
 30
0.0
 11
508.21699999999953
 21
-238.99627986184794
 31
0.0
  0
ARC
  8
0
  6
CONTINUOUS
 62
               7
  5
351
 10
474.21603418803386
 20
115.39141259264977
 30
0.0
 40
17.566965811965957
 50
0.0
 51
36.851448659230869
  0
LINE
  8
0
  6
CONTINUOUS
 62
               7
  5
352
 10
511.7270000000002
 20
130.92706634550245
 30
0.0
 11
488.2729999999998
 21
130.92706634550245
 31
0.0
  0
ARC
  8
0
  6
CONTINUOUS
 62
               7
  5
353
 10
525.78396581196557
 20
115.39141259264977
 30
0.0
 40
17.566965811965957
 50
143.14855134076873
 51
179.9999999999996
  0
LINE
  8
0
  6
CONTINUOUS
 62
               7
  5
354
 10
488.2729999999998
 20
125.92706634550245
 30
0.0
 11
488.2729999999998
 21
130.92706634550245
 31
0.0
  0
LINE
  8
0
  6
CONTINUOUS
 62
               7
  5
355
 10
511.7270000000002
 20
125.92706634550245
 30
0.0
 11
511.7270000000002
 21
130.92706634550245
 31
0.0
  0
LINE
  8
0
  6
CONTINUOUS
 62
               7
  5
356
 10
488.2729999999998
 20
130.92706634550245
 30
0.0
 11
493.99999999999977
 21
125.92706634550245
 31
0.0
  0
LINE
  8
0
  6
CONTINUOUS
 62
               7
  5
357
 10
505.99999999999966
 20
125.92706634550245
 30
0.0
 11
511.7270000000002
 21
130.92706634550245
 31
0.0
  0
LINE
  8
0
  6
CONTINUOUS
 62
               7
  5
358
 10
493.99999999999966
 20
125.92706634550245
 30
0.0
 11
505.99999999999955
 21
125.92706634550245
 31
0.0
  0
POINT
  8
0
  6
CONTINUOUS
 62
               5
  5
359
 10
-594.5
 20
-365.50000000000045
 30
0.0
  0
ENDSEC
  0
EOF
