  0
SECTION
  2
HEADER
  9
$ACADVER
  1
AC1009
  9
$INSBASE
 10
0.0
 20
0.0
 30
0.0
  9
$EXTMIN
 10
-795.72659624791413
 20
-1123.2994630648834
 30
0.0
  9
$EXTMAX
 10
471.6685856563202
 20
1123.2994630648832
 30
0.0
  9
$LIMMIN
 10
-835.33269568242144
 20
-1193.5056795064386
  9
$LIMMAX
 10
511.27468509082752
 20
1193.5056795064384
  9
$ORTHOMODE
 70
               0
  9
$REGENMODE
 70
               1
  9
$FILLMODE
 70
               1
  9
$QTEXTMODE
 70
               0
  9
$MIRRTEXT
 70
               1
  9
$DRAGMODE
 70
               2
  9
$LTSCALE
 40
1.0
  9
$OSMODE
 70
               0
  9
$ATTMODE
 70
               1
  9
$TEXTSIZE
 40
0.2
  9
$TRACEWID
 40
0.05
  9
$TEXTSTYLE
  7
STANDARD
  9
$CLAYER
  8
0
  9
$CELTYPE
  6
CONTINUOUS
  9
$CECOLOR
 62
             256
  9
$DIMSCALE
 40
1.0
  9
$DIMASZ
 40
0.18
  9
$DIMEXO
 40
0.0625
  9
$DIMDLI
 40
0.38
  9
$DIMRND
 40
0.0
  9
$DIMDLE
 40
0.0
  9
$DIMEXE
 40
0.18
  9
$DIMTP
 40
0.0
  9
$DIMTM
 40
0.0
  9
$DIMTXT
 40
0.18
  9
$DIMCEN
 40
0.09
  9
$DIMTSZ
 40
0.0
  9
$DIMTOL
 70
               0
  9
$DIMLIM
 70
               0
  9
$DIMTIH
 70
               1
  9
$DIMTOH
 70
               1
  9
$DIMSE1
 70
               0
  9
$DIMSE2
 70
               0
  9
$DIMTAD
 70
               0
  9
$DIMZIN
 70
               0
  9
$DIMBLK
  1

  9
$DIMASO
 70
               1
  9
$DIMSHO
 70
               1
  9
$DIMPOST
  1

  9
$DIMAPOST
  1

  9
$DIMALT
 70
               0
  9
$DIMALTD
 70
               2
  9
$DIMALTF
 40
25.399999999999999
  9
$DIMLFAC
 40
1.0
  9
$DIMTOFL
 70
               0
  9
$DIMTVP
 40
0.0
  9
$DIMTIX
 70
               0
  9
$DIMSOXD
 70
               0
  9
$DIMSAH
 70
               0
  9
$DIMBLK1
  1

  9
$DIMBLK2
  1

  9
$DIMSTYLE
  2
STANDARD
  9
$DIMCLRD
 70
               0
  9
$DIMCLRE
 70
               0
  9
$DIMCLRT
 70
               0
  9
$DIMTFAC
 40
1.0
  9
$DIMGAP
 40
0.09
  9
$LUNITS
 70
               2
  9
$LUPREC
 70
               4
  9
$AXISMODE
 70
               0
  9
$AXISUNIT
 10
0.0
 20
0.0
  9
$SKETCHINC
 40
0.1
  9
$FILLETRAD
 40
0.0
  9
$AUNITS
 70
               0
  9
$AUPREC
 70
               0
  9
$MENU
  1
acad
  9
$ELEVATION
 40
0.0
  9
$PELEVATION
 40
0.0
  9
$THICKNESS
 40
0.0
  9
$LIMCHECK
 70
               0
  9
$BLIPMODE
 70
               1
  9
$CHAMFERA
 40
0.0
  9
$CHAMFERB
 40
0.0
  9
$SKPOLY
 70
               0
  9
$TDCREATE
 40
0.000000000
  9
$TDUPDATE
 40
0.000000000
  9
$TDINDWG
 40
0.0000000000
  9
$TDUSRTIMER
 40
0.0000000000
  9
$USRTIMER
 70
               1
  9
$ANGBASE
 50
0.0
  9
$ANGDIR
 70
               0
  9
$PDMODE
 70
               0
  9
$PDSIZE
 40
1.0
  9
$PLINEWID
 40
0.0
  9
$COORDS
 70
               1
  9
$SPLFRAME
 70
               0
  9
$SPLINETYPE
 70
               6
  9
$SPLINESEGS
 70
               8
  9
$ATTDIA
 70
               0
  9
$ATTREQ
 70
               1
  9
$HANDLING
 70
               1
  9
$HANDSEED
  5
465
  9
$SURFTAB1
 70
               6
  9
$SURFTAB2
 70
               6
  9
$SURFTYPE
 70
               6
  9
$SURFU
 70
               6
  9
$SURFV
 70
               6
  9
$UCSNAME
  2

  9
$UCSORG
 10
0.0
 20
0.0
 30
0.0
  9
$UCSXDIR
 10
1.0
 20
0.0
 30
0.0
  9
$UCSYDIR
 10
0.0
 20
1.0
 30
0.0
  9
$PUCSNAME
  2

  9
$PUCSORG
 10
0.0
 20
0.0
 30
0.0
  9
$PUCSXDIR
 10
1.0
 20
0.0
 30
0.0
  9
$PUCSYDIR
 10
0.0
 20
1.0
 30
0.0
  9
$USERI1
 70
               0
  9
$USERI2
 70
               0
  9
$USERI3
 70
               0
  9
$USERI4
 70
               0
  9
$USERI5
 70
               0
  9
$USERR1
 40
0.0
  9
$USERR2
 40
0.0
  9
$USERR3
 40
0.0
  9
$USERR4
 40
0.0
  9
$USERR5
 40
0.0
  9
$WORLDVIEW
 70
               1
  9
$SHADEDGE
 70
               3
  9
$SHADEDIF
 70
              70
  9
$TILEMODE
 70
               1
  9
$MAXACTVP
 70
              16
  9
$PINSBASE
 10
0.0
 20
0.0
 30
0.0
  9
$PLIMCHECK
 70
               0
  9
$PEXTMIN
 10
1.0000000000000000E+20
 20
1.0000000000000000E+20
 30
1.0000000000000000E+20
  9
$PEXTMAX
 10
-1.0000000000000000E+20
 20
-1.0000000000000000E+20
 30
-1.0000000000000000E+20
  9
$PLIMMIN
 10
0.0
 20
0.0
  9
$PLIMMAX
 10
12.0
 20
9.0
  9
$UNITMODE
 70
               0
  9
$VISRETAIN
 70
               0
  9
$PLINEGEN
 70
               1
  9
$PSLTSCALE
 70
               0
  9
$TREEDEPTH
 70
            3020
  9
$DWGCODEPAGE
  3
dos932
  0
ENDSEC
  0
SECTION
  2
TABLES
  0
TABLE
  2
VPORT
 70
               1
  0
VPORT
  2
*ACTIVE
 70
               0
 10
0.0
 20
0.0
 11
1.0
 21
1.0
 12
-162.02900529579696
 22
-0.0000000000001137
 13
0.0
 23
0.0
 14
1.0
 24
1.0
 15
0.0
 25
0.0
 16
0.0
 26
0.0
 36
1.0
 17
0.0
 27
0.0
 37
0.0
 40
2387.0113590128767
 41
0.564139494220976
 42
50.0
 43
0.0
 44
0.0
 50
0.0
 51
0.0
 71
               0
 72
             100
 73
               1
 74
               1
 75
               0
 76
               0
 77
               0
 78
               0
  0
ENDTAB
  0
TABLE
  2
LTYPE
 70
              26
  0
LTYPE
  2
CONTINUOUS
 70
               0
  3
Solid line
 72
              65
 73
               0
 40
0.0
  0
LTYPE
  2
HIDDENX2
 70
               0
  3
CADPAC FUSION LINETYPE
 72
              65
 73
               2
 40
47.560000000000002
 49
35.670000000000002
 49
-11.890000000000001
  0
LTYPE
  2
HIDDEN
 70
               0
  3
CADPAC FUSION LINETYPE
 72
              65
 73
               2
 40
35.670000000000002
 49
23.780000000000001
 49
-11.890000000000001
  0
LTYPE
  2
HIDDEN2
 70
               0
  3
CADPAC FUSION LINETYPE
 72
              65
 73
               2
 40
29.725000000000001
 49
17.835000000000001
 49
-11.890000000000001
  0
LTYPE
  2
DASHED
 70
               0
  3
CADPAC FUSION LINETYPE
 72
              65
 73
               2
 40
35.670000000000002
 49
23.780000000000001
 49
-11.890000000000001
  0
LTYPE
  2
DASHED2
 70
               0
  3
CADPAC FUSION LINETYPE
 72
              65
 73
               2
 40
26.752500000000001
 49
17.835000000000001
 49
-8.9175000000000004
  0
LTYPE
  2
DASHEDX2
 70
               0
  3
CADPAC FUSION LINETYPE
 72
              65
 73
               2
 40
53.505000000000003
 49
35.670000000000002
 49
-17.835000000000001
  0
LTYPE
  2
DOTX2
 70
               0
  3
CADPAC FUSION LINETYPE
 72
              65
 73
               2
 40
14.862500000000001
 49
0.0
 49
-14.862500000000001
  0
LTYPE
  2
DOT
 70
               0
  3
CADPAC FUSION LINETYPE
 72
              65
 73
               2
 40
11.890000000000001
 49
0.0
 49
-11.890000000000001
  0
LTYPE
  2
DOTS
 70
               0
  3
CADPAC FUSION LINETYPE
 72
              65
 73
               2
 40
11.890000000000001
 49
0.0
 49
-11.890000000000001
  0
LTYPE
  2
DOT2
 70
               0
  3
CADPAC FUSION LINETYPE
 72
              65
 73
               2
 40
8.9175000000000004
 49
0.0
 49
-8.9175000000000004
  0
LTYPE
  2
CENTERX2
 70
               0
  3
CADPAC FUSION LINETYPE
 72
              65
 73
               4
 40
71.340000000000003
 49
29.725000000000001
 49
-14.862500000000001
 49
11.890000000000001
 49
-14.862500000000001
  0
LTYPE
  2
CENTER
 70
               0
  3
CADPAC FUSION LINETYPE
 72
              65
 73
               4
 40
54.694000000000003
 49
23.780000000000001
 49
-11.890000000000001
 49
7.1340000000000003
 49
-11.890000000000001
  0
LTYPE
  2
CENTER2
 70
               0
  3
CADPAC FUSION LINETYPE
 72
              65
 73
               4
 40
38.048000000000002
 49
17.835000000000001
 49
-8.9175000000000004
 49
2.3780000000000001
 49
-8.9175000000000004
  0
LTYPE
  2
DASHDOTX2
 70
               0
  3
CADPAC FUSION LINETYPE
 72
              65
 73
               4
 40
59.450000000000003
 49
29.725000000000001
 49
-14.862500000000001
 49
0.0
 49
-14.862500000000001
  0
LTYPE
  2
DASHDOT
 70
               0
  3
CADPAC FUSION LINETYPE
 72
              65
 73
               4
 40
47.560000000000002
 49
23.780000000000001
 49
-11.890000000000001
 49
0.0
 49
-11.890000000000001
  0
LTYPE
  2
DASHDOT2
 70
               0
  3
CADPAC FUSION LINETYPE
 72
              65
 73
               4
 40
35.670000000000002
 49
17.835000000000001
 49
-8.9175000000000004
 49
0.0
 49
-8.9175000000000004
  0
LTYPE
  2
DIVIDEX2
 70
               0
  3
CADPAC FUSION LINETYPE
 72
              65
 73
               6
 40
74.3125
 49
29.725000000000001
 49
-14.862500000000001
 49
0.0
 49
-14.862500000000001
 49
0.0
 49
-14.862500000000001
  0
LTYPE
  2
DIVIDE
 70
               0
  3
CADPAC FUSION LINETYPE
 72
              65
 73
               6
 40
59.450000000000003
 49
23.780000000000001
 49
-11.890000000000001
 49
0.0
 49
-11.890000000000001
 49
0.0
 49
-11.890000000000001
  0
LTYPE
  2
DIVIDE2
 70
               0
  3
CADPAC FUSION LINETYPE
 72
              65
 73
               6
 40
44.587500000000006
 49
17.835000000000001
 49
-8.9175000000000004
 49
0.0
 49
-8.9175000000000004
 49
0.0
 49
-8.9175000000000004
  0
LTYPE
  2
BORDERX2
 70
               0
  3
CADPAC FUSION LINETYPE
 72
              65
 73
               6
 40
104.03750000000001
 49
29.725000000000001
 49
-14.862500000000001
 49
29.725000000000001
 49
-14.862500000000001
 49
0.0
 49
-14.862500000000001
  0
LTYPE
  2
BORDER
 70
               0
  3
CADPAC FUSION LINETYPE
 72
              65
 73
               6
 40
83.230000000000004
 49
23.780000000000001
 49
-11.890000000000001
 49
23.780000000000001
 49
-11.890000000000001
 49
0.0
 49
-11.890000000000001
  0
LTYPE
  2
BORDER2
 70
               0
  3
CADPAC FUSION LINETYPE
 72
              65
 73
               6
 40
62.422499999999999
 49
17.835000000000001
 49
-8.9175000000000004
 49
17.835000000000001
 49
-8.9175000000000004
 49
0.0
 49
-8.9175000000000004
  0
LTYPE
  2
PHANTOMX2
 70
               0
  3
CADPAC FUSION LINETYPE
 72
              65
 73
               6
 40
89.175000000000011
 49
29.725000000000001
 49
-11.890000000000001
 49
11.890000000000001
 49
-11.890000000000001
 49
11.890000000000001
 49
-11.890000000000001
  0
LTYPE
  2
PHANTOM
 70
               0
  3
CADPAC FUSION LINETYPE
 72
              65
 73
               6
 40
73.718000000000004
 49
23.780000000000001
 49
-11.890000000000001
 49
7.1340000000000003
 49
-11.890000000000001
 49
7.1340000000000003
 49
-11.890000000000001
  0
LTYPE
  2
PHANTOM2
 70
               0
  3
CADPAC FUSION LINETYPE
 72
              65
 73
               6
 40
63.017000000000003
 49
17.835000000000001
 49
-11.890000000000001
 49
4.7560000000000002
 49
-11.890000000000001
 49
4.7560000000000002
 49
-11.890000000000001
  0
ENDTAB
  0
TABLE
  2
LAYER
 70
             256
  0
LAYER
  2
0
 70
               0
 62
               7
  6
CONTINUOUS
  0
LAYER
  2
LAYER001
 70
               0
 62
               7
  6
CONTINUOUS
  0
LAYER
  2
LAYER002
 70
               0
 62
               7
  6
CONTINUOUS
  0
LAYER
  2
LAYER003
 70
               0
 62
               7
  6
CONTINUOUS
  0
LAYER
  2
LAYER004
 70
               0
 62
               7
  6
CONTINUOUS
  0
LAYER
  2
LAYER005
 70
               0
 62
               7
  6
CONTINUOUS
  0
LAYER
  2
LAYER006
 70
               0
 62
               7
  6
CONTINUOUS
  0
LAYER
  2
LAYER007
 70
               0
 62
               7
  6
CONTINUOUS
  0
LAYER
  2
LAYER008
 70
               0
 62
               7
  6
CONTINUOUS
  0
LAYER
  2
LAYER009
 70
               0
 62
               7
  6
CONTINUOUS
  0
LAYER
  2
LAYER010
 70
               0
 62
               7
  6
CONTINUOUS
  0
LAYER
  2
LAYER011
 70
               0
 62
               7
  6
CONTINUOUS
  0
LAYER
  2
LAYER012
 70
               0
 62
               7
  6
CONTINUOUS
  0
LAYER
  2
LAYER013
 70
               0
 62
               7
  6
CONTINUOUS
  0
LAYER
  2
LAYER014
 70
               0
 62
               7
  6
CONTINUOUS
  0
LAYER
  2
LAYER015
 70
               0
 62
               7
  6
CONTINUOUS
  0
LAYER
  2
LAYER016
 70
               0
 62
               7
  6
CONTINUOUS
  0
LAYER
  2
LAYER017
 70
               0
 62
               7
  6
CONTINUOUS
  0
LAYER
  2
LAYER018
 70
               0
 62
               7
  6
CONTINUOUS
  0
LAYER
  2
LAYER019
 70
               0
 62
               7
  6
CONTINUOUS
  0
LAYER
  2
LAYER020
 70
               0
 62
               7
  6
CONTINUOUS
  0
LAYER
  2
LAYER021
 70
               0
 62
               7
  6
CONTINUOUS
  0
LAYER
  2
LAYER022
 70
               0
 62
               7
  6
CONTINUOUS
  0
LAYER
  2
LAYER023
 70
               0
 62
               7
  6
CONTINUOUS
  0
LAYER
  2
LAYER024
 70
               0
 62
               7
  6
CONTINUOUS
  0
LAYER
  2
LAYER025
 70
               0
 62
               7
  6
CONTINUOUS
  0
LAYER
  2
LAYER026
 70
               0
 62
               7
  6
CONTINUOUS
  0
LAYER
  2
LAYER027
 70
               0
 62
               7
  6
CONTINUOUS
  0
LAYER
  2
LAYER028
 70
               0
 62
               7
  6
CONTINUOUS
  0
LAYER
  2
LAYER029
 70
               0
 62
               7
  6
CONTINUOUS
  0
LAYER
  2
LAYER030
 70
               0
 62
               7
  6
CONTINUOUS
  0
LAYER
  2
LAYER031
 70
               0
 62
               7
  6
CONTINUOUS
  0
LAYER
  2
LAYER032
 70
               0
 62
               7
  6
CONTINUOUS
  0
LAYER
  2
LAYER033
 70
               0
 62
               7
  6
CONTINUOUS
  0
LAYER
  2
LAYER034
 70
               0
 62
               7
  6
CONTINUOUS
  0
LAYER
  2
LAYER035
 70
               0
 62
               7
  6
CONTINUOUS
  0
LAYER
  2
LAYER036
 70
               0
 62
               7
  6
CONTINUOUS
  0
LAYER
  2
LAYER037
 70
               0
 62
               7
  6
CONTINUOUS
  0
LAYER
  2
LAYER038
 70
               0
 62
               7
  6
CONTINUOUS
  0
LAYER
  2
LAYER039
 70
               0
 62
               7
  6
CONTINUOUS
  0
LAYER
  2
LAYER040
 70
               0
 62
               7
  6
CONTINUOUS
  0
LAYER
  2
LAYER041
 70
               0
 62
               7
  6
CONTINUOUS
  0
LAYER
  2
LAYER042
 70
               0
 62
               7
  6
CONTINUOUS
  0
LAYER
  2
LAYER043
 70
               0
 62
               7
  6
CONTINUOUS
  0
LAYER
  2
LAYER044
 70
               0
 62
               7
  6
CONTINUOUS
  0
LAYER
  2
LAYER045
 70
               0
 62
               7
  6
CONTINUOUS
  0
LAYER
  2
LAYER046
 70
               0
 62
               7
  6
CONTINUOUS
  0
LAYER
  2
LAYER047
 70
               0
 62
               7
  6
CONTINUOUS
  0
LAYER
  2
LAYER048
 70
               0
 62
               7
  6
CONTINUOUS
  0
LAYER
  2
LAYER049
 70
               0
 62
               7
  6
CONTINUOUS
  0
LAYER
  2
LAYER050
 70
               0
 62
               7
  6
CONTINUOUS
  0
LAYER
  2
LAYER051
 70
               0
 62
               7
  6
CONTINUOUS
  0
LAYER
  2
LAYER052
 70
               0
 62
               7
  6
CONTINUOUS
  0
LAYER
  2
LAYER053
 70
               0
 62
               7
  6
CONTINUOUS
  0
LAYER
  2
LAYER054
 70
               0
 62
               7
  6
CONTINUOUS
  0
LAYER
  2
LAYER055
 70
               0
 62
               7
  6
CONTINUOUS
  0
LAYER
  2
LAYER056
 70
               0
 62
               7
  6
CONTINUOUS
  0
LAYER
  2
LAYER057
 70
               0
 62
               7
  6
CONTINUOUS
  0
LAYER
  2
LAYER058
 70
               0
 62
               7
  6
CONTINUOUS
  0
LAYER
  2
LAYER059
 70
               0
 62
               7
  6
CONTINUOUS
  0
LAYER
  2
LAYER060
 70
               0
 62
               7
  6
CONTINUOUS
  0
LAYER
  2
LAYER061
 70
               0
 62
               7
  6
CONTINUOUS
  0
LAYER
  2
LAYER062
 70
               0
 62
               7
  6
CONTINUOUS
  0
LAYER
  2
LAYER063
 70
               0
 62
               7
  6
CONTINUOUS
  0
LAYER
  2
LAYER064
 70
               0
 62
               7
  6
CONTINUOUS
  0
LAYER
  2
LAYER065
 70
               0
 62
               7
  6
CONTINUOUS
  0
LAYER
  2
LAYER066
 70
               0
 62
               7
  6
CONTINUOUS
  0
LAYER
  2
LAYER067
 70
               0
 62
               7
  6
CONTINUOUS
  0
LAYER
  2
LAYER068
 70
               0
 62
               7
  6
CONTINUOUS
  0
LAYER
  2
LAYER069
 70
               0
 62
               7
  6
CONTINUOUS
  0
LAYER
  2
LAYER070
 70
               0
 62
               7
  6
CONTINUOUS
  0
LAYER
  2
LAYER071
 70
               0
 62
               7
  6
CONTINUOUS
  0
LAYER
  2
LAYER072
 70
               0
 62
               7
  6
CONTINUOUS
  0
LAYER
  2
LAYER073
 70
               0
 62
               7
  6
CONTINUOUS
  0
LAYER
  2
LAYER074
 70
               0
 62
               7
  6
CONTINUOUS
  0
LAYER
  2
LAYER075
 70
               0
 62
               7
  6
CONTINUOUS
  0
LAYER
  2
LAYER076
 70
               0
 62
               7
  6
CONTINUOUS
  0
LAYER
  2
LAYER077
 70
               0
 62
               7
  6
CONTINUOUS
  0
LAYER
  2
LAYER078
 70
               0
 62
               7
  6
CONTINUOUS
  0
LAYER
  2
LAYER079
 70
               0
 62
               7
  6
CONTINUOUS
  0
LAYER
  2
LAYER080
 70
               0
 62
               7
  6
CONTINUOUS
  0
LAYER
  2
LAYER081
 70
               0
 62
               7
  6
CONTINUOUS
  0
LAYER
  2
LAYER082
 70
               0
 62
               7
  6
CONTINUOUS
  0
LAYER
  2
LAYER083
 70
               0
 62
               7
  6
CONTINUOUS
  0
LAYER
  2
LAYER084
 70
               0
 62
               7
  6
CONTINUOUS
  0
LAYER
  2
LAYER085
 70
               0
 62
               7
  6
CONTINUOUS
  0
LAYER
  2
LAYER086
 70
               0
 62
               7
  6
CONTINUOUS
  0
LAYER
  2
LAYER087
 70
               0
 62
               7
  6
CONTINUOUS
  0
LAYER
  2
LAYER088
 70
               0
 62
               7
  6
CONTINUOUS
  0
LAYER
  2
LAYER089
 70
               0
 62
               7
  6
CONTINUOUS
  0
LAYER
  2
LAYER090
 70
               0
 62
               7
  6
CONTINUOUS
  0
LAYER
  2
LAYER091
 70
               0
 62
               7
  6
CONTINUOUS
  0
LAYER
  2
LAYER092
 70
               0
 62
               7
  6
CONTINUOUS
  0
LAYER
  2
LAYER093
 70
               0
 62
               7
  6
CONTINUOUS
  0
LAYER
  2
LAYER094
 70
               0
 62
               7
  6
CONTINUOUS
  0
LAYER
  2
LAYER095
 70
               0
 62
               7
  6
CONTINUOUS
  0
LAYER
  2
LAYER096
 70
               0
 62
               7
  6
CONTINUOUS
  0
LAYER
  2
LAYER097
 70
               0
 62
               7
  6
CONTINUOUS
  0
LAYER
  2
LAYER098
 70
               0
 62
               7
  6
CONTINUOUS
  0
LAYER
  2
LAYER099
 70
               0
 62
               7
  6
CONTINUOUS
  0
LAYER
  2
LAYER100
 70
               0
 62
               7
  6
CONTINUOUS
  0
LAYER
  2
LAYER101
 70
               0
 62
               7
  6
CONTINUOUS
  0
LAYER
  2
LAYER102
 70
               0
 62
               7
  6
CONTINUOUS
  0
LAYER
  2
LAYER103
 70
               0
 62
               7
  6
CONTINUOUS
  0
LAYER
  2
LAYER104
 70
               0
 62
               7
  6
CONTINUOUS
  0
LAYER
  2
LAYER105
 70
               0
 62
               7
  6
CONTINUOUS
  0
LAYER
  2
LAYER106
 70
               0
 62
               7
  6
CONTINUOUS
  0
LAYER
  2
LAYER107
 70
               0
 62
               7
  6
CONTINUOUS
  0
LAYER
  2
LAYER108
 70
               0
 62
               7
  6
CONTINUOUS
  0
LAYER
  2
LAYER109
 70
               0
 62
               7
  6
CONTINUOUS
  0
LAYER
  2
LAYER110
 70
               0
 62
               7
  6
CONTINUOUS
  0
LAYER
  2
LAYER111
 70
               0
 62
               7
  6
CONTINUOUS
  0
LAYER
  2
LAYER112
 70
               0
 62
               7
  6
CONTINUOUS
  0
LAYER
  2
LAYER113
 70
               0
 62
               7
  6
CONTINUOUS
  0
LAYER
  2
LAYER114
 70
               0
 62
               7
  6
CONTINUOUS
  0
LAYER
  2
LAYER115
 70
               0
 62
               7
  6
CONTINUOUS
  0
LAYER
  2
LAYER116
 70
               0
 62
               7
  6
CONTINUOUS
  0
LAYER
  2
LAYER117
 70
               0
 62
               7
  6
CONTINUOUS
  0
LAYER
  2
LAYER118
 70
               0
 62
               7
  6
CONTINUOUS
  0
LAYER
  2
LAYER119
 70
               0
 62
               7
  6
CONTINUOUS
  0
LAYER
  2
LAYER120
 70
               0
 62
               7
  6
CONTINUOUS
  0
LAYER
  2
LAYER121
 70
               0
 62
               7
  6
CONTINUOUS
  0
LAYER
  2
LAYER122
 70
               0
 62
               7
  6
CONTINUOUS
  0
LAYER
  2
LAYER123
 70
               0
 62
               7
  6
CONTINUOUS
  0
LAYER
  2
LAYER124
 70
               0
 62
               7
  6
CONTINUOUS
  0
LAYER
  2
LAYER125
 70
               0
 62
               7
  6
CONTINUOUS
  0
LAYER
  2
LAYER126
 70
               0
 62
               7
  6
CONTINUOUS
  0
LAYER
  2
LAYER127
 70
               0
 62
               7
  6
CONTINUOUS
  0
LAYER
  2
LAYER128
 70
               0
 62
               7
  6
CONTINUOUS
  0
LAYER
  2
LAYER129
 70
               0
 62
               7
  6
CONTINUOUS
  0
LAYER
  2
LAYER130
 70
               0
 62
               7
  6
CONTINUOUS
  0
LAYER
  2
LAYER131
 70
               0
 62
               7
  6
CONTINUOUS
  0
LAYER
  2
LAYER132
 70
               0
 62
               7
  6
CONTINUOUS
  0
LAYER
  2
LAYER133
 70
               0
 62
               7
  6
CONTINUOUS
  0
LAYER
  2
LAYER134
 70
               0
 62
               7
  6
CONTINUOUS
  0
LAYER
  2
LAYER135
 70
               0
 62
               7
  6
CONTINUOUS
  0
LAYER
  2
LAYER136
 70
               0
 62
               7
  6
CONTINUOUS
  0
LAYER
  2
LAYER137
 70
               0
 62
               7
  6
CONTINUOUS
  0
LAYER
  2
LAYER138
 70
               0
 62
               7
  6
CONTINUOUS
  0
LAYER
  2
LAYER139
 70
               0
 62
               7
  6
CONTINUOUS
  0
LAYER
  2
LAYER140
 70
               0
 62
               7
  6
CONTINUOUS
  0
LAYER
  2
LAYER141
 70
               0
 62
               7
  6
CONTINUOUS
  0
LAYER
  2
LAYER142
 70
               0
 62
               7
  6
CONTINUOUS
  0
LAYER
  2
LAYER143
 70
               0
 62
               7
  6
CONTINUOUS
  0
LAYER
  2
LAYER144
 70
               0
 62
               7
  6
CONTINUOUS
  0
LAYER
  2
LAYER145
 70
               0
 62
               7
  6
CONTINUOUS
  0
LAYER
  2
LAYER146
 70
               0
 62
               7
  6
CONTINUOUS
  0
LAYER
  2
LAYER147
 70
               0
 62
               7
  6
CONTINUOUS
  0
LAYER
  2
LAYER148
 70
               0
 62
               7
  6
CONTINUOUS
  0
LAYER
  2
LAYER149
 70
               0
 62
               7
  6
CONTINUOUS
  0
LAYER
  2
LAYER150
 70
               0
 62
               7
  6
CONTINUOUS
  0
LAYER
  2
LAYER151
 70
               0
 62
               7
  6
CONTINUOUS
  0
LAYER
  2
LAYER152
 70
               0
 62
               7
  6
CONTINUOUS
  0
LAYER
  2
LAYER153
 70
               0
 62
               7
  6
CONTINUOUS
  0
LAYER
  2
LAYER154
 70
               0
 62
               7
  6
CONTINUOUS
  0
LAYER
  2
LAYER155
 70
               0
 62
               7
  6
CONTINUOUS
  0
LAYER
  2
LAYER156
 70
               0
 62
               7
  6
CONTINUOUS
  0
LAYER
  2
LAYER157
 70
               0
 62
               7
  6
CONTINUOUS
  0
LAYER
  2
LAYER158
 70
               0
 62
               7
  6
CONTINUOUS
  0
LAYER
  2
LAYER159
 70
               0
 62
               7
  6
CONTINUOUS
  0
LAYER
  2
LAYER160
 70
               0
 62
               7
  6
CONTINUOUS
  0
LAYER
  2
LAYER161
 70
               0
 62
               7
  6
CONTINUOUS
  0
LAYER
  2
LAYER162
 70
               0
 62
               7
  6
CONTINUOUS
  0
LAYER
  2
LAYER163
 70
               0
 62
               7
  6
CONTINUOUS
  0
LAYER
  2
LAYER164
 70
               0
 62
               7
  6
CONTINUOUS
  0
LAYER
  2
LAYER165
 70
               0
 62
               7
  6
CONTINUOUS
  0
LAYER
  2
LAYER166
 70
               0
 62
               7
  6
CONTINUOUS
  0
LAYER
  2
LAYER167
 70
               0
 62
               7
  6
CONTINUOUS
  0
LAYER
  2
LAYER168
 70
               0
 62
               7
  6
CONTINUOUS
  0
LAYER
  2
LAYER169
 70
               0
 62
               7
  6
CONTINUOUS
  0
LAYER
  2
LAYER170
 70
               0
 62
               7
  6
CONTINUOUS
  0
LAYER
  2
LAYER171
 70
               0
 62
               7
  6
CONTINUOUS
  0
LAYER
  2
LAYER172
 70
               0
 62
               7
  6
CONTINUOUS
  0
LAYER
  2
LAYER173
 70
               0
 62
               7
  6
CONTINUOUS
  0
LAYER
  2
LAYER174
 70
               0
 62
               7
  6
CONTINUOUS
  0
LAYER
  2
LAYER175
 70
               0
 62
               7
  6
CONTINUOUS
  0
LAYER
  2
LAYER176
 70
               0
 62
               7
  6
CONTINUOUS
  0
LAYER
  2
LAYER177
 70
               0
 62
               7
  6
CONTINUOUS
  0
LAYER
  2
LAYER178
 70
               0
 62
               7
  6
CONTINUOUS
  0
LAYER
  2
LAYER179
 70
               0
 62
               7
  6
CONTINUOUS
  0
LAYER
  2
LAYER180
 70
               0
 62
               7
  6
CONTINUOUS
  0
LAYER
  2
LAYER181
 70
               0
 62
               7
  6
CONTINUOUS
  0
LAYER
  2
LAYER182
 70
               0
 62
               7
  6
CONTINUOUS
  0
LAYER
  2
LAYER183
 70
               0
 62
               7
  6
CONTINUOUS
  0
LAYER
  2
LAYER184
 70
               0
 62
               7
  6
CONTINUOUS
  0
LAYER
  2
LAYER185
 70
               0
 62
               7
  6
CONTINUOUS
  0
LAYER
  2
LAYER186
 70
               0
 62
               7
  6
CONTINUOUS
  0
LAYER
  2
LAYER187
 70
               0
 62
               7
  6
CONTINUOUS
  0
LAYER
  2
LAYER188
 70
               0
 62
               7
  6
CONTINUOUS
  0
LAYER
  2
LAYER189
 70
               0
 62
               7
  6
CONTINUOUS
  0
LAYER
  2
LAYER190
 70
               0
 62
               7
  6
CONTINUOUS
  0
LAYER
  2
LAYER191
 70
               0
 62
               7
  6
CONTINUOUS
  0
LAYER
  2
LAYER192
 70
               0
 62
               7
  6
CONTINUOUS
  0
LAYER
  2
LAYER193
 70
               0
 62
               7
  6
CONTINUOUS
  0
LAYER
  2
LAYER194
 70
               0
 62
               7
  6
CONTINUOUS
  0
LAYER
  2
LAYER195
 70
               0
 62
               7
  6
CONTINUOUS
  0
LAYER
  2
LAYER196
 70
               0
 62
               7
  6
CONTINUOUS
  0
LAYER
  2
LAYER197
 70
               0
 62
               7
  6
CONTINUOUS
  0
LAYER
  2
LAYER198
 70
               0
 62
               7
  6
CONTINUOUS
  0
LAYER
  2
LAYER199
 70
               0
 62
               7
  6
CONTINUOUS
  0
LAYER
  2
LAYER200
 70
               0
 62
               7
  6
CONTINUOUS
  0
LAYER
  2
LAYER201
 70
               0
 62
               7
  6
CONTINUOUS
  0
LAYER
  2
LAYER202
 70
               0
 62
               7
  6
CONTINUOUS
  0
LAYER
  2
LAYER203
 70
               0
 62
               7
  6
CONTINUOUS
  0
LAYER
  2
LAYER204
 70
               0
 62
               7
  6
CONTINUOUS
  0
LAYER
  2
LAYER205
 70
               0
 62
               7
  6
CONTINUOUS
  0
LAYER
  2
LAYER206
 70
               0
 62
               7
  6
CONTINUOUS
  0
LAYER
  2
LAYER207
 70
               0
 62
               7
  6
CONTINUOUS
  0
LAYER
  2
LAYER208
 70
               0
 62
               7
  6
CONTINUOUS
  0
LAYER
  2
LAYER209
 70
               0
 62
               7
  6
CONTINUOUS
  0
LAYER
  2
LAYER210
 70
               0
 62
               7
  6
CONTINUOUS
  0
LAYER
  2
LAYER211
 70
               0
 62
               7
  6
CONTINUOUS
  0
LAYER
  2
LAYER212
 70
               0
 62
               7
  6
CONTINUOUS
  0
LAYER
  2
LAYER213
 70
               0
 62
               7
  6
CONTINUOUS
  0
LAYER
  2
LAYER214
 70
               0
 62
               7
  6
CONTINUOUS
  0
LAYER
  2
LAYER215
 70
               0
 62
               7
  6
CONTINUOUS
  0
LAYER
  2
LAYER216
 70
               0
 62
               7
  6
CONTINUOUS
  0
LAYER
  2
LAYER217
 70
               0
 62
               7
  6
CONTINUOUS
  0
LAYER
  2
LAYER218
 70
               0
 62
               7
  6
CONTINUOUS
  0
LAYER
  2
LAYER219
 70
               0
 62
               7
  6
CONTINUOUS
  0
LAYER
  2
LAYER220
 70
               0
 62
               7
  6
CONTINUOUS
  0
LAYER
  2
LAYER221
 70
               0
 62
               7
  6
CONTINUOUS
  0
LAYER
  2
LAYER222
 70
               0
 62
               7
  6
CONTINUOUS
  0
LAYER
  2
LAYER223
 70
               0
 62
               7
  6
CONTINUOUS
  0
LAYER
  2
LAYER224
 70
               0
 62
               7
  6
CONTINUOUS
  0
LAYER
  2
LAYER225
 70
               0
 62
               7
  6
CONTINUOUS
  0
LAYER
  2
LAYER226
 70
               0
 62
               7
  6
CONTINUOUS
  0
LAYER
  2
LAYER227
 70
               0
 62
               7
  6
CONTINUOUS
  0
LAYER
  2
LAYER228
 70
               0
 62
               7
  6
CONTINUOUS
  0
LAYER
  2
LAYER229
 70
               0
 62
               7
  6
CONTINUOUS
  0
LAYER
  2
LAYER230
 70
               0
 62
               7
  6
CONTINUOUS
  0
LAYER
  2
LAYER231
 70
               0
 62
               7
  6
CONTINUOUS
  0
LAYER
  2
LAYER232
 70
               0
 62
               7
  6
CONTINUOUS
  0
LAYER
  2
LAYER233
 70
               0
 62
               7
  6
CONTINUOUS
  0
LAYER
  2
LAYER234
 70
               0
 62
               7
  6
CONTINUOUS
  0
LAYER
  2
LAYER235
 70
               0
 62
               7
  6
CONTINUOUS
  0
LAYER
  2
LAYER236
 70
               0
 62
               7
  6
CONTINUOUS
  0
LAYER
  2
LAYER237
 70
               0
 62
               7
  6
CONTINUOUS
  0
LAYER
  2
LAYER238
 70
               0
 62
               7
  6
CONTINUOUS
  0
LAYER
  2
LAYER239
 70
               0
 62
               7
  6
CONTINUOUS
  0
LAYER
  2
LAYER240
 70
               0
 62
               7
  6
CONTINUOUS
  0
LAYER
  2
LAYER241
 70
               0
 62
               7
  6
CONTINUOUS
  0
LAYER
  2
LAYER242
 70
               0
 62
               7
  6
CONTINUOUS
  0
LAYER
  2
LAYER243
 70
               0
 62
               7
  6
CONTINUOUS
  0
LAYER
  2
LAYER244
 70
               0
 62
               7
  6
CONTINUOUS
  0
LAYER
  2
LAYER245
 70
               0
 62
               7
  6
CONTINUOUS
  0
LAYER
  2
LAYER246
 70
               0
 62
               7
  6
CONTINUOUS
  0
LAYER
  2
LAYER247
 70
               0
 62
               7
  6
CONTINUOUS
  0
LAYER
  2
LAYER248
 70
               0
 62
               7
  6
CONTINUOUS
  0
LAYER
  2
LAYER249
 70
               0
 62
               7
  6
CONTINUOUS
  0
LAYER
  2
LAYER250
 70
               0
 62
               7
  6
CONTINUOUS
  0
LAYER
  2
LAYER251
 70
               0
 62
               7
  6
CONTINUOUS
  0
LAYER
  2
LAYER252
 70
               0
 62
               7
  6
CONTINUOUS
  0
LAYER
  2
LAYER253
 70
               0
 62
               7
  6
CONTINUOUS
  0
LAYER
  2
LAYER254
 70
               0
 62
               7
  6
CONTINUOUS
  0
LAYER
  2
LAYER255
 70
               0
 62
               7
  6
CONTINUOUS
  0
ENDTAB
  0
TABLE
  2
STYLE
 70
               1
  0
STYLE
  2
STANDARD
 70
               0
 40
0.0
 41
0.8
 50
0.0
 71
               0
 42
40.0
  3
MS PGothic.ttf
  4

  0
ENDTAB
  0
TABLE
  2
VIEW
 70
               0
  0
VIEW
  2
QQQQ
 70
               0
 40
2387.0113590128767
 10
-162.02900529579696
 20
-0.0000000000001137
 41
1346.6073807732489
 11
0.0
 21
0.0
 31
1.0
 12
100.0
 22
100.0
 32
0.0
 42
50.0
 43
0.0
 44
0.0
 50
0.0
 71
               0
  0
ENDTAB
  0
TABLE
  2
UCS
 70
               0
  0
ENDTAB
  0
TABLE
  2
APPID
 70
               1
  0
APPID
  2
ACAD
 70
               0
  0
ENDTAB
  0
TABLE
  2
DIMSTYLE
 70
               1
  0
DIMSTYLE
  2
STANDARD
 70
               0
  3

  4

  5

  6

  7

 40
1.0
 41
0.18
 42
0.0625
 43
0.38
 44
0.18
 45
0.0
 46
0.0
 47
0.0
 48
0.0
140
0.18
141
0.09
142
0.0
143
25.399999999999999
144
1.0
145
0.0
146
1.0
147
0.09
 71
               0
 72
               0
 73
               1
 74
               1
 75
               0
 76
               0
 77
               0
 78
               0
170
               0
171
               2
172
               0
173
               0
174
               0
175
               0
176
               0
177
               0
178
               0
  0
ENDTAB
  0
ENDSEC
  0
SECTION
  2
BLOCKS
  0
ENDSEC
  0
SECTION
  2
ENTITIES
  0
LINE
  8
0
  6
CONTINUOUS
 62
               3
  5
136
 10
-235.49092182737709
 20
456.02223147429976
 30
0.0
 11
-235.49092182737712
 21
408.81092227767198
 31
0.0
  0
LINE
  8
0
  6
CONTINUOUS
 62
               3
  5
137
 10
-103.49092182737724
 20
460.09329928616506
 30
0.0
 11
-103.49092182737724
 21
408.69735404741675
 31
0.0
  0
LINE
  8
0
  6
CONTINUOUS
 62
               3
  5
138
 10
-105.99092182737724
 20
455.52223147429964
 30
0.0
 11
-105.99092182737724
 21
408.83931433523628
 31
0.0
  0
LINE
  8
0
  6
CONTINUOUS
 62
               3
  5
139
 10
-103.74092182737701
 20
459.84329928616535
 30
0.0
 11
-103.74092182737701
 21
408.71155007619876
 31
0.0
  0
LINE
  8
0
  6
CONTINUOUS
 62
               3
  5
13A
 10
-235.49092182737712
 20
590.33751631214068
 30
0.0
 11
-235.49092182737712
 21
586.14543939114867
 31
0.0
  0
LINE
  8
0
  6
CONTINUOUS
 62
               3
  5
13B
 10
-225.49092182737712
 20
471.65789868055469
 30
0.0
 11
-115.49092182737704
 21
471.65789868055469
 31
0.0
  0
LINE
  8
0
  6
CONTINUOUS
 62
               3
  5
13C
 10
-190.49092182737732
 20
911.26077385984286
 30
0.0
 11
-190.49092182737729
 21
925.71133581379718
 31
0.0
  0
LINE
  8
0
  6
CONTINUOUS
 62
               3
  5
13D
 10
-150.49092182737732
 20
925.37547947660642
 30
0.0
 11
-150.49092182737732
 21
911.26077385984286
 31
0.0
  0
ARC
  8
0
  6
CONTINUOUS
 62
               3
  5
13E
 10
-170.49092182737729
 20
984.97127206046775
 30
0.0
 40
76.375634498080188
 50
254.81932855946019
 51
285.18067144033222
  0
LINE
  8
0
  6
CONTINUOUS
 62
               3
  5
13F
 10
-98.656058124832526
 20
963.09563756238776
 30
0.0
 11
-112.40455363337443
 21
963.09563756238776
 31
0.0
  0
LINE
  8
0
  6
CONTINUOUS
 62
               3
  5
140
 10
-112.35345888865439
 20
1003.0956375623878
 30
0.0
 11
-98.656058124832526
 21
1003.0956375623878
 31
0.0
  0
ARC
  8
0
  6
CONTINUOUS
 62
               3
  5
141
 10
-172.36655632545748
 20
983.09563756238776
 30
0.0
 40
76.375634498080188
 50
344.81932855942557
 51
375.1806714402976
  0
LINE
  8
0
  6
CONTINUOUS
 62
               3
  5
142
 10
-150.49092182737718
 20
1054.9305012649324
 30
0.0
 11
-150.49092182737718
 21
1040.9630202128362
 31
0.0
  0
LINE
  8
0
  6
CONTINUOUS
 62
               3
  5
143
 10
-190.49092182737721
 20
1040.6271638756455
 30
0.0
 11
-190.49092182737721
 21
1054.9305012649324
 31
0.0
  0
ARC
  8
0
  6
CONTINUOUS
 62
               3
  5
144
 10
-170.49092182737724
 20
981.22000306430755
 30
0.0
 40
76.375634498080188
 50
74.819328559529367
 51
105.18067144040144
  0
LINE
  8
0
  6
CONTINUOUS
 62
               3
  5
145
 10
-242.32578552992206
 20
1003.0956375623878
 30
0.0
 11
-227.66068455166715
 21
1003.0956375623878
 31
0.0
  0
LINE
  8
0
  6
CONTINUOUS
 62
               3
  5
146
 10
-227.60958980694707
 20
963.09563756238776
 30
0.0
 11
-242.32578552992206
 21
963.09563756238776
 31
0.0
  0
ARC
  8
0
  6
CONTINUOUS
 62
               3
  5
147
 10
-168.6152873292971
 20
983.09563756238776
 30
0.0
 40
76.375634498080188
 50
164.81932855949469
 51
195.18067144036684
  0
ARC
  8
0
  6
CONTINUOUS
 62
               3
  5
148
 10
-170.49092182737729
 20
983.09563756238776
 30
0.0
 40
65.0
 50
287.92021313928154
 51
342.07978686047613
  0
ARC
  8
0
  6
CONTINUOUS
 62
               3
  5
149
 10
-170.49092182737724
 20
983.09563756238776
 30
0.0
 40
67.499999999999957
 50
233.15185435855253
 51
252.7647147428149
  0
ARC
  8
0
  6
CONTINUOUS
 62
               3
  5
14A
 10
-170.49092182737729
 20
983.09563756238776
 30
0.0
 40
65.0
 50
197.92021313931622
 51
252.07978686051084
  0
ARC
  8
0
  6
CONTINUOUS
 62
               3
  5
14B
 10
-170.49092182737724
 20
983.09563756238776
 30
0.0
 40
67.499999999999957
 50
107.23528525704663
 51
126.84814564130785
  0
ARC
  8
0
  6
CONTINUOUS
 62
               3
  5
14C
 10
-170.49092182737729
 20
983.09563756238776
 30
0.0
 40
65.0
 50
17.920213139385403
 51
72.079786860579873
  0
ARC
  8
0
  6
CONTINUOUS
 62
               3
  5
14D
 10
-170.49092182737729
 20
983.09563756238776
 30
0.0
 40
65.0
 50
107.92021313935072
 51
162.07978686054543
  0
LINE
  8
0
  6
CONTINUOUS
 62
               3
  5
14E
 10
-735.49092182737718
 20
471.65789868055469
 30
0.0
 11
-735.49092182737718
 21
408.81092227767198
 31
0.0
  0
ARC
  8
0
  6
CONTINUOUS
 62
               3
  5
14F
 10
-605.49092182737718
 20
474.15789868055469
 30
0.0
 40
2.4999999999999996
 50
269.99999999989518
 51
449.99999999982703
  0
LINE
  8
0
  6
CONTINUOUS
 62
               3
  5
150
 10
-735.49092182737695
 20
590.33751631214068
 30
0.0
 11
-735.49092182737718
 21
476.65789868055469
 31
0.0
  0
ARC
  8
0
  6
CONTINUOUS
 62
               3
  5
151
 10
-735.49092182737718
 20
474.15789868055469
 30
0.0
 40
2.4999999999999996
 50
89.999999999963322
 51
269.99999999989518
  0
LINE
  8
0
  6
CONTINUOUS
 62
               3
  5
152
 10
-605.49092182737718
 20
471.65789868055469
 30
0.0
 11
-605.49092182737718
 21
408.81092227767198
 31
0.0
  0
LINE
  8
0
  6
CONTINUOUS
 62
               3
  5
153
 10
-605.49092182737718
 20
590.33751631214068
 30
0.0
 11
-605.49092182737718
 21
476.65789868055469
 31
0.0
  0
ARC
  8
0
  6
CONTINUOUS
 62
               3
  5
154
 10
-692.9909218273765
 20
474.15789868055469
 30
0.0
 40
2.4999999999999996
 50
269.99999999989518
 51
449.99999999982703
  0
ARC
  8
0
  6
CONTINUOUS
 62
               3
  5
155
 10
-647.9909218273765
 20
474.15789868055469
 30
0.0
 40
2.4999999999999996
 50
89.999999999965937
 51
269.99999999989518
  0
LINE
  8
0
  6
CONTINUOUS
 62
               3
  5
156
 10
-735.49092182737718
 20
471.65789868055469
 30
0.0
 11
-692.9909218273765
 21
471.65789868055469
 31
0.0
  0
LINE
  8
0
  6
CONTINUOUS
 62
               3
  5
157
 10
-647.9909218273765
 20
471.65789868055469
 30
0.0
 11
-605.49092182737718
 21
471.65789868055469
 31
0.0
  0
LINE
  8
0
  6
CONTINUOUS
 62
               3
  5
158
 10
-735.49092182737718
 20
476.65789868055469
 30
0.0
 11
-692.9909218273765
 21
476.65789868055469
 31
0.0
  0
LINE
  8
0
  6
CONTINUOUS
 62
               3
  5
159
 10
-647.9909218273765
 20
476.65789868055469
 30
0.0
 11
-605.49092182737718
 21
476.65789868055469
 31
0.0
  0
LINE
  8
0
  6
CONTINUOUS
 62
               3
  5
15A
 10
-244.99092182737684
 20
676.74520060428404
 30
0.0
 11
-244.99092182737684
 21
671.74520060428404
 31
0.0
  0
LINE
  8
0
  6
CONTINUOUS
 62
               3
  5
15B
 10
-244.99092182737684
 20
676.74520060428404
 30
0.0
 11
-231.49092182737692
 21
686.65789868055469
 31
0.0
  0
LINE
  8
0
  6
CONTINUOUS
 62
               3
  5
15C
 10
-244.99092182737684
 20
671.74520060428404
 30
0.0
 11
-234.31642434386438
 21
671.37243893822199
 31
0.0
  0
ARC
  8
0
  6
CONTINUOUS
 62
               3
  5
15D
 10
-234.49092182737692
 20
666.3754848031266
 30
0.0
 40
5.0
 50
0.0
 51
87.999999999965766
  0
LINE
  8
0
  6
CONTINUOUS
 62
               3
  5
15E
 10
-95.990921827377065
 20
676.74520060428404
 30
0.0
 11
-95.990921827377065
 21
671.74520060428404
 31
0.0
  0
LINE
  8
0
  6
CONTINUOUS
 62
               3
  5
15F
 10
-95.990921827377065
 20
676.74520060428404
 30
0.0
 11
-109.49092182737701
 21
686.65789868055469
 31
0.0
  0
LINE
  8
0
  6
CONTINUOUS
 62
               3
  5
160
 10
-95.990921827377065
 20
671.74520060428404
 30
0.0
 11
-106.66541931088958
 21
671.37243893822199
 31
0.0
  0
ARC
  8
0
  6
CONTINUOUS
 62
               3
  5
161
 10
-106.49092182737704
 20
666.3754848031266
 30
0.0
 40
5.0
 50
91.999999999965155
 51
179.99999999993088
  0
LINE
  8
0
  6
CONTINUOUS
 62
               3
  5
162
 10
-231.49092182737692
 20
686.65789868055469
 30
0.0
 11
-109.49092182737701
 21
686.65789868055469
 31
0.0
  0
LINE
  8
0
  6
CONTINUOUS
 62
               3
  5
163
 10
-231.00289791535874
 20
669.95789868055454
 30
0.0
 11
-109.97894573939519
 21
669.95789868055454
 31
0.0
  0
LINE
  8
0
  6
CONTINUOUS
 62
               3
  5
164
 10
-190.49092182737695
 20
669.95789868055454
 30
0.0
 11
-190.49092182737695
 21
686.65789868055469
 31
0.0
  0
LINE
  8
0
  6
CONTINUOUS
 62
               3
  5
165
 10
-150.49092182737695
 20
686.65789868055469
 30
0.0
 11
-150.49092182737695
 21
669.95789868055454
 31
0.0
  0
LINE
  8
0
  6
CONTINUOUS
 62
               3
  5
166
 10
-190.49092182737695
 20
676.74520060428404
 30
0.0
 11
-150.49092182737695
 21
676.74520060428404
 31
0.0
  0
LINE
  8
0
  6
CONTINUOUS
 62
               3
  5
167
 10
-150.49092182737695
 20
671.74520060428404
 30
0.0
 11
-190.49092182737695
 21
671.74520060428404
 31
0.0
  0
LINE
  8
0
  6
CONTINUOUS
 62
               3
  5
168
 10
-231.49092182737692
 20
686.65789868055469
 30
0.0
 11
-231.49092182737692
 21
670.37548480312648
 31
0.0
  0
LINE
  8
0
  6
CONTINUOUS
 62
               3
  5
169
 10
-109.49092182737701
 20
686.65789868055469
 30
0.0
 11
-109.49092182737701
 21
670.37548480312648
 31
0.0
  0
LINE
  8
0
  6
CONTINUOUS
 62
               3
  5
16A
 10
-229.49092182737692
 20
666.3754848031266
 30
0.0
 11
-229.49092182737692
 21
604.82889305833032
 31
0.0
  0
ARC
  8
0
  6
CONTINUOUS
 62
               3
  5
16B
 10
-234.49092182737692
 20
604.82889305833032
 30
0.0
 40
5.0
 50
315.01704217206668
 51
359.99999999986176
  0
ARC
  8
0
  6
CONTINUOUS
 62
               3
  5
16C
 10
-219.99092182737698
 20
590.33751631214068
 30
0.0
 40
15.5
 50
135.01704217213489
 51
179.99999999993079
  0
LINE
  8
0
  6
CONTINUOUS
 62
               3
  5
16D
 10
-111.49092182737695
 20
666.3754848031266
 30
0.0
 11
-111.49092182737726
 21
604.82889305833032
 31
0.0
  0
LINE
  8
0
  6
CONTINUOUS
 62
               3
  5
16E
 10
-744.99092182737695
 20
676.74520060428404
 30
0.0
 11
-744.99092182737695
 21
671.74520060428404
 31
0.0
  0
LINE
  8
0
  6
CONTINUOUS
 62
               3
  5
16F
 10
-744.99092182737695
 20
676.74520060428404
 30
0.0
 11
-731.49092182737695
 21
686.65789868055469
 31
0.0
  0
LINE
  8
0
  6
CONTINUOUS
 62
               3
  5
170
 10
-744.99092182737695
 20
671.74520060428404
 30
0.0
 11
-734.31642434386436
 21
671.37243893822199
 31
0.0
  0
ARC
  8
0
  6
CONTINUOUS
 62
               3
  5
171
 10
-734.49092182737695
 20
666.3754848031266
 30
0.0
 40
5.0
 50
0.0
 51
87.999999999966178
  0
LINE
  8
0
  6
CONTINUOUS
 62
               3
  5
172
 10
-595.99092182737718
 20
676.74520060428404
 30
0.0
 11
-595.99092182737718
 21
671.74520060428404
 31
0.0
  0
LINE
  8
0
  6
CONTINUOUS
 62
               3
  5
173
 10
-595.99092182737718
 20
676.74520060428404
 30
0.0
 11
-609.49092182737695
 21
686.65789868055469
 31
0.0
  0
LINE
  8
0
  6
CONTINUOUS
 62
               3
  5
174
 10
-595.99092182737718
 20
671.74520060428404
 30
0.0
 11
-606.66541931088955
 21
671.37243893822199
 31
0.0
  0
ARC
  8
0
  6
CONTINUOUS
 62
               3
  5
175
 10
-606.49092182737706
 20
666.3754848031266
 30
0.0
 40
5.0
 50
91.999999999964984
 51
179.99999999993088
  0
LINE
  8
0
  6
CONTINUOUS
 62
               3
  5
176
 10
-731.49092182737695
 20
686.65789868055469
 30
0.0
 11
-609.49092182737695
 21
686.65789868055469
 31
0.0
  0
LINE
  8
0
  6
CONTINUOUS
 62
               3
  5
177
 10
-731.00289791535874
 20
669.95789868055454
 30
0.0
 11
-609.97894573939516
 21
669.95789868055454
 31
0.0
  0
LINE
  8
0
  6
CONTINUOUS
 62
               3
  5
178
 10
-690.49092182737695
 20
669.95789868055454
 30
0.0
 11
-690.49092182737695
 21
686.65789868055469
 31
0.0
  0
LINE
  8
0
  6
CONTINUOUS
 62
               3
  5
179
 10
-650.49092182737695
 20
686.65789868055469
 30
0.0
 11
-650.49092182737695
 21
669.95789868055454
 31
0.0
  0
LINE
  8
0
  6
CONTINUOUS
 62
               3
  5
17A
 10
-690.49092182737695
 20
676.74520060428404
 30
0.0
 11
-650.49092182737695
 21
676.74520060428404
 31
0.0
  0
LINE
  8
0
  6
CONTINUOUS
 62
               3
  5
17B
 10
-650.49092182737695
 20
671.74520060428404
 30
0.0
 11
-690.49092182737695
 21
671.74520060428404
 31
0.0
  0
LINE
  8
0
  6
CONTINUOUS
 62
               3
  5
17C
 10
-731.49092182737695
 20
686.65789868055469
 30
0.0
 11
-731.49092182737695
 21
670.37548480312648
 31
0.0
  0
LINE
  8
0
  6
CONTINUOUS
 62
               3
  5
17D
 10
-609.49092182737695
 20
686.65789868055469
 30
0.0
 11
-609.49092182737695
 21
670.37548480312648
 31
0.0
  0
LINE
  8
0
  6
CONTINUOUS
 62
               3
  5
17E
 10
-729.49092182737695
 20
666.3754848031266
 30
0.0
 11
-729.49092182737695
 21
604.82889305833032
 31
0.0
  0
ARC
  8
0
  6
CONTINUOUS
 62
               3
  5
17F
 10
-734.49092182737695
 20
604.82889305833032
 30
0.0
 40
5.0
 50
315.01704217206628
 51
359.99999999986176
  0
ARC
  8
0
  6
CONTINUOUS
 62
               3
  5
180
 10
-719.99092182737695
 20
590.33751631214068
 30
0.0
 40
15.5
 50
135.01704217213495
 51
179.99999999993079
  0
LINE
  8
0
  6
CONTINUOUS
 62
               3
  5
181
 10
-611.49092182737695
 20
666.3754848031266
 30
0.0
 11
-611.49092182737695
 21
604.82889305833032
 31
0.0
  0
ARC
  8
0
  6
CONTINUOUS
 62
               3
  5
182
 10
-606.49092182737729
 20
604.82889305833032
 30
0.0
 40
5.0
 50
179.99999999993057
 51
224.9829578277257
  0
ARC
  8
0
  6
CONTINUOUS
 62
               3
  5
183
 10
-620.99092182737718
 20
590.33751631214068
 30
0.0
 40
15.5
 50
0.0
 51
44.982957827795836
  0
CIRCLE
  8
0
  6
CONTINUOUS
 62
               3
  5
184
 10
-170.00707172016075
 20
983.16924984472143
 30
0.0
 40
61.000000000000007
  0
CIRCLE
  8
0
  6
CONTINUOUS
 62
               3
  5
185
 10
-170.49092182737706
 20
983.09563756238776
 30
0.0
 40
47.0
  0
CIRCLE
  8
0
  6
CONTINUOUS
 62
               3
  5
186
 10
-170.49092182737536
 20
983.09563756238936
 30
0.0
 40
40.5
  0
LINE
  8
0
  6
CONTINUOUS
 62
               3
  5
187
 10
-300.49092182737706
 20
1031.5956375623875
 30
0.0
 11
-299.81936570141283
 21
1031.5956375623875
 31
0.0
  0
LINE
  8
0
  6
CONTINUOUS
 62
               3
  5
188
 10
-297.31936570141204
 20
1034.0956375623875
 30
0.0
 11
-299.81936570141283
 21
1031.5956375623875
 31
0.0
  0
LINE
  8
0
  6
CONTINUOUS
 62
               3
  5
189
 10
-300.49092182737706
 20
934.59563756238754
 30
0.0
 11
-299.81936570141283
 21
934.59563756238754
 31
0.0
  0
LINE
  8
0
  6
CONTINUOUS
 62
               3
  5
18A
 10
-297.31936570141283
 20
932.09563756238754
 30
0.0
 11
-299.81936570141283
 21
934.59563756238754
 31
0.0
  0
LINE
  8
0
  6
CONTINUOUS
 62
               3
  5
18B
 10
-299.81936570141283
 20
934.59563756238731
 30
0.0
 11
-299.81936570141283
 21
1031.5956375623875
 31
0.0
  0
LINE
  8
0
  6
CONTINUOUS
 62
               3
  5
18C
 10
-305.49092182737706
 20
934.74563756238763
 30
0.0
 11
-305.49092182737706
 21
1031.4456375623877
 31
0.0
  0
LINE
  8
0
  6
CONTINUOUS
 62
               3
  5
18D
 10
-300.49092182737706
 20
1033.9456375623877
 30
0.0
 11
-300.49092182737706
 21
932.24563756238763
 31
0.0
  0
LINE
  8
0
  6
CONTINUOUS
 62
               3
  5
18E
 10
-300.49092182737706
 20
932.24563756238763
 30
0.0
 11
-302.99092182737706
 21
932.24563756238763
 31
0.0
  0
LINE
  8
0
  6
CONTINUOUS
 62
               3
  5
18F
 10
-300.49092182737706
 20
1033.9456375623877
 30
0.0
 11
-302.99092182737706
 21
1033.9456375623877
 31
0.0
  0
ARC
  8
0
  6
CONTINUOUS
 62
               3
  5
190
 10
-302.99092182737706
 20
1031.4456375623877
 30
0.0
 40
2.5
 50
89.999999999896559
 51
179.99999999982765
  0
ARC
  8
0
  6
CONTINUOUS
 62
               3
  5
191
 10
-302.99092182737706
 20
934.74563756238763
 30
0.0
 40
2.5
 50
179.99999999982765
 51
269.99999999975836
  0
LINE
  8
0
  6
CONTINUOUS
 62
               3
  5
192
 10
-297.31936570141283
 20
932.09563756238754
 30
0.0
 11
-297.31936570141204
 21
1034.0956375623875
 31
0.0
  0
LINE
  8
0
  6
CONTINUOUS
 62
               3
  5
193
 10
-206.40896888266832
 20
1037.2702985740996
 30
0.0
 11
-297.31936570141204
 21
1034.0956375623875
 31
0.0
  0
LINE
  8
0
  6
CONTINUOUS
 62
               3
  5
194
 10
-206.40896888266963
 20
928.92097655067664
 30
0.0
 11
-297.31936570141283
 21
932.09563756238754
 31
0.0
  0
LINE
  8
0
  6
CONTINUOUS
 62
               3
  5
195
 10
-297.31936570141283
 20
477.15789868055538
 30
0.0
 11
-254.97649167140497
 21
475.67925293693514
 31
0.0
  0
LINE
  8
0
  6
CONTINUOUS
 62
               3
  5
196
 10
-236.95538792144441
 20
459.55776538023258
 30
0.0
 11
-251.61545524898486
 21
474.21783270777246
 31
0.0
  0
LINE
  8
0
  6
CONTINUOUS
 62
               3
  5
197
 10
-297.31936570141283
 20
579.15789868055481
 30
0.0
 11
-240.31642434386464
 21
581.14848525605316
 31
0.0
  0
LINE
  8
0
  6
CONTINUOUS
 62
               3
  5
198
 10
-300.49092182737706
 20
479.65789868055469
 30
0.0
 11
-299.81936570141283
 21
479.65789868055469
 31
0.0
  0
LINE
  8
0
  6
CONTINUOUS
 62
               3
  5
199
 10
-297.31936570141215
 20
477.15789868055469
 30
0.0
 11
-299.81936570141283
 21
479.65789868055469
 31
0.0
  0
LINE
  8
0
  6
CONTINUOUS
 62
               3
  5
19A
 10
-300.49092182737706
 20
576.65789868055469
 30
0.0
 11
-299.81936570141283
 21
576.65789868055469
 31
0.0
  0
LINE
  8
0
  6
CONTINUOUS
 62
               3
  5
19B
 10
-297.31936570141283
 20
579.15789868055469
 30
0.0
 11
-299.81936570141283
 21
576.65789868055469
 31
0.0
  0
LINE
  8
0
  6
CONTINUOUS
 62
               3
  5
19C
 10
-299.81936570141283
 20
576.65789868055492
 30
0.0
 11
-299.81936570141283
 21
479.65789868055469
 31
0.0
  0
LINE
  8
0
  6
CONTINUOUS
 62
               3
  5
19D
 10
-305.49092182737706
 20
576.50789868055472
 30
0.0
 11
-305.49092182737706
 21
479.80789868055467
 31
0.0
  0
LINE
  8
0
  6
CONTINUOUS
 62
               3
  5
19E
 10
-300.49092182737706
 20
477.30789868055467
 30
0.0
 11
-300.49092182737706
 21
579.00789868055472
 31
0.0
  0
LINE
  8
0
  6
CONTINUOUS
 62
               3
  5
19F
 10
-300.49092182737706
 20
579.00789868055472
 30
0.0
 11
-302.99092182737706
 21
579.00789868055472
 31
0.0
  0
LINE
  8
0
  6
CONTINUOUS
 62
               3
  5
1A0
 10
-300.49092182737706
 20
477.30789868055467
 30
0.0
 11
-302.99092182737706
 21
477.30789868055467
 31
0.0
  0
ARC
  8
0
  6
CONTINUOUS
 62
               3
  5
1A1
 10
-302.99092182737706
 20
479.80789868055467
 30
0.0
 40
2.5
 50
179.99999999986218
 51
269.99999999979326
  0
ARC
  8
0
  6
CONTINUOUS
 62
               3
  5
1A2
 10
-302.99092182737706
 20
576.50789868055472
 30
0.0
 40
2.5
 50
89.999999999931092
 51
179.9999999998615
  0
LINE
  8
0
  6
CONTINUOUS
 62
               3
  5
1A3
 10
-297.31936570141283
 20
579.15789868055469
 30
0.0
 11
-297.3193657014121
 21
477.15789868055469
 31
0.0
  0
ARC
  8
0
  6
CONTINUOUS
 62
               3
  5
1A4
 10
-255.15098915491751
 20
470.68229880183969
 30
0.0
 40
5.0
 50
44.999999999966512
 51
87.999999999932115
  0
ARC
  8
0
  6
CONTINUOUS
 62
               3
  5
1A5
 10
-240.49092182737712
 20
586.14543939114867
 30
0.0
 40
5.0
 50
271.99999999989512
 51
359.99999999986176
  0
ARC
  8
0
  6
CONTINUOUS
 62
               3
  5
1A6
 10
-240.49092182737709
 20
456.02223147429976
 30
0.0
 40
5.0
 50
0.0
 51
44.99999999998375
  0
CIRCLE
  8
0
  6
CONTINUOUS
 62
               3
  5
1A7
 10
-670.49092182737718
 20
528.15789868055469
 30
0.0
 40
50.850000000000001
  0
LINE
  8
0
  6
CONTINUOUS
 62
               3
  5
1A8
 10
-146.05245886480699
 20
1000.4016095070165
 30
0.0
 11
-188.70800813953221
 21
1019.2672806864639
 31
0.0
  0
ARC
  8
0
  6
CONTINUOUS
 62
               3
  5
1A9
 10
-140.21933397665731
 20
1013.5903873525222
 30
0.0
 40
14.421137507799237
 50
246.14118011756537
 51
295.69436237349942
  0
LINE
  8
0
  6
CONTINUOUS
 62
               3
  5
1AA
 10
-215.99092182737712
 20
237.66161881870676
 30
0.0
 11
-235.49092182737712
 21
408.81092227767203
 31
0.0
  0
LINE
  8
0
  6
CONTINUOUS
 62
               3
  5
1AB
 10
-103.49092182737725
 20
408.69735404741675
 30
0.0
 11
-122.71914622702846
 21
239.93339441905516
 31
0.0
  0
LINE
  8
0
  6
CONTINUOUS
 62
               3
  5
1AC
 10
-105.99092182737725
 20
408.83931433523628
 30
0.0
 11
-125.49415669372681
 21
237.66161881870676
 31
0.0
  0
LINE
  8
0
  6
CONTINUOUS
 62
               3
  5
1AD
 10
-105.99415669372736
 20
408.81092227767203
 30
0.0
 11
-103.49092182737725
 21
408.69735404741675
 31
0.0
  0
LINE
  8
0
  6
CONTINUOUS
 62
               3
  5
1AE
 10
-103.74092182737702
 20
408.71155007619882
 30
0.0
 11
-122.99664727369858
 21
239.70621685902012
 31
0.0
  0
LINE
  8
0
  6
CONTINUOUS
 62
               3
  5
1AF
 10
-235.49092182737712
 20
408.81092227767203
 30
0.0
 11
-105.99415669372736
 21
408.81092227767203
 31
0.0
  0
LINE
  8
0
  6
CONTINUOUS
 62
               3
  5
1B0
 10
-124.99092182737721
 20
237.66161881870676
 30
0.0
 11
-122.71914622702846
 21
239.93339441905516
 31
0.0
  0
LINE
  8
0
  6
CONTINUOUS
 62
               3
  5
1B1
 10
-125.49415669372686
 20
237.66161881870619
 30
0.0
 11
-122.71914622702846
 21
239.93339441905516
 31
0.0
  0
CIRCLE
  8
0
  6
CONTINUOUS
 62
               3
  5
1B2
 10
-271.11400048464156
 20
301.55824975217286
 30
0.0
 40
0.2396114958834032
  0
LINE
  8
0
  6
CONTINUOUS
 62
               3
  5
1B3
 10
-215.99092182737763
 20
172.75165772287028
 30
0.0
 11
-215.99092182737712
 21
237.66161881870664
 31
0.0
  0
LINE
  8
0
  6
CONTINUOUS
 62
               3
  5
1B4
 10
-124.9909218273767
 20
172.75165772287028
 30
0.0
 11
-124.99092182737719
 21
237.66161881870664
 31
0.0
  0
LINE
  8
0
  6
CONTINUOUS
 62
               3
  5
1B5
 10
-715.99092182737763
 20
172.75165772287028
 30
0.0
 11
-715.99092182737718
 21
237.66161881870664
 31
0.0
  0
LINE
  8
0
  6
CONTINUOUS
 62
               3
  5
1B6
 10
-624.99092182737672
 20
172.75165772287028
 30
0.0
 11
-624.99092182737718
 21
237.66161881870664
 31
0.0
  0
LINE
  8
0
  6
CONTINUOUS
 62
               3
  5
1B7
 10
-715.99092182737718
 20
237.66161881870676
 30
0.0
 11
-735.49092182737718
 21
408.81092227767203
 31
0.0
  0
LINE
  8
0
  6
CONTINUOUS
 62
               3
  5
1B8
 10
-735.49092182737718
 20
408.81092227767203
 30
0.0
 11
-605.49092182737718
 21
408.81092227767203
 31
0.0
  0
CIRCLE
  8
0
  6
CONTINUOUS
 62
               3
  5
1B9
 10
-771.11400048464156
 20
301.55824975217286
 30
0.0
 40
0.2396114958834032
  0
LINE
  8
0
  6
CONTINUOUS
 62
               3
  5
1BA
 10
-624.99092182737718
 20
237.66161881870676
 30
0.0
 11
-605.49092182737718
 21
408.81092227767203
 31
0.0
  0
LINE
  8
0
  6
CONTINUOUS
 62
               3
  5
1BB
 10
-715.99092182737718
 20
237.66161881870676
 30
0.0
 11
-624.99092182737718
 21
237.66161881870676
 31
0.0
  0
LINE
  8
0
  6
CONTINUOUS
 62
               3
  5
1BC
 10
-215.99092182737763
 20
237.66161881870676
 30
0.0
 11
-124.9909218273767
 21
237.66161881870676
 31
0.0
  0
LINE
  8
0
  6
CONTINUOUS
 62
               3
  5
1BD
 10
284.07550094968843
 20
237.66161881870676
 30
0.0
 11
264.57550094968843
 21
408.81092227767203
 31
0.0
  0
LINE
  8
0
  6
CONTINUOUS
 62
               3
  5
1BE
 10
264.57550094968843
 20
471.65789868055481
 30
0.0
 11
264.57550094968843
 21
408.81092227767203
 31
0.0
  0
ARC
  8
0
  6
CONTINUOUS
 62
               3
  5
1BF
 10
394.57550094968843
 20
474.15789868055469
 30
0.0
 40
2.4999999999999996
 50
269.99999999989518
 51
451.52193986156641
  0
LINE
  8
0
  6
CONTINUOUS
 62
               3
  5
1C0
 10
264.57550094968843
 20
408.81092227767203
 30
0.0
 11
394.57550094968843
 21
408.81092227767203
 31
0.0
  0
LINE
  8
0
  6
CONTINUOUS
 62
               3
  5
1C1
 10
264.57550094968843
 20
590.33751631214068
 30
0.0
 11
264.57550094968843
 21
476.65789868055469
 31
0.0
  0
LINE
  8
0
  6
CONTINUOUS
 62
               3
  5
1C2
 10
255.07550094968866
 20
676.74520060428404
 30
0.0
 11
255.07550094968866
 21
671.74520060428404
 31
0.0
  0
LINE
  8
0
  6
CONTINUOUS
 62
               3
  5
1C3
 10
255.07550094968866
 20
676.74520060428404
 30
0.0
 11
268.57550094968866
 21
686.65789868055469
 31
0.0
  0
LINE
  8
0
  6
CONTINUOUS
 62
               3
  5
1C4
 10
255.07550094968866
 20
671.74520060428404
 30
0.0
 11
265.74999843320114
 21
671.37243893822199
 31
0.0
  0
ARC
  8
0
  6
CONTINUOUS
 62
               3
  5
1C5
 10
265.57550094968866
 20
666.3754848031266
 30
0.0
 40
5.0
 50
0.0
 51
87.99999999996551
  0
LINE
  8
0
  6
CONTINUOUS
 62
               3
  5
1C6
 10
404.07550094968843
 20
676.74520060428404
 30
0.0
 11
404.07550094968843
 21
671.74520060428404
 31
0.0
  0
LINE
  8
0
  6
CONTINUOUS
 62
               3
  5
1C7
 10
404.07550094968843
 20
676.74520060428404
 30
0.0
 11
390.57550094968855
 21
686.65789868055469
 31
0.0
  0
LINE
  8
0
  6
CONTINUOUS
 62
               3
  5
1C8
 10
404.07550094968843
 20
671.74520060428404
 30
0.0
 11
393.40100346617595
 21
671.37243893822199
 31
0.0
  0
ARC
  8
0
  6
CONTINUOUS
 62
               3
  5
1C9
 10
393.57550094968843
 20
666.3754848031266
 30
0.0
 40
5.0
 50
91.999999999965638
 51
179.99999999993088
  0
LINE
  8
0
  6
CONTINUOUS
 62
               3
  5
1CA
 10
268.57550094968866
 20
686.65789868055469
 30
0.0
 11
390.57550094968855
 21
686.65789868055469
 31
0.0
  0
LINE
  8
0
  6
CONTINUOUS
 62
               3
  5
1CB
 10
269.06352486170675
 20
669.95789868055454
 30
0.0
 11
390.08747703767034
 21
669.95789868055454
 31
0.0
  0
LINE
  8
0
  6
CONTINUOUS
 62
               3
  5
1CC
 10
309.57550094968855
 20
669.95789868055454
 30
0.0
 11
309.57550094968855
 21
686.65789868055469
 31
0.0
  0
LINE
  8
0
  6
CONTINUOUS
 62
               3
  5
1CD
 10
349.57550094968866
 20
686.65789868055469
 30
0.0
 11
349.57550094968866
 21
669.95789868055454
 31
0.0
  0
LINE
  8
0
  6
CONTINUOUS
 62
               3
  5
1CE
 10
309.57550094968855
 20
676.74520060428404
 30
0.0
 11
349.57550094968866
 21
676.74520060428404
 31
0.0
  0
LINE
  8
0
  6
CONTINUOUS
 62
               3
  5
1CF
 10
349.57550094968866
 20
671.74520060428404
 30
0.0
 11
309.57550094968855
 21
671.74520060428404
 31
0.0
  0
LINE
  8
0
  6
CONTINUOUS
 62
               3
  5
1D0
 10
268.57550094968866
 20
686.65789868055469
 30
0.0
 11
268.57550094968866
 21
670.37548480312648
 31
0.0
  0
LINE
  8
0
  6
CONTINUOUS
 62
               3
  5
1D1
 10
390.57550094968855
 20
686.65789868055469
 30
0.0
 11
390.57550094968855
 21
670.37548480312648
 31
0.0
  0
LINE
  8
0
  6
CONTINUOUS
 62
               3
  5
1D2
 10
270.57550094968866
 20
666.3754848031266
 30
0.0
 11
270.57550094968866
 21
604.82889305833032
 31
0.0
  0
ARC
  8
0
  6
CONTINUOUS
 62
               3
  5
1D3
 10
265.57550094968866
 20
604.82889305833032
 30
0.0
 40
5.0
 50
315.01704217206674
 51
359.99999999986176
  0
ARC
  8
0
  6
CONTINUOUS
 62
               3
  5
1D4
 10
280.07550094968855
 20
590.33751631214068
 30
0.0
 40
15.5
 50
135.01704217213481
 51
179.99999999993079
  0
LINE
  8
0
  6
CONTINUOUS
 62
               3
  5
1D5
 10
388.57550094968855
 20
666.3754848031266
 30
0.0
 11
388.57550094968855
 21
604.82889305833032
 31
0.0
  0
CIRCLE
  8
0
  6
CONTINUOUS
 62
               3
  5
1D6
 10
228.95242229242393
 20
301.55824975217286
 30
0.0
 40
0.2396114958834032
  0
ARC
  8
0
  6
CONTINUOUS
 62
               3
  5
1D7
 10
264.57550094968843
 20
474.15789868055469
 30
0.0
 40
2.4999999999999996
 50
89.999999999965937
 51
269.99999999989518
  0
LINE
  8
0
  6
CONTINUOUS
 62
               3
  5
1D8
 10
394.57550094968843
 20
590.33751631214068
 30
0.0
 11
394.57550094968843
 21
476.65789868055469
 31
0.0
  0
ARC
  8
0
  6
CONTINUOUS
 62
               3
  5
1D9
 10
393.57550094968821
 20
604.82889305833032
 30
0.0
 40
5.0
 50
179.99999999993057
 51
224.98295782772618
  0
ARC
  8
0
  6
CONTINUOUS
 62
               3
  5
1DA
 10
379.07550094968832
 20
590.33751631214068
 30
0.0
 40
15.5
 50
0.0
 51
44.982957827796071
  0
LINE
  8
0
  6
CONTINUOUS
 62
               3
  5
1DB
 10
375.07550094968843
 20
237.66161881870676
 30
0.0
 11
394.57550094968843
 21
408.81092227767203
 31
0.0
  0
LINE
  8
0
  6
CONTINUOUS
 62
               3
  5
1DC
 10
394.57550094968843
 20
471.65789868055481
 30
0.0
 11
394.57550094968843
 21
408.81092227767203
 31
0.0
  0
LINE
  8
0
  6
CONTINUOUS
 62
               3
  5
1DD
 10
284.07550094968786
 20
172.75165772287028
 30
0.0
 11
284.07550094968843
 21
237.66161881870664
 31
0.0
  0
LINE
  8
0
  6
CONTINUOUS
 62
               3
  5
1DE
 10
375.07550094968889
 20
172.75165772287028
 30
0.0
 11
375.07550094968843
 21
237.66161881870664
 31
0.0
  0
LINE
  8
0
  6
CONTINUOUS
 62
               3
  5
1DF
 10
284.07550094968786
 20
237.66161881870676
 30
0.0
 11
375.07550094968889
 21
237.66161881870676
 31
0.0
  0
LINE
  8
0
  6
CONTINUOUS
 62
               3
  5
1E0
 10
285.0090781726222
 20
171.75165772287028
 30
0.0
 11
284.00907817262242
 21
172.75165772287028
 31
0.0
  0
LINE
  8
0
  6
CONTINUOUS
 62
               3
  5
1E1
 10
374.00907817262333
 20
171.75165772287028
 30
0.0
 11
375.00907817262333
 21
172.75165772287028
 31
0.0
  0
LINE
  8
0
  6
CONTINUOUS
 62
               3
  5
1E2
 10
285.0090781726222
 20
171.75165772287028
 30
0.0
 11
374.00907817262333
 21
171.75165772287028
 31
0.0
  0
LINE
  8
0
  6
CONTINUOUS
 62
               3
  5
1E3
 10
375.00907817262333
 20
172.75165772287028
 30
0.0
 11
284.00907817262242
 21
172.75165772287028
 31
0.0
  0
LINE
  8
0
  6
CONTINUOUS
 62
               3
  5
1E4
 10
285.00907817262288
 20
136.65789868055469
 30
0.0
 11
285.00907817262288
 21
171.75165772287028
 31
0.0
  0
LINE
  8
0
  6
CONTINUOUS
 62
               3
  5
1E5
 10
374.00907817262288
 20
136.65789868055469
 30
0.0
 11
374.00907817262288
 21
171.75165772287028
 31
0.0
  0
LINE
  8
0
  6
CONTINUOUS
 62
               3
  5
1E6
 10
277.00907817262367
 20
6.6578986805546947
 30
0.0
 11
382.00907817262447
 21
6.6578986805558316
 31
0.0
  0
LINE
  8
0
  6
CONTINUOUS
 62
               3
  5
1E7
 10
280.00907817262379
 20
6.6578986805546947
 30
0.0
 11
280.00907817262379
 21
21.657898680553785
 31
0.0
  0
LINE
  8
0
  6
CONTINUOUS
 62
               3
  5
1E8
 10
379.0090781726222
 20
6.6578986805549221
 30
0.0
 11
379.0090781726222
 21
21.657898680553785
 31
0.0
  0
ARC
  8
0
  6
CONTINUOUS
 62
               3
  5
1E9
 10
269.50907817262481
 20
25.657898680553785
 30
0.0
 40
4.0
 50
179.999999999897
 51
269.9999999998463
  0
LINE
  8
0
  6
CONTINUOUS
 62
               3
  5
1EA
 10
265.50907817262481
 20
25.657898680553785
 30
0.0
 11
265.50907817262481
 21
46.657898680554013
 31
0.0
  0
LINE
  8
0
  6
CONTINUOUS
 62
               3
  5
1EB
 10
313.50907817262333
 20
46.657898680554808
 30
0.0
 11
265.50907817262504
 21
46.657898680554013
 31
0.0
  0
LINE
  8
0
  6
CONTINUOUS
 62
               3
  5
1EC
 10
313.50907817262333
 20
21.657898680554922
 30
0.0
 11
269.50907817262129
 21
21.657898680553785
 31
0.0
  0
LINE
  8
0
  6
CONTINUOUS
 62
               3
  5
1ED
 10
345.5090781726222
 20
46.657898680554808
 30
0.0
 11
393.5090781726206
 21
46.657898680554013
 31
0.0
  0
LINE
  8
0
  6
CONTINUOUS
 62
               3
  5
1EE
 10
345.5090781726222
 20
21.657898680554922
 30
0.0
 11
389.50907817262436
 21
21.657898680553785
 31
0.0
  0
ARC
  8
0
  6
CONTINUOUS
 62
               3
  5
1EF
 10
389.50907817262083
 20
25.657898680553785
 30
0.0
 40
4.0
 50
269.99999999994566
 51
359.99999999989581
  0
LINE
  8
0
  6
CONTINUOUS
 62
               3
  5
1F0
 10
393.50907817262083
 20
25.657898680553785
 30
0.0
 11
393.5090781726206
 21
46.657898680554013
 31
0.0
  0
ARC
  8
0
  6
CONTINUOUS
 62
               3
  5
1F1
 10
269.50907817262265
 20
132.65789868055401
 30
0.0
 40
4.0
 50
89.99999999994769
 51
179.9999999998962
  0
LINE
  8
0
  6
CONTINUOUS
 62
               3
  5
1F2
 10
265.50907817262265
 20
132.6578986805564
 30
0.0
 11
265.50907817262242
 21
111.65789868055469
 31
0.0
  0
LINE
  8
0
  6
CONTINUOUS
 62
               3
  5
1F3
 10
313.50907817262333
 20
136.65789868055492
 30
0.0
 11
269.50907817262265
 21
136.65789868055401
 31
0.0
  0
LINE
  8
0
  6
CONTINUOUS
 62
               3
  5
1F4
 10
265.50907817262242
 20
111.65789868055469
 30
0.0
 11
313.50907817262333
 21
111.65789868055504
 31
0.0
  0
LINE
  8
0
  6
CONTINUOUS
 62
               3
  5
1F5
 10
345.5090781726239
 20
136.65789868055515
 30
0.0
 11
389.50907817262242
 21
136.65789868055504
 31
0.0
  0
LINE
  8
0
  6
CONTINUOUS
 62
               3
  5
1F6
 10
393.50907817262254
 20
111.65789868055572
 30
0.0
 11
345.5090781726239
 21
111.65789868055526
 31
0.0
  0
ARC
  8
0
  6
CONTINUOUS
 62
               3
  5
1F7
 10
389.50907817262242
 20
132.65789868055413
 30
0.0
 40
4.0
 50
0.0000000000341973
 51
89.999999999981881
  0
LINE
  8
0
  6
CONTINUOUS
 62
               3
  5
1F8
 10
393.50907817262254
 20
132.65789868055413
 30
0.0
 11
393.50907817262254
 21
111.65789868055572
 31
0.0
  0
LINE
  8
0
  6
CONTINUOUS
 62
               3
  5
1F9
 10
268.50907817262242
 20
111.65789868055469
 30
0.0
 11
268.50907817262356
 21
46.657898680554013
 31
0.0
  0
LINE
  8
0
  6
CONTINUOUS
 62
               3
  5
1FA
 10
390.50907817262265
 20
111.65789868055481
 30
0.0
 11
390.50907817262163
 21
46.657898680554126
 31
0.0
  0
LINE
  8
0
  6
CONTINUOUS
 62
               3
  5
1FB
 10
313.50907817262333
 20
20.057898680554899
 30
0.0
 11
345.5090781726239
 21
20.057898680555354
 31
0.0
  0
LINE
  8
0
  6
CONTINUOUS
 62
               3
  5
1FC
 10
313.50907817262333
 20
138.25789868055506
 30
0.0
 11
313.50907817262333
 21
20.057898680554899
 31
0.0
  0
LINE
  8
0
  6
CONTINUOUS
 62
               3
  5
1FD
 10
345.5090781726239
 20
20.057898680555354
 30
0.0
 11
345.50907817262345
 21
138.25789868055506
 31
0.0
  0
LINE
  8
0
  6
CONTINUOUS
 62
               3
  5
1FE
 10
313.50907817262265
 20
138.25789868055506
 30
0.0
 11
345.50907817262276
 21
138.25789868055506
 31
0.0
  0
LINE
  8
0
  6
CONTINUOUS
 62
               3
  5
1FF
 10
313.50907817262333
 20
80.507898680553694
 30
0.0
 11
345.5090781726239
 21
80.507898680553694
 31
0.0
  0
LINE
  8
0
  6
CONTINUOUS
 62
               3
  5
200
 10
313.50907817262333
 20
82.107898680553717
 30
0.0
 11
345.5090781726239
 21
82.107898680553717
 31
0.0
  0
LINE
  8
0
  6
CONTINUOUS
 62
               3
  5
201
 10
313.50907817262333
 20
78.907898680553672
 30
0.0
 11
345.5090781726239
 21
78.907898680553672
 31
0.0
  0
LINE
  8
0
  6
CONTINUOUS
 62
               3
  5
202
 10
-714.99092182737786
 20
171.75165772287028
 30
0.0
 11
-715.99092182737763
 21
172.75165772287022
 31
0.0
  0
LINE
  8
0
  6
CONTINUOUS
 62
               3
  5
203
 10
-625.99092182737672
 20
171.75165772287028
 30
0.0
 11
-624.99092182737672
 21
172.75165772287022
 31
0.0
  0
LINE
  8
0
  6
CONTINUOUS
 62
               3
  5
204
 10
-714.99092182737786
 20
171.75165772287028
 30
0.0
 11
-625.99092182737672
 21
171.75165772287028
 31
0.0
  0
LINE
  8
0
  6
CONTINUOUS
 62
               3
  5
205
 10
-624.99092182737672
 20
172.75165772287022
 30
0.0
 11
-715.99092182737763
 21
172.75165772287022
 31
0.0
  0
LINE
  8
0
  6
CONTINUOUS
 62
               3
  5
206
 10
-714.99092182737718
 20
136.65789868055464
 30
0.0
 11
-714.99092182737718
 21
171.75165772287028
 31
0.0
  0
LINE
  8
0
  6
CONTINUOUS
 62
               3
  5
207
 10
-625.99092182737718
 20
136.65789868055464
 30
0.0
 11
-625.99092182737718
 21
171.75165772287028
 31
0.0
  0
LINE
  8
0
  6
CONTINUOUS
 62
               3
  5
208
 10
-214.9909218273778
 20
171.75165772287033
 30
0.0
 11
-215.99092182737758
 21
172.75165772287028
 31
0.0
  0
LINE
  8
0
  6
CONTINUOUS
 62
               3
  5
209
 10
-125.99092182737665
 20
171.75165772287033
 30
0.0
 11
-124.99092182737665
 21
172.75165772287028
 31
0.0
  0
LINE
  8
0
  6
CONTINUOUS
 62
               3
  5
20A
 10
-214.9909218273778
 20
171.75165772287033
 30
0.0
 11
-125.99092182737665
 21
171.75165772287033
 31
0.0
  0
LINE
  8
0
  6
CONTINUOUS
 62
               3
  5
20B
 10
-124.99092182737665
 20
172.75165772287028
 30
0.0
 11
-215.99092182737758
 21
172.75165772287028
 31
0.0
  0
LINE
  8
0
  6
CONTINUOUS
 62
               3
  5
20C
 10
-214.99092182737712
 20
136.65789868055469
 30
0.0
 11
-214.99092182737712
 21
171.75165772287033
 31
0.0
  0
LINE
  8
0
  6
CONTINUOUS
 62
               3
  5
20D
 10
-125.99092182737711
 20
136.65789868055469
 30
0.0
 11
-125.99092182737711
 21
171.75165772287033
 31
0.0
  0
LINE
  8
0
  6
CONTINUOUS
 62
               3
  5
20E
 10
-305.49092182737752
 20
82.107898680553149
 30
0.0
 11
-305.49092182737752
 21
80.507898680553126
 31
0.0
  0
LINE
  8
0
  6
CONTINUOUS
 62
               3
  5
20F
 10
-305.49092182737752
 20
78.907898680553217
 30
0.0
 11
-305.49092182737752
 21
80.507898680553126
 31
0.0
  0
LINE
  8
0
  6
CONTINUOUS
 62
               3
  5
210
 10
-249.24092182737741
 20
83.607898680553603
 30
0.0
 11
-249.24092182737741
 21
82.107898680553603
 31
0.0
  0
LINE
  8
0
  6
CONTINUOUS
 62
               3
  5
211
 10
-249.24092182737741
 20
78.90789868055333
 30
0.0
 11
-249.24092182737741
 21
77.407898680553444
 31
0.0
  0
LINE
  8
0
  6
CONTINUOUS
 62
               3
  5
212
 10
-219.99092182737616
 20
6.6578986805541263
 30
0.0
 11
-219.99092182737616
 21
21.657898680553217
 31
0.0
  0
LINE
  8
0
  6
CONTINUOUS
 62
               3
  5
213
 10
-222.99092182737627
 20
6.6578986805541263
 30
0.0
 11
-117.9909218273754
 21
6.6578986805551494
 31
0.0
  0
ARC
  8
0
  6
CONTINUOUS
 62
               3
  5
214
 10
-230.49092182737684
 20
132.65789868055344
 30
0.0
 40
4.0
 50
89.999999999947789
 51
179.9999999998962
  0
ARC
  8
0
  6
CONTINUOUS
 62
               3
  5
215
 10
-233.49092182737695
 20
135.65789868055344
 30
0.0
 40
1.0000000000000004
 50
89.999999999947278
 51
179.99999999989538
  0
LINE
  8
0
  6
CONTINUOUS
 62
               3
  5
216
 10
-236.09092182737686
 20
135.65789868055344
 30
0.0
 11
-236.09092182737686
 21
83.107898680553603
 31
0.0
  0
LINE
  8
0
  6
CONTINUOUS
 62
               3
  5
217
 10
-234.49092182737718
 20
135.65789868055344
 30
0.0
 11
-234.49092182737718
 21
83.107898680553603
 31
0.0
  0
LINE
  8
0
  6
CONTINUOUS
 62
               3
  5
218
 10
-237.09092182737709
 20
80.507898680553581
 30
0.0
 11
-305.49092182737752
 21
80.507898680553126
 31
0.0
  0
LINE
  8
0
  6
CONTINUOUS
 62
               3
  5
219
 10
-237.09092182737709
 20
82.107898680553603
 30
0.0
 11
-305.49092182737752
 21
82.107898680553149
 31
0.0
  0
LINE
  8
0
  6
CONTINUOUS
 62
               3
  5
21A
 10
-220.49092182737684
 20
138.25789868055335
 30
0.0
 11
-233.49092182737695
 21
138.25789868055335
 31
0.0
  0
LINE
  8
0
  6
CONTINUOUS
 62
               3
  5
21B
 10
-170.49092182737684
 20
136.65789868055447
 30
0.0
 11
-233.49092182737695
 21
136.65789868055333
 31
0.0
  0
LINE
  8
0
  6
CONTINUOUS
 62
               3
  5
21C
 10
-220.49092182737684
 20
138.25789868055335
 30
0.0
 11
-220.49092182737684
 21
136.65789868055356
 31
0.0
  0
LINE
  8
0
  6
CONTINUOUS
 62
               3
  5
21D
 10
-220.49092182737513
 20
20.057898680553421
 30
0.0
 11
-233.49092182737638
 21
20.057898680553421
 31
0.0
  0
ARC
  8
0
  6
CONTINUOUS
 62
               3
  5
21E
 10
-233.49092182737468
 20
22.657898680553217
 30
0.0
 40
1.0000000000000004
 50
179.99999999989538
 51
269.99999999984431
  0
ARC
  8
0
  6
CONTINUOUS
 62
               3
  5
21F
 10
-230.49092182737513
 20
25.657898680553103
 30
0.0
 40
4.0
 50
179.999999999897
 51
269.99999999984584
  0
LINE
  8
0
  6
CONTINUOUS
 62
               3
  5
220
 10
-220.49092182737513
 20
20.057898680553421
 30
0.0
 11
-220.49092182737513
 21
21.657898680553217
 31
0.0
  0
LINE
  8
0
  6
CONTINUOUS
 62
               3
  5
221
 10
-234.4909218273749
 20
22.657898680553217
 30
0.0
 11
-234.49092182737775
 21
77.907898680553672
 31
0.0
  0
LINE
  8
0
  6
CONTINUOUS
 62
               3
  5
222
 10
-170.4909218273757
 20
21.657898680554467
 30
0.0
 11
-233.49092182737468
 21
21.657898680553217
 31
0.0
  0
LINE
  8
0
  6
CONTINUOUS
 62
               3
  5
223
 10
-170.4909218273757
 20
46.657898680554467
 30
0.0
 11
-234.4909218273749
 21
46.65789868055333
 31
0.0
  0
LINE
  8
0
  6
CONTINUOUS
 62
               3
  5
224
 10
-237.09092182737709
 20
78.907898680553558
 30
0.0
 11
-305.49092182737752
 21
78.907898680553217
 31
0.0
  0
LINE
  8
0
  6
CONTINUOUS
 62
               3
  5
225
 10
-234.49092182737718
 20
111.65789868055413
 30
0.0
 11
-170.49092182737684
 21
111.65789868055447
 31
0.0
  0
LINE
  8
0
  6
CONTINUOUS
 62
               3
  5
226
 10
-231.49092182737706
 20
111.65789868055413
 30
0.0
 11
-231.49092182737593
 21
46.65789868055333
 31
0.0
  0
LINE
  8
0
  6
CONTINUOUS
 62
               3
  5
227
 10
-241.74092182737741
 20
83.607898680553603
 30
0.0
 11
-249.24092182737741
 21
83.607898680553603
 31
0.0
  0
LINE
  8
0
  6
CONTINUOUS
 62
               3
  5
228
 10
-241.74092182737741
 20
77.407898680553558
 30
0.0
 11
-249.24092182737741
 21
77.407898680553444
 31
0.0
  0
LINE
  8
0
  6
CONTINUOUS
 62
               3
  5
229
 10
-241.74092182737741
 20
83.607898680553603
 30
0.0
 11
-241.74092182737741
 21
82.107898680553603
 31
0.0
  0
LINE
  8
0
  6
CONTINUOUS
 62
               3
  5
22A
 10
-241.74092182737741
 20
78.907898680553558
 30
0.0
 11
-241.74092182737741
 21
77.407898680553558
 31
0.0
  0
LINE
  8
0
  6
CONTINUOUS
 62
               3
  5
22B
 10
-170.49092182737684
 20
136.65789868055447
 30
0.0
 11
-107.49092182737728
 21
136.65789868055435
 31
0.0
  0
LINE
  8
0
  6
CONTINUOUS
 62
               3
  5
22C
 10
-170.4909218273757
 20
21.657898680554467
 30
0.0
 11
-107.49092182737728
 21
21.657898680554126
 31
0.0
  0
LINE
  8
0
  6
CONTINUOUS
 62
               3
  5
22D
 10
-170.4909218273757
 20
46.657898680554467
 30
0.0
 11
-106.49092182737705
 21
46.657898680554354
 31
0.0
  0
LINE
  8
0
  6
CONTINUOUS
 62
               3
  5
22E
 10
-106.49092182737705
 20
111.65789868055515
 30
0.0
 11
-170.49092182737684
 21
111.65789868055447
 31
0.0
  0
ARC
  8
0
  6
CONTINUOUS
 62
               3
  5
22F
 10
-233.49092182737695
 20
135.65789868055344
 30
0.0
 40
2.6000000000000001
 50
89.999999999965354
 51
179.99999999993196
  0
ARC
  8
0
  6
CONTINUOUS
 62
               3
  5
230
 10
-237.09092182737709
 20
83.107898680553603
 30
0.0
 40
2.6000000000000001
 50
269.9999999998962
 51
359.99999999986142
  0
ARC
  8
0
  6
CONTINUOUS
 62
               3
  5
231
 10
-237.09092182737709
 20
83.107898680553603
 30
0.0
 40
1.0
 50
269.99999999989637
 51
359.99999999986238
  0
ARC
  8
0
  6
CONTINUOUS
 62
               3
  5
232
 10
-237.09092182737709
 20
77.907898680553558
 30
0.0
 40
2.6000000000000001
 50
0.0000000000012526
 51
89.999999999965979
  0
ARC
  8
0
  6
CONTINUOUS
 62
               3
  5
233
 10
-237.09092182737709
 20
77.907898680553558
 30
0.0
 40
1.0
 50
0.0
 51
89.99999999996642
  0
LINE
  8
0
  6
CONTINUOUS
 62
               3
  5
234
 10
-236.09092182737629
 20
22.657898680553217
 30
0.0
 11
-236.09092182737686
 21
77.907898680553672
 31
0.0
  0
ARC
  8
0
  6
CONTINUOUS
 62
               3
  5
235
 10
-233.49092182737638
 20
22.657898680553217
 30
0.0
 40
2.6000000000000001
 50
179.99999999993196
 51
269.9999999998962
  0
LINE
  8
0
  6
CONTINUOUS
 62
               3
  5
236
 10
-120.99092182737779
 20
6.6578986805542399
 30
0.0
 11
-120.99092182737779
 21
21.657898680553217
 31
0.0
  0
ARC
  8
0
  6
CONTINUOUS
 62
               3
  5
237
 10
-110.49092182737739
 20
132.65789868055344
 30
0.0
 40
4.0
 50
0.0000000000341973
 51
89.999999999983103
  0
ARC
  8
0
  6
CONTINUOUS
 62
               3
  5
238
 10
-107.49092182737728
 20
135.65789868055356
 30
0.0
 40
1.0000000000000004
 50
0.0000000000358258
 51
89.999999999983515
  0
LINE
  8
0
  6
CONTINUOUS
 62
               3
  5
239
 10
-104.89092182737737
 20
135.65789868055356
 30
0.0
 11
-104.89092182737737
 21
83.107898680553831
 31
0.0
  0
LINE
  8
0
  6
CONTINUOUS
 62
               3
  5
23A
 10
-106.49092182737705
 20
135.65789868055356
 30
0.0
 11
-106.49092182737705
 21
83.107898680553831
 31
0.0
  0
LINE
  8
0
  6
CONTINUOUS
 62
               3
  5
23B
 10
-103.89092182737714
 20
80.507898680553694
 30
0.0
 11
-35.490921827376923
 21
80.507898680553467
 31
0.0
  0
LINE
  8
0
  6
CONTINUOUS
 62
               3
  5
23C
 10
-103.89092182737714
 20
82.107898680553717
 30
0.0
 11
-35.490921827376923
 21
82.107898680553376
 31
0.0
  0
LINE
  8
0
  6
CONTINUOUS
 62
               3
  5
23D
 10
-120.49092182737739
 20
138.25789868055347
 30
0.0
 11
-107.49092182737728
 21
138.25789868055347
 31
0.0
  0
LINE
  8
0
  6
CONTINUOUS
 62
               3
  5
23E
 10
-120.49092182737739
 20
138.25789868055347
 30
0.0
 11
-120.49092182737739
 21
136.65789868055367
 31
0.0
  0
LINE
  8
0
  6
CONTINUOUS
 62
               3
  5
23F
 10
-120.4909218273791
 20
20.057898680553535
 30
0.0
 11
-107.49092182737785
 21
20.057898680553535
 31
0.0
  0
ARC
  8
0
  6
CONTINUOUS
 62
               3
  5
240
 10
-107.49092182737927
 20
22.65789868055333
 30
0.0
 40
1.0000000000000004
 50
269.9999999999481
 51
359.99999999989495
  0
ARC
  8
0
  6
CONTINUOUS
 62
               3
  5
241
 10
-110.4909218273791
 20
25.65789868055333
 30
0.0
 40
4.0
 50
269.99999999994668
 51
359.99999999989581
  0
LINE
  8
0
  6
CONTINUOUS
 62
               3
  5
242
 10
-120.4909218273791
 20
20.057898680553535
 30
0.0
 11
-120.4909218273791
 21
21.657898680553217
 31
0.0
  0
LINE
  8
0
  6
CONTINUOUS
 62
               3
  5
243
 10
-106.49092182737932
 20
22.65789868055333
 30
0.0
 11
-106.49092182737648
 21
77.907898680553785
 31
0.0
  0
LINE
  8
0
  6
CONTINUOUS
 62
               3
  5
244
 10
-103.89092182737714
 20
78.907898680553785
 30
0.0
 11
-35.490921827376923
 21
78.907898680553444
 31
0.0
  0
LINE
  8
0
  6
CONTINUOUS
 62
               3
  5
245
 10
-109.49092182737716
 20
111.65789868055424
 30
0.0
 11
-109.4909218273783
 21
46.657898680553558
 31
0.0
  0
LINE
  8
0
  6
CONTINUOUS
 62
               3
  5
246
 10
-35.490921827376923
 20
82.107898680553376
 30
0.0
 11
-35.490921827376923
 21
80.507898680553467
 31
0.0
  0
LINE
  8
0
  6
CONTINUOUS
 62
               3
  5
247
 10
-35.490921827376923
 20
78.907898680553444
 30
0.0
 11
-35.490921827376923
 21
80.507898680553467
 31
0.0
  0
LINE
  8
0
  6
CONTINUOUS
 62
               3
  5
248
 10
-99.240921827376823
 20
83.607898680553717
 30
0.0
 11
-91.740921827376823
 21
83.607898680553717
 31
0.0
  0
LINE
  8
0
  6
CONTINUOUS
 62
               3
  5
249
 10
-99.240921827376823
 20
77.407898680553672
 30
0.0
 11
-91.740921827376823
 21
77.407898680553558
 31
0.0
  0
LINE
  8
0
  6
CONTINUOUS
 62
               3
  5
24A
 10
-99.240921827376823
 20
83.607898680553717
 30
0.0
 11
-99.240921827376823
 21
82.107898680553717
 31
0.0
  0
LINE
  8
0
  6
CONTINUOUS
 62
               3
  5
24B
 10
-99.240921827376823
 20
78.907898680553785
 30
0.0
 11
-99.240921827376823
 21
77.407898680553672
 31
0.0
  0
LINE
  8
0
  6
CONTINUOUS
 62
               3
  5
24C
 10
-91.740921827376823
 20
83.607898680553717
 30
0.0
 11
-91.740921827376823
 21
82.107898680553717
 31
0.0
  0
LINE
  8
0
  6
CONTINUOUS
 62
               3
  5
24D
 10
-91.740921827376823
 20
78.907898680553444
 30
0.0
 11
-91.740921827376823
 21
77.407898680553558
 31
0.0
  0
ARC
  8
0
  6
CONTINUOUS
 62
               3
  5
24E
 10
-107.49092182737728
 20
135.65789868055356
 30
0.0
 40
2.6000000000000001
 50
0.0
 51
89.999999999965667
  0
ARC
  8
0
  6
CONTINUOUS
 62
               3
  5
24F
 10
-103.89092182737714
 20
83.107898680553831
 30
0.0
 40
2.6000000000000001
 50
179.99999999993196
 51
269.99999999989637
  0
ARC
  8
0
  6
CONTINUOUS
 62
               3
  5
250
 10
-103.89092182737714
 20
83.107898680553831
 30
0.0
 40
1.0
 50
179.99999999992795
 51
269.99999999989683
  0
ARC
  8
0
  6
CONTINUOUS
 62
               3
  5
251
 10
-103.89092182737714
 20
77.907898680553672
 30
0.0
 40
2.6000000000000001
 50
89.999999999964729
 51
179.99999999993071
  0
ARC
  8
0
  6
CONTINUOUS
 62
               3
  5
252
 10
-103.89092182737714
 20
77.907898680553672
 30
0.0
 40
1.0
 50
89.999999999964786
 51
179.99999999992795
  0
LINE
  8
0
  6
CONTINUOUS
 62
               3
  5
253
 10
-104.89092182737794
 20
22.657898680553217
 30
0.0
 11
-104.89092182737737
 21
77.907898680553672
 31
0.0
  0
ARC
  8
0
  6
CONTINUOUS
 62
               3
  5
254
 10
-107.49092182737785
 20
22.657898680553217
 30
0.0
 40
2.6000000000000001
 50
269.99999999989637
 51
359.99999999986142
  0
LINE
  8
0
  6
CONTINUOUS
 62
               3
  5
255
 10
-722.99092182737627
 20
6.6578986805546947
 30
0.0
 11
-617.99092182737547
 21
6.6578986805557179
 31
0.0
  0
LINE
  8
0
  6
CONTINUOUS
 62
               3
  5
256
 10
-719.99092182737627
 20
6.6578986805546947
 30
0.0
 11
-719.99092182737627
 21
21.657898680553785
 31
0.0
  0
LINE
  8
0
  6
CONTINUOUS
 62
               3
  5
257
 10
-620.99092182737786
 20
6.6578986805548084
 30
0.0
 11
-620.99092182737786
 21
21.657898680553785
 31
0.0
  0
ARC
  8
0
  6
CONTINUOUS
 62
               3
  5
258
 10
-730.49092182737513
 20
25.657898680553728
 30
0.0
 40
4.0
 50
179.999999999897
 51
269.9999999998447
  0
LINE
  8
0
  6
CONTINUOUS
 62
               3
  5
259
 10
-734.49092182737513
 20
25.657898680553728
 30
0.0
 11
-734.49092182737513
 21
46.657898680553956
 31
0.0
  0
LINE
  8
0
  6
CONTINUOUS
 62
               3
  5
25A
 10
-686.49092182737672
 20
46.657898680554808
 30
0.0
 11
-734.4909218273749
 21
46.657898680553956
 31
0.0
  0
LINE
  8
0
  6
CONTINUOUS
 62
               3
  5
25B
 10
-686.49092182737672
 20
21.657898680554922
 30
0.0
 11
-730.49092182737877
 21
21.657898680553728
 31
0.0
  0
LINE
  8
0
  6
CONTINUOUS
 62
               3
  5
25C
 10
-654.49092182737775
 20
46.657898680554808
 30
0.0
 11
-606.49092182737945
 21
46.657898680553956
 31
0.0
  0
LINE
  8
0
  6
CONTINUOUS
 62
               3
  5
25D
 10
-654.49092182737775
 20
21.657898680554922
 30
0.0
 11
-610.49092182737559
 21
21.657898680553728
 31
0.0
  0
ARC
  8
0
  6
CONTINUOUS
 62
               3
  5
25E
 10
-610.49092182737922
 20
25.657898680553728
 30
0.0
 40
4.0
 50
269.99999999994731
 51
359.99999999989581
  0
LINE
  8
0
  6
CONTINUOUS
 62
               3
  5
25F
 10
-606.49092182737922
 20
25.657898680553728
 30
0.0
 11
-606.49092182737945
 21
46.657898680553956
 31
0.0
  0
ARC
  8
0
  6
CONTINUOUS
 62
               3
  5
260
 10
-730.49092182737741
 20
132.65789868055401
 30
0.0
 40
4.0
 50
89.99999999994769
 51
179.9999999998962
  0
LINE
  8
0
  6
CONTINUOUS
 62
               3
  5
261
 10
-734.49092182737741
 20
132.6578986805564
 30
0.0
 11
-734.49092182737763
 21
111.65789868055469
 31
0.0
  0
LINE
  8
0
  6
CONTINUOUS
 62
               3
  5
262
 10
-686.49092182737672
 20
136.65789868055487
 30
0.0
 11
-730.49092182737741
 21
136.65789868055401
 31
0.0
  0
LINE
  8
0
  6
CONTINUOUS
 62
               3
  5
263
 10
-734.49092182737763
 20
111.65789868055469
 30
0.0
 11
-686.49092182737672
 21
111.65789868055504
 31
0.0
  0
LINE
  8
0
  6
CONTINUOUS
 62
               3
  5
264
 10
-654.49092182737604
 20
136.65789868055509
 30
0.0
 11
-610.49092182737763
 21
136.65789868055498
 31
0.0
  0
LINE
  8
0
  6
CONTINUOUS
 62
               3
  5
265
 10
-606.49092182737741
 20
111.65789868055566
 30
0.0
 11
-654.49092182737604
 21
111.65789868055526
 31
0.0
  0
ARC
  8
0
  6
CONTINUOUS
 62
               3
  5
266
 10
-610.49092182737763
 20
132.65789868055413
 30
0.0
 40
4.0
 50
0.0000000000341973
 51
89.999999999983515
  0
LINE
  8
0
  6
CONTINUOUS
 62
               3
  5
267
 10
-606.49092182737741
 20
132.65789868055413
 30
0.0
 11
-606.49092182737741
 21
111.65789868055566
 31
0.0
  0
LINE
  8
0
  6
CONTINUOUS
 62
               3
  5
268
 10
-731.49092182737763
 20
111.65789868055469
 30
0.0
 11
-731.4909218273765
 21
46.657898680554013
 31
0.0
  0
LINE
  8
0
  6
CONTINUOUS
 62
               3
  5
269
 10
-609.49092182737741
 20
111.65789868055481
 30
0.0
 11
-609.49092182737832
 21
46.657898680554126
 31
0.0
  0
LINE
  8
0
  6
CONTINUOUS
 62
               3
  5
26A
 10
-686.49092182737672
 20
20.057898680554899
 30
0.0
 11
-654.49092182737604
 21
20.057898680555354
 31
0.0
  0
LINE
  8
0
  6
CONTINUOUS
 62
               3
  5
26B
 10
-686.49092182737672
 20
138.25789868055506
 30
0.0
 11
-686.49092182737672
 21
20.057898680554899
 31
0.0
  0
LINE
  8
0
  6
CONTINUOUS
 62
               3
  5
26C
 10
-654.49092182737604
 20
20.057898680555354
 30
0.0
 11
-654.4909218273765
 21
138.25789868055506
 31
0.0
  0
LINE
  8
0
  6
CONTINUOUS
 62
               3
  5
26D
 10
-686.49092182737741
 20
138.25789868055506
 30
0.0
 11
-654.49092182737718
 21
138.25789868055506
 31
0.0
  0
LINE
  8
0
  6
CONTINUOUS
 62
               3
  5
26E
 10
-686.49092182737672
 20
80.507898680553694
 30
0.0
 11
-654.49092182737604
 21
80.507898680553694
 31
0.0
  0
LINE
  8
0
  6
CONTINUOUS
 62
               3
  5
26F
 10
-686.49092182737672
 20
82.107898680553717
 30
0.0
 11
-654.49092182737604
 21
82.107898680553717
 31
0.0
  0
LINE
  8
0
  6
CONTINUOUS
 62
               3
  5
270
 10
-686.49092182737672
 20
78.907898680553672
 30
0.0
 11
-654.49092182737604
 21
78.907898680553672
 31
0.0
  0
LINE
  8
0
  6
CONTINUOUS
 62
               3
  5
271
 10
-134.57287477208479
 20
928.92097655067676
 30
0.0
 11
-43.662477953341551
 21
932.09563756238776
 31
0.0
  0
ARC
  8
0
  6
CONTINUOUS
 62
               3
  5
272
 10
-170.49092182737724
 20
983.09563756238776
 30
0.0
 40
67.499999999999957
 50
287.23528525697753
 51
306.84814564123985
  0
LINE
  8
0
  6
CONTINUOUS
 62
               3
  5
273
 10
-40.490921827377434
 20
1031.5956375623878
 30
0.0
 11
-41.162477953341664
 21
1031.5956375623878
 31
0.0
  0
LINE
  8
0
  6
CONTINUOUS
 62
               3
  5
274
 10
-43.66247795334246
 20
1034.0956375623878
 30
0.0
 11
-41.162477953341664
 21
1031.5956375623878
 31
0.0
  0
LINE
  8
0
  6
CONTINUOUS
 62
               3
  5
275
 10
-40.490921827377321
 20
934.59563756238776
 30
0.0
 11
-41.162477953341551
 21
934.59563756238776
 31
0.0
  0
LINE
  8
0
  6
CONTINUOUS
 62
               3
  5
276
 10
-43.662477953341551
 20
932.09563756238776
 30
0.0
 11
-41.162477953341551
 21
934.59563756238776
 31
0.0
  0
LINE
  8
0
  6
CONTINUOUS
 62
               3
  5
277
 10
-41.162477953341551
 20
934.59563756238754
 30
0.0
 11
-41.162477953341664
 21
1031.5956375623878
 31
0.0
  0
LINE
  8
0
  6
CONTINUOUS
 62
               3
  5
278
 10
-35.490921827377321
 20
934.74563756238786
 30
0.0
 11
-35.490921827377434
 21
1031.4456375623877
 31
0.0
  0
LINE
  8
0
  6
CONTINUOUS
 62
               3
  5
279
 10
-40.490921827377434
 20
1033.9456375623877
 30
0.0
 11
-40.490921827377321
 21
932.24563756238774
 31
0.0
  0
LINE
  8
0
  6
CONTINUOUS
 62
               3
  5
27A
 10
-40.490921827377321
 20
932.24563756238774
 30
0.0
 11
-37.990921827377321
 21
932.24563756238774
 31
0.0
  0
LINE
  8
0
  6
CONTINUOUS
 62
               3
  5
27B
 10
-40.490921827377434
 20
1033.9456375623877
 30
0.0
 11
-37.990921827377434
 21
1033.9456375623877
 31
0.0
  0
ARC
  8
0
  6
CONTINUOUS
 62
               3
  5
27C
 10
-37.990921827377434
 20
1031.4456375623877
 30
0.0
 40
2.5
 50
0.0000000001042204
 51
90.000000000034973
  0
ARC
  8
0
  6
CONTINUOUS
 62
               3
  5
27D
 10
-37.990921827377321
 20
934.74563756238774
 30
0.0
 40
2.5
 50
270.00000000003388
 51
359.99999999996402
  0
LINE
  8
0
  6
CONTINUOUS
 62
               3
  5
27E
 10
-43.662477953341551
 20
932.09563756238776
 30
0.0
 11
-43.66247795334246
 21
1034.0956375623878
 31
0.0
  0
LINE
  8
0
  6
CONTINUOUS
 62
               3
  5
27F
 10
-134.57287477208621
 20
1037.2702985740996
 30
0.0
 11
-43.66247795334246
 21
1034.0956375623878
 31
0.0
  0
ARC
  8
0
  6
CONTINUOUS
 62
               3
  5
280
 10
-170.49092182737724
 20
983.09563756238776
 30
0.0
 40
67.499999999999957
 50
53.151854358623012
 51
72.764714742884237
  0
ARC
  8
0
  6
CONTINUOUS
 62
               3
  5
281
 10
-225.49092182737712
 20
474.15789868055469
 30
0.0
 40
2.4999999999999996
 50
89.999999999965283
 51
269.99999999989615
  0
LINE
  8
0
  6
CONTINUOUS
 62
               3
  5
282
 10
-225.49092182737712
 20
476.65789868055469
 30
0.0
 11
-115.49092182737704
 21
476.65789868055469
 31
0.0
  0
ARC
  8
0
  6
CONTINUOUS
 62
               3
  5
283
 10
-115.49092182737704
 20
474.15789868055469
 30
0.0
 40
2.4999999999999996
 50
269.99999999989615
 51
449.99999999982703
  0
LINE
  8
0
  6
CONTINUOUS
 62
               3
  5
284
 10
-105.49092182737709
 20
590.33751631214068
 30
0.0
 11
-105.49092182737709
 21
586.14543939114867
 31
0.0
  0
ARC
  8
0
  6
CONTINUOUS
 62
               3
  5
285
 10
-120.99092182737724
 20
590.33751631214068
 30
0.0
 40
15.5
 50
0.0
 51
44.982957827795971
  0
LINE
  8
0
  6
CONTINUOUS
 62
               3
  5
286
 10
-43.662477953341352
 20
477.15789868055543
 30
0.0
 11
-86.0053519833492
 21
475.67925293693514
 31
0.0
  0
LINE
  8
0
  6
CONTINUOUS
 62
               3
  5
287
 10
-104.52645573330673
 20
459.05776538023565
 30
0.0
 11
-89.366388405769342
 21
474.21783270777246
 31
0.0
  0
LINE
  8
0
  6
CONTINUOUS
 62
               3
  5
288
 10
-43.662477953341352
 20
579.15789868055481
 30
0.0
 11
-100.66541931088958
 21
581.14848525605316
 31
0.0
  0
LINE
  8
0
  6
CONTINUOUS
 62
               3
  5
289
 10
-40.490921827377093
 20
479.65789868055469
 30
0.0
 11
-41.162477953341323
 21
479.65789868055469
 31
0.0
  0
LINE
  8
0
  6
CONTINUOUS
 62
               3
  5
28A
 10
-43.662477953342062
 20
477.15789868055469
 30
0.0
 11
-41.162477953341323
 21
479.65789868055469
 31
0.0
  0
LINE
  8
0
  6
CONTINUOUS
 62
               3
  5
28B
 10
-40.490921827377093
 20
576.65789868055469
 30
0.0
 11
-41.162477953341323
 21
576.65789868055469
 31
0.0
  0
LINE
  8
0
  6
CONTINUOUS
 62
               3
  5
28C
 10
-43.662477953341352
 20
579.15789868055481
 30
0.0
 11
-41.162477953341323
 21
576.65789868055469
 31
0.0
  0
LINE
  8
0
  6
CONTINUOUS
 62
               3
  5
28D
 10
-41.162477953341323
 20
576.65789868055492
 30
0.0
 11
-41.162477953341323
 21
479.65789868055469
 31
0.0
  0
LINE
  8
0
  6
CONTINUOUS
 62
               3
  5
28E
 10
-35.490921827377093
 20
576.50789868055472
 30
0.0
 11
-35.490921827377093
 21
479.80789868055473
 31
0.0
  0
LINE
  8
0
  6
CONTINUOUS
 62
               3
  5
28F
 10
-40.490921827377093
 20
477.30789868055473
 30
0.0
 11
-40.490921827377093
 21
579.00789868055472
 31
0.0
  0
LINE
  8
0
  6
CONTINUOUS
 62
               3
  5
290
 10
-40.490921827377093
 20
579.00789868055472
 30
0.0
 11
-37.990921827377093
 21
579.00789868055472
 31
0.0
  0
LINE
  8
0
  6
CONTINUOUS
 62
               3
  5
291
 10
-40.490921827377093
 20
477.30789868055473
 30
0.0
 11
-37.990921827377093
 21
477.30789868055473
 31
0.0
  0
ARC
  8
0
  6
CONTINUOUS
 62
               3
  5
292
 10
-37.990921827377093
 20
479.80789868055473
 30
0.0
 40
2.5
 50
269.99999999999937
 51
359.99999999993031
  0
ARC
  8
0
  6
CONTINUOUS
 62
               3
  5
293
 10
-37.990921827377093
 20
576.50789868055472
 30
0.0
 40
2.5
 50
0.000000000069046
 51
89.999999999999801
  0
LINE
  8
0
  6
CONTINUOUS
 62
               3
  5
294
 10
-43.662477953341352
 20
579.15789868055481
 30
0.0
 11
-43.662477953342091
 21
477.15789868055469
 31
0.0
  0
ARC
  8
0
  6
CONTINUOUS
 62
               3
  5
295
 10
-85.830854499836661
 20
470.68229880183969
 30
0.0
 40
5.0
 50
91.999999999998735
 51
134.99999999996425
  0
ARC
  8
0
  6
CONTINUOUS
 62
               3
  5
296
 10
-100.49092182737709
 20
586.14543939114867
 30
0.0
 40
5.0
 50
179.99999999993088
 51
267.99999999989734
  0
ARC
  8
0
  6
CONTINUOUS
 62
               3
  5
297
 10
-106.49092182737726
 20
604.82889305833032
 30
0.0
 40
5.0
 50
179.99999999993057
 51
224.9829578277257
  0
ARC
  8
0
  6
CONTINUOUS
 62
               3
  5
298
 10
-100.99092182737724
 20
455.52223147429964
 30
0.0
 40
5.0
 50
134.99999999989561
 51
179.99999999986207
  0
CIRCLE
  8
0
  6
CONTINUOUS
 62
               3
  5
299
 10
329.50907817262345
 20
528.25789868055529
 30
0.0
 40
50.75
  0
LINE
  8
0
  6
CONTINUOUS
 62
               3
  5
29A
 10
307.00907817262362
 20
476.65789868055458
 30
0.0
 11
264.50907817262316
 21
476.65789868055458
 31
0.0
  0
ARC
  8
0
  6
CONTINUOUS
 62
               3
  5
29B
 10
352.00907817262356
 20
474.15789868055458
 30
0.0
 40
2.4999999999999996
 50
89.999999999963322
 51
269.99999999989518
  0
ARC
  8
0
  6
CONTINUOUS
 62
               3
  5
29C
 10
307.00907817262362
 20
474.15789868055458
 30
0.0
 40
2.4999999999999996
 50
269.99999999989518
 51
449.99999999982703
  0
LINE
  8
0
  6
CONTINUOUS
 62
               3
  5
29D
 10
394.50907817262311
 20
476.65789868055458
 30
0.0
 11
352.00907817262356
 21
476.65789868055458
 31
0.0
  0
LINE
  8
0
  6
CONTINUOUS
 62
               3
  5
29E
 10
307.00907817262288
 20
471.65789868055458
 30
0.0
 11
264.57550094968843
 21
471.65789868055458
 31
0.0
  0
LINE
  8
0
  6
CONTINUOUS
 62
               3
  5
29F
 10
394.57550099271413
 20
471.65789868055469
 30
0.0
 11
352.00907817262288
 21
471.65789868055469
 31
0.0
  0
LINE
  8
0
  6
CONTINUOUS
 62
               3
  5
2A0
 10
-651.41049992428543
 20
554.15789868055458
 30
0.0
 11
-689.57134373047006
 21
554.15789868055458
 31
0.0
  0
CIRCLE
  8
0
  6
CONTINUOUS
 62
               3
  5
2A1
 10
-670.49092182737718
 20
528.15789868055469
 30
0.0
 40
41.849999999999994
  0
CIRCLE
  8
0
  6
CONTINUOUS
 62
               3
  5
2A2
 10
-670.49092182737718
 20
528.15789868055469
 30
0.0
 40
40.75
  0
CIRCLE
  8
0
  6
CONTINUOUS
 62
               3
  5
2A3
 10
-670.49092182737763
 20
528.15789868055469
 30
0.0
 40
36.399999999999999
  0
CIRCLE
  8
0
  6
CONTINUOUS
 62
               3
  5
2A4
 10
-670.49092182737763
 20
528.15789868055469
 30
0.0
 40
32.25
  0
LINE
  8
0
  6
CONTINUOUS
 62
               3
  5
2A5
 10
-643.44408744699217
 20
501.11106430016923
 30
0.0
 11
-641.67632049402528
 21
499.34329734720279
 31
0.0
  0
LINE
  8
0
  6
CONTINUOUS
 62
               3
  5
2A6
 10
-697.53775620775627
 20
501.11106430016241
 30
0.0
 11
-699.3055231607284
 21
499.34329734720222
 31
0.0
  0
ARC
  8
0
  6
CONTINUOUS
 62
               3
  5
2A7
 10
-670.49092182737763
 20
528.15789868055469
 30
0.0
 40
38.25
 50
224.99999999984198
 51
314.99999999976745
  0
LINE
  8
0
  6
CONTINUOUS
 62
               3
  5
2A8
 10
348.58950007571519
 20
554.15789868055526
 30
0.0
 11
310.42865626953056
 21
554.15789868055526
 31
0.0
  0
CIRCLE
  8
0
  6
CONTINUOUS
 62
               3
  5
2A9
 10
329.50907817262345
 20
528.15789868055526
 30
0.0
 40
41.849999999999994
  0
CIRCLE
  8
0
  6
CONTINUOUS
 62
               3
  5
2AA
 10
329.50907817262345
 20
528.15789868055526
 30
0.0
 40
40.75
  0
CIRCLE
  8
0
  6
CONTINUOUS
 62
               3
  5
2AB
 10
329.50907817262288
 20
528.15789868055526
 30
0.0
 40
36.399999999999999
  0
CIRCLE
  8
0
  6
CONTINUOUS
 62
               3
  5
2AC
 10
329.50907817262288
 20
528.15789868055526
 30
0.0
 40
32.25
  0
LINE
  8
0
  6
CONTINUOUS
 62
               3
  5
2AD
 10
356.55591255300834
 20
501.11106430016986
 30
0.0
 11
358.32367950597524
 21
499.34329734720342
 31
0.0
  0
LINE
  8
0
  6
CONTINUOUS
 62
               3
  5
2AE
 10
302.46224379224435
 20
501.11106430016304
 30
0.0
 11
300.69447683927211
 21
499.34329734720285
 31
0.0
  0
ARC
  8
0
  6
CONTINUOUS
 62
               3
  5
2AF
 10
329.50907817262288
 20
528.15789868055526
 30
0.0
 40
38.25
 50
224.99999999984195
 51
314.99999999976745
  0
CIRCLE
  8
0
  6
CONTINUOUS
 62
               3
  5
2B0
 10
338.79560138893083
 20
-526.78898048158453
 30
0.0
 40
75.0
  0
CIRCLE
  8
0
  6
CONTINUOUS
 62
               3
  5
2B1
 10
338.79560138893083
 20
-526.78898048158453
 30
0.0
 40
52.5
  0
LINE
  8
0
  6
CONTINUOUS
 62
               3
  5
2B2
 10
252.5851031883056
 20
-506.78898048158447
 30
0.0
 11
266.51143991492546
 21
-506.78898048158447
 31
0.0
  0
LINE
  8
0
  6
CONTINUOUS
 62
               3
  5
2B3
 10
266.51143991492546
 20
-546.78898048158453
 30
0.0
 11
252.5851031883056
 21
-546.78898048158453
 31
0.0
  0
ARC
  8
0
  6
CONTINUOUS
 62
               3
  5
2B4
 10
338.79560138893083
 20
-526.78898048158453
 30
0.0
 40
88.5
 50
166.93897588503955
 51
193.06102411461561
  0
LINE
  8
0
  6
CONTINUOUS
 62
               3
  5
2B5
 10
318.79560138893083
 20
-612.99947868220943
 30
0.0
 11
318.79560138893083
 21
-599.07314195558956
 31
0.0
  0
LINE
  8
0
  6
CONTINUOUS
 62
               3
  5
2B6
 10
358.79560138893083
 20
-599.07314195558956
 30
0.0
 11
358.79560138893083
 21
-612.99947868220943
 31
0.0
  0
ARC
  8
0
  6
CONTINUOUS
 62
               3
  5
2B7
 10
338.79560138893083
 20
-526.78898048158453
 30
0.0
 40
88.5
 50
256.93897588495338
 51
283.06102411452952
  0
LINE
  8
0
  6
CONTINUOUS
 62
               3
  5
2B8
 10
425.0060995895555
 20
-546.78898048158453
 30
0.0
 11
411.07976286293507
 21
-546.78898048158453
 31
0.0
  0
LINE
  8
0
  6
CONTINUOUS
 62
               3
  5
2B9
 10
411.07976286293507
 20
-506.78898048158447
 30
0.0
 11
425.0060995895555
 21
-506.78898048158447
 31
0.0
  0
ARC
  8
0
  6
CONTINUOUS
 62
               3
  5
2BA
 10
338.79560138893083
 20
-526.78898048158453
 30
0.0
 40
88.5
 50
346.9389758848672
 51
373.06102411444323
  0
LINE
  8
0
  6
CONTINUOUS
 62
               3
  5
2BB
 10
358.79560138893083
 20
-440.57848228095889
 30
0.0
 11
358.79560138893083
 21
-454.50481900757944
 31
0.0
  0
LINE
  8
0
  6
CONTINUOUS
 62
               3
  5
2BC
 10
318.79560138893083
 20
-454.50481900757944
 30
0.0
 11
318.79560138893083
 21
-440.57848228095889
 31
0.0
  0
ARC
  8
0
  6
CONTINUOUS
 62
               3
  5
2BD
 10
338.79560138893083
 20
-526.78898048158453
 30
0.0
 40
88.5
 50
76.938975885125828
 51
103.06102411470188
  0
LINE
  8
0
  6
CONTINUOUS
 62
               3
  5
2BE
 10
291.12747786806978
 20
-548.78898048158499
 30
0.0
 11
386.46372490979076
 21
-548.78898048158499
 31
0.0
  0
ARC
  8
0
  6
CONTINUOUS
 62
               3
  5
2BF
 10
351.29921303831196
 20
-518.0825828539655
 30
0.0
 40
54.763804151667173
 50
141.38591763670254
 51
145.15009542081481
  0
ARC
  8
0
  6
CONTINUOUS
 62
               3
  5
2C0
 10
338.79560138893083
 20
-526.78898048158453
 30
0.0
 40
51.5
 50
334.71098847313709
 51
410.95932736324704
  0
ARC
  8
0
  6
CONTINUOUS
 62
               3
  5
2C1
 10
338.79560138893083
 20
-526.78898048158453
 30
0.0
 40
51.5
 50
129.04067263623628
 51
205.2890115263458
  0
ARC
  8
0
  6
CONTINUOUS
 62
               3
  5
2C2
 10
338.79560138893083
 20
-526.78898048158453
 30
0.0
 40
77.5
 50
104.95524831654288
 51
128.57288309091018
  0
ARC
  8
0
  6
CONTINUOUS
 62
               3
  5
2C3
 10
338.79560138893083
 20
-526.78898048158453
 30
0.0
 40
77.5
 50
14.955248316628946
 51
75.044751683284815
  0
ARC
  8
0
  6
CONTINUOUS
 62
               3
  5
2C4
 10
338.79560138893083
 20
-526.78898048158453
 30
0.0
 40
77.5
 50
321.42711690865838
 51
345.04475168302628
  0
LINE
  8
0
  6
CONTINUOUS
 62
               3
  5
2C5
 10
198.79560138893083
 20
-581.78898048158453
 30
0.0
 11
199.46715751489506
 21
-581.78898048158453
 31
0.0
  0
LINE
  8
0
  6
CONTINUOUS
 62
               3
  5
2C6
 10
201.96715751489552
 20
-584.28898048158453
 30
0.0
 11
199.46715751489506
 21
-581.78898048158453
 31
0.0
  0
LINE
  8
0
  6
CONTINUOUS
 62
               3
  5
2C7
 10
198.79560138893083
 20
-471.78898048158447
 30
0.0
 11
199.46715751489506
 21
-471.78898048158447
 31
0.0
  0
LINE
  8
0
  6
CONTINUOUS
 62
               3
  5
2C8
 10
201.96715751489506
 20
-469.28898048158447
 30
0.0
 11
199.46715751489506
 21
-471.78898048158447
 31
0.0
  0
LINE
  8
0
  6
CONTINUOUS
 62
               3
  5
2C9
 10
199.46715751489506
 20
-471.78898048158447
 30
0.0
 11
199.46715751489506
 21
-581.78898048158453
 31
0.0
  0
LINE
  8
0
  6
CONTINUOUS
 62
               3
  5
2CA
 10
293.30526560255288
 20
-466.09938346324287
 30
0.0
 11
201.96715751489506
 21
-469.28898048158447
 31
0.0
  0
LINE
  8
0
  6
CONTINUOUS
 62
               3
  5
2CB
 10
273.95912967237979
 20
-586.80299554655221
 30
0.0
 11
201.96715751489563
 21
-584.28898048158453
 31
0.0
  0
LINE
  8
0
  6
CONTINUOUS
 62
               3
  5
2CC
 10
193.79560138893083
 20
-471.96053660754859
 30
0.0
 11
193.79560138893083
 21
-581.88898048158444
 31
0.0
  0
LINE
  8
0
  6
CONTINUOUS
 62
               3
  5
2CD
 10
198.79560138893083
 20
-584.38898048158444
 30
0.0
 11
198.79560138893083
 21
-469.18898048158434
 31
0.0
  0
LINE
  8
0
  6
CONTINUOUS
 62
               3
  5
2CE
 10
198.79560138893083
 20
-469.18898048158434
 30
0.0
 11
196.29560138893083
 21
-469.18898048158434
 31
0.0
  0
LINE
  8
0
  6
CONTINUOUS
 62
               3
  5
2CF
 10
198.79560138893083
 20
-584.38898048158444
 30
0.0
 11
196.29560138893083
 21
-584.38898048158444
 31
0.0
  0
ARC
  8
0
  6
CONTINUOUS
 62
               3
  5
2D0
 10
196.29560138893083
 20
-581.88898048158444
 30
0.0
 40
2.5
 50
179.99999999982765
 51
269.99999999974017
  0
ARC
  8
0
  6
CONTINUOUS
 62
               3
  5
2D1
 10
196.29560138893083
 20
-471.68898048158434
 30
0.0
 40
2.5
 50
89.999999999915119
 51
179.99999999982765
  0
LINE
  8
0
  6
CONTINUOUS
 62
               3
  5
2D2
 10
306.35719822231323
 20
-486.7889804815847
 30
0.0
 11
338.79560138893083
 21
-486.7889804815847
 31
0.0
  0
LINE
  8
0
  6
CONTINUOUS
 62
               3
  5
2D3
 10
338.79560138893083
 20
-486.7889804815847
 30
0.0
 11
372.79927766076952
 21
-486.7889804815847
 31
0.0
  0
LINE
  8
0
  6
CONTINUOUS
 62
               3
  5
2D4
 10
201.96715751489552
 20
-584.28898048158453
 30
0.0
 11
201.96715751489506
 21
-469.28898048158447
 31
0.0
  0
ARC
  8
0
  6
CONTINUOUS
 62
               3
  5
2D5
 10
293.1307681190404
 20
-461.10242932814725
 30
0.0
 40
5.0
 50
271.99999999973971
 51
304.80675787013547
  0
LINE
  8
0
  6
CONTINUOUS
 62
               3
  5
2D6
 10
393.79560138893072
 20
-666.78898048158453
 30
0.0
 11
393.79560138893072
 21
-666.11742435562019
 31
0.0
  0
LINE
  8
0
  6
CONTINUOUS
 62
               3
  5
2D7
 10
396.29560138893072
 20
-663.61742435561973
 30
0.0
 11
393.79560138893072
 21
-666.11742435562019
 31
0.0
  0
LINE
  8
0
  6
CONTINUOUS
 62
               3
  5
2D8
 10
283.79560138893072
 20
-666.78898048158453
 30
0.0
 11
283.79560138893072
 21
-666.11742435562019
 31
0.0
  0
LINE
  8
0
  6
CONTINUOUS
 62
               3
  5
2D9
 10
281.29560138893072
 20
-663.61742435562019
 30
0.0
 11
283.79560138893072
 21
-666.11742435562019
 31
0.0
  0
LINE
  8
0
  6
CONTINUOUS
 62
               3
  5
2DA
 10
283.79560138893072
 20
-666.11742435562019
 30
0.0
 11
393.79560138893072
 21
-666.11742435562019
 31
0.0
  0
LINE
  8
0
  6
CONTINUOUS
 62
               3
  5
2DB
 10
283.96715751489484
 20
-671.78898048158453
 30
0.0
 11
393.89560138893074
 21
-671.78898048158453
 31
0.0
  0
LINE
  8
0
  6
CONTINUOUS
 62
               3
  5
2DC
 10
396.39560138893074
 20
-666.78898048158453
 30
0.0
 11
281.1956013889307
 21
-666.78898048158453
 31
0.0
  0
LINE
  8
0
  6
CONTINUOUS
 62
               3
  5
2DD
 10
281.1956013889307
 20
-666.78898048158453
 30
0.0
 11
281.1956013889307
 21
-669.28898048158453
 31
0.0
  0
LINE
  8
0
  6
CONTINUOUS
 62
               3
  5
2DE
 10
396.39560138893074
 20
-666.78898048158453
 30
0.0
 11
396.39560138893074
 21
-669.28898048158453
 31
0.0
  0
ARC
  8
0
  6
CONTINUOUS
 62
               3
  5
2DF
 10
393.89560138893074
 20
-669.28898048158453
 30
0.0
 40
2.5
 50
269.99999999974142
 51
359.9999999996553
  0
ARC
  8
0
  6
CONTINUOUS
 62
               3
  5
2E0
 10
283.6956013889307
 20
-669.28898048158453
 30
0.0
 40
2.5
 50
179.99999999982765
 51
269.99999999974142
  0
LINE
  8
0
  6
CONTINUOUS
 62
               3
  5
2E1
 10
396.29560138893072
 20
-663.61742435561973
 30
0.0
 11
281.29560138893072
 21
-663.61742435562019
 31
0.0
  0
LINE
  8
0
  6
CONTINUOUS
 62
               3
  5
2E2
 10
399.48519840727187
 20
-572.27931626796294
 30
0.0
 11
396.29560138893072
 21
-663.61742435561973
 31
0.0
  0
ARC
  8
0
  6
CONTINUOUS
 62
               3
  5
2E3
 10
404.48215254236737
 20
-572.45381375147554
 30
0.0
 40
5.0
 50
145.19324212943334
 51
177.99999999983041
  0
LINE
  8
0
  6
CONTINUOUS
 62
               3
  5
2E4
 10
278.7815863239627
 20
-591.62545219813546
 30
0.0
 11
281.29560138893072
 21
-663.61742435562019
 31
0.0
  0
ARC
  8
0
  6
CONTINUOUS
 62
               3
  5
2E5
 10
273.78463218886731
 20
-591.7999496816476
 30
0.0
 40
5.0
 50
1.9999999999958187
 51
87.999999999915318
  0
CIRCLE
  8
0
  6
CONTINUOUS
 62
               3
  5
2E6
 10
338.79560138893083
 20
-526.78898048158453
 30
0.0
 40
59.0
  0
LINE
  8
0
  6
CONTINUOUS
 62
               3
  5
2E7
 10
263.79560138893083
 20
-835.28841423016888
 30
0.0
 11
413.79560138893083
 21
-835.28841423016888
 31
0.0
  0
LINE
  8
0
  6
CONTINUOUS
 62
               3
  5
2E8
 10
250.29560138893061
 20
-845.28841423016888
 30
0.0
 11
250.29560138893061
 21
-852.28841423016843
 31
0.0
  0
LINE
  8
0
  6
CONTINUOUS
 62
               3
  5
2E9
 10
250.29560138893061
 20
-845.28841423016888
 30
0.0
 11
263.79560138893083
 21
-835.28841423016888
 31
0.0
  0
ARC
  8
0
  6
CONTINUOUS
 62
               3
  5
2EA
 10
261.79560138893095
 20
-856.87098992512415
 30
0.0
 40
4.9999999999999991
 50
0.0
 51
66.421821521734969
  0
LINE
  8
0
  6
CONTINUOUS
 62
               3
  5
2EB
 10
250.29560138893061
 20
-852.28841423016843
 30
0.0
 11
427.29560138893049
 21
-852.28841423016843
 31
0.0
  0
ARC
  8
0
  6
CONTINUOUS
 62
               3
  5
2EC
 10
283.79560138893083
 20
-942.28841423016888
 30
0.0
 40
19.999999999999996
 50
148.21166938280612
 51
167.26981986152714
  0
LINE
  8
0
  6
CONTINUOUS
 62
               3
  5
2ED
 10
266.79560138893095
 20
-856.87098992512415
 30
0.0
 11
266.79560138893095
 21
-931.75276047731609
 31
0.0
  0
LINE
  8
0
  6
CONTINUOUS
 62
               3
  5
2EE
 10
410.79560138893072
 20
-926.75276047731563
 30
0.0
 11
410.79560138893072
 21
-856.87098992512415
 31
0.0
  0
LINE
  8
0
  6
CONTINUOUS
 62
               3
  5
2EF
 10
266.79560138893095
 20
-931.75276047731609
 30
0.0
 11
410.29560138893117
 21
-931.75276047731609
 31
0.0
  0
LINE
  8
0
  6
CONTINUOUS
 62
               3
  5
2F0
 10
318.79560138893083
 20
-852.28841423016843
 30
0.0
 11
318.79560138893083
 21
-835.28841423016888
 31
0.0
  0
LINE
  8
0
  6
CONTINUOUS
 62
               3
  5
2F1
 10
358.79560138893083
 20
-835.28841423016888
 30
0.0
 11
358.79560138893083
 21
-852.28841423016843
 31
0.0
  0
LINE
  8
0
  6
CONTINUOUS
 62
               3
  5
2F2
 10
318.79560138893083
 20
-845.28841423016888
 30
0.0
 11
358.79560138893083
 21
-845.28841423016888
 31
0.0
  0
LINE
  8
0
  6
CONTINUOUS
 62
               3
  5
2F3
 10
266.51143991492546
 20
-835.28841423016888
 30
0.0
 11
266.51143991492546
 21
-852.28841423016843
 31
0.0
  0
LINE
  8
0
  6
CONTINUOUS
 62
               3
  5
2F4
 10
252.5851031883056
 20
-845.28841423016888
 30
0.0
 11
252.5851031883056
 21
-852.28841423016843
 31
0.0
  0
LINE
  8
0
  6
CONTINUOUS
 62
               3
  5
2F5
 10
250.29560138893061
 20
-845.28841423016888
 30
0.0
 11
252.5851031883056
 21
-845.28841423016888
 31
0.0
  0
LINE
  8
0
  6
CONTINUOUS
 62
               3
  5
2F6
 10
252.5851031883056
 20
-845.28841423016888
 30
0.0
 11
266.51143991492546
 21
-835.28841423016888
 31
0.0
  0
LINE
  8
0
  6
CONTINUOUS
 62
               3
  5
2F7
 10
427.29560138893049
 20
-845.28841423016888
 30
0.0
 11
427.29560138893049
 21
-852.28841423016843
 31
0.0
  0
LINE
  8
0
  6
CONTINUOUS
 62
               3
  5
2F8
 10
427.29560138893049
 20
-845.28841423016888
 30
0.0
 11
413.79560138893083
 21
-835.28841423016888
 31
0.0
  0
ARC
  8
0
  6
CONTINUOUS
 62
               3
  5
2F9
 10
415.79560138893072
 20
-856.87098992512415
 30
0.0
 40
4.9999999999999991
 50
113.57817847809247
 51
179.99999999982765
  0
LINE
  8
0
  6
CONTINUOUS
 62
               3
  5
2FA
 10
411.07976286293507
 20
-835.28841423016888
 30
0.0
 11
411.07976286293507
 21
-852.28841423016843
 31
0.0
  0
LINE
  8
0
  6
CONTINUOUS
 62
               3
  5
2FB
 10
425.00609958955607
 20
-845.28841423016888
 30
0.0
 11
425.00609958955607
 21
-852.28841423016843
 31
0.0
  0
LINE
  8
0
  6
CONTINUOUS
 62
               3
  5
2FC
 10
427.29560138893049
 20
-845.28841423016888
 30
0.0
 11
425.00609958955607
 21
-845.28841423016888
 31
0.0
  0
LINE
  8
0
  6
CONTINUOUS
 62
               3
  5
2FD
 10
425.00609958955607
 20
-845.28841423016888
 30
0.0
 11
411.07976286293507
 21
-835.28841423016888
 31
0.0
  0
ARC
  8
0
  6
CONTINUOUS
 62
               3
  5
2FE
 10
273.79560138893083
 20
-1063.7884142301689
 30
0.0
 40
2.4999999999999996
 50
89.999999999913825
 51
269.99999999974142
  0
ARC
  8
0
  6
CONTINUOUS
 62
               3
  5
2FF
 10
413.79560138893083
 20
-1063.7884142301689
 30
0.0
 40
2.4999999999999996
 50
269.99999999974142
 51
449.99999999956907
  0
LINE
  8
0
  6
CONTINUOUS
 62
               3
  5
300
 10
198.79560138893083
 20
-1056.2884142301689
 30
0.0
 11
199.46715751489518
 21
-1056.2884142301689
 31
0.0
  0
LINE
  8
0
  6
CONTINUOUS
 62
               3
  5
301
 10
201.96715751489529
 20
-1058.7884142301682
 30
0.0
 11
199.46715751489518
 21
-1056.2884142301689
 31
0.0
  0
LINE
  8
0
  6
CONTINUOUS
 62
               3
  5
302
 10
201.96715751489609
 20
-1058.7884142301689
 30
0.0
 11
244.13226777117342
 21
-1060.260852326023
 31
0.0
  0
LINE
  8
0
  6
CONTINUOUS
 62
               3
  5
303
 10
262.33113529486337
 20
-1076.5601036564549
 30
0.0
 11
247.49330419359359
 21
-1061.7222725551856
 31
0.0
  0
ARC
  8
0
  6
CONTINUOUS
 62
               3
  5
304
 10
258.79560138893083
 20
-1080.095637562388
 30
0.0
 40
4.9999999999999991
 50
0.0
 51
44.999999999957062
  0
LINE
  8
0
  6
CONTINUOUS
 62
               3
  5
305
 10
198.79560138893083
 20
-946.28841423016888
 30
0.0
 11
199.46715751489518
 21
-946.28841423016888
 31
0.0
  0
LINE
  8
0
  6
CONTINUOUS
 62
               3
  5
306
 10
201.96715751489529
 20
-943.78841423016888
 30
0.0
 11
199.46715751489518
 21
-946.28841423016888
 31
0.0
  0
LINE
  8
0
  6
CONTINUOUS
 62
               3
  5
307
 10
201.96715751489518
 20
-943.78841423016888
 30
0.0
 11
259.58463371706949
 21
-941.77636762501652
 31
0.0
  0
LINE
  8
0
  6
CONTINUOUS
 62
               3
  5
308
 10
199.46715751489518
 20
-946.28841423016888
 30
0.0
 11
199.46715751489518
 21
-1056.2884142301689
 31
0.0
  0
LINE
  8
0
  6
CONTINUOUS
 62
               3
  5
309
 10
198.79560138893083
 20
-1058.8884142301688
 30
0.0
 11
198.79560138893083
 21
-943.68841423016897
 31
0.0
  0
LINE
  8
0
  6
CONTINUOUS
 62
               3
  5
30A
 10
198.79560138893083
 20
-943.68841423016897
 30
0.0
 11
196.29560138893083
 21
-943.68841423016897
 31
0.0
  0
ARC
  8
0
  6
CONTINUOUS
 62
               3
  5
30B
 10
196.29560138893083
 20
-946.18841423016897
 30
0.0
 40
2.5
 50
89.999999999915119
 51
179.99999999982242
  0
LINE
  8
0
  6
CONTINUOUS
 62
               3
  5
30C
 10
193.79560138893083
 20
-946.18841423016897
 30
0.0
 11
193.79560138893083
 21
-1056.3884142301688
 31
0.0
  0
LINE
  8
0
  6
CONTINUOUS
 62
               3
  5
30D
 10
198.79560138893083
 20
-1058.8884142301688
 30
0.0
 11
196.29560138893083
 21
-1058.8884142301688
 31
0.0
  0
ARC
  8
0
  6
CONTINUOUS
 62
               3
  5
30E
 10
196.29560138893083
 20
-1056.3884142301688
 30
0.0
 40
2.5
 50
179.99999999982242
 51
269.99999999974017
  0
LINE
  8
0
  6
CONTINUOUS
 62
               3
  5
30F
 10
201.96715751489529
 20
-943.78841423016888
 30
0.0
 11
201.96715751489609
 21
-1058.7884142301689
 31
0.0
  0
ARC
  8
0
  6
CONTINUOUS
 62
               3
  5
310
 10
243.95777028766094
 20
-1065.2578064611184
 30
0.0
 40
5.0
 50
44.999999999958909
 51
87.999999999915318
  0
ARC
  8
0
  6
CONTINUOUS
 62
               3
  5
311
 10
259.41013623355701
 20
-936.77941348992113
 30
0.0
 40
5.0
 50
271.99999999973971
 51
347.26981986135308
  0
CIRCLE
  8
0
  6
CONTINUOUS
 62
               3
  5
312
 10
338.79560138893083
 20
-1001.2884142301689
 30
0.0
 40
48.5
  0
CIRCLE
  8
0
  6
CONTINUOUS
 62
               3
  5
313
 10
338.79560138893083
 20
-1001.2884142301689
 30
0.0
 40
47.299999999999997
  0
LINE
  8
0
  6
CONTINUOUS
 62
               3
  5
314
 10
306.97579623553628
 20
-1033.1082193835634
 30
0.0
 11
305.34945063880713
 21
-1034.7345649802926
 31
0.0
  0
LINE
  8
0
  6
CONTINUOUS
 62
               3
  5
315
 10
370.6154065423255
 20
-1033.1082193835634
 30
0.0
 11
372.24175213905454
 21
-1034.7345649802926
 31
0.0
  0
ARC
  8
0
  6
CONTINUOUS
 62
               3
  5
316
 10
338.79560138893083
 20
-1001.2884142301689
 30
0.0
 40
45.0
 50
224.99999999978439
 51
314.9999999996985
  0
CIRCLE
  8
0
  6
CONTINUOUS
 62
               3
  5
317
 10
338.79560138893083
 20
-1001.2884142301689
 30
0.0
 40
57.600000000000001
  0
ARC
  8
0
  6
CONTINUOUS
 62
               3
  5
318
 10
316.2956013889314
 20
-1063.7884142301689
 30
0.0
 40
2.4999999999999996
 50
269.99999999974142
 51
449.99999999956907
  0
ARC
  8
0
  6
CONTINUOUS
 62
               3
  5
319
 10
361.2956013889314
 20
-1063.7884142301689
 30
0.0
 40
2.4999999999999996
 50
89.999999999911211
 51
269.99999999974142
  0
LINE
  8
0
  6
CONTINUOUS
 62
               3
  5
31A
 10
273.79560138893083
 20
-1066.2884142301689
 30
0.0
 11
316.2956013889314
 21
-1066.2884142301689
 31
0.0
  0
LINE
  8
0
  6
CONTINUOUS
 62
               3
  5
31B
 10
273.79560138893083
 20
-1061.2884142301689
 30
0.0
 11
316.2956013889314
 21
-1061.2884142301689
 31
0.0
  0
LINE
  8
0
  6
CONTINUOUS
 62
               3
  5
31C
 10
361.2956013889314
 20
-1061.2884142301689
 30
0.0
 11
413.79560138893083
 21
-1061.2884142301689
 31
0.0
  0
LINE
  8
0
  6
CONTINUOUS
 62
               3
  5
31D
 10
361.2956013889314
 20
-1066.2884142301689
 30
0.0
 11
413.79560138893083
 21
-1066.2884142301689
 31
0.0
  0
LINE
  8
0
  6
DASHED2
 62
               3
  5
31E
 10
-297.25092182737768
 20
82.107898680553603
 30
0.0
 11
-273.73092182737736
 21
82.107898680553603
 31
0.0
  0
LINE
  8
0
  6
DASHED2
 62
               3
  5
31F
 10
-273.73092182737878
 20
78.90789868055333
 30
0.0
 11
-297.2509218273791
 21
78.90789868055333
 31
0.0
  0
LINE
  8
0
  6
DASHED2
 62
               3
  5
320
 10
-43.73092182737679
 20
82.107898680553831
 30
0.0
 11
-67.250921827377098
 21
82.107898680553831
 31
0.0
  0
LINE
  8
0
  6
DASHED2
 62
               3
  5
321
 10
-67.250921827375677
 20
78.907898680553444
 30
0.0
 11
-43.730921827375369
 21
78.907898680553444
 31
0.0
  0
LINE
  8
0
  6
DASHDOT
 62
               4
  5
322
 10
-170.49092182737726
 20
1080.0956375623878
 30
0.0
 11
-170.49092182737724
 21
886.09563756238765
 31
0.0
  0
LINE
  8
0
  6
DASHDOT
 62
               4
  5
323
 10
-352.81936570141329
 20
983.09563756238776
 30
0.0
 11
11.837522046658819
 21
983.09563756238776
 31
0.0
  0
LINE
  8
0
  6
DASHDOT
 62
               4
  5
324
 10
329.50907817262288
 20
731.58532172531523
 30
0.0
 11
329.50907817262299
 21
-197.71417339151725
 31
0.0
  0
LINE
  8
0
  6
DASHDOT
 62
               4
  5
325
 10
-170.49092182737712
 20
731.58532172531523
 30
0.0
 11
-170.49092182737706
 21
-197.71417339151725
 31
0.0
  0
LINE
  8
0
  6
DASHDOT
 62
               4
  5
326
 10
-670.49092182737718
 20
731.58532172531523
 30
0.0
 11
-670.49092182737718
 21
-197.71417339151725
 31
0.0
  0
LINE
  8
0
  6
DASHDOT
 62
               4
  5
327
 10
-285.49092182737752
 20
192.64800067855947
 30
0.0
 11
-285.49092182737752
 21
28.26963905906905
 31
0.0
  0
LINE
  8
0
  6
DASHDOT
 62
               4
  5
328
 10
-55.490921827376951
 20
192.6480006785597
 30
0.0
 11
-55.490921827376951
 21
28.269639059069164
 31
0.0
  0
LINE
  8
0
  6
DASHDOT
 62
               4
  5
329
 10
-607.22079971603262
 20
528.15789868055469
 30
0.0
 11
-733.12141875504312
 21
528.15789868055469
 31
0.0
  0
LINE
  8
0
  6
DASHDOT
 62
               4
  5
32A
 10
392.7792002839679
 20
528.15789868055526
 30
0.0
 11
266.8785812449575
 21
528.15789868055526
 31
0.0
  0
LINE
  8
0
  6
DASHDOT
 62
               4
  5
32B
 10
-247.31936570141266
 20
528.15789868055481
 30
0.0
 11
-327.99092182737695
 21
528.15789868055469
 31
0.0
  0
LINE
  8
0
  6
DASHDOT
 62
               4
  5
32C
 10
-93.662477953341522
 20
528.15789868055481
 30
0.0
 11
-12.990921827377235
 21
528.15789868055469
 31
0.0
  0
LINE
  8
0
  6
DASHDOT
 62
               4
  5
32D
 10
-270.49092182737701
 20
-623.32522057218489
 30
0.0
 11
-270.49092182737695
 21
-507.32522057218483
 31
0.0
  0
LINE
  8
0
  6
DASHDOT
 62
               4
  5
32E
 10
-328.49092182737695
 20
-565.32522057218489
 30
0.0
 11
-212.49092182737695
 21
-565.32522057218489
 31
0.0
  0
LINE
  8
0
  6
DASHDOT
 62
               4
  5
32F
 10
-320.49092182737695
 20
-573.32522057218489
 30
0.0
 11
-220.49092182737695
 21
-573.32522057218489
 31
0.0
  0
LINE
  8
0
  6
DASHDOT
 62
               4
  5
330
 10
-434.41715008396591
 20
-573.32522057218489
 30
0.0
 11
-368.94785426389655
 21
-573.32522057218489
 31
0.0
  0
LINE
  8
0
  6
DASHDOT
 62
               4
  5
331
 10
-492.99092182737695
 20
-565.32522057218489
 30
0.0
 11
-394.39092182737687
 21
-565.32522057218489
 31
0.0
  0
LINE
  8
0
  6
DASHDOT
 62
               4
  5
332
 10
-106.56469357078802
 20
-573.32522057218512
 30
0.0
 11
-172.03398939085736
 21
-573.32522057218489
 31
0.0
  0
LINE
  8
0
  6
DASHDOT
 62
               4
  5
333
 10
-47.990921827376951
 20
-565.32522057218512
 30
0.0
 11
-146.59092182737703
 21
-565.32522057218489
 31
0.0
  0
LINE
  8
0
  6
DASHDOT
 62
               4
  5
334
 10
-270.49092182737701
 20
-342.82522057218483
 30
0.0
 11
-270.49092182737701
 21
-466.86828813566507
 31
0.0
  0
LINE
  8
0
  6
DASHDOT
 62
               4
  5
335
 10
338.79560138893083
 20
-418.28898048158447
 30
0.0
 11
338.79560138893083
 21
-688.83576728141088
 31
0.0
  0
LINE
  8
0
  6
DASHDOT
 62
               4
  5
336
 10
176.79560138893095
 20
-526.78898048158453
 30
0.0
 11
447.29560138893106
 21
-526.78898048158453
 31
0.0
  0
LINE
  8
0
  6
DASHDOT
 62
               4
  5
337
 10
338.79560138893083
 20
-717.38898048158467
 30
0.0
 11
338.79560138893083
 21
-593.7889804815843
 31
0.0
  0
LINE
  8
0
  6
DASHDOT
 62
               4
  5
338
 10
138.79560138893106
 20
-526.7889804815843
 30
0.0
 11
271.79560138893106
 21
-526.7889804815843
 31
0.0
  0
LINE
  8
0
  6
DASHDOT
 62
               4
  5
339
 10
407.32082616415556
 20
-1001.2884142301689
 30
0.0
 11
177.06698809550261
 21
-1001.2884142301689
 31
0.0
  0
LINE
  8
0
  6
DASHDOT
 62
               4
  5
33A
 10
338.79560138893083
 20
-815.28841423016888
 30
0.0
 11
338.79560138893083
 21
-1066.2884142301689
 31
0.0
  0
LINE
  8
0
  6
DASHDOT
 62
               4
  5
33B
 10
288.79560138893083
 20
-1015.7884142301689
 30
0.0
 11
388.79560138893106
 21
-1015.7884142301689
 31
0.0
  0
LINE
  8
0
  6
DASHDOT
 62
               4
  5
33C
 10
138.79560138893083
 20
-1007.7884142301689
 30
0.0
 11
213.19560138893081
 21
-1007.7884142301689
 31
0.0
  0
LINE
  8
0
  6
DASHED2
 62
               4
  5
33D
 10
-214.99092182737712
 20
621.65789868055469
 30
0.0
 11
-125.99092182737711
 21
621.65789868055469
 31
0.0
  0
LINE
  8
0
  6
DASHED2
 62
               4
  5
33E
 10
-714.99092182737718
 20
621.65789868055469
 30
0.0
 11
-625.99092182737718
 21
621.65789868055469
 31
0.0
  0
LINE
  8
0
  6
DASHED2
 62
               4
  5
33F
 10
285.07550094968843
 20
621.65789868055469
 30
0.0
 11
374.07550094968843
 21
621.65789868055469
 31
0.0
  0
LINE
  8
0
  6
DASHED2
 62
               4
  5
340
 10
285.00907817262288
 20
71.657898680554695
 30
0.0
 11
374.00907817262288
 21
71.657898680554695
 31
0.0
  0
LINE
  8
0
  6
DASHED2
 62
               4
  5
341
 10
374.00907817262288
 20
136.65789868055469
 30
0.0
 11
374.00907817262288
 21
71.657898680554695
 31
0.0
  0
LINE
  8
0
  6
DASHED2
 62
               4
  5
342
 10
285.00907817262288
 20
136.5594709351036
 30
0.0
 11
285.00907817262288
 21
71.657898680554695
 31
0.0
  0
LINE
  8
0
  6
DASHED2
 62
               4
  5
343
 10
284.50907817262083
 20
61.657898680553558
 30
0.0
 11
284.5090781726214
 21
6.6578986805546947
 31
0.0
  0
LINE
  8
0
  6
DASHED2
 62
               4
  5
344
 10
284.50907817262083
 20
61.657898680553558
 30
0.0
 11
329.50907817262311
 21
61.657898680555036
 31
0.0
  0
LINE
  8
0
  6
DASHED2
 62
               4
  5
345
 10
374.50907817262629
 20
61.657898680554581
 30
0.0
 11
329.50907817262424
 21
61.657898680555036
 31
0.0
  0
LINE
  8
0
  6
DASHED2
 62
               4
  5
346
 10
374.50907817262629
 20
61.657898680554581
 30
0.0
 11
374.50907817262674
 21
6.6578986805558316
 31
0.0
  0
LINE
  8
0
  6
DASHED2
 62
               4
  5
347
 10
317.74907817262255
 20
82.10789868055349
 30
0.0
 11
317.74907817262255
 21
90.634027179860709
 31
0.0
  0
LINE
  8
0
  6
DASHED2
 62
               4
  5
348
 10
323.63805091835701
 20
90.634027179860709
 30
0.0
 11
323.63805091835701
 21
82.10789868055349
 31
0.0
  0
LINE
  8
0
  6
DASHED2
 62
               4
  5
349
 10
320.69356454549001
 20
91.707898680553626
 30
0.0
 11
338.32459179975598
 21
91.707898680553626
 31
0.0
  0
LINE
  8
0
  6
DASHED2
 62
               4
  5
34A
 10
341.26907817262298
 20
82.10789868055349
 30
0.0
 11
341.26907817262298
 21
90.634027179860709
 31
0.0
  0
LINE
  8
0
  6
DASHED2
 62
               4
  5
34B
 10
335.38010542688829
 20
82.10789868055349
 30
0.0
 11
335.38010542688829
 21
90.634027179860709
 31
0.0
  0
ARC
  8
0
  6
DASHED2
 62
               4
  5
34C
 10
320.69356454549001
 20
87.134167096437636
 30
0.0
 40
4.5737315841157447
 50
49.925579661593176
 51
130.07442033830333
  0
ARC
  8
0
  6
DASHED2
 62
               4
  5
34D
 10
338.32459179975598
 20
87.134167096437636
 30
0.0
 40
4.5737315841157686
 50
49.925579661593176
 51
130.07442033830387
  0
ARC
  8
0
  6
DASHED2
 62
               4
  5
34E
 10
329.50907817262276
 20
75.12204041103314
 30
0.0
 40
16.58585826952007
 50
69.269184858521257
 51
110.73081514137587
  0
LINE
  8
0
  6
DASHED2
 62
               4
  5
34F
 10
317.74907817262118
 20
78.907898680553103
 30
0.0
 11
317.74907817262118
 21
70.381770181245884
 31
0.0
  0
LINE
  8
0
  6
DASHED2
 62
               4
  5
350
 10
323.63805091835565
 20
70.381770181245884
 30
0.0
 11
323.63805091835565
 21
78.907898680553103
 31
0.0
  0
LINE
  8
0
  6
DASHED2
 62
               4
  5
351
 10
320.69356454548864
 20
69.307898680553308
 30
0.0
 11
338.32459179975416
 21
69.307898680553308
 31
0.0
  0
LINE
  8
0
  6
DASHED2
 62
               4
  5
352
 10
341.26907817262162
 20
78.907898680553103
 30
0.0
 11
341.26907817262162
 21
70.381770181245884
 31
0.0
  0
LINE
  8
0
  6
DASHED2
 62
               4
  5
353
 10
335.38010542688716
 20
78.907898680553103
 30
0.0
 11
335.38010542688716
 21
70.381770181245884
 31
0.0
  0
ARC
  8
0
  6
DASHED2
 62
               4
  5
354
 10
320.69356454548864
 20
73.881630264668729
 30
0.0
 40
4.5737315841157447
 50
229.92557966149019
 51
310.07442033820132
  0
ARC
  8
0
  6
DASHED2
 62
               4
  5
355
 10
338.32459179975416
 20
73.881630264668729
 30
0.0
 40
4.5737315841157686
 50
229.92557966149019
 51
310.07442033820087
  0
ARC
  8
0
  6
DASHED2
 62
               4
  5
356
 10
329.5090781726214
 20
85.893756950073225
 30
0.0
 40
16.58585826952007
 50
249.26918485841776
 51
290.73081514127256
  0
LINE
  8
0
  6
DASHED2
 62
               4
  5
357
 10
323.50907817262276
 20
69.307898680553308
 30
0.0
 11
323.50907817262276
 21
58.788532438229367
 31
0.0
  0
LINE
  8
0
  6
DASHED2
 62
               4
  5
358
 10
335.50907817262276
 20
69.307898680553308
 30
0.0
 11
335.50907817262276
 21
58.788532438229367
 31
0.0
  0
LINE
  8
0
  6
DASHED2
 62
               4
  5
359
 10
324.70907817262258
 20
57.588532438228981
 30
0.0
 11
334.30907817262272
 21
57.588532438228981
 31
0.0
  0
LINE
  8
0
  6
DASHED2
 62
               4
  5
35A
 10
323.50907817262276
 20
58.788532438229367
 30
0.0
 11
324.70907817262258
 21
57.588532438228981
 31
0.0
  0
LINE
  8
0
  6
DASHED2
 62
               4
  5
35B
 10
335.50907817262276
 20
58.788532438229367
 30
0.0
 11
334.30907817262272
 21
57.588532438228981
 31
0.0
  0
LINE
  8
0
  6
DASHED2
 62
               4
  5
35C
 10
317.74907817262255
 20
82.10789868055349
 30
0.0
 11
341.26907817262298
 21
82.10789868055349
 31
0.0
  0
LINE
  8
0
  6
DASHED2
 62
               4
  5
35D
 10
341.26907817262162
 20
78.907898680553103
 30
0.0
 11
317.74907817262118
 21
78.907898680553103
 31
0.0
  0
LINE
  8
0
  6
DASHED2
 62
               4
  5
35E
 10
323.50907817262276
 20
186.72147815648407
 30
0.0
 11
323.50907817262276
 21
91.707898680553626
 31
0.0
  0
LINE
  8
0
  6
DASHED2
 62
               4
  5
35F
 10
335.50907817262276
 20
186.72147815648407
 30
0.0
 11
335.50907817262276
 21
91.707898680553626
 31
0.0
  0
LINE
  8
0
  6
DASHED2
 62
               4
  5
360
 10
335.50907817262276
 20
186.72147815648407
 30
0.0
 11
323.50907817262276
 21
186.72147815648407
 31
0.0
  0
LINE
  8
0
  6
DASHED2
 62
               4
  5
361
 10
-714.99092182737718
 20
71.657898680554638
 30
0.0
 11
-625.99092182737718
 21
71.657898680554638
 31
0.0
  0
LINE
  8
0
  6
DASHED2
 62
               4
  5
362
 10
-625.99092182737718
 20
136.65789868055464
 30
0.0
 11
-625.99092182737718
 21
71.657898680554638
 31
0.0
  0
LINE
  8
0
  6
DASHED2
 62
               4
  5
363
 10
-714.99092182737718
 20
136.55947093510355
 30
0.0
 11
-714.99092182737718
 21
71.657898680554638
 31
0.0
  0
LINE
  8
0
  6
DASHED2
 62
               4
  5
364
 10
-214.99092182737712
 20
71.657898680554695
 30
0.0
 11
-125.99092182737711
 21
71.657898680554695
 31
0.0
  0
LINE
  8
0
  6
DASHED2
 62
               4
  5
365
 10
-125.99092182737711
 20
136.65789868055469
 30
0.0
 11
-125.99092182737711
 21
71.657898680554695
 31
0.0
  0
LINE
  8
0
  6
DASHED2
 62
               4
  5
366
 10
-214.99092182737712
 20
136.5594709351036
 30
0.0
 11
-214.99092182737712
 21
71.657898680554695
 31
0.0
  0
LINE
  8
0
  6
DASHED2
 62
               4
  5
367
 10
-297.25092182737768
 20
82.107898680553603
 30
0.0
 11
-297.25092182737768
 21
90.634027179860709
 31
0.0
  0
LINE
  8
0
  6
DASHED2
 62
               4
  5
368
 10
-291.36194908164327
 20
90.634027179860709
 30
0.0
 11
-291.36194908164327
 21
82.107898680553603
 31
0.0
  0
LINE
  8
0
  6
DASHED2
 62
               4
  5
369
 10
-294.30643545451034
 20
91.70789868055374
 30
0.0
 11
-276.67540820024442
 21
91.70789868055374
 31
0.0
  0
LINE
  8
0
  6
DASHED2
 62
               4
  5
36A
 10
-273.73092182737736
 20
82.107898680553603
 30
0.0
 11
-273.73092182737736
 21
90.634027179860709
 31
0.0
  0
LINE
  8
0
  6
DASHED2
 62
               4
  5
36B
 10
-279.61989457311205
 20
82.107898680553603
 30
0.0
 11
-279.61989457311205
 21
90.634027179860709
 31
0.0
  0
ARC
  8
0
  6
DASHED2
 62
               4
  5
36C
 10
-294.30643545451034
 20
87.13416709643775
 30
0.0
 40
4.5737315841157447
 50
49.925579661593176
 51
130.07442033830344
  0
ARC
  8
0
  6
DASHED2
 62
               4
  5
36D
 10
-276.67540820024442
 20
87.13416709643775
 30
0.0
 40
4.5737315841157686
 50
49.925579661593304
 51
130.07442033830372
  0
ARC
  8
0
  6
DASHED2
 62
               4
  5
36E
 10
-285.49092182737752
 20
75.122040411033254
 30
0.0
 40
16.58585826952007
 50
69.269184858521172
 51
110.73081514137587
  0
LINE
  8
0
  6
DASHED2
 62
               4
  5
36F
 10
-297.2509218273791
 20
78.90789868055333
 30
0.0
 11
-297.2509218273791
 21
70.381770181246111
 31
0.0
  0
LINE
  8
0
  6
DASHED2
 62
               4
  5
370
 10
-291.3619490816447
 20
70.381770181246111
 30
0.0
 11
-291.3619490816447
 21
78.90789868055333
 31
0.0
  0
LINE
  8
0
  6
DASHED2
 62
               4
  5
371
 10
-294.30643545451176
 20
69.307898680553535
 30
0.0
 11
-276.67540820024612
 21
69.307898680553535
 31
0.0
  0
LINE
  8
0
  6
DASHED2
 62
               4
  5
372
 10
-273.73092182737878
 20
78.90789868055333
 30
0.0
 11
-273.73092182737878
 21
70.381770181246111
 31
0.0
  0
LINE
  8
0
  6
DASHED2
 62
               4
  5
373
 10
-279.61989457311319
 20
78.90789868055333
 30
0.0
 11
-279.61989457311319
 21
70.381770181246111
 31
0.0
  0
ARC
  8
0
  6
DASHED2
 62
               4
  5
374
 10
-294.30643545451176
 20
73.881630264668956
 30
0.0
 40
4.5737315841157447
 50
229.92557966149033
 51
310.07442033820121
  0
ARC
  8
0
  6
DASHED2
 62
               4
  5
375
 10
-276.67540820024612
 20
73.881630264668956
 30
0.0
 40
4.5737315841157686
 50
229.92557966149064
 51
310.07442033820121
  0
ARC
  8
0
  6
DASHED2
 62
               4
  5
376
 10
-285.49092182737894
 20
85.893756950073453
 30
0.0
 40
16.58585826952007
 50
249.2691848584177
 51
290.73081514127233
  0
LINE
  8
0
  6
DASHED2
 62
               4
  5
377
 10
-291.49092182737746
 20
69.307898680553535
 30
0.0
 11
-291.49092182737746
 21
58.788532438228799
 31
0.0
  0
LINE
  8
0
  6
DASHED2
 62
               4
  5
378
 10
-279.49092182737758
 20
69.307898680553535
 30
0.0
 11
-279.49092182737758
 21
58.788532438228799
 31
0.0
  0
LINE
  8
0
  6
DASHED2
 62
               4
  5
379
 10
-290.2909218273777
 20
57.588532438228526
 30
0.0
 11
-280.69092182737762
 21
57.588532438228526
 31
0.0
  0
LINE
  8
0
  6
DASHED2
 62
               4
  5
37A
 10
-291.49092182737746
 20
58.788532438228799
 30
0.0
 11
-290.2909218273777
 21
57.588532438228526
 31
0.0
  0
LINE
  8
0
  6
DASHED2
 62
               4
  5
37B
 10
-279.49092182737758
 20
58.788532438228799
 30
0.0
 11
-280.69092182737762
 21
57.588532438228526
 31
0.0
  0
LINE
  8
0
  6
DASHED2
 62
               4
  5
37C
 10
-291.49092182737746
 20
186.72147815648339
 30
0.0
 11
-291.49092182737746
 21
91.107898680553717
 31
0.0
  0
LINE
  8
0
  6
DASHED2
 62
               4
  5
37D
 10
-279.49092182737758
 20
186.72147815648339
 30
0.0
 11
-279.49092182737758
 21
91.107898680553717
 31
0.0
  0
LINE
  8
0
  6
DASHED2
 62
               4
  5
37E
 10
-279.49092182737758
 20
186.72147815648339
 30
0.0
 11
-291.49092182737746
 21
186.72147815648339
 31
0.0
  0
LINE
  8
0
  6
DASHED2
 62
               4
  5
37F
 10
-215.49092182737911
 20
61.657898680552989
 30
0.0
 11
-215.49092182737854
 21
6.6578986805541263
 31
0.0
  0
LINE
  8
0
  6
DASHED2
 62
               4
  5
380
 10
-215.49092182737911
 20
61.657898680552989
 30
0.0
 11
-170.49092182737684
 21
61.657898680554467
 31
0.0
  0
LINE
  8
0
  6
DASHED2
 62
               4
  5
381
 10
-125.4909218273737
 20
61.657898680554013
 30
0.0
 11
-170.4909218273757
 21
61.657898680554467
 31
0.0
  0
LINE
  8
0
  6
DASHED2
 62
               4
  5
382
 10
-125.4909218273737
 20
61.657898680554013
 30
0.0
 11
-125.49092182737313
 21
6.6578986805551494
 31
0.0
  0
LINE
  8
0
  6
DASHED2
 62
               4
  5
383
 10
-43.73092182737679
 20
82.107898680553831
 30
0.0
 11
-43.73092182737679
 21
90.63402717986105
 31
0.0
  0
LINE
  8
0
  6
DASHED2
 62
               4
  5
384
 10
-49.619894573111196
 20
90.63402717986105
 30
0.0
 11
-49.619894573111196
 21
82.107898680553831
 31
0.0
  0
LINE
  8
0
  6
DASHED2
 62
               4
  5
385
 10
-46.675408200244135
 20
91.707898680553967
 30
0.0
 11
-64.306435454510037
 21
91.707898680553967
 31
0.0
  0
LINE
  8
0
  6
DASHED2
 62
               4
  5
386
 10
-67.250921827377098
 20
82.107898680553831
 30
0.0
 11
-67.250921827377098
 21
90.63402717986105
 31
0.0
  0
LINE
  8
0
  6
DASHED2
 62
               4
  5
387
 10
-61.361949081642408
 20
82.107898680553831
 30
0.0
 11
-61.361949081642408
 21
90.63402717986105
 31
0.0
  0
ARC
  8
0
  6
DASHED2
 62
               4
  5
388
 10
-46.675408200244135
 20
87.134167096437864
 30
0.0
 40
4.5737315841157447
 50
49.925579661626813
 51
130.07442033833769
  0
ARC
  8
0
  6
DASHED2
 62
               4
  5
389
 10
-64.306435454510037
 20
87.134167096437864
 30
0.0
 40
4.5737315841157686
 50
49.925579661627133
 51
130.07442033833769
  0
ARC
  8
0
  6
DASHED2
 62
               4
  5
38A
 10
-55.490921827376951
 20
75.122040411033481
 30
0.0
 40
16.58585826952007
 50
69.269184858555064
 51
110.73081514140976
  0
LINE
  8
0
  6
DASHED2
 62
               4
  5
38B
 10
-43.730921827375369
 20
78.907898680553444
 30
0.0
 11
-43.730921827375369
 21
70.381770181246225
 31
0.0
  0
LINE
  8
0
  6
DASHED2
 62
               4
  5
38C
 10
-49.619894573109775
 20
70.381770181246225
 30
0.0
 11
-49.619894573109775
 21
78.907898680553444
 31
0.0
  0
LINE
  8
0
  6
DASHED2
 62
               4
  5
38D
 10
-46.675408200242714
 20
69.307898680553649
 30
0.0
 11
-64.306435454508332
 21
69.307898680553649
 31
0.0
  0
LINE
  8
0
  6
DASHED2
 62
               4
  5
38E
 10
-67.250921827375677
 20
78.907898680553444
 30
0.0
 11
-67.250921827375677
 21
70.381770181246225
 31
0.0
  0
LINE
  8
0
  6
DASHED2
 62
               4
  5
38F
 10
-61.361949081641271
 20
78.907898680553444
 30
0.0
 11
-61.361949081641271
 21
70.381770181246225
 31
0.0
  0
ARC
  8
0
  6
DASHED2
 62
               4
  5
390
 10
-46.675408200242714
 20
73.88163026466907
 30
0.0
 40
4.5737315841157447
 50
229.92557966159103
 51
310.07442033830262
  0
ARC
  8
0
  6
DASHED2
 62
               4
  5
391
 10
-64.306435454508332
 20
73.88163026466907
 30
0.0
 40
4.5737315841157686
 50
229.92557966159166
 51
310.07442033830188
  0
ARC
  8
0
  6
DASHED2
 62
               4
  5
392
 10
-55.49092182737553
 20
85.893756950073566
 30
0.0
 40
16.58585826952007
 50
249.26918485852016
 51
290.73081514137471
  0
LINE
  8
0
  6
DASHED2
 62
               4
  5
393
 10
-49.490921827377008
 20
69.307898680553649
 30
0.0
 11
-49.490921827376724
 21
58.78853243822914
 31
0.0
  0
LINE
  8
0
  6
DASHED2
 62
               4
  5
394
 10
-61.49092182737688
 20
69.307898680553649
 30
0.0
 11
-61.49092182737688
 21
58.788532438229026
 31
0.0
  0
LINE
  8
0
  6
DASHED2
 62
               4
  5
395
 10
-50.690921827376769
 20
57.58853243822864
 30
0.0
 11
-60.290921827376835
 21
57.58853243822864
 31
0.0
  0
LINE
  8
0
  6
DASHED2
 62
               4
  5
396
 10
-49.490921827376724
 20
58.78853243822914
 30
0.0
 11
-50.690921827376769
 21
57.58853243822864
 31
0.0
  0
LINE
  8
0
  6
DASHED2
 62
               4
  5
397
 10
-61.49092182737688
 20
58.788532438229026
 30
0.0
 11
-60.290921827376835
 21
57.58853243822864
 31
0.0
  0
LINE
  8
0
  6
DASHED2
 62
               4
  5
398
 10
-49.490921827377292
 20
186.72147815648361
 30
0.0
 11
-49.490921827377008
 21
91.107898680554058
 31
0.0
  0
LINE
  8
0
  6
DASHED2
 62
               4
  5
399
 10
-61.490921827377164
 20
186.72147815648361
 30
0.0
 11
-61.49092182737688
 21
91.107898680553831
 31
0.0
  0
LINE
  8
0
  6
DASHED2
 62
               4
  5
39A
 10
-61.490921827377164
 20
186.72147815648361
 30
0.0
 11
-49.490921827377292
 21
186.72147815648361
 31
0.0
  0
LINE
  8
0
  6
DASHED2
 62
               4
  5
39B
 10
-715.49092182737922
 20
61.657898680553558
 30
0.0
 11
-715.49092182737854
 21
6.6578986805546947
 31
0.0
  0
LINE
  8
0
  6
DASHED2
 62
               4
  5
39C
 10
-715.49092182737922
 20
61.657898680553558
 30
0.0
 11
-670.49092182737695
 21
61.657898680555036
 31
0.0
  0
LINE
  8
0
  6
DASHED2
 62
               4
  5
39D
 10
-625.49092182737377
 20
61.657898680554581
 30
0.0
 11
-670.49092182737581
 21
61.657898680555036
 31
0.0
  0
LINE
  8
0
  6
DASHED2
 62
               4
  5
39E
 10
-625.49092182737377
 20
61.657898680554581
 30
0.0
 11
-625.4909218273732
 21
6.6578986805557179
 31
0.0
  0
LINE
  8
0
  6
DASHED2
 62
               4
  5
39F
 10
-682.2509218273774
 20
82.10789868055349
 30
0.0
 11
-682.2509218273774
 21
90.634027179860709
 31
0.0
  0
LINE
  8
0
  6
DASHED2
 62
               4
  5
3A0
 10
-676.36194908164293
 20
90.634027179860709
 30
0.0
 11
-676.36194908164293
 21
82.10789868055349
 31
0.0
  0
LINE
  8
0
  6
DASHED2
 62
               4
  5
3A1
 10
-679.30643545450994
 20
91.707898680553626
 30
0.0
 11
-661.67540820024396
 21
91.707898680553626
 31
0.0
  0
LINE
  8
0
  6
DASHED2
 62
               4
  5
3A2
 10
-658.73092182737696
 20
82.10789868055349
 30
0.0
 11
-658.73092182737696
 21
90.634027179860709
 31
0.0
  0
LINE
  8
0
  6
DASHED2
 62
               4
  5
3A3
 10
-664.61989457311165
 20
82.10789868055349
 30
0.0
 11
-664.61989457311165
 21
90.634027179860709
 31
0.0
  0
ARC
  8
0
  6
DASHED2
 62
               4
  5
3A4
 10
-679.30643545450994
 20
87.134167096437636
 30
0.0
 40
4.5737315841157447
 50
49.925579661593176
 51
130.07442033830333
  0
ARC
  8
0
  6
DASHED2
 62
               4
  5
3A5
 10
-661.67540820024396
 20
87.134167096437636
 30
0.0
 40
4.5737315841157686
 50
49.925579661593176
 51
130.07442033830387
  0
ARC
  8
0
  6
DASHED2
 62
               4
  5
3A6
 10
-670.49092182737718
 20
75.12204041103314
 30
0.0
 40
16.58585826952007
 50
69.269184858521257
 51
110.73081514137587
  0
LINE
  8
0
  6
DASHED2
 62
               4
  5
3A7
 10
-682.25092182737876
 20
78.907898680553103
 30
0.0
 11
-682.25092182737876
 21
70.381770181245884
 31
0.0
  0
LINE
  8
0
  6
DASHED2
 62
               4
  5
3A8
 10
-676.3619490816443
 20
70.381770181245884
 30
0.0
 11
-676.3619490816443
 21
78.907898680553103
 31
0.0
  0
LINE
  8
0
  6
DASHED2
 62
               4
  5
3A9
 10
-679.3064354545113
 20
69.307898680553308
 30
0.0
 11
-661.67540820024578
 21
69.307898680553308
 31
0.0
  0
LINE
  8
0
  6
DASHED2
 62
               4
  5
3AA
 10
-658.73092182737832
 20
78.907898680553103
 30
0.0
 11
-658.73092182737832
 21
70.381770181245884
 31
0.0
  0
LINE
  8
0
  6
DASHED2
 62
               4
  5
3AB
 10
-664.61989457311279
 20
78.907898680553103
 30
0.0
 11
-664.61989457311279
 21
70.381770181245884
 31
0.0
  0
ARC
  8
0
  6
DASHED2
 62
               4
  5
3AC
 10
-679.3064354545113
 20
73.881630264668729
 30
0.0
 40
4.5737315841157447
 50
229.92557966149019
 51
310.07442033820132
  0
ARC
  8
0
  6
DASHED2
 62
               4
  5
3AD
 10
-661.67540820024578
 20
73.881630264668729
 30
0.0
 40
4.5737315841157686
 50
229.92557966149019
 51
310.07442033820035
  0
ARC
  8
0
  6
DASHED2
 62
               4
  5
3AE
 10
-670.49092182737854
 20
85.893756950073225
 30
0.0
 40
16.58585826952007
 50
249.26918485841776
 51
290.73081514127233
  0
LINE
  8
0
  6
DASHED2
 62
               4
  5
3AF
 10
-676.49092182737718
 20
69.307898680553308
 30
0.0
 11
-676.49092182737718
 21
58.788532438229367
 31
0.0
  0
LINE
  8
0
  6
DASHED2
 62
               4
  5
3B0
 10
-664.49092182737718
 20
69.307898680553308
 30
0.0
 11
-664.49092182737718
 21
58.788532438229367
 31
0.0
  0
LINE
  8
0
  6
DASHED2
 62
               4
  5
3B1
 10
-675.29092182737736
 20
57.588532438228981
 30
0.0
 11
-665.69092182737722
 21
57.588532438228981
 31
0.0
  0
LINE
  8
0
  6
DASHED2
 62
               4
  5
3B2
 10
-676.49092182737718
 20
58.788532438229367
 30
0.0
 11
-675.29092182737736
 21
57.588532438228981
 31
0.0
  0
LINE
  8
0
  6
DASHED2
 62
               4
  5
3B3
 10
-664.49092182737718
 20
58.788532438229367
 30
0.0
 11
-665.69092182737722
 21
57.588532438228981
 31
0.0
  0
LINE
  8
0
  6
DASHED2
 62
               4
  5
3B4
 10
-682.2509218273774
 20
82.10789868055349
 30
0.0
 11
-658.73092182737696
 21
82.10789868055349
 31
0.0
  0
LINE
  8
0
  6
DASHED2
 62
               4
  5
3B5
 10
-658.73092182737832
 20
78.907898680553103
 30
0.0
 11
-682.25092182737876
 21
78.907898680553103
 31
0.0
  0
LINE
  8
0
  6
DASHED2
 62
               4
  5
3B6
 10
-676.49092182737718
 20
186.72147815648401
 30
0.0
 11
-676.49092182737718
 21
91.707898680553626
 31
0.0
  0
LINE
  8
0
  6
DASHED2
 62
               4
  5
3B7
 10
-664.49092182737718
 20
186.72147815648401
 30
0.0
 11
-664.49092182737718
 21
91.707898680553626
 31
0.0
  0
LINE
  8
0
  6
DASHED2
 62
               4
  5
3B8
 10
-664.49092182737718
 20
186.72147815648401
 30
0.0
 11
-676.49092182737718
 21
186.72147815648401
 31
0.0
  0
LINE
  8
0
  6
DASHED2
 62
               4
  5
3B9
 10
281.79560138893095
 20
-900.28841423016888
 30
0.0
 11
395.79560138893072
 21
-900.28841423016888
 31
0.0
  0
LINE
  8
0
  6
CONTINUOUS
 62
               4
  5
3BA
 10
341.23607817262308
 20
602.58496502605715
 30
0.0
 11
383.50907817262288
 21
602.58496502605715
 31
0.0
  0
LINE
  8
0
  6
CONTINUOUS
 62
               4
  5
3BB
 10
275.50907817262288
 20
602.58496502605715
 30
0.0
 11
317.78207817262268
 21
602.58496502605715
 31
0.0
  0
LINE
  8
0
  6
CONTINUOUS
 62
               4
  5
3BC
 10
276.50907817262299
 20
-18.342101319445305
 30
0.0
 11
382.50907817262549
 21
-18.342101319444396
 31
0.0
  0
LINE
  8
0
  6
CONTINUOUS
 62
               4
  5
3BD
 10
-245.49092182737741
 20
75.762676893230719
 30
0.0
 11
-245.49092182737741
 21
85.636963100286607
 31
0.0
  0
LINE
  8
0
  6
CONTINUOUS
 62
               4
  5
3BE
 10
-223.49092182737695
 20
-18.342101319445874
 30
0.0
 11
-117.49092182737444
 21
-18.342101319445078
 31
0.0
  0
LINE
  8
0
  6
CONTINUOUS
 62
               4
  5
3BF
 10
-95.490921827376823
 20
75.762676893230832
 30
0.0
 11
-95.490921827376823
 21
85.636963100286721
 31
0.0
  0
LINE
  8
0
  6
CONTINUOUS
 62
               4
  5
3C0
 10
-723.49092182737695
 20
-18.342101319445305
 30
0.0
 11
-617.49092182737445
 21
-18.342101319444509
 31
0.0
  0
LINE
  8
0
  6
CONTINUOUS
 62
               4
  5
3C1
 10
-724.49092182737695
 20
602.58496502605715
 30
0.0
 11
-616.49092182737718
 21
602.58496502605715
 31
0.0
  0
LINE
  8
0
  6
CONTINUOUS
 62
               4
  5
3C2
 10
-224.49092182737701
 20
602.58496502605715
 30
0.0
 11
-116.49092182737711
 21
602.58496502605715
 31
0.0
  0
POINT
  8
0
  6
CONTINUOUS
 62
               4
  5
3C3
 10
-414.99092182737684
 20
-514.32522057218466
 30
0.0
  0
POINT
  8
0
  6
CONTINUOUS
 62
               4
  5
3C4
 10
-125.99092182737701
 20
-514.32522057218489
 30
0.0
  0
POINT
  8
0
  6
CONTINUOUS
 62
               4
  5
3C5
 10
-219.49092182737684
 20
-420.82522057218483
 30
0.0
  0
POINT
  8
0
  6
CONTINUOUS
 62
               4
  5
3C6
 10
383.29560138893083
 20
-671.18898048158462
 30
0.0
  0
POINT
  8
0
  6
CONTINUOUS
 62
               4
  5
3C7
 10
194.39560138893097
 20
-571.2889804815843
 30
0.0
  0
LINE
  8
0
  6
CONTINUOUS
 62
               4
  5
3C8
 10
415.79560138893072
 20
-931.75276047731609
 30
0.0
 11
410.79560138893072
 21
-926.75276047731609
 31
0.0
  0
ARC
  8
0
  6
CONTINUOUS
 62
               4
  5
3C9
 10
393.29560138893072
 20
-942.28841423016888
 30
0.0
 40
19.999999999999996
 50
0.0
 51
31.788330617021131
  0
LINE
  8
0
  6
CONTINUOUS
 62
               4
  5
3CA
 10
410.29560138893117
 20
-931.75276047731609
 30
0.0
 11
410.29560138893117
 21
-926.75276047731563
 31
0.0
  0
LINE
  8
0
  6
CONTINUOUS
 62
               4
  5
3CB
 10
410.79560138893072
 20
-926.75276047731609
 30
0.0
 11
410.29560138893117
 21
-926.75276047731609
 31
0.0
  0
LINE
  8
0
  6
CONTINUOUS
 62
               4
  5
3CC
 10
415.54560138893095
 20
-932.00276047731609
 30
0.0
 11
410.29560138893117
 21
-926.75276047731609
 31
0.0
  0
LINE
  8
0
  6
CONTINUOUS
 62
               4
  5
3CD
 10
415.54560138893095
 20
-932.00276047731609
 30
0.0
 11
415.79560138893072
 21
-931.75276047731609
 31
0.0
  0
LINE
  8
0
  6
CONTINUOUS
 62
               4
  5
3CE
 10
415.79560138893072
 20
-931.75276047731609
 30
0.0
 11
415.79560138893072
 21
-1062.4414378272859
 31
0.0
  0
LINE
  8
0
  6
CONTINUOUS
 62
               4
  5
3CF
 10
415.54560138893095
 20
-932.00276047731609
 30
0.0
 11
415.54560138893095
 21
-1062.1560807201504
 31
0.0
  0
LINE
  8
0
  6
CONTINUOUS
 62
               4
  5
3D0
 10
413.29560138893072
 20
-942.13539063305166
 30
0.0
 11
413.29560138893072
 21
-1061.2884142301689
 31
0.0
  0
POINT
  8
0
  6
CONTINUOUS
 62
               4
  5
3D1
 10
194.39560138893086
 20
-956.78841423016888
 30
0.0
  0
LINE
  8
0
  6
DIVIDE
 62
               4
  5
3D2
 10
285.00907817262379
 20
-75.531806637724173
 30
0.0
 11
285.00907817262379
 21
-113.23520592309632
 31
0.0
  0
LINE
  8
0
  6
DIVIDE
 62
               4
  5
3D3
 10
374.0090781726247
 20
-83.421094497206866
 30
0.0
 11
374.0090781726247
 21
-113.23520592309541
 31
0.0
  0
LINE
  8
0
  6
DIVIDE
 62
               4
  5
3D4
 10
382.00907817262447
 20
6.6578986805558316
 30
0.0
 11
382.00907817262447
 21
-79.446052112903487
 31
0.0
  0
LINE
  8
0
  6
DIVIDE
 62
               4
  5
3D5
 10
277.00907817262367
 20
6.6578986805546947
 30
0.0
 11
277.00907817262367
 21
-79.446052112904397
 31
0.0
  0
ARC
  8
0
  6
DIVIDE
 62
               4
  5
3D6
 10
303.25907817262424
 20
-122.2379276645151
 30
0.0
 40
50.201664446754734
 50
58.473623406629351
 51
121.52637659330163
  0
ARC
  8
0
  6
DIVIDE
 62
               4
  5
3D7
 10
355.75907817262197
 20
-36.654176561293411
 30
0.0
 40
50.201664446754734
 50
238.47362340656002
 51
301.52637659323238
  0
ARC
  8
0
  6
DIVIDE
 62
               4
  5
3D8
 10
303.25907817262424
 20
-36.654176561293411
 30
0.0
 40
50.201664446754734
 50
238.47362340656002
 51
248.68262418363003
  0
ARC
  8
0
  6
DIVIDE
 62
               4
  5
3D9
 10
307.25907817262311
 20
-146.56566762635674
 30
0.0
 40
40.074707451863929
 50
56.274610560451904
 51
123.72538943947882
  0
ARC
  8
0
  6
DIVIDE
 62
               4
  5
3DA
 10
307.25907817262311
 20
-79.9047442198368
 30
0.0
 40
40.074707451863929
 50
236.2746105603828
 51
303.7253894394097
  0
ARC
  8
0
  6
DIVIDE
 62
               4
  5
3DB
 10
351.75907817262276
 20
-79.9047442198368
 30
0.0
 40
40.074707451863929
 50
236.2746105603828
 51
303.7253894394097
  0
LINE
  8
0
  6
DIVIDE
 62
               4
  5
3DC
 10
-220.99092182737735
 20
136.65789868055469
 30
0.0
 11
-119.99092182737688
 21
136.65789868055469
 31
0.0
  0
LINE
  8
0
  6
DIVIDE
 62
               4
  5
3DD
 10
-214.99092182737616
 20
-75.531806637724856
 30
0.0
 11
-214.99092182737616
 21
-113.235205923097
 31
0.0
  0
LINE
  8
0
  6
DIVIDE
 62
               4
  5
3DE
 10
-125.99092182737523
 20
-83.421094497207321
 30
0.0
 11
-125.99092182737523
 21
-113.23520592309586
 31
0.0
  0
LINE
  8
0
  6
DIVIDE
 62
               4
  5
3DF
 10
-117.9909218273754
 20
6.6578986805551494
 30
0.0
 11
-117.9909218273754
 21
-79.446052112904169
 31
0.0
  0
LINE
  8
0
  6
DIVIDE
 62
               4
  5
3E0
 10
-222.99092182737627
 20
6.6578986805541263
 30
0.0
 11
-222.99092182737627
 21
-79.446052112905079
 31
0.0
  0
ARC
  8
0
  6
DIVIDE
 62
               4
  5
3E1
 10
-196.7409218273757
 20
-122.23792766451578
 30
0.0
 40
50.201664446754734
 50
58.473623406629336
 51
121.52637659330166
  0
ARC
  8
0
  6
DIVIDE
 62
               4
  5
3E2
 10
-144.24092182737797
 20
-36.654176561294094
 30
0.0
 40
50.201664446754734
 50
238.47362340656002
 51
301.52637659323238
  0
ARC
  8
0
  6
DIVIDE
 62
               4
  5
3E3
 10
-196.7409218273757
 20
-36.65417656129398
 30
0.0
 40
50.201664446754734
 50
238.47362340655997
 51
248.68262418363003
  0
ARC
  8
0
  6
DIVIDE
 62
               4
  5
3E4
 10
-192.74092182737678
 20
-146.56566762635742
 30
0.0
 40
40.074707451863929
 50
56.274610560451919
 51
123.72538943947879
  0
ARC
  8
0
  6
DIVIDE
 62
               4
  5
3E5
 10
-192.74092182737678
 20
-79.904744219837482
 30
0.0
 40
40.074707451863929
 50
236.27461056038285
 51
303.7253894394097
  0
ARC
  8
0
  6
DIVIDE
 62
               4
  5
3E6
 10
-148.24092182737718
 20
-79.904744219837482
 30
0.0
 40
40.074707451863929
 50
236.27461056038291
 51
303.7253894394097
  0
LINE
  8
0
  6
DIVIDE
 62
               4
  5
3E7
 10
-714.99092182737627
 20
-75.531806637724173
 30
0.0
 11
-714.99092182737627
 21
-113.23520592309632
 31
0.0
  0
LINE
  8
0
  6
DIVIDE
 62
               4
  5
3E8
 10
-625.99092182737536
 20
-83.421094497206866
 30
0.0
 11
-625.99092182737536
 21
-113.23520592309541
 31
0.0
  0
LINE
  8
0
  6
DIVIDE
 62
               4
  5
3E9
 10
-617.99092182737547
 20
6.6578986805557179
 30
0.0
 11
-617.99092182737547
 21
-79.446052112903487
 31
0.0
  0
LINE
  8
0
  6
DIVIDE
 62
               4
  5
3EA
 10
-722.99092182737627
 20
6.6578986805546947
 30
0.0
 11
-722.99092182737627
 21
-79.446052112904397
 31
0.0
  0
ARC
  8
0
  6
DIVIDE
 62
               4
  5
3EB
 10
-696.74092182737581
 20
-122.2379276645151
 30
0.0
 40
50.201664446754734
 50
58.473623406629351
 51
121.52637659330169
  0
ARC
  8
0
  6
DIVIDE
 62
               4
  5
3EC
 10
-644.24092182737809
 20
-36.654176561293525
 30
0.0
 40
50.201664446754734
 50
238.47362340656002
 51
301.52637659323238
  0
ARC
  8
0
  6
DIVIDE
 62
               4
  5
3ED
 10
-696.74092182737581
 20
-36.654176561293411
 30
0.0
 40
50.201664446754734
 50
238.47362340656002
 51
248.68262418363003
  0
ARC
  8
0
  6
DIVIDE
 62
               4
  5
3EE
 10
-692.74092182737695
 20
-146.56566762635674
 30
0.0
 40
40.074707451863929
 50
56.274610560451904
 51
123.72538943947882
  0
ARC
  8
0
  6
DIVIDE
 62
               4
  5
3EF
 10
-692.74092182737695
 20
-79.9047442198368
 30
0.0
 40
40.074707451863929
 50
236.2746105603828
 51
303.7253894394097
  0
ARC
  8
0
  6
DIVIDE
 62
               4
  5
3F0
 10
-648.24092182737718
 20
-79.9047442198368
 30
0.0
 40
40.074707451863929
 50
236.27461056038285
 51
303.72538943940981
  0
CIRCLE
  8
0
  6
DASHED
 62
               4
  5
3F1
 10
-270.49092182737701
 20
-565.32522057218489
 30
0.0
 40
33.5
  0
LINE
  8
0
  6
CONTINUOUS
 62
               7
  5
3F2
 10
337.72607817262241
 20
408.81092227767198
 30
0.0
 11
321.29207817262255
 21
408.81092227767198
 31
0.0
  0
LINE
  8
0
  6
CONTINUOUS
 62
               7
  5
3F3
 10
323.50907817262254
 20
239.93339441905573
 30
0.0
 11
335.50907817262242
 21
239.93339441905573
 31
0.0
  0
LINE
  8
0
  6
CONTINUOUS
 62
               7
  5
3F4
 10
321.29207817262255
 20
237.66161881870676
 30
0.0
 11
323.50907817262254
 21
239.93339441905573
 31
0.0
  0
LINE
  8
0
  6
CONTINUOUS
 62
               7
  5
3F5
 10
335.50907817262242
 20
239.93339441905573
 30
0.0
 11
337.72607817262241
 21
237.66161881870676
 31
0.0
  0
ARC
  8
0
  6
CONTINUOUS
 62
               7
  5
3F6
 10
303.72511236065674
 20
592.04931127320447
 30
0.0
 40
17.566965811965957
 50
0.0
 51
36.851448659216736
  0
LINE
  8
0
  6
CONTINUOUS
 62
               7
  5
3F7
 10
341.23607817262308
 20
607.58496502605715
 30
0.0
 11
317.78207817262268
 21
607.58496502605715
 31
0.0
  0
ARC
  8
0
  6
CONTINUOUS
 62
               7
  5
3F8
 10
355.29304398458845
 20
592.04931127320447
 30
0.0
 40
17.566965811965957
 50
143.14855134071414
 51
179.99999999993082
  0
LINE
  8
0
  6
CONTINUOUS
 62
               7
  5
3F9
 10
317.78207817262268
 20
602.58496502605715
 30
0.0
 11
317.78207817262268
 21
607.58496502605715
 31
0.0
  0
LINE
  8
0
  6
CONTINUOUS
 62
               7
  5
3FA
 10
341.23607817262308
 20
602.58496502605715
 30
0.0
 11
341.23607817262308
 21
607.58496502605715
 31
0.0
  0
LINE
  8
0
  6
CONTINUOUS
 62
               7
  5
3FB
 10
317.78207817262268
 20
607.58496502605715
 30
0.0
 11
323.50907817262265
 21
602.58496502605715
 31
0.0
  0
LINE
  8
0
  6
CONTINUOUS
 62
               7
  5
3FC
 10
335.50907817262254
 20
602.58496502605715
 30
0.0
 11
341.23607817262308
 21
607.58496502605715
 31
0.0
  0
LINE
  8
0
  6
CONTINUOUS
 62
               7
  5
3FD
 10
323.50907817262254
 20
602.58496502605715
 30
0.0
 11
335.50907817262242
 21
602.58496502605715
 31
0.0
  0
LINE
  8
0
  6
CONTINUOUS
 62
               7
  5
3FE
 10
323.50907817262288
 20
602.58496502605715
 30
0.0
 11
323.50907817262288
 21
580.56136578456733
 31
0.0
  0
LINE
  8
0
  6
CONTINUOUS
 62
               7
  5
3FF
 10
335.50907817262288
 20
580.56136578456733
 30
0.0
 11
335.50907817262288
 21
602.58496502605715
 31
0.0
  0
LINE
  8
0
  6
CONTINUOUS
 62
               7
  5
400
 10
337.72607817262252
 20
592.04931127320447
 30
0.0
 11
337.72607817262252
 21
580.56136578456733
 31
0.0
  0
LINE
  8
0
  6
CONTINUOUS
 62
               7
  5
401
 10
321.29207817262267
 20
592.04931127320447
 30
0.0
 11
321.29207817262267
 21
580.56136578456733
 31
0.0
  0
LINE
  8
0
  6
CONTINUOUS
 62
               7
  5
402
 10
335.50907817262242
 20
239.93339441905573
 30
0.0
 11
335.50907817262242
 21
465.64055984443564
 31
0.0
  0
LINE
  8
0
  6
CONTINUOUS
 62
               7
  5
403
 10
337.72607817262241
 20
460.64055984443564
 30
0.0
 11
337.72607817262241
 21
237.66161881870676
 31
0.0
  0
LINE
  8
0
  6
CONTINUOUS
 62
               7
  5
404
 10
323.50907817262254
 20
465.64055984443564
 30
0.0
 11
323.50907817262254
 21
239.93339441905573
 31
0.0
  0
LINE
  8
0
  6
CONTINUOUS
 62
               7
  5
405
 10
321.29207817262255
 20
460.64055984443564
 30
0.0
 11
321.29207817262255
 21
237.66161881870676
 31
0.0
  0
ARC
  8
0
  6
CONTINUOUS
 62
               7
  5
406
 10
316.29207817262369
 20
460.64055984443564
 30
0.0
 40
5.0
 50
0.0
 51
89.999999999965937
  0
ARC
  8
0
  6
CONTINUOUS
 62
               7
  5
407
 10
342.72607817262366
 20
460.64055984443564
 30
0.0
 40
5.0
 50
89.999999999965937
 51
179.99999999993079
  0
CIRCLE
  8
0
  6
CONTINUOUS
 62
               7
  5
408
 10
-270.49092182737695
 20
-565.32522057218489
 30
0.0
 40
38.0
  0
LINE
  8
0
  6
CONTINUOUS
 62
               7
  5
409
 10
-414.99092182737684
 20
-527.32522057218466
 30
0.0
 11
-414.99092182737695
 21
-603.31998445151021
 31
0.0
  0
LINE
  8
0
  6
CONTINUOUS
 62
               7
  5
40A
 10
-414.99092182737684
 20
-514.32522057218466
 30
0.0
 11
-414.39092182737687
 21
-514.32522057218466
 31
0.0
  0
LINE
  8
0
  6
CONTINUOUS
 62
               7
  5
40B
 10
-472.99092182737695
 20
-602.32522057218466
 30
0.0
 11
-472.99092182737695
 21
-528.32522057218466
 31
0.0
  0
LINE
  8
0
  6
CONTINUOUS
 62
               7
  5
40C
 10
-414.99092182737695
 20
-603.32522057218466
 30
0.0
 11
-390.39092182737687
 21
-603.32522057218466
 31
0.0
  0
LINE
  8
0
  6
CONTINUOUS
 62
               7
  5
40D
 10
-472.99092182737695
 20
-602.32522057218466
 30
0.0
 11
-471.99092182737695
 21
-603.32522057218466
 31
0.0
  0
LINE
  8
0
  6
CONTINUOUS
 62
               7
  5
40E
 10
-471.99092182737695
 20
-527.32522057218466
 30
0.0
 11
-414.99092182737684
 21
-527.32522057218466
 31
0.0
  0
LINE
  8
0
  6
CONTINUOUS
 62
               7
  5
40F
 10
-379.99092182737695
 20
-602.32522057218466
 30
0.0
 11
-380.99092182737695
 21
-603.32522057218466
 31
0.0
  0
CIRCLE
  8
0
  6
CONTINUOUS
 62
               7
  5
410
 10
-270.49092182737701
 20
-573.32522057218489
 30
0.0
 40
30.0
  0
CIRCLE
  8
0
  6
CONTINUOUS
 62
               7
  5
411
 10
-270.49092182737701
 20
-573.32522057218489
 30
0.0
 40
0.1981604108525852
  0
CIRCLE
  8
0
  6
CONTINUOUS
 62
               7
  5
412
 10
-270.49092182737701
 20
-573.32522057218489
 30
0.0
 40
25.5
  0
LINE
  8
0
  6
CONTINUOUS
 62
               7
  5
413
 10
-389.39092182737687
 20
-602.32522057218466
 30
0.0
 11
-389.39092182737687
 21
-544.32522057218489
 31
0.0
  0
LINE
  8
0
  6
CONTINUOUS
 62
               7
  5
414
 10
-414.99092182737684
 20
-543.32522057218489
 30
0.0
 11
-390.39092182737687
 21
-543.32522057218489
 31
0.0
  0
LINE
  8
0
  6
CONTINUOUS
 62
               7
  5
415
 10
-414.99092182737695
 20
-603.31998445151021
 30
0.0
 11
-471.99092182737695
 21
-603.32522057218466
 31
0.0
  0
LINE
  8
0
  6
CONTINUOUS
 62
               7
  5
416
 10
-471.99092182737695
 20
-527.32522057218466
 30
0.0
 11
-472.99092182737695
 21
-528.32522057218466
 31
0.0
  0
LINE
  8
0
  6
CONTINUOUS
 62
               7
  5
417
 10
-390.39092182737687
 20
-543.32522057218489
 30
0.0
 11
-389.39092182737687
 21
-544.32522057218489
 31
0.0
  0
LINE
  8
0
  6
CONTINUOUS
 62
               7
  5
418
 10
-389.39092182737687
 20
-602.32522057218466
 30
0.0
 11
-390.39092182737687
 21
-603.32522057218466
 31
0.0
  0
LINE
  8
0
  6
CONTINUOUS
 62
               7
  5
419
 10
-125.99092182737701
 20
-527.32522057218489
 30
0.0
 11
-125.99092182737704
 21
-603.31998445151044
 31
0.0
  0
LINE
  8
0
  6
CONTINUOUS
 62
               7
  5
41A
 10
-125.99092182737701
 20
-514.32522057218489
 30
0.0
 11
-126.59092182737697
 21
-514.32522057218489
 31
0.0
  0
LINE
  8
0
  6
CONTINUOUS
 62
               7
  5
41B
 10
-67.990921827377008
 20
-602.32522057218489
 30
0.0
 11
-67.990921827376923
 21
-528.32522057218489
 31
0.0
  0
LINE
  8
0
  6
CONTINUOUS
 62
               7
  5
41C
 10
-125.99092182737704
 20
-603.32522057218489
 30
0.0
 11
-150.59092182737709
 21
-603.32522057218489
 31
0.0
  0
LINE
  8
0
  6
CONTINUOUS
 62
               7
  5
41D
 10
-67.990921827377008
 20
-602.32522057218489
 30
0.0
 11
-68.990921827377008
 21
-603.32522057218489
 31
0.0
  0
LINE
  8
0
  6
CONTINUOUS
 62
               7
  5
41E
 10
-68.990921827376923
 20
-527.32522057218489
 30
0.0
 11
-125.99092182737701
 21
-527.32522057218489
 31
0.0
  0
LINE
  8
0
  6
CONTINUOUS
 62
               7
  5
41F
 10
-160.99092182737701
 20
-602.32522057218489
 30
0.0
 11
-159.99092182737701
 21
-603.32522057218489
 31
0.0
  0
LINE
  8
0
  6
CONTINUOUS
 62
               7
  5
420
 10
-151.59092182737709
 20
-602.32522057218489
 30
0.0
 11
-151.59092182737703
 21
-544.32522057218489
 31
0.0
  0
LINE
  8
0
  6
CONTINUOUS
 62
               7
  5
421
 10
-125.99092182737704
 20
-543.32522057218489
 30
0.0
 11
-150.59092182737703
 21
-543.32522057218489
 31
0.0
  0
LINE
  8
0
  6
CONTINUOUS
 62
               7
  5
422
 10
-125.99092182737704
 20
-603.31998445151044
 30
0.0
 11
-68.990921827377008
 21
-603.32522057218489
 31
0.0
  0
LINE
  8
0
  6
CONTINUOUS
 62
               7
  5
423
 10
-68.990921827376923
 20
-527.32522057218489
 30
0.0
 11
-67.990921827376923
 21
-528.32522057218489
 31
0.0
  0
LINE
  8
0
  6
CONTINUOUS
 62
               7
  5
424
 10
-150.59092182737703
 20
-543.32522057218489
 30
0.0
 11
-151.59092182737703
 21
-544.32522057218489
 31
0.0
  0
LINE
  8
0
  6
CONTINUOUS
 62
               7
  5
425
 10
-151.59092182737709
 20
-602.32522057218489
 30
0.0
 11
-150.59092182737709
 21
-603.32522057218489
 31
0.0
  0
LINE
  8
0
  6
CONTINUOUS
 62
               7
  5
426
 10
-232.49092182737684
 20
-420.82522057218483
 30
0.0
 11
-308.48568570670238
 21
-420.82522057218483
 31
0.0
  0
LINE
  8
0
  6
CONTINUOUS
 62
               7
  5
427
 10
-219.49092182737684
 20
-420.22522057218492
 30
0.0
 11
-219.49092182737684
 21
-420.82522057218483
 31
0.0
  0
LINE
  8
0
  6
CONTINUOUS
 62
               7
  5
428
 10
-307.49092182737678
 20
-362.82522057218483
 30
0.0
 11
-233.49092182737678
 21
-362.82522057218483
 31
0.0
  0
LINE
  8
0
  6
CONTINUOUS
 62
               7
  5
429
 10
-300.49092182737684
 20
-420.82522057218483
 30
0.0
 11
-300.49092182737684
 21
-445.42522057218497
 31
0.0
  0
LINE
  8
0
  6
CONTINUOUS
 62
               7
  5
42A
 10
-307.49092182737678
 20
-362.82522057218483
 30
0.0
 11
-308.49092182737678
 21
-363.82522057218483
 31
0.0
  0
LINE
  8
0
  6
CONTINUOUS
 62
               7
  5
42B
 10
-232.49092182737678
 20
-363.82522057218483
 30
0.0
 11
-232.49092182737684
 21
-420.82522057218483
 31
0.0
  0
LINE
  8
0
  6
CONTINUOUS
 62
               7
  5
42C
 10
-299.49092182737689
 20
-455.82522057218483
 30
0.0
 11
-300.49092182737689
 21
-454.82522057218483
 31
0.0
  0
LINE
  8
0
  6
CONTINUOUS
 62
               7
  5
42D
 10
-299.49092182737684
 20
-446.42522057218497
 30
0.0
 11
-241.49092182737701
 21
-446.42522057218497
 31
0.0
  0
LINE
  8
0
  6
CONTINUOUS
 62
               7
  5
42E
 10
-240.49092182737701
 20
-420.82522057218483
 30
0.0
 11
-240.49092182737701
 21
-445.42522057218497
 31
0.0
  0
LINE
  8
0
  6
CONTINUOUS
 62
               7
  5
42F
 10
-308.48568570670238
 20
-420.82522057218483
 30
0.0
 11
-308.49092182737678
 21
-363.82522057218483
 31
0.0
  0
LINE
  8
0
  6
CONTINUOUS
 62
               7
  5
430
 10
-232.49092182737678
 20
-363.82522057218483
 30
0.0
 11
-233.49092182737678
 21
-362.82522057218483
 31
0.0
  0
LINE
  8
0
  6
CONTINUOUS
 62
               7
  5
431
 10
-240.49092182737701
 20
-445.42522057218497
 30
0.0
 11
-241.49092182737701
 21
-446.42522057218497
 31
0.0
  0
LINE
  8
0
  6
CONTINUOUS
 62
               7
  5
432
 10
-299.49092182737684
 20
-446.42522057218497
 30
0.0
 11
-300.49092182737684
 21
-445.42522057218497
 31
0.0
  0
LINE
  8
0
  6
CONTINUOUS
 62
               7
  5
433
 10
309.79560138893083
 20
-697.38898048158444
 30
0.0
 11
367.79560138893083
 21
-697.38898048158444
 31
0.0
  0
LINE
  8
0
  6
CONTINUOUS
 62
               7
  5
434
 10
383.29560138893083
 20
-671.78898048158453
 30
0.0
 11
294.29560138893083
 21
-671.78898048158453
 31
0.0
  0
LINE
  8
0
  6
CONTINUOUS
 62
               7
  5
435
 10
383.29560138893083
 20
-671.18898048158462
 30
0.0
 11
383.29560138893083
 21
-671.78898048158453
 31
0.0
  0
LINE
  8
0
  6
CONTINUOUS
 62
               7
  5
436
 10
295.29560138893083
 20
-613.7889804815843
 30
0.0
 11
382.29560138893083
 21
-613.7889804815843
 31
0.0
  0
LINE
  8
0
  6
CONTINUOUS
 62
               7
  5
437
 10
383.29560138893083
 20
-671.65452873610411
 30
0.0
 11
383.29560138893083
 21
-614.7889804815843
 31
0.0
  0
LINE
  8
0
  6
CONTINUOUS
 62
               7
  5
438
 10
308.79560138893083
 20
-696.38898048158444
 30
0.0
 11
308.79560138893083
 21
-671.78898048158453
 31
0.0
  0
LINE
  8
0
  6
CONTINUOUS
 62
               7
  5
439
 10
368.79560138893083
 20
-696.38898048158444
 30
0.0
 11
368.79560138893083
 21
-671.78898048158453
 31
0.0
  0
LINE
  8
0
  6
CONTINUOUS
 62
               7
  5
43A
 10
368.79560138893083
 20
-696.38898048158444
 30
0.0
 11
367.79560138893083
 21
-697.38898048158444
 31
0.0
  0
LINE
  8
0
  6
CONTINUOUS
 62
               7
  5
43B
 10
383.29560138893083
 20
-614.7889804815843
 30
0.0
 11
382.29560138893083
 21
-613.7889804815843
 31
0.0
  0
LINE
  8
0
  6
CONTINUOUS
 62
               7
  5
43C
 10
309.79560138893083
 20
-697.38898048158444
 30
0.0
 11
308.79560138893083
 21
-696.38898048158444
 31
0.0
  0
LINE
  8
0
  6
CONTINUOUS
 62
               7
  5
43D
 10
295.29560138893083
 20
-613.7889804815843
 30
0.0
 11
294.29560138893083
 21
-614.7889804815843
 31
0.0
  0
LINE
  8
0
  6
CONTINUOUS
 62
               7
  5
43E
 10
294.29560138893083
 20
-671.65452873610411
 30
0.0
 11
294.29560138893083
 21
-614.7889804815843
 31
0.0
  0
LINE
  8
0
  6
CONTINUOUS
 62
               7
  5
43F
 10
193.79560138893083
 20
-571.2889804815843
 30
0.0
 11
193.79560138893106
 21
-482.2942166022587
 31
0.0
  0
LINE
  8
0
  6
CONTINUOUS
 62
               7
  5
440
 10
194.39560138893097
 20
-571.2889804815843
 30
0.0
 11
193.79560138893083
 21
-571.2889804815843
 31
0.0
  0
LINE
  8
0
  6
CONTINUOUS
 62
               7
  5
441
 10
158.79560138893106
 20
-489.78898048158425
 30
0.0
 11
158.79560138893083
 21
-563.7889804815843
 31
0.0
  0
LINE
  8
0
  6
CONTINUOUS
 62
               7
  5
442
 10
251.79560138893106
 20
-483.28898048158447
 30
0.0
 11
251.79560138893083
 21
-570.2889804815843
 31
0.0
  0
LINE
  8
0
  6
CONTINUOUS
 62
               7
  5
443
 10
193.79560138893083
 20
-571.2889804815843
 30
0.0
 11
250.79560138893083
 21
-571.2889804815843
 31
0.0
  0
LINE
  8
0
  6
CONTINUOUS
 62
               7
  5
444
 10
159.79560138893106
 20
-488.78898048158425
 30
0.0
 11
193.79560138893106
 21
-488.78898048158425
 31
0.0
  0
LINE
  8
0
  6
CONTINUOUS
 62
               7
  5
445
 10
250.79560138893083
 20
-571.2889804815843
 30
0.0
 11
251.79560138893083
 21
-570.2889804815843
 31
0.0
  0
LINE
  8
0
  6
CONTINUOUS
 62
               7
  5
446
 10
251.79560138893106
 20
-483.28898048158447
 30
0.0
 11
250.79560138893106
 21
-482.28898048158447
 31
0.0
  0
LINE
  8
0
  6
CONTINUOUS
 62
               7
  5
447
 10
159.79560138893083
 20
-564.7889804815843
 30
0.0
 11
193.79560138893106
 21
-564.7889804815843
 31
0.0
  0
LINE
  8
0
  6
CONTINUOUS
 62
               7
  5
448
 10
159.79560138893083
 20
-564.7889804815843
 30
0.0
 11
158.79560138893083
 21
-563.7889804815843
 31
0.0
  0
LINE
  8
0
  6
CONTINUOUS
 62
               7
  5
449
 10
158.79560138893106
 20
-489.78898048158425
 30
0.0
 11
159.79560138893106
 21
-488.78898048158425
 31
0.0
  0
LINE
  8
0
  6
CONTINUOUS
 62
               7
  5
44A
 10
193.79560138893106
 20
-482.28898048158425
 30
0.0
 11
250.79560138893106
 21
-482.28898048158425
 31
0.0
  0
CIRCLE
  8
0
  6
CONTINUOUS
 62
               7
  5
44B
 10
338.79560138893083
 20
-1015.7884142301689
 30
0.0
 40
25.5
  0
CIRCLE
  8
0
  6
CONTINUOUS
 62
               7
  5
44C
 10
338.79560138893083
 20
-1001.2884142301689
 30
0.0
 40
44.5
  0
CIRCLE
  8
0
  6
CONTINUOUS
 62
               7
  5
44D
 10
338.79560138893083
 20
-1015.7884142301689
 30
0.0
 40
30.0
  0
LINE
  8
0
  6
CONTINUOUS
 62
               7
  5
44E
 10
193.79560138893083
 20
-956.78841423016888
 30
0.0
 11
193.79560138893083
 21
-1045.7831781094944
 31
0.0
  0
LINE
  8
0
  6
CONTINUOUS
 62
               7
  5
44F
 10
194.39560138893086
 20
-956.78841423016888
 30
0.0
 11
193.79560138893083
 21
-956.78841423016888
 31
0.0
  0
LINE
  8
0
  6
CONTINUOUS
 62
               7
  5
450
 10
158.79560138893083
 20
-1044.7884142301689
 30
0.0
 11
158.79560138893083
 21
-970.78841423016888
 31
0.0
  0
LINE
  8
0
  6
CONTINUOUS
 62
               7
  5
451
 10
251.79560138893083
 20
-1044.7884142301689
 30
0.0
 11
251.79560138893083
 21
-957.78841423016888
 31
0.0
  0
LINE
  8
0
  6
CONTINUOUS
 62
               7
  5
452
 10
193.79560138893083
 20
-956.78841423016888
 30
0.0
 11
250.79560138893083
 21
-956.78841423016888
 31
0.0
  0
LINE
  8
0
  6
CONTINUOUS
 62
               7
  5
453
 10
159.79560138893083
 20
-1045.7884142301689
 30
0.0
 11
250.79560138893083
 21
-1045.7884142301689
 31
0.0
  0
LINE
  8
0
  6
CONTINUOUS
 62
               7
  5
454
 10
250.79560138893083
 20
-956.78841423016888
 30
0.0
 11
251.79560138893083
 21
-957.78841423016888
 31
0.0
  0
LINE
  8
0
  6
CONTINUOUS
 62
               7
  5
455
 10
251.79560138893083
 20
-1044.7884142301689
 30
0.0
 11
250.79560138893083
 21
-1045.7884142301689
 31
0.0
  0
LINE
  8
0
  6
CONTINUOUS
 62
               7
  5
456
 10
159.79560138893083
 20
-969.78841423016888
 30
0.0
 11
193.79560138893083
 21
-969.78841423016888
 31
0.0
  0
LINE
  8
0
  6
CONTINUOUS
 62
               7
  5
457
 10
159.79560138893083
 20
-969.78841423016888
 30
0.0
 11
158.79560138893083
 21
-970.78841423016888
 31
0.0
  0
LINE
  8
0
  6
CONTINUOUS
 62
               7
  5
458
 10
158.79560138893083
 20
-1044.7884142301689
 30
0.0
 11
159.79560138893083
 21
-1045.7884142301689
 31
0.0
  0
CIRCLE
  8
0
  6
DASHED
 62
               7
  5
459
 10
338.79560138893083
 20
-1001.2884142301689
 30
0.0
 40
40.0
  0
POINT
  8
0
  6
CONTINUOUS
 62
               5
  5
45A
 10
-270.49092182737695
 20
-558.82522057218489
 30
0.0
  0
POINT
  8
0
  6
CONTINUOUS
 62
               5
  5
45B
 10
-443.72099333733718
 20
-560.1160146470736
 30
0.0
  0
POINT
  8
0
  6
CONTINUOUS
 62
               5
  5
45C
 10
-97.260850317416669
 20
-560.11601464707383
 30
0.0
  0
POINT
  8
0
  6
CONTINUOUS
 62
               5
  5
45D
 10
-265.28171590226589
 20
-392.09514906222461
 30
0.0
  0
POINT
  8
0
  6
CONTINUOUS
 62
               5
  5
45E
 10
222.52567289889129
 20
-525.49818640669537
 30
0.0
  0
POINT
  8
0
  6
CONTINUOUS
 62
               5
  5
45F
 10
222.52567289889117
 20
-1002.5792083050578
 30
0.0
  0
TEXT
  8
0
 62
               3
  5
460
 10
-270.49092182737701
 20
-649.82522057218489
 30
0.0
 40
40.0
  1
EMB_65×50
 41
0.8
 72
               1
 11
-270.49092182737701
 21
-649.82522057218489
 31
0.0
 73
               3
  0
TEXT
  8
0
 62
               3
  5
461
 10
-268.6463880194749
 20
-271.91042699646749
 30
0.0
 40
40.0
  1
横枝管に呼び５０の管を接続するときは、EMBをご使用ください。
 41
0.8
 72
               1
 11
-268.6463880194749
 21
-271.91042699646749
 31
0.0
 73
               3
  0
TEXT
  8
0
 62
               3
  5
462
 10
335.09819741129053
 20
-347.34261197636505
 30
0.0
 40
40.0
  1
EMB使用例
 41
0.8
 72
               1
 11
335.09819741129053
 21
-347.34261197636505
 31
0.0
 73
               3
  0
ENDSEC
  0
EOF
