  0
SECTION
  2
HEADER
  9
$ACADVER
  1
AC1009
  9
$INSBASE
 10
0.0
 20
0.0
 30
0.0
  9
$EXTMIN
 10
-641.28625489580406
 20
-1571.3805987875501
 30
0.0
  9
$EXTMAX
 10
744.43500906164388
 20
753.20354115269708
 30
0.0
  9
$LIMMIN
 10
-684.59004439447426
 20
-1644.0238531606828
  9
$LIMMAX
 10
787.73879856031408
 20
825.84679552582975
  9
$ORTHOMODE
 70
               0
  9
$REGENMODE
 70
               1
  9
$FILLMODE
 70
               1
  9
$QTEXTMODE
 70
               0
  9
$MIRRTEXT
 70
               1
  9
$DRAGMODE
 70
               2
  9
$LTSCALE
 40
1.0
  9
$OSMODE
 70
               0
  9
$ATTMODE
 70
               1
  9
$TEXTSIZE
 40
0.2
  9
$TRACEWID
 40
0.05
  9
$TEXTSTYLE
  7
STANDARD
  9
$CLAYER
  8
0
  9
$CELTYPE
  6
CONTINUOUS
  9
$CECOLOR
 62
             256
  9
$DIMSCALE
 40
1.0
  9
$DIMASZ
 40
0.18
  9
$DIMEXO
 40
0.0625
  9
$DIMDLI
 40
0.38
  9
$DIMRND
 40
0.0
  9
$DIMDLE
 40
0.0
  9
$DIMEXE
 40
0.18
  9
$DIMTP
 40
0.0
  9
$DIMTM
 40
0.0
  9
$DIMTXT
 40
0.18
  9
$DIMCEN
 40
0.09
  9
$DIMTSZ
 40
0.0
  9
$DIMTOL
 70
               0
  9
$DIMLIM
 70
               0
  9
$DIMTIH
 70
               1
  9
$DIMTOH
 70
               1
  9
$DIMSE1
 70
               0
  9
$DIMSE2
 70
               0
  9
$DIMTAD
 70
               0
  9
$DIMZIN
 70
               0
  9
$DIMBLK
  1

  9
$DIMASO
 70
               1
  9
$DIMSHO
 70
               1
  9
$DIMPOST
  1

  9
$DIMAPOST
  1

  9
$DIMALT
 70
               0
  9
$DIMALTD
 70
               2
  9
$DIMALTF
 40
25.399999999999999
  9
$DIMLFAC
 40
1.0
  9
$DIMTOFL
 70
               0
  9
$DIMTVP
 40
0.0
  9
$DIMTIX
 70
               0
  9
$DIMSOXD
 70
               0
  9
$DIMSAH
 70
               0
  9
$DIMBLK1
  1

  9
$DIMBLK2
  1

  9
$DIMSTYLE
  2
STANDARD
  9
$DIMCLRD
 70
               0
  9
$DIMCLRE
 70
               0
  9
$DIMCLRT
 70
               0
  9
$DIMTFAC
 40
1.0
  9
$DIMGAP
 40
0.09
  9
$LUNITS
 70
               2
  9
$LUPREC
 70
               4
  9
$AXISMODE
 70
               0
  9
$AXISUNIT
 10
0.0
 20
0.0
  9
$SKETCHINC
 40
0.1
  9
$FILLETRAD
 40
0.0
  9
$AUNITS
 70
               0
  9
$AUPREC
 70
               0
  9
$MENU
  1
acad
  9
$ELEVATION
 40
0.0
  9
$PELEVATION
 40
0.0
  9
$THICKNESS
 40
0.0
  9
$LIMCHECK
 70
               0
  9
$BLIPMODE
 70
               1
  9
$CHAMFERA
 40
0.0
  9
$CHAMFERB
 40
0.0
  9
$SKPOLY
 70
               0
  9
$TDCREATE
 40
0.000000000
  9
$TDUPDATE
 40
0.000000000
  9
$TDINDWG
 40
0.0000000000
  9
$TDUSRTIMER
 40
0.0000000000
  9
$USRTIMER
 70
               1
  9
$ANGBASE
 50
0.0
  9
$ANGDIR
 70
               0
  9
$PDMODE
 70
               0
  9
$PDSIZE
 40
1.0
  9
$PLINEWID
 40
0.0
  9
$COORDS
 70
               1
  9
$SPLFRAME
 70
               0
  9
$SPLINETYPE
 70
               6
  9
$SPLINESEGS
 70
               8
  9
$ATTDIA
 70
               0
  9
$ATTREQ
 70
               1
  9
$HANDLING
 70
               1
  9
$HANDSEED
  5
484
  9
$SURFTAB1
 70
               6
  9
$SURFTAB2
 70
               6
  9
$SURFTYPE
 70
               6
  9
$SURFU
 70
               6
  9
$SURFV
 70
               6
  9
$UCSNAME
  2

  9
$UCSORG
 10
0.0
 20
0.0
 30
0.0
  9
$UCSXDIR
 10
1.0
 20
0.0
 30
0.0
  9
$UCSYDIR
 10
0.0
 20
1.0
 30
0.0
  9
$PUCSNAME
  2

  9
$PUCSORG
 10
0.0
 20
0.0
 30
0.0
  9
$PUCSXDIR
 10
1.0
 20
0.0
 30
0.0
  9
$PUCSYDIR
 10
0.0
 20
1.0
 30
0.0
  9
$USERI1
 70
               0
  9
$USERI2
 70
               0
  9
$USERI3
 70
               0
  9
$USERI4
 70
               0
  9
$USERI5
 70
               0
  9
$USERR1
 40
0.0
  9
$USERR2
 40
0.0
  9
$USERR3
 40
0.0
  9
$USERR4
 40
0.0
  9
$USERR5
 40
0.0
  9
$WORLDVIEW
 70
               1
  9
$SHADEDGE
 70
               3
  9
$SHADEDIF
 70
              70
  9
$TILEMODE
 70
               1
  9
$MAXACTVP
 70
              16
  9
$PINSBASE
 10
0.0
 20
0.0
 30
0.0
  9
$PLIMCHECK
 70
               0
  9
$PEXTMIN
 10
1.0000000000000000E+20
 20
1.0000000000000000E+20
 30
1.0000000000000000E+20
  9
$PEXTMAX
 10
-1.0000000000000000E+20
 20
-1.0000000000000000E+20
 30
-1.0000000000000000E+20
  9
$PLIMMIN
 10
0.0
 20
0.0
  9
$PLIMMAX
 10
12.0
 20
9.0
  9
$UNITMODE
 70
               0
  9
$VISRETAIN
 70
               0
  9
$PLINEGEN
 70
               1
  9
$PSLTSCALE
 70
               0
  9
$TREEDEPTH
 70
            3020
  9
$DWGCODEPAGE
  3
dos932
  0
ENDSEC
  0
SECTION
  2
TABLES
  0
TABLE
  2
VPORT
 70
               1
  0
VPORT
  2
*ACTIVE
 70
               0
 10
0.0
 20
0.0
 11
1.0
 21
1.0
 12
51.574377082919909
 22
-409.08852881742655
 13
0.0
 23
0.0
 14
1.0
 24
1.0
 15
0.0
 25
0.0
 16
0.0
 26
0.0
 36
1.0
 17
0.0
 27
0.0
 37
0.0
 40
2469.8706486865126
 41
0.5961157697621853
 42
50.0
 43
0.0
 44
0.0
 50
0.0
 51
0.0
 71
               0
 72
             100
 73
               1
 74
               1
 75
               0
 76
               0
 77
               0
 78
               0
  0
ENDTAB
  0
TABLE
  2
LTYPE
 70
              26
  0
LTYPE
  2
CONTINUOUS
 70
               0
  3
Solid line
 72
              65
 73
               0
 40
0.0
  0
LTYPE
  2
HIDDENX2
 70
               0
  3
CADPAC FUSION LINETYPE
 72
              65
 73
               2
 40
80.0
 49
60.0
 49
-20.0
  0
LTYPE
  2
HIDDEN
 70
               0
  3
CADPAC FUSION LINETYPE
 72
              65
 73
               2
 40
60.0
 49
40.0
 49
-20.0
  0
LTYPE
  2
HIDDEN2
 70
               0
  3
CADPAC FUSION LINETYPE
 72
              65
 73
               2
 40
50.0
 49
30.0
 49
-20.0
  0
LTYPE
  2
DASHED
 70
               0
  3
CADPAC FUSION LINETYPE
 72
              65
 73
               2
 40
60.0
 49
40.0
 49
-20.0
  0
LTYPE
  2
DASHED2
 70
               0
  3
CADPAC FUSION LINETYPE
 72
              65
 73
               2
 40
45.0
 49
30.0
 49
-15.0
  0
LTYPE
  2
DASHEDX2
 70
               0
  3
CADPAC FUSION LINETYPE
 72
              65
 73
               2
 40
90.0
 49
60.0
 49
-30.0
  0
LTYPE
  2
DOTX2
 70
               0
  3
CADPAC FUSION LINETYPE
 72
              65
 73
               2
 40
25.0
 49
0.0
 49
-25.0
  0
LTYPE
  2
DOT
 70
               0
  3
CADPAC FUSION LINETYPE
 72
              65
 73
               2
 40
20.0
 49
0.0
 49
-20.0
  0
LTYPE
  2
DOTS
 70
               0
  3
CADPAC FUSION LINETYPE
 72
              65
 73
               2
 40
20.0
 49
0.0
 49
-20.0
  0
LTYPE
  2
DOT2
 70
               0
  3
CADPAC FUSION LINETYPE
 72
              65
 73
               2
 40
15.0
 49
0.0
 49
-15.0
  0
LTYPE
  2
CENTERX2
 70
               0
  3
CADPAC FUSION LINETYPE
 72
              65
 73
               4
 40
120.0
 49
50.0
 49
-25.0
 49
20.0
 49
-25.0
  0
LTYPE
  2
CENTER
 70
               0
  3
CADPAC FUSION LINETYPE
 72
              65
 73
               4
 40
92.0
 49
40.0
 49
-20.0
 49
12.0
 49
-20.0
  0
LTYPE
  2
CENTER2
 70
               0
  3
CADPAC FUSION LINETYPE
 72
              65
 73
               4
 40
64.0
 49
30.0
 49
-15.0
 49
4.0
 49
-15.0
  0
LTYPE
  2
DASHDOTX2
 70
               0
  3
CADPAC FUSION LINETYPE
 72
              65
 73
               4
 40
100.0
 49
50.0
 49
-25.0
 49
0.0
 49
-25.0
  0
LTYPE
  2
DASHDOT
 70
               0
  3
CADPAC FUSION LINETYPE
 72
              65
 73
               4
 40
80.0
 49
40.0
 49
-20.0
 49
0.0
 49
-20.0
  0
LTYPE
  2
DASHDOT2
 70
               0
  3
CADPAC FUSION LINETYPE
 72
              65
 73
               4
 40
60.0
 49
30.0
 49
-15.0
 49
0.0
 49
-15.0
  0
LTYPE
  2
DIVIDEX2
 70
               0
  3
CADPAC FUSION LINETYPE
 72
              65
 73
               6
 40
125.0
 49
50.0
 49
-25.0
 49
0.0
 49
-25.0
 49
0.0
 49
-25.0
  0
LTYPE
  2
DIVIDE
 70
               0
  3
CADPAC FUSION LINETYPE
 72
              65
 73
               6
 40
100.0
 49
40.0
 49
-20.0
 49
0.0
 49
-20.0
 49
0.0
 49
-20.0
  0
LTYPE
  2
DIVIDE2
 70
               0
  3
CADPAC FUSION LINETYPE
 72
              65
 73
               6
 40
75.0
 49
30.0
 49
-15.0
 49
0.0
 49
-15.0
 49
0.0
 49
-15.0
  0
LTYPE
  2
BORDERX2
 70
               0
  3
CADPAC FUSION LINETYPE
 72
              65
 73
               6
 40
175.0
 49
50.0
 49
-25.0
 49
50.0
 49
-25.0
 49
0.0
 49
-25.0
  0
LTYPE
  2
BORDER
 70
               0
  3
CADPAC FUSION LINETYPE
 72
              65
 73
               6
 40
140.0
 49
40.0
 49
-20.0
 49
40.0
 49
-20.0
 49
0.0
 49
-20.0
  0
LTYPE
  2
BORDER2
 70
               0
  3
CADPAC FUSION LINETYPE
 72
              65
 73
               6
 40
105.0
 49
30.0
 49
-15.0
 49
30.0
 49
-15.0
 49
0.0
 49
-15.0
  0
LTYPE
  2
PHANTOMX2
 70
               0
  3
CADPAC FUSION LINETYPE
 72
              65
 73
               6
 40
150.0
 49
50.0
 49
-20.0
 49
20.0
 49
-20.0
 49
20.0
 49
-20.0
  0
LTYPE
  2
PHANTOM
 70
               0
  3
CADPAC FUSION LINETYPE
 72
              65
 73
               6
 40
124.0
 49
40.0
 49
-20.0
 49
12.0
 49
-20.0
 49
12.0
 49
-20.0
  0
LTYPE
  2
PHANTOM2
 70
               0
  3
CADPAC FUSION LINETYPE
 72
              65
 73
               6
 40
106.0
 49
30.0
 49
-20.0
 49
8.0
 49
-20.0
 49
8.0
 49
-20.0
  0
ENDTAB
  0
TABLE
  2
LAYER
 70
             256
  0
LAYER
  2
0
 70
               0
 62
               7
  6
CONTINUOUS
  0
LAYER
  2
LAYER001
 70
               0
 62
               7
  6
CONTINUOUS
  0
LAYER
  2
LAYER002
 70
               0
 62
               7
  6
CONTINUOUS
  0
LAYER
  2
LAYER003
 70
               0
 62
               7
  6
CONTINUOUS
  0
LAYER
  2
LAYER004
 70
               0
 62
               7
  6
CONTINUOUS
  0
LAYER
  2
LAYER005
 70
               0
 62
               7
  6
CONTINUOUS
  0
LAYER
  2
LAYER006
 70
               0
 62
               7
  6
CONTINUOUS
  0
LAYER
  2
LAYER007
 70
               0
 62
               7
  6
CONTINUOUS
  0
LAYER
  2
LAYER008
 70
               0
 62
               7
  6
CONTINUOUS
  0
LAYER
  2
LAYER009
 70
               0
 62
               7
  6
CONTINUOUS
  0
LAYER
  2
LAYER010
 70
               0
 62
               7
  6
CONTINUOUS
  0
LAYER
  2
LAYER011
 70
               0
 62
               7
  6
CONTINUOUS
  0
LAYER
  2
LAYER012
 70
               0
 62
               7
  6
CONTINUOUS
  0
LAYER
  2
LAYER013
 70
               0
 62
               7
  6
CONTINUOUS
  0
LAYER
  2
LAYER014
 70
               0
 62
               7
  6
CONTINUOUS
  0
LAYER
  2
LAYER015
 70
               0
 62
               7
  6
CONTINUOUS
  0
LAYER
  2
LAYER016
 70
               0
 62
               7
  6
CONTINUOUS
  0
LAYER
  2
LAYER017
 70
               0
 62
               7
  6
CONTINUOUS
  0
LAYER
  2
LAYER018
 70
               0
 62
               7
  6
CONTINUOUS
  0
LAYER
  2
LAYER019
 70
               0
 62
               7
  6
CONTINUOUS
  0
LAYER
  2
LAYER020
 70
               0
 62
               7
  6
CONTINUOUS
  0
LAYER
  2
LAYER021
 70
               0
 62
               7
  6
CONTINUOUS
  0
LAYER
  2
LAYER022
 70
               0
 62
               7
  6
CONTINUOUS
  0
LAYER
  2
LAYER023
 70
               0
 62
               7
  6
CONTINUOUS
  0
LAYER
  2
LAYER024
 70
               0
 62
               7
  6
CONTINUOUS
  0
LAYER
  2
LAYER025
 70
               0
 62
               7
  6
CONTINUOUS
  0
LAYER
  2
LAYER026
 70
               0
 62
               7
  6
CONTINUOUS
  0
LAYER
  2
LAYER027
 70
               0
 62
               7
  6
CONTINUOUS
  0
LAYER
  2
LAYER028
 70
               0
 62
               7
  6
CONTINUOUS
  0
LAYER
  2
LAYER029
 70
               0
 62
               7
  6
CONTINUOUS
  0
LAYER
  2
LAYER030
 70
               0
 62
               7
  6
CONTINUOUS
  0
LAYER
  2
LAYER031
 70
               0
 62
               7
  6
CONTINUOUS
  0
LAYER
  2
LAYER032
 70
               0
 62
               7
  6
CONTINUOUS
  0
LAYER
  2
LAYER033
 70
               0
 62
               7
  6
CONTINUOUS
  0
LAYER
  2
LAYER034
 70
               0
 62
               7
  6
CONTINUOUS
  0
LAYER
  2
LAYER035
 70
               0
 62
               7
  6
CONTINUOUS
  0
LAYER
  2
LAYER036
 70
               0
 62
               7
  6
CONTINUOUS
  0
LAYER
  2
LAYER037
 70
               0
 62
               7
  6
CONTINUOUS
  0
LAYER
  2
LAYER038
 70
               0
 62
               7
  6
CONTINUOUS
  0
LAYER
  2
LAYER039
 70
               0
 62
               7
  6
CONTINUOUS
  0
LAYER
  2
LAYER040
 70
               0
 62
               7
  6
CONTINUOUS
  0
LAYER
  2
LAYER041
 70
               0
 62
               7
  6
CONTINUOUS
  0
LAYER
  2
LAYER042
 70
               0
 62
               7
  6
CONTINUOUS
  0
LAYER
  2
LAYER043
 70
               0
 62
               7
  6
CONTINUOUS
  0
LAYER
  2
LAYER044
 70
               0
 62
               7
  6
CONTINUOUS
  0
LAYER
  2
LAYER045
 70
               0
 62
               7
  6
CONTINUOUS
  0
LAYER
  2
LAYER046
 70
               0
 62
               7
  6
CONTINUOUS
  0
LAYER
  2
LAYER047
 70
               0
 62
               7
  6
CONTINUOUS
  0
LAYER
  2
LAYER048
 70
               0
 62
               7
  6
CONTINUOUS
  0
LAYER
  2
LAYER049
 70
               0
 62
               7
  6
CONTINUOUS
  0
LAYER
  2
LAYER050
 70
               0
 62
               7
  6
CONTINUOUS
  0
LAYER
  2
LAYER051
 70
               0
 62
               7
  6
CONTINUOUS
  0
LAYER
  2
LAYER052
 70
               0
 62
               7
  6
CONTINUOUS
  0
LAYER
  2
LAYER053
 70
               0
 62
               7
  6
CONTINUOUS
  0
LAYER
  2
LAYER054
 70
               0
 62
               7
  6
CONTINUOUS
  0
LAYER
  2
LAYER055
 70
               0
 62
               7
  6
CONTINUOUS
  0
LAYER
  2
LAYER056
 70
               0
 62
               7
  6
CONTINUOUS
  0
LAYER
  2
LAYER057
 70
               0
 62
               7
  6
CONTINUOUS
  0
LAYER
  2
LAYER058
 70
               0
 62
               7
  6
CONTINUOUS
  0
LAYER
  2
LAYER059
 70
               0
 62
               7
  6
CONTINUOUS
  0
LAYER
  2
LAYER060
 70
               0
 62
               7
  6
CONTINUOUS
  0
LAYER
  2
LAYER061
 70
               0
 62
               7
  6
CONTINUOUS
  0
LAYER
  2
LAYER062
 70
               0
 62
               7
  6
CONTINUOUS
  0
LAYER
  2
LAYER063
 70
               0
 62
               7
  6
CONTINUOUS
  0
LAYER
  2
LAYER064
 70
               0
 62
               7
  6
CONTINUOUS
  0
LAYER
  2
LAYER065
 70
               0
 62
               7
  6
CONTINUOUS
  0
LAYER
  2
LAYER066
 70
               0
 62
               7
  6
CONTINUOUS
  0
LAYER
  2
LAYER067
 70
               0
 62
               7
  6
CONTINUOUS
  0
LAYER
  2
LAYER068
 70
               0
 62
               7
  6
CONTINUOUS
  0
LAYER
  2
LAYER069
 70
               0
 62
               7
  6
CONTINUOUS
  0
LAYER
  2
LAYER070
 70
               0
 62
               7
  6
CONTINUOUS
  0
LAYER
  2
LAYER071
 70
               0
 62
               7
  6
CONTINUOUS
  0
LAYER
  2
LAYER072
 70
               0
 62
               7
  6
CONTINUOUS
  0
LAYER
  2
LAYER073
 70
               0
 62
               7
  6
CONTINUOUS
  0
LAYER
  2
LAYER074
 70
               0
 62
               7
  6
CONTINUOUS
  0
LAYER
  2
LAYER075
 70
               0
 62
               7
  6
CONTINUOUS
  0
LAYER
  2
LAYER076
 70
               0
 62
               7
  6
CONTINUOUS
  0
LAYER
  2
LAYER077
 70
               0
 62
               7
  6
CONTINUOUS
  0
LAYER
  2
LAYER078
 70
               0
 62
               7
  6
CONTINUOUS
  0
LAYER
  2
LAYER079
 70
               0
 62
               7
  6
CONTINUOUS
  0
LAYER
  2
LAYER080
 70
               0
 62
               7
  6
CONTINUOUS
  0
LAYER
  2
LAYER081
 70
               0
 62
               7
  6
CONTINUOUS
  0
LAYER
  2
LAYER082
 70
               0
 62
               7
  6
CONTINUOUS
  0
LAYER
  2
LAYER083
 70
               0
 62
               7
  6
CONTINUOUS
  0
LAYER
  2
LAYER084
 70
               0
 62
               7
  6
CONTINUOUS
  0
LAYER
  2
LAYER085
 70
               0
 62
               7
  6
CONTINUOUS
  0
LAYER
  2
LAYER086
 70
               0
 62
               7
  6
CONTINUOUS
  0
LAYER
  2
LAYER087
 70
               0
 62
               7
  6
CONTINUOUS
  0
LAYER
  2
LAYER088
 70
               0
 62
               7
  6
CONTINUOUS
  0
LAYER
  2
LAYER089
 70
               0
 62
               7
  6
CONTINUOUS
  0
LAYER
  2
LAYER090
 70
               0
 62
               7
  6
CONTINUOUS
  0
LAYER
  2
LAYER091
 70
               0
 62
               7
  6
CONTINUOUS
  0
LAYER
  2
LAYER092
 70
               0
 62
               7
  6
CONTINUOUS
  0
LAYER
  2
LAYER093
 70
               0
 62
               7
  6
CONTINUOUS
  0
LAYER
  2
LAYER094
 70
               0
 62
               7
  6
CONTINUOUS
  0
LAYER
  2
LAYER095
 70
               0
 62
               7
  6
CONTINUOUS
  0
LAYER
  2
LAYER096
 70
               0
 62
               7
  6
CONTINUOUS
  0
LAYER
  2
LAYER097
 70
               0
 62
               7
  6
CONTINUOUS
  0
LAYER
  2
LAYER098
 70
               0
 62
               7
  6
CONTINUOUS
  0
LAYER
  2
LAYER099
 70
               0
 62
               7
  6
CONTINUOUS
  0
LAYER
  2
LAYER100
 70
               0
 62
               7
  6
CONTINUOUS
  0
LAYER
  2
LAYER101
 70
               0
 62
               7
  6
CONTINUOUS
  0
LAYER
  2
LAYER102
 70
               0
 62
               7
  6
CONTINUOUS
  0
LAYER
  2
LAYER103
 70
               0
 62
               7
  6
CONTINUOUS
  0
LAYER
  2
LAYER104
 70
               0
 62
               7
  6
CONTINUOUS
  0
LAYER
  2
LAYER105
 70
               0
 62
               7
  6
CONTINUOUS
  0
LAYER
  2
LAYER106
 70
               0
 62
               7
  6
CONTINUOUS
  0
LAYER
  2
LAYER107
 70
               0
 62
               7
  6
CONTINUOUS
  0
LAYER
  2
LAYER108
 70
               0
 62
               7
  6
CONTINUOUS
  0
LAYER
  2
LAYER109
 70
               0
 62
               7
  6
CONTINUOUS
  0
LAYER
  2
LAYER110
 70
               0
 62
               7
  6
CONTINUOUS
  0
LAYER
  2
LAYER111
 70
               0
 62
               7
  6
CONTINUOUS
  0
LAYER
  2
LAYER112
 70
               0
 62
               7
  6
CONTINUOUS
  0
LAYER
  2
LAYER113
 70
               0
 62
               7
  6
CONTINUOUS
  0
LAYER
  2
LAYER114
 70
               0
 62
               7
  6
CONTINUOUS
  0
LAYER
  2
LAYER115
 70
               0
 62
               7
  6
CONTINUOUS
  0
LAYER
  2
LAYER116
 70
               0
 62
               7
  6
CONTINUOUS
  0
LAYER
  2
LAYER117
 70
               0
 62
               7
  6
CONTINUOUS
  0
LAYER
  2
LAYER118
 70
               0
 62
               7
  6
CONTINUOUS
  0
LAYER
  2
LAYER119
 70
               0
 62
               7
  6
CONTINUOUS
  0
LAYER
  2
LAYER120
 70
               0
 62
               7
  6
CONTINUOUS
  0
LAYER
  2
LAYER121
 70
               0
 62
               7
  6
CONTINUOUS
  0
LAYER
  2
LAYER122
 70
               0
 62
               7
  6
CONTINUOUS
  0
LAYER
  2
LAYER123
 70
               0
 62
               7
  6
CONTINUOUS
  0
LAYER
  2
LAYER124
 70
               0
 62
               7
  6
CONTINUOUS
  0
LAYER
  2
LAYER125
 70
               0
 62
               7
  6
CONTINUOUS
  0
LAYER
  2
LAYER126
 70
               0
 62
               7
  6
CONTINUOUS
  0
LAYER
  2
LAYER127
 70
               0
 62
               7
  6
CONTINUOUS
  0
LAYER
  2
LAYER128
 70
               0
 62
               7
  6
CONTINUOUS
  0
LAYER
  2
LAYER129
 70
               0
 62
               7
  6
CONTINUOUS
  0
LAYER
  2
LAYER130
 70
               0
 62
               7
  6
CONTINUOUS
  0
LAYER
  2
LAYER131
 70
               0
 62
               7
  6
CONTINUOUS
  0
LAYER
  2
LAYER132
 70
               0
 62
               7
  6
CONTINUOUS
  0
LAYER
  2
LAYER133
 70
               0
 62
               7
  6
CONTINUOUS
  0
LAYER
  2
LAYER134
 70
               0
 62
               7
  6
CONTINUOUS
  0
LAYER
  2
LAYER135
 70
               0
 62
               7
  6
CONTINUOUS
  0
LAYER
  2
LAYER136
 70
               0
 62
               7
  6
CONTINUOUS
  0
LAYER
  2
LAYER137
 70
               0
 62
               7
  6
CONTINUOUS
  0
LAYER
  2
LAYER138
 70
               0
 62
               7
  6
CONTINUOUS
  0
LAYER
  2
LAYER139
 70
               0
 62
               7
  6
CONTINUOUS
  0
LAYER
  2
LAYER140
 70
               0
 62
               7
  6
CONTINUOUS
  0
LAYER
  2
LAYER141
 70
               0
 62
               7
  6
CONTINUOUS
  0
LAYER
  2
LAYER142
 70
               0
 62
               7
  6
CONTINUOUS
  0
LAYER
  2
LAYER143
 70
               0
 62
               7
  6
CONTINUOUS
  0
LAYER
  2
LAYER144
 70
               0
 62
               7
  6
CONTINUOUS
  0
LAYER
  2
LAYER145
 70
               0
 62
               7
  6
CONTINUOUS
  0
LAYER
  2
LAYER146
 70
               0
 62
               7
  6
CONTINUOUS
  0
LAYER
  2
LAYER147
 70
               0
 62
               7
  6
CONTINUOUS
  0
LAYER
  2
LAYER148
 70
               0
 62
               7
  6
CONTINUOUS
  0
LAYER
  2
LAYER149
 70
               0
 62
               7
  6
CONTINUOUS
  0
LAYER
  2
LAYER150
 70
               0
 62
               7
  6
CONTINUOUS
  0
LAYER
  2
LAYER151
 70
               0
 62
               7
  6
CONTINUOUS
  0
LAYER
  2
LAYER152
 70
               0
 62
               7
  6
CONTINUOUS
  0
LAYER
  2
LAYER153
 70
               0
 62
               7
  6
CONTINUOUS
  0
LAYER
  2
LAYER154
 70
               0
 62
               7
  6
CONTINUOUS
  0
LAYER
  2
LAYER155
 70
               0
 62
               7
  6
CONTINUOUS
  0
LAYER
  2
LAYER156
 70
               0
 62
               7
  6
CONTINUOUS
  0
LAYER
  2
LAYER157
 70
               0
 62
               7
  6
CONTINUOUS
  0
LAYER
  2
LAYER158
 70
               0
 62
               7
  6
CONTINUOUS
  0
LAYER
  2
LAYER159
 70
               0
 62
               7
  6
CONTINUOUS
  0
LAYER
  2
LAYER160
 70
               0
 62
               7
  6
CONTINUOUS
  0
LAYER
  2
LAYER161
 70
               0
 62
               7
  6
CONTINUOUS
  0
LAYER
  2
LAYER162
 70
               0
 62
               7
  6
CONTINUOUS
  0
LAYER
  2
LAYER163
 70
               0
 62
               7
  6
CONTINUOUS
  0
LAYER
  2
LAYER164
 70
               0
 62
               7
  6
CONTINUOUS
  0
LAYER
  2
LAYER165
 70
               0
 62
               7
  6
CONTINUOUS
  0
LAYER
  2
LAYER166
 70
               0
 62
               7
  6
CONTINUOUS
  0
LAYER
  2
LAYER167
 70
               0
 62
               7
  6
CONTINUOUS
  0
LAYER
  2
LAYER168
 70
               0
 62
               7
  6
CONTINUOUS
  0
LAYER
  2
LAYER169
 70
               0
 62
               7
  6
CONTINUOUS
  0
LAYER
  2
LAYER170
 70
               0
 62
               7
  6
CONTINUOUS
  0
LAYER
  2
LAYER171
 70
               0
 62
               7
  6
CONTINUOUS
  0
LAYER
  2
LAYER172
 70
               0
 62
               7
  6
CONTINUOUS
  0
LAYER
  2
LAYER173
 70
               0
 62
               7
  6
CONTINUOUS
  0
LAYER
  2
LAYER174
 70
               0
 62
               7
  6
CONTINUOUS
  0
LAYER
  2
LAYER175
 70
               0
 62
               7
  6
CONTINUOUS
  0
LAYER
  2
LAYER176
 70
               0
 62
               7
  6
CONTINUOUS
  0
LAYER
  2
LAYER177
 70
               0
 62
               7
  6
CONTINUOUS
  0
LAYER
  2
LAYER178
 70
               0
 62
               7
  6
CONTINUOUS
  0
LAYER
  2
LAYER179
 70
               0
 62
               7
  6
CONTINUOUS
  0
LAYER
  2
LAYER180
 70
               0
 62
               7
  6
CONTINUOUS
  0
LAYER
  2
LAYER181
 70
               0
 62
               7
  6
CONTINUOUS
  0
LAYER
  2
LAYER182
 70
               0
 62
               7
  6
CONTINUOUS
  0
LAYER
  2
LAYER183
 70
               0
 62
               7
  6
CONTINUOUS
  0
LAYER
  2
LAYER184
 70
               0
 62
               7
  6
CONTINUOUS
  0
LAYER
  2
LAYER185
 70
               0
 62
               7
  6
CONTINUOUS
  0
LAYER
  2
LAYER186
 70
               0
 62
               7
  6
CONTINUOUS
  0
LAYER
  2
LAYER187
 70
               0
 62
               7
  6
CONTINUOUS
  0
LAYER
  2
LAYER188
 70
               0
 62
               7
  6
CONTINUOUS
  0
LAYER
  2
LAYER189
 70
               0
 62
               7
  6
CONTINUOUS
  0
LAYER
  2
LAYER190
 70
               0
 62
               7
  6
CONTINUOUS
  0
LAYER
  2
LAYER191
 70
               0
 62
               7
  6
CONTINUOUS
  0
LAYER
  2
LAYER192
 70
               0
 62
               7
  6
CONTINUOUS
  0
LAYER
  2
LAYER193
 70
               0
 62
               7
  6
CONTINUOUS
  0
LAYER
  2
LAYER194
 70
               0
 62
               7
  6
CONTINUOUS
  0
LAYER
  2
LAYER195
 70
               0
 62
               7
  6
CONTINUOUS
  0
LAYER
  2
LAYER196
 70
               0
 62
               7
  6
CONTINUOUS
  0
LAYER
  2
LAYER197
 70
               0
 62
               7
  6
CONTINUOUS
  0
LAYER
  2
LAYER198
 70
               0
 62
               7
  6
CONTINUOUS
  0
LAYER
  2
LAYER199
 70
               0
 62
               7
  6
CONTINUOUS
  0
LAYER
  2
LAYER200
 70
               0
 62
               7
  6
CONTINUOUS
  0
LAYER
  2
LAYER201
 70
               0
 62
               7
  6
CONTINUOUS
  0
LAYER
  2
LAYER202
 70
               0
 62
               7
  6
CONTINUOUS
  0
LAYER
  2
LAYER203
 70
               0
 62
               7
  6
CONTINUOUS
  0
LAYER
  2
LAYER204
 70
               0
 62
               7
  6
CONTINUOUS
  0
LAYER
  2
LAYER205
 70
               0
 62
               7
  6
CONTINUOUS
  0
LAYER
  2
LAYER206
 70
               0
 62
               7
  6
CONTINUOUS
  0
LAYER
  2
LAYER207
 70
               0
 62
               7
  6
CONTINUOUS
  0
LAYER
  2
LAYER208
 70
               0
 62
               7
  6
CONTINUOUS
  0
LAYER
  2
LAYER209
 70
               0
 62
               7
  6
CONTINUOUS
  0
LAYER
  2
LAYER210
 70
               0
 62
               7
  6
CONTINUOUS
  0
LAYER
  2
LAYER211
 70
               0
 62
               7
  6
CONTINUOUS
  0
LAYER
  2
LAYER212
 70
               0
 62
               7
  6
CONTINUOUS
  0
LAYER
  2
LAYER213
 70
               0
 62
               7
  6
CONTINUOUS
  0
LAYER
  2
LAYER214
 70
               0
 62
               7
  6
CONTINUOUS
  0
LAYER
  2
LAYER215
 70
               0
 62
               7
  6
CONTINUOUS
  0
LAYER
  2
LAYER216
 70
               0
 62
               7
  6
CONTINUOUS
  0
LAYER
  2
LAYER217
 70
               0
 62
               7
  6
CONTINUOUS
  0
LAYER
  2
LAYER218
 70
               0
 62
               7
  6
CONTINUOUS
  0
LAYER
  2
LAYER219
 70
               0
 62
               7
  6
CONTINUOUS
  0
LAYER
  2
LAYER220
 70
               0
 62
               7
  6
CONTINUOUS
  0
LAYER
  2
LAYER221
 70
               0
 62
               7
  6
CONTINUOUS
  0
LAYER
  2
LAYER222
 70
               0
 62
               7
  6
CONTINUOUS
  0
LAYER
  2
LAYER223
 70
               0
 62
               7
  6
CONTINUOUS
  0
LAYER
  2
LAYER224
 70
               0
 62
               7
  6
CONTINUOUS
  0
LAYER
  2
LAYER225
 70
               0
 62
               7
  6
CONTINUOUS
  0
LAYER
  2
LAYER226
 70
               0
 62
               7
  6
CONTINUOUS
  0
LAYER
  2
LAYER227
 70
               0
 62
               7
  6
CONTINUOUS
  0
LAYER
  2
LAYER228
 70
               0
 62
               7
  6
CONTINUOUS
  0
LAYER
  2
LAYER229
 70
               0
 62
               7
  6
CONTINUOUS
  0
LAYER
  2
LAYER230
 70
               0
 62
               7
  6
CONTINUOUS
  0
LAYER
  2
LAYER231
 70
               0
 62
               7
  6
CONTINUOUS
  0
LAYER
  2
LAYER232
 70
               0
 62
               7
  6
CONTINUOUS
  0
LAYER
  2
LAYER233
 70
               0
 62
               7
  6
CONTINUOUS
  0
LAYER
  2
LAYER234
 70
               0
 62
               7
  6
CONTINUOUS
  0
LAYER
  2
LAYER235
 70
               0
 62
               7
  6
CONTINUOUS
  0
LAYER
  2
LAYER236
 70
               0
 62
               7
  6
CONTINUOUS
  0
LAYER
  2
LAYER237
 70
               0
 62
               7
  6
CONTINUOUS
  0
LAYER
  2
LAYER238
 70
               0
 62
               7
  6
CONTINUOUS
  0
LAYER
  2
LAYER239
 70
               0
 62
               7
  6
CONTINUOUS
  0
LAYER
  2
LAYER240
 70
               0
 62
               7
  6
CONTINUOUS
  0
LAYER
  2
LAYER241
 70
               0
 62
               7
  6
CONTINUOUS
  0
LAYER
  2
LAYER242
 70
               0
 62
               7
  6
CONTINUOUS
  0
LAYER
  2
LAYER243
 70
               0
 62
               7
  6
CONTINUOUS
  0
LAYER
  2
LAYER244
 70
               0
 62
               7
  6
CONTINUOUS
  0
LAYER
  2
LAYER245
 70
               0
 62
               7
  6
CONTINUOUS
  0
LAYER
  2
LAYER246
 70
               0
 62
               7
  6
CONTINUOUS
  0
LAYER
  2
LAYER247
 70
               0
 62
               7
  6
CONTINUOUS
  0
LAYER
  2
LAYER248
 70
               0
 62
               7
  6
CONTINUOUS
  0
LAYER
  2
LAYER249
 70
               0
 62
               7
  6
CONTINUOUS
  0
LAYER
  2
LAYER250
 70
               0
 62
               7
  6
CONTINUOUS
  0
LAYER
  2
LAYER251
 70
               0
 62
               7
  6
CONTINUOUS
  0
LAYER
  2
LAYER252
 70
               0
 62
               7
  6
CONTINUOUS
  0
LAYER
  2
LAYER253
 70
               0
 62
               7
  6
CONTINUOUS
  0
LAYER
  2
LAYER254
 70
               0
 62
               7
  6
CONTINUOUS
  0
LAYER
  2
LAYER255
 70
               0
 62
               7
  6
CONTINUOUS
  0
ENDTAB
  0
TABLE
  2
STYLE
 70
               1
  0
STYLE
  2
STANDARD
 70
               0
 40
0.0
 41
0.8
 50
0.0
 71
               0
 42
40.0
  3
MS PGothic.ttf
  4

  0
ENDTAB
  0
TABLE
  2
VIEW
 70
               0
  0
VIEW
  2
QQQQ
 70
               0
 40
2469.8706486865126
 10
51.574377082919909
 20
-409.08852881742655
 41
1472.3288429547883
 11
0.0
 21
0.0
 31
1.0
 12
100.0
 22
100.0
 32
0.0
 42
50.0
 43
0.0
 44
0.0
 50
0.0
 71
               0
  0
ENDTAB
  0
TABLE
  2
UCS
 70
               0
  0
ENDTAB
  0
TABLE
  2
APPID
 70
               1
  0
APPID
  2
ACAD
 70
               0
  0
ENDTAB
  0
TABLE
  2
DIMSTYLE
 70
               1
  0
DIMSTYLE
  2
STANDARD
 70
               0
  3

  4

  5

  6

  7

 40
1.0
 41
0.18
 42
0.0625
 43
0.38
 44
0.18
 45
0.0
 46
0.0
 47
0.0
 48
0.0
140
0.18
141
0.09
142
0.0
143
25.399999999999999
144
1.0
145
0.0
146
1.0
147
0.09
 71
               0
 72
               0
 73
               1
 74
               1
 75
               0
 76
               0
 77
               0
 78
               0
170
               0
171
               2
172
               0
173
               0
174
               0
175
               0
176
               0
177
               0
178
               0
  0
ENDTAB
  0
ENDSEC
  0
SECTION
  2
BLOCKS
  0
ENDSEC
  0
SECTION
  2
ENTITIES
  0
LINE
  8
0
  6
CONTINUOUS
 62
               3
  5
136
 10
-75.0
 20
275.48646395899937
 30
0.0
 11
75.0
 21
275.48646395899937
 31
0.0
  0
LINE
  8
0
  6
CONTINUOUS
 62
               3
  5
137
 10
-88.500000000000227
 20
265.48646395899937
 30
0.0
 11
-88.500000000000227
 21
258.48646395899971
 31
0.0
  0
LINE
  8
0
  6
CONTINUOUS
 62
               3
  5
138
 10
-88.500000000000227
 20
265.48646395899937
 30
0.0
 11
-75.0
 21
275.48646395899937
 31
0.0
  0
ARC
  8
0
  6
CONTINUOUS
 62
               3
  5
139
 10
-76.999999999999886
 20
253.90388826404399
 30
0.0
 40
4.9999999999999991
 50
0.0
 51
66.421821521785319
  0
LINE
  8
0
  6
CONTINUOUS
 62
               3
  5
13A
 10
-88.500000000000227
 20
258.48646395899971
 30
0.0
 11
88.499999999999659
 21
258.48646395899971
 31
0.0
  0
ARC
  8
0
  6
CONTINUOUS
 62
               3
  5
13B
 10
-55.0
 20
168.48646395899937
 30
0.0
 40
19.999999999999996
 50
148.21166938291952
 51
167.26981986165518
  0
LINE
  8
0
  6
CONTINUOUS
 62
               3
  5
13C
 10
-71.999999999999886
 20
253.90388826404399
 30
0.0
 11
-71.999999999999886
 21
179.02211771185216
 31
0.0
  0
LINE
  8
0
  6
CONTINUOUS
 62
               3
  5
13D
 10
71.999999999999886
 20
184.02211771185273
 30
0.0
 11
71.999999999999886
 21
253.90388826404399
 31
0.0
  0
LINE
  8
0
  6
CONTINUOUS
 62
               3
  5
13E
 10
-58.000000000000114
 20
-297.51353604100098
 30
0.0
 11
-75.0
 21
-148.51353604100052
 31
0.0
  0
LINE
  8
0
  6
CONTINUOUS
 62
               3
  5
13F
 10
-71.999999999999886
 20
179.02211771185216
 30
0.0
 11
71.500000000000341
 21
179.02211771185216
 31
0.0
  0
LINE
  8
0
  6
CONTINUOUS
 62
               3
  5
140
 10
-20.000000000000004
 20
258.48646395899971
 30
0.0
 11
-20.000000000000004
 21
275.48646395899937
 31
0.0
  0
LINE
  8
0
  6
CONTINUOUS
 62
               3
  5
141
 10
20.0
 20
275.48646395899937
 30
0.0
 11
20.0
 21
258.48646395899971
 31
0.0
  0
LINE
  8
0
  6
CONTINUOUS
 62
               3
  5
142
 10
-20.000000000000004
 20
265.48646395899937
 30
0.0
 11
20.0
 21
265.48646395899937
 31
0.0
  0
LINE
  8
0
  6
CONTINUOUS
 62
               3
  5
143
 10
-72.284161474005373
 20
275.48646395899937
 30
0.0
 11
-72.284161474005373
 21
258.48646395899971
 31
0.0
  0
LINE
  8
0
  6
CONTINUOUS
 62
               3
  5
144
 10
-86.210498200625238
 20
265.48646395899937
 30
0.0
 11
-86.210498200625238
 21
258.48646395899971
 31
0.0
  0
LINE
  8
0
  6
CONTINUOUS
 62
               3
  5
145
 10
-88.500000000000227
 20
265.48646395899937
 30
0.0
 11
-86.210498200625238
 21
265.48646395899937
 31
0.0
  0
LINE
  8
0
  6
CONTINUOUS
 62
               3
  5
146
 10
-86.210498200625238
 20
265.48646395899937
 30
0.0
 11
-72.284161474005373
 21
275.48646395899937
 31
0.0
  0
LINE
  8
0
  6
CONTINUOUS
 62
               3
  5
147
 10
88.499999999999659
 20
265.48646395899937
 30
0.0
 11
88.499999999999659
 21
258.48646395899971
 31
0.0
  0
LINE
  8
0
  6
CONTINUOUS
 62
               3
  5
148
 10
88.499999999999659
 20
265.48646395899937
 30
0.0
 11
75.0
 21
275.48646395899937
 31
0.0
  0
ARC
  8
0
  6
CONTINUOUS
 62
               3
  5
149
 10
76.999999999999886
 20
253.90388826404399
 30
0.0
 40
4.9999999999999991
 50
113.57817847818001
 51
179.99999999996507
  0
LINE
  8
0
  6
CONTINUOUS
 62
               3
  5
14A
 10
72.284161474004236
 20
275.48646395899937
 30
0.0
 11
72.284161474004236
 21
258.48646395899971
 31
0.0
  0
LINE
  8
0
  6
CONTINUOUS
 62
               3
  5
14B
 10
86.210498200625238
 20
265.48646395899937
 30
0.0
 11
86.210498200625238
 21
258.48646395899971
 31
0.0
  0
LINE
  8
0
  6
CONTINUOUS
 62
               3
  5
14C
 10
88.499999999999659
 20
265.48646395899937
 30
0.0
 11
86.210498200625238
 21
265.48646395899937
 31
0.0
  0
LINE
  8
0
  6
CONTINUOUS
 62
               3
  5
14D
 10
86.210498200625238
 20
265.48646395899937
 30
0.0
 11
72.284161474004236
 21
275.48646395899937
 31
0.0
  0
LINE
  8
0
  6
CONTINUOUS
 62
               3
  5
14E
 10
-58.000000000000114
 20
-297.51353604100041
 30
0.0
 11
58.000000000000107
 21
-297.51353604100098
 31
0.0
  0
ARC
  8
0
  6
CONTINUOUS
 62
               3
  5
14F
 10
75.0
 20
46.986463958999366
 30
0.0
 40
2.4999999999999996
 50
269.99999999994793
 51
449.99999999991297
  0
LINE
  8
0
  6
CONTINUOUS
 62
               3
  5
150
 10
-75.0
 20
-148.51353604100052
 30
0.0
 11
-46.36810779205689
 21
-148.51353604100052
 31
0.0
  0
LINE
  8
0
  6
CONTINUOUS
 62
               3
  5
151
 10
-1.9728332801508941
 20
-148.51353604100052
 30
0.0
 11
74.496765133649774
 21
-148.51353604100052
 31
0.0
  0
LINE
  8
0
  6
CONTINUOUS
 62
               3
  5
152
 10
-140.0
 20
54.486463958999366
 30
0.0
 11
-139.3284438740356
 21
54.486463958999366
 31
0.0
  0
LINE
  8
0
  6
CONTINUOUS
 62
               3
  5
153
 10
-136.82844387403554
 20
51.986463959000105
 30
0.0
 11
-139.3284438740356
 21
54.486463958999366
 31
0.0
  0
LINE
  8
0
  6
CONTINUOUS
 62
               3
  5
154
 10
-136.8284438740348
 20
51.986463958999366
 30
0.0
 11
-94.663333617757388
 21
50.514025863145321
 31
0.0
  0
LINE
  8
0
  6
CONTINUOUS
 62
               3
  5
155
 10
-76.464466094067504
 20
34.214774532713363
 30
0.0
 11
-91.302297195337246
 21
49.052605633982637
 31
0.0
  0
ARC
  8
0
  6
CONTINUOUS
 62
               3
  5
156
 10
-79.999999999999986
 20
30.679240626780256
 30
0.0
 40
4.9999999999999991
 50
0.0
 51
44.999999999990344
  0
LINE
  8
0
  6
CONTINUOUS
 62
               3
  5
157
 10
-140.0
 20
164.48646395899925
 30
0.0
 11
-139.3284438740356
 21
164.48646395899925
 31
0.0
  0
LINE
  8
0
  6
CONTINUOUS
 62
               3
  5
158
 10
-136.82844387403554
 20
166.98646395899948
 30
0.0
 11
-139.3284438740356
 21
164.48646395899925
 31
0.0
  0
LINE
  8
0
  6
CONTINUOUS
 62
               3
  5
159
 10
-136.8284438740356
 20
166.98646395899942
 30
0.0
 11
-79.210967671861312
 21
168.99851056415167
 31
0.0
  0
LINE
  8
0
  6
CONTINUOUS
 62
               3
  5
15A
 10
-139.3284438740356
 20
164.48646395899925
 30
0.0
 11
-139.3284438740356
 21
54.486463958999366
 31
0.0
  0
LINE
  8
0
  6
CONTINUOUS
 62
               3
  5
15B
 10
-140.0
 20
51.886463958999371
 30
0.0
 11
-140.0
 21
167.08646395899939
 31
0.0
  0
LINE
  8
0
  6
CONTINUOUS
 62
               3
  5
15C
 10
-140.0
 20
167.08646395899939
 30
0.0
 11
-142.5
 21
167.08646395899939
 31
0.0
  0
ARC
  8
0
  6
CONTINUOUS
 62
               3
  5
15D
 10
-142.5
 20
164.58646395899939
 30
0.0
 40
2.5
 50
89.999999999982862
 51
179.99999999996572
  0
LINE
  8
0
  6
CONTINUOUS
 62
               3
  5
15E
 10
-145.0
 20
164.58646395899939
 30
0.0
 11
-145.0
 21
54.386463958999371
 31
0.0
  0
LINE
  8
0
  6
CONTINUOUS
 62
               3
  5
15F
 10
-140.0
 20
51.886463958999371
 30
0.0
 11
-142.5
 21
51.886463958999371
 31
0.0
  0
ARC
  8
0
  6
CONTINUOUS
 62
               3
  5
160
 10
-142.5
 20
54.386463958999371
 30
0.0
 40
2.5
 50
179.99999999996507
 51
269.99999999994793
  0
LINE
  8
0
  6
CONTINUOUS
 62
               3
  5
161
 10
-136.82844387403554
 20
166.98646395899948
 30
0.0
 11
-136.8284438740348
 21
51.986463958999366
 31
0.0
  0
ARC
  8
0
  6
CONTINUOUS
 62
               3
  5
162
 10
-94.837831101269927
 20
45.517071728049871
 30
0.0
 40
5.0
 50
44.99999999999207
 51
87.99999999998262
  0
ARC
  8
0
  6
CONTINUOUS
 62
               3
  5
163
 10
-79.385465155373808
 20
173.99546469924712
 30
0.0
 40
5.0
 50
271.99999999994731
 51
347.26981986161894
  0
LINE
  8
0
  6
CONTINUOUS
 62
               3
  5
164
 10
-65.000000000002245
 20
49.486463958999366
 30
0.0
 11
0.0
 21
49.486463958999366
 31
0.0
  0
LINE
  8
0
  6
CONTINUOUS
 62
               3
  5
165
 10
0.0
 20
49.486463958999366
 30
0.0
 11
75.0
 21
49.486463958999366
 31
0.0
  0
LINE
  8
0
  6
CONTINUOUS
 62
               3
  5
166
 10
-65.000000000002245
 20
44.486463958997859
 30
0.0
 11
0.0
 21
44.486463958999366
 31
0.0
  0
LINE
  8
0
  6
CONTINUOUS
 62
               3
  5
167
 10
0.0
 20
44.486463958999366
 30
0.0
 11
75.0
 21
44.486463958999366
 31
0.0
  0
LINE
  8
0
  6
CONTINUOUS
 62
               3
  5
168
 10
-74.999999999999986
 20
30.679240626780256
 30
0.0
 11
-75.0
 21
-148.51353604100052
 31
0.0
  0
LINE
  8
0
  6
CONTINUOUS
 62
               3
  5
169
 10
58.000000000000675
 20
-308.51353604100063
 30
0.0
 11
58.000000000000675
 21
-297.51353604100098
 31
0.0
  0
LINE
  8
0
  6
CONTINUOUS
 62
               3
  5
16A
 10
-57.999999999999545
 20
-297.51353604100098
 30
0.0
 11
-57.999999999999545
 21
-308.51353604100109
 31
0.0
  0
LINE
  8
0
  6
CONTINUOUS
 62
               3
  5
16B
 10
-57.0
 20
-344.51353604100115
 30
0.0
 11
-57.0
 21
-309.51353604100063
 31
0.0
  0
LINE
  8
0
  6
CONTINUOUS
 62
               3
  5
16C
 10
57.000000000000007
 20
-344.51353604100115
 30
0.0
 11
57.0
 21
-309.51353604100063
 31
0.0
  0
LINE
  8
0
  6
CONTINUOUS
 62
               3
  5
16D
 10
-57.000000000000021
 20
-309.51353604100063
 30
0.0
 11
-57.999999999999545
 21
-308.51353604100109
 31
0.0
  0
LINE
  8
0
  6
CONTINUOUS
 62
               3
  5
16E
 10
57.0
 20
-309.51353604100063
 30
0.0
 11
58.0
 21
-308.51353604100063
 31
0.0
  0
ARC
  8
0
  6
CONTINUOUS
 62
               3
  5
16F
 10
-65.0
 20
46.986463958997859
 30
0.0
 40
2.4999999999999996
 50
89.999999999982535
 51
269.99999999994793
  0
LINE
  8
0
  6
CONTINUOUS
 62
               3
  5
170
 10
575.00000000000011
 20
275.48646395899937
 30
0.0
 11
425.0
 21
275.48646395899937
 31
0.0
  0
LINE
  8
0
  6
CONTINUOUS
 62
               3
  5
171
 10
588.50000000000034
 20
265.48646395899937
 30
0.0
 11
588.50000000000034
 21
258.48646395899971
 31
0.0
  0
LINE
  8
0
  6
CONTINUOUS
 62
               3
  5
172
 10
588.50000000000034
 20
265.48646395899937
 30
0.0
 11
575.00000000000011
 21
275.48646395899937
 31
0.0
  0
ARC
  8
0
  6
CONTINUOUS
 62
               3
  5
173
 10
576.99999999999989
 20
253.90388826404399
 30
0.0
 40
4.9999999999999991
 50
113.57817847818001
 51
179.99999999996507
  0
LINE
  8
0
  6
CONTINUOUS
 62
               3
  5
174
 10
588.50000000000034
 20
258.48646395899971
 30
0.0
 11
411.49999999999977
 21
258.48646395899971
 31
0.0
  0
ARC
  8
0
  6
CONTINUOUS
 62
               3
  5
175
 10
555.00000000000011
 20
168.48646395899939
 30
0.0
 40
19.999999999999996
 50
0.0
 51
31.788330617045627
  0
LINE
  8
0
  6
CONTINUOUS
 62
               3
  5
176
 10
571.99999999999989
 20
253.90388826404399
 30
0.0
 11
571.99999999999989
 21
179.02211771185219
 31
0.0
  0
ARC
  8
0
  6
CONTINUOUS
 62
               3
  5
177
 10
445.0
 20
168.48646395899939
 30
0.0
 40
19.999999999999996
 50
148.21166938291952
 51
179.99999999996524
  0
LINE
  8
0
  6
CONTINUOUS
 62
               3
  5
178
 10
428.00000000000011
 20
179.02211771185219
 30
0.0
 11
428.00000000000011
 21
253.90388826404399
 31
0.0
  0
LINE
  8
0
  6
CONTINUOUS
 62
               3
  5
179
 10
558.00000000000011
 20
-297.51353604100086
 30
0.0
 11
575.00000000000011
 21
-148.51353604100052
 31
0.0
  0
LINE
  8
0
  6
CONTINUOUS
 62
               3
  5
17A
 10
441.99999999999989
 20
-297.51353604100086
 30
0.0
 11
425.0
 21
-148.51353604100052
 31
0.0
  0
LINE
  8
0
  6
CONTINUOUS
 62
               3
  5
17B
 10
574.99999999999955
 20
44.486463958999394
 30
0.0
 11
575.00000000000011
 21
-148.51353604100052
 31
0.0
  0
LINE
  8
0
  6
CONTINUOUS
 62
               3
  5
17C
 10
520.0
 20
258.48646395899971
 30
0.0
 11
520.0
 21
275.48646395899937
 31
0.0
  0
LINE
  8
0
  6
CONTINUOUS
 62
               3
  5
17D
 10
480.0
 20
275.48646395899937
 30
0.0
 11
480.0
 21
258.48646395899971
 31
0.0
  0
LINE
  8
0
  6
CONTINUOUS
 62
               3
  5
17E
 10
520.0
 20
265.48646395899937
 30
0.0
 11
480.0
 21
265.48646395899937
 31
0.0
  0
LINE
  8
0
  6
CONTINUOUS
 62
               3
  5
17F
 10
572.28416147400492
 20
275.48646395899937
 30
0.0
 11
572.28416147400492
 21
258.48646395899971
 31
0.0
  0
LINE
  8
0
  6
CONTINUOUS
 62
               3
  5
180
 10
586.21049820062524
 20
265.48646395899937
 30
0.0
 11
586.21049820062524
 21
258.48646395899971
 31
0.0
  0
LINE
  8
0
  6
CONTINUOUS
 62
               3
  5
181
 10
588.50000000000034
 20
265.48646395899937
 30
0.0
 11
586.21049820062524
 21
265.48646395899937
 31
0.0
  0
LINE
  8
0
  6
CONTINUOUS
 62
               3
  5
182
 10
586.21049820062524
 20
265.48646395899937
 30
0.0
 11
572.28416147400492
 21
275.48646395899937
 31
0.0
  0
LINE
  8
0
  6
CONTINUOUS
 62
               3
  5
183
 10
411.49999999999977
 20
265.48646395899937
 30
0.0
 11
411.49999999999977
 21
258.48646395899971
 31
0.0
  0
LINE
  8
0
  6
CONTINUOUS
 62
               3
  5
184
 10
411.49999999999977
 20
265.48646395899937
 30
0.0
 11
425.0
 21
275.48646395899937
 31
0.0
  0
ARC
  8
0
  6
CONTINUOUS
 62
               3
  5
185
 10
423.00000000000011
 20
253.90388826404399
 30
0.0
 40
4.9999999999999991
 50
0.0
 51
66.421821521785319
  0
LINE
  8
0
  6
CONTINUOUS
 62
               3
  5
186
 10
427.7158385259952
 20
275.48646395899937
 30
0.0
 11
427.7158385259952
 21
258.48646395899971
 31
0.0
  0
LINE
  8
0
  6
CONTINUOUS
 62
               3
  5
187
 10
413.78950179937476
 20
265.48646395899937
 30
0.0
 11
413.78950179937476
 21
258.48646395899971
 31
0.0
  0
LINE
  8
0
  6
CONTINUOUS
 62
               3
  5
188
 10
411.49999999999977
 20
265.48646395899937
 30
0.0
 11
413.78950179937476
 21
265.48646395899937
 31
0.0
  0
LINE
  8
0
  6
CONTINUOUS
 62
               3
  5
189
 10
413.78950179937476
 20
265.48646395899937
 30
0.0
 11
427.7158385259952
 21
275.48646395899937
 31
0.0
  0
LINE
  8
0
  6
CONTINUOUS
 62
               3
  5
18A
 10
558.00000000000011
 20
-297.51353604100029
 30
0.0
 11
441.99999999999989
 21
-297.51353604100086
 31
0.0
  0
LINE
  8
0
  6
CONTINUOUS
 62
               3
  5
18B
 10
571.99999999999989
 20
179.02211771185219
 30
0.0
 11
511.7270000000002
 21
179.02211771185219
 31
0.0
  0
LINE
  8
0
  6
CONTINUOUS
 62
               3
  5
18C
 10
488.2729999999998
 20
179.02211771185219
 30
0.0
 11
428.00000000000011
 21
179.02211771185219
 31
0.0
  0
ARC
  8
0
  6
CONTINUOUS
 62
               3
  5
18D
 10
574.99999999999955
 20
46.986463958999394
 30
0.0
 40
2.4999999999999996
 50
269.99999999994793
 51
449.99999999991297
  0
LINE
  8
0
  6
CONTINUOUS
 62
               3
  5
18E
 10
424.99999999999943
 20
49.486463958999394
 30
0.0
 11
491.78299999999922
 21
49.486463958999394
 31
0.0
  0
LINE
  8
0
  6
CONTINUOUS
 62
               3
  5
18F
 10
508.21699999999908
 20
49.486463958999394
 30
0.0
 11
574.99999999999955
 21
49.486463958999394
 31
0.0
  0
LINE
  8
0
  6
CONTINUOUS
 62
               3
  5
190
 10
424.99999999999943
 20
44.486463958999394
 30
0.0
 11
491.9383554665842
 21
44.486463958999394
 31
0.0
  0
LINE
  8
0
  6
CONTINUOUS
 62
               3
  5
191
 10
508.21699999999908
 20
44.486463958999394
 30
0.0
 11
574.99999999999955
 21
44.486463958999394
 31
0.0
  0
LINE
  8
0
  6
CONTINUOUS
 62
               3
  5
192
 10
575.00000000000011
 20
-148.51353604100052
 30
0.0
 11
508.21699999999964
 21
-148.51353604100052
 31
0.0
  0
LINE
  8
0
  6
CONTINUOUS
 62
               3
  5
193
 10
491.78299999999979
 20
-148.51353604100052
 30
0.0
 11
425.0
 21
-148.51353604100052
 31
0.0
  0
LINE
  8
0
  6
CONTINUOUS
 62
               3
  5
194
 10
575.00000000000011
 20
168.48646395899939
 30
0.0
 11
574.99999999999955
 21
49.486463958999394
 31
0.0
  0
LINE
  8
0
  6
CONTINUOUS
 62
               3
  5
195
 10
-574.99999999999989
 20
275.48646395899937
 30
0.0
 11
-425.00000000000051
 21
275.48646395899937
 31
0.0
  0
LINE
  8
0
  6
CONTINUOUS
 62
               3
  5
196
 10
-588.50000000000011
 20
265.48646395899937
 30
0.0
 11
-588.50000000000011
 21
258.48646395899971
 31
0.0
  0
LINE
  8
0
  6
CONTINUOUS
 62
               3
  5
197
 10
-588.50000000000011
 20
265.48646395899937
 30
0.0
 11
-574.99999999999989
 21
275.48646395899937
 31
0.0
  0
ARC
  8
0
  6
CONTINUOUS
 62
               3
  5
198
 10
-576.99999999999989
 20
253.90388826404399
 30
0.0
 40
4.9999999999999991
 50
0.0
 51
66.421821521785319
  0
LINE
  8
0
  6
CONTINUOUS
 62
               3
  5
199
 10
-588.50000000000011
 20
258.48646395899971
 30
0.0
 11
-411.50000000000028
 21
258.48646395899971
 31
0.0
  0
ARC
  8
0
  6
CONTINUOUS
 62
               3
  5
19A
 10
-554.99999999999989
 20
168.48646395899942
 30
0.0
 40
19.999999999999996
 50
148.21166938291952
 51
179.99999999996524
  0
LINE
  8
0
  6
CONTINUOUS
 62
               3
  5
19B
 10
-571.99999999999989
 20
253.90388826404399
 30
0.0
 11
-571.99999999999989
 21
179.02211771185222
 31
0.0
  0
ARC
  8
0
  6
CONTINUOUS
 62
               3
  5
19C
 10
-445.00000000000051
 20
168.48646395899942
 30
0.0
 40
19.999999999999996
 50
0.0
 51
31.788330617045627
  0
LINE
  8
0
  6
CONTINUOUS
 62
               3
  5
19D
 10
-428.00000000000006
 20
179.02211771185222
 30
0.0
 11
-428.00000000000006
 21
253.90388826404399
 31
0.0
  0
LINE
  8
0
  6
CONTINUOUS
 62
               3
  5
19E
 10
-558.00000000000011
 20
-297.51353604100086
 30
0.0
 11
-574.99999999999989
 21
-148.51353604100041
 31
0.0
  0
LINE
  8
0
  6
CONTINUOUS
 62
               3
  5
19F
 10
-575.00000000000045
 20
44.486463958999423
 30
0.0
 11
-574.99999999999989
 21
-148.51353604100041
 31
0.0
  0
LINE
  8
0
  6
CONTINUOUS
 62
               3
  5
1A0
 10
-571.99999999999989
 20
179.02211771185222
 30
0.0
 11
-428.00000000000006
 21
179.02211771185222
 31
0.0
  0
LINE
  8
0
  6
CONTINUOUS
 62
               3
  5
1A1
 10
-519.99999999999989
 20
258.48646395899971
 30
0.0
 11
-519.99999999999989
 21
275.48646395899937
 31
0.0
  0
LINE
  8
0
  6
CONTINUOUS
 62
               3
  5
1A2
 10
-480.00000000000045
 20
275.48646395899937
 30
0.0
 11
-480.00000000000045
 21
258.48646395899971
 31
0.0
  0
LINE
  8
0
  6
CONTINUOUS
 62
               3
  5
1A3
 10
-519.99999999999989
 20
265.48646395899937
 30
0.0
 11
-480.00000000000045
 21
265.48646395899937
 31
0.0
  0
LINE
  8
0
  6
CONTINUOUS
 62
               3
  5
1A4
 10
-572.28416147400424
 20
275.48646395899937
 30
0.0
 11
-572.28416147400424
 21
258.48646395899971
 31
0.0
  0
LINE
  8
0
  6
CONTINUOUS
 62
               3
  5
1A5
 10
-586.21049820062524
 20
265.48646395899937
 30
0.0
 11
-586.21049820062524
 21
258.48646395899971
 31
0.0
  0
LINE
  8
0
  6
CONTINUOUS
 62
               3
  5
1A6
 10
-588.50000000000011
 20
265.48646395899937
 30
0.0
 11
-586.21049820062524
 21
265.48646395899937
 31
0.0
  0
LINE
  8
0
  6
CONTINUOUS
 62
               3
  5
1A7
 10
-586.21049820062524
 20
265.48646395899937
 30
0.0
 11
-572.28416147400424
 21
275.48646395899937
 31
0.0
  0
LINE
  8
0
  6
CONTINUOUS
 62
               3
  5
1A8
 10
-411.50000000000028
 20
265.48646395899937
 30
0.0
 11
-411.50000000000028
 21
258.48646395899971
 31
0.0
  0
LINE
  8
0
  6
CONTINUOUS
 62
               3
  5
1A9
 10
-411.50000000000028
 20
265.48646395899937
 30
0.0
 11
-425.00000000000051
 21
275.48646395899937
 31
0.0
  0
ARC
  8
0
  6
CONTINUOUS
 62
               3
  5
1AA
 10
-423.00000000000006
 20
253.90388826404399
 30
0.0
 40
4.9999999999999991
 50
113.57817847818001
 51
179.99999999996507
  0
LINE
  8
0
  6
CONTINUOUS
 62
               3
  5
1AB
 10
-427.71583852599514
 20
275.48646395899937
 30
0.0
 11
-427.71583852599514
 21
258.48646395899971
 31
0.0
  0
LINE
  8
0
  6
CONTINUOUS
 62
               3
  5
1AC
 10
-413.7895017993747
 20
265.48646395899937
 30
0.0
 11
-413.7895017993747
 21
258.48646395899971
 31
0.0
  0
LINE
  8
0
  6
CONTINUOUS
 62
               3
  5
1AD
 10
-411.50000000000028
 20
265.48646395899937
 30
0.0
 11
-413.7895017993747
 21
265.48646395899937
 31
0.0
  0
LINE
  8
0
  6
CONTINUOUS
 62
               3
  5
1AE
 10
-413.7895017993747
 20
265.48646395899937
 30
0.0
 11
-427.71583852599514
 21
275.48646395899937
 31
0.0
  0
LINE
  8
0
  6
CONTINUOUS
 62
               3
  5
1AF
 10
-558.00000000000011
 20
-297.51353604100029
 30
0.0
 11
-441.99999999999983
 21
-297.51353604100086
 31
0.0
  0
ARC
  8
0
  6
CONTINUOUS
 62
               3
  5
1B0
 10
-575.00000000000045
 20
46.986463958999423
 30
0.0
 40
2.4999999999999996
 50
89.999999999982535
 51
269.99999999994793
  0
LINE
  8
0
  6
CONTINUOUS
 62
               3
  5
1B1
 10
-574.99999999999989
 20
168.48646395899942
 30
0.0
 11
-575.00000000000045
 21
49.486463958999423
 31
0.0
  0
LINE
  8
0
  6
CONTINUOUS
 62
               3
  5
1B2
 10
-574.99999999999989
 20
-148.51353604100041
 30
0.0
 11
-441.05099999999987
 21
-148.51353604100018
 31
0.0
  0
LINE
  8
0
  6
CONTINUOUS
 62
               3
  5
1B3
 10
-428.24363345646071
 20
-148.51353604100018
 30
0.0
 11
-425.00000000000051
 21
-148.51353604100018
 31
0.0
  0
LINE
  8
0
  6
CONTINUOUS
 62
               3
  5
1B4
 10
-473.21264290752106
 20
137.48646395899931
 30
0.0
 11
-526.78735709247997
 21
137.48646395899931
 31
0.0
  0
CIRCLE
  8
0
  6
CONTINUOUS
 62
               3
  5
1B5
 10
-500.00000000000045
 20
109.48646395899942
 30
0.0
 40
48.5
  0
CIRCLE
  8
0
  6
CONTINUOUS
 62
               3
  5
1B6
 10
-500.00000000000045
 20
109.48646395899942
 30
0.0
 40
38.75
  0
CIRCLE
  8
0
  6
CONTINUOUS
 62
               3
  5
1B7
 10
-500.00000000000045
 20
109.48646395899942
 30
0.0
 40
47.299999999999997
  0
LINE
  8
0
  6
CONTINUOUS
 62
               3
  5
1B8
 10
-531.81980515339512
 20
77.666658805604868
 30
0.0
 11
-533.44615075012427
 21
76.040313208875716
 31
0.0
  0
LINE
  8
0
  6
CONTINUOUS
 62
               3
  5
1B9
 10
-468.18019484660579
 20
77.666658805604868
 30
0.0
 11
-466.55384924987675
 21
76.04031320887583
 31
0.0
  0
ARC
  8
0
  6
CONTINUOUS
 62
               3
  5
1BA
 10
-500.00000000000045
 20
109.48646395899942
 30
0.0
 40
45.0
 50
224.99999999995646
 51
314.99999999993918
  0
CIRCLE
  8
0
  6
CONTINUOUS
 62
               3
  5
1BB
 10
-500.00000000000045
 20
109.48646395899942
 30
0.0
 40
43.0
  0
CIRCLE
  8
0
  6
CONTINUOUS
 62
               3
  5
1BC
 10
-500.00000000000045
 20
109.48646395899942
 30
0.0
 40
57.600000000000001
  0
LINE
  8
0
  6
CONTINUOUS
 62
               3
  5
1BD
 10
-441.99999999999983
 20
-297.51353604100086
 30
0.0
 11
-429.45190901929936
 21
-187.53320921015086
 31
0.0
  0
LINE
  8
0
  6
CONTINUOUS
 62
               3
  5
1BE
 10
-427.39985704623894
 20
-169.54757721097309
 30
0.0
 11
-425.00000000000051
 21
-148.51353604100018
 31
0.0
  0
CIRCLE
  8
0
  6
CONTINUOUS
 62
               3
  5
1BF
 10
0.0
 20
600.0
 30
0.0
 40
75.0
  0
CIRCLE
  8
0
  6
CONTINUOUS
 62
               3
  5
1C0
 10
0.0
 20
600.0
 30
0.0
 40
52.5
  0
LINE
  8
0
  6
CONTINUOUS
 62
               3
  5
1C1
 10
-86.210498200625238
 20
620.0
 30
0.0
 11
-72.284161474005373
 21
620.0
 31
0.0
  0
LINE
  8
0
  6
CONTINUOUS
 62
               3
  5
1C2
 10
-72.284161474005373
 20
580.0
 30
0.0
 11
-86.210498200625238
 21
580.0
 31
0.0
  0
ARC
  8
0
  6
CONTINUOUS
 62
               3
  5
1C3
 10
0.0
 20
600.0
 30
0.0
 40
88.5
 50
166.9389758851672
 51
193.0610241147632
  0
LINE
  8
0
  6
CONTINUOUS
 62
               3
  5
1C4
 10
-20.000000000000007
 20
513.7895017993751
 30
0.0
 11
-20.0
 21
527.71583852599497
 31
0.0
  0
LINE
  8
0
  6
CONTINUOUS
 62
               3
  5
1C5
 10
20.0
 20
527.71583852599497
 30
0.0
 11
20.0
 21
513.7895017993751
 31
0.0
  0
ARC
  8
0
  6
CONTINUOUS
 62
               3
  5
1C6
 10
0.0
 20
600.0
 30
0.0
 40
88.5
 50
256.93897588514983
 51
283.06102411474581
  0
LINE
  8
0
  6
CONTINUOUS
 62
               3
  5
1C7
 10
86.21049820062467
 20
580.0
 30
0.0
 11
72.284161474004236
 21
580.0
 31
0.0
  0
LINE
  8
0
  6
CONTINUOUS
 62
               3
  5
1C8
 10
72.284161474004236
 20
620.0
 30
0.0
 11
86.21049820062467
 21
620.0
 31
0.0
  0
ARC
  8
0
  6
CONTINUOUS
 62
               3
  5
1C9
 10
0.0
 20
600.0
 30
0.0
 40
88.5
 50
346.93897588513238
 51
373.06102411472841
  0
LINE
  8
0
  6
CONTINUOUS
 62
               3
  5
1CA
 10
20.0
 20
686.21049820062558
 30
0.0
 11
20.0
 21
672.28416147400503
 31
0.0
  0
LINE
  8
0
  6
CONTINUOUS
 62
               3
  5
1CB
 10
-20.0
 20
672.28416147400503
 30
0.0
 11
-20.000000000000007
 21
686.21049820062558
 31
0.0
  0
ARC
  8
0
  6
CONTINUOUS
 62
               3
  5
1CC
 10
0.0
 20
600.0
 30
0.0
 40
88.5
 50
76.93897588518459
 51
103.06102411478064
  0
LINE
  8
0
  6
CONTINUOUS
 62
               3
  5
1CD
 10
-47.668123520861059
 20
577.99999999999955
 30
0.0
 11
47.668123520859915
 21
577.99999999999955
 31
0.0
  0
ARC
  8
0
  6
CONTINUOUS
 62
               3
  5
1CE
 10
12.503611649381128
 20
608.70639762761903
 30
0.0
 40
54.763804151667173
 50
141.3859176368106
 51
145.15009542092579
  0
ARC
  8
0
  6
CONTINUOUS
 62
               3
  5
1CF
 10
0.0
 20
600.0
 30
0.0
 40
51.5
 50
334.710988473393
 51
410.9593273635611
  0
ARC
  8
0
  6
CONTINUOUS
 62
               3
  5
1D0
 10
0.0
 20
600.0
 30
0.0
 40
51.5
 50
129.04067263633496
 51
205.28901152650261
  0
ARC
  8
0
  6
CONTINUOUS
 62
               3
  5
1D1
 10
0.0
 20
600.0
 30
0.0
 40
77.5
 50
104.95524831662306
 51
128.57288309100844
  0
ARC
  8
0
  6
CONTINUOUS
 62
               3
  5
1D2
 10
0.0
 20
600.0
 30
0.0
 40
77.5
 50
14.955248316640441
 51
75.04475168334217
  0
LINE
  8
0
  6
CONTINUOUS
 62
               3
  5
1D3
 10
-139.99999999999997
 20
545.0
 30
0.0
 11
-139.32844387403574
 21
545.0
 31
0.0
  0
LINE
  8
0
  6
CONTINUOUS
 62
               3
  5
1D4
 10
-136.82844387403529
 20
542.5
 30
0.0
 11
-139.32844387403574
 21
545.0
 31
0.0
  0
LINE
  8
0
  6
CONTINUOUS
 62
               3
  5
1D5
 10
-139.99999999999997
 20
655.0
 30
0.0
 11
-139.32844387403574
 21
655.0
 31
0.0
  0
LINE
  8
0
  6
CONTINUOUS
 62
               3
  5
1D6
 10
-136.82844387403574
 20
657.5
 30
0.0
 11
-139.32844387403574
 21
655.0
 31
0.0
  0
LINE
  8
0
  6
CONTINUOUS
 62
               3
  5
1D7
 10
-139.32844387403574
 20
655.0
 30
0.0
 11
-139.32844387403574
 21
545.0
 31
0.0
  0
LINE
  8
0
  6
CONTINUOUS
 62
               3
  5
1D8
 10
-45.490335786377912
 20
660.6895970183416
 30
0.0
 11
-136.82844387403574
 21
657.5
 31
0.0
  0
LINE
  8
0
  6
CONTINUOUS
 62
               3
  5
1D9
 10
-45.490335786378594
 20
539.31040298165885
 30
0.0
 11
-136.82844387403526
 21
542.5
 31
0.0
  0
LINE
  8
0
  6
CONTINUOUS
 62
               3
  5
1DA
 10
-144.99999999999997
 20
654.82844387403588
 30
0.0
 11
-144.99999999999997
 21
544.89999999999998
 31
0.0
  0
LINE
  8
0
  6
CONTINUOUS
 62
               3
  5
1DB
 10
-139.99999999999997
 20
542.39999999999998
 30
0.0
 11
-139.99999999999997
 21
657.60000000000002
 31
0.0
  0
LINE
  8
0
  6
CONTINUOUS
 62
               3
  5
1DC
 10
-139.99999999999997
 20
657.60000000000002
 30
0.0
 11
-142.49999999999997
 21
657.60000000000002
 31
0.0
  0
LINE
  8
0
  6
CONTINUOUS
 62
               3
  5
1DD
 10
-139.99999999999997
 20
542.39999999999998
 30
0.0
 11
-142.49999999999997
 21
542.39999999999998
 31
0.0
  0
ARC
  8
0
  6
CONTINUOUS
 62
               3
  5
1DE
 10
-142.49999999999997
 20
544.89999999999998
 30
0.0
 40
2.5
 50
179.99999999996524
 51
269.99999999994793
  0
ARC
  8
0
  6
CONTINUOUS
 62
               3
  5
1DF
 10
-142.49999999999997
 20
655.10000000000002
 30
0.0
 40
2.5
 50
89.999999999982862
 51
179.99999999996524
  0
LINE
  8
0
  6
CONTINUOUS
 62
               3
  5
1E0
 10
-32.438403166617604
 20
639.99999999999977
 30
0.0
 11
0.0
 21
639.99999999999977
 31
0.0
  0
LINE
  8
0
  6
CONTINUOUS
 62
               3
  5
1E1
 10
0.0
 20
639.99999999999977
 30
0.0
 11
34.003676271838678
 21
639.99999999999977
 31
0.0
  0
LINE
  8
0
  6
CONTINUOUS
 62
               3
  5
1E2
 10
-136.82844387403529
 20
542.5
 30
0.0
 11
-136.82844387403574
 21
657.5
 31
0.0
  0
ARC
  8
0
  6
CONTINUOUS
 62
               3
  5
1E3
 10
-45.664833269890437
 20
665.68655115343711
 30
0.0
 40
5.0
 50
271.99999999994759
 51
304.80675787036876
  0
ARC
  8
0
  6
CONTINUOUS
 62
               3
  5
1E4
 10
-45.664833269891076
 20
534.31344884656335
 30
0.0
 40
5.0
 50
55.193242129561121
 51
87.999999999983203
  0
ARC
  8
0
  6
CONTINUOUS
 62
               3
  5
1E5
 10
424.99999999999932
 20
46.986463958999394
 30
0.0
 40
2.4999999999999996
 50
90.000000000085791
 51
270.00000000005082
  0
LINE
  8
0
  6
CONTINUOUS
 62
               3
  5
1E6
 10
425.0
 20
-148.51353604100052
 30
0.0
 11
424.99999999999932
 21
44.486463958999394
 31
0.0
  0
LINE
  8
0
  6
CONTINUOUS
 62
               3
  5
1E7
 10
424.99999999999932
 20
49.486463958999394
 30
0.0
 11
425.0
 21
168.48646395901139
 31
0.0
  0
ARC
  8
0
  6
CONTINUOUS
 62
               3
  5
1E8
 10
-425.00000000000045
 20
46.986463958999423
 30
0.0
 40
2.4999999999999996
 50
270.00000000005082
 51
450.00000000001631
  0
LINE
  8
0
  6
CONTINUOUS
 62
               3
  5
1E9
 10
-425.00000000000051
 20
-148.51353604100041
 30
0.0
 11
-425.00000000000045
 21
44.486463958999423
 31
0.0
  0
LINE
  8
0
  6
CONTINUOUS
 62
               3
  5
1EA
 10
-425.00000000000045
 20
49.486463958999423
 30
0.0
 11
-425.00000000000051
 21
168.48646395899942
 31
0.0
  0
ARC
  8
0
  6
CONTINUOUS
 62
               3
  5
1EB
 10
-522.49999999999966
 20
46.986463958999423
 30
0.0
 40
2.4999999999999996
 50
269.99999999999937
 51
449.99999999999898
  0
ARC
  8
0
  6
CONTINUOUS
 62
               3
  5
1EC
 10
-477.49999999999966
 20
46.986463958999423
 30
0.0
 40
2.4999999999999996
 50
89.999999999999801
 51
269.99999999999937
  0
LINE
  8
0
  6
CONTINUOUS
 62
               3
  5
1ED
 10
-575.00000000000045
 20
49.486463958999423
 30
0.0
 11
-522.49999999999966
 21
49.486463958999423
 31
0.0
  0
LINE
  8
0
  6
CONTINUOUS
 62
               3
  5
1EE
 10
-477.49999999999966
 20
49.486463958999423
 30
0.0
 11
-425.00000000000108
 21
49.486463958999423
 31
0.0
  0
LINE
  8
0
  6
CONTINUOUS
 62
               3
  5
1EF
 10
-575.00000000000045
 20
44.486463958999423
 30
0.0
 11
-522.49999999999966
 21
44.486463958999423
 31
0.0
  0
LINE
  8
0
  6
CONTINUOUS
 62
               3
  5
1F0
 10
-477.49999999999966
 20
44.486463958999423
 30
0.0
 11
-425.00000000000108
 21
44.486463958999423
 31
0.0
  0
ARC
  8
0
  6
CONTINUOUS
 62
               3
  5
1F1
 10
0.0
 20
600.0
 30
0.0
 40
77.5
 50
231.42711690896567
 51
255.04475168335611
  0
ARC
  8
0
  6
CONTINUOUS
 62
               3
  5
1F2
 10
0.0
 20
600.0
 30
0.0
 40
77.5
 50
284.95524831664267
 51
345.04475168328997
  0
LINE
  8
0
  6
CONTINUOUS
 62
               3
  5
1F3
 10
-556.99999999999989
 20
-344.51353604100115
 30
0.0
 11
-556.99999999999989
 21
-309.51353604100063
 31
0.0
  0
LINE
  8
0
  6
CONTINUOUS
 62
               3
  5
1F4
 10
-442.99999999999989
 20
-344.51353604100115
 30
0.0
 11
-442.99999999999989
 21
-309.51353604100063
 31
0.0
  0
LINE
  8
0
  6
CONTINUOUS
 62
               3
  5
1F5
 10
-556.99999999999989
 20
-309.51353604100063
 30
0.0
 11
-557.99999999999943
 21
-308.51353604100109
 31
0.0
  0
LINE
  8
0
  6
CONTINUOUS
 62
               3
  5
1F6
 10
-442.99999999999989
 20
-309.51353604100063
 30
0.0
 11
-441.99999999999989
 21
-308.51353604100063
 31
0.0
  0
LINE
  8
0
  6
CONTINUOUS
 62
               3
  5
1F7
 10
-441.9999999999992
 20
-308.51353604100063
 30
0.0
 11
-441.9999999999992
 21
-297.51353604100098
 31
0.0
  0
LINE
  8
0
  6
CONTINUOUS
 62
               3
  5
1F8
 10
-557.99999999999943
 20
-297.51353604100098
 30
0.0
 11
-557.99999999999943
 21
-308.51353604100109
 31
0.0
  0
LINE
  8
0
  6
CONTINUOUS
 62
               3
  5
1F9
 10
443.0
 20
-344.51353604100115
 30
0.0
 11
443.0
 21
-309.51353604100063
 31
0.0
  0
LINE
  8
0
  6
CONTINUOUS
 62
               3
  5
1FA
 10
557.0
 20
-344.51353604100109
 30
0.0
 11
557.0
 21
-309.51353604100063
 31
0.0
  0
LINE
  8
0
  6
CONTINUOUS
 62
               3
  5
1FB
 10
443.0
 20
-309.51353604100063
 30
0.0
 11
442.00000000000045
 21
-308.51353604100109
 31
0.0
  0
LINE
  8
0
  6
CONTINUOUS
 62
               3
  5
1FC
 10
557.0
 20
-309.51353604100063
 30
0.0
 11
558.0
 21
-308.51353604100063
 31
0.0
  0
LINE
  8
0
  6
CONTINUOUS
 62
               3
  5
1FD
 10
558.00000000000068
 20
-308.51353604100063
 30
0.0
 11
558.00000000000068
 21
-297.51353604100098
 31
0.0
  0
LINE
  8
0
  6
CONTINUOUS
 62
               3
  5
1FE
 10
442.00000000000045
 20
-297.51353604100098
 30
0.0
 11
442.00000000000045
 21
-308.51353604100109
 31
0.0
  0
CIRCLE
  8
0
  6
CONTINUOUS
 62
               3
  5
1FF
 10
0.0
 20
600.0
 30
0.0
 40
59.0
  0
LINE
  8
0
  6
CONTINUOUS
 62
               3
  5
200
 10
-562.0
 20
-489.5135360409995
 30
0.0
 11
-562.0
 21
-474.51353604100041
 31
0.0
  0
LINE
  8
0
  6
CONTINUOUS
 62
               3
  5
201
 10
-564.99999999999989
 20
-489.5135360409995
 30
0.0
 11
-434.99999999999989
 21
-489.5135360409995
 31
0.0
  0
ARC
  8
0
  6
CONTINUOUS
 62
               3
  5
202
 10
-575.99999999999932
 20
-348.51353604100132
 30
0.0
 40
4.0
 50
89.999999999982236
 51
179.99999999996518
  0
LINE
  8
0
  6
CONTINUOUS
 62
               3
  5
203
 10
-579.99999999999932
 20
-348.51353604099893
 30
0.0
 11
-579.99999999999955
 21
-367.51353604100132
 31
0.0
  0
LINE
  8
0
  6
CONTINUOUS
 62
               3
  5
204
 10
-515.99999999999932
 20
-344.51353604100075
 30
0.0
 11
-575.99999999999932
 21
-344.51353604100132
 31
0.0
  0
LINE
  8
0
  6
CONTINUOUS
 62
               3
  5
205
 10
-515.99999999999932
 20
-475.51353604099938
 30
0.0
 11
-483.99999999999881
 21
-475.51353604099893
 31
0.0
  0
ARC
  8
0
  6
CONTINUOUS
 62
               3
  5
206
 10
-575.99999999999898
 20
-470.51353604100041
 30
0.0
 40
4.0
 50
179.99999999996601
 51
269.99999999994901
  0
LINE
  8
0
  6
CONTINUOUS
 62
               3
  5
207
 10
-579.99999999999909
 20
-470.51353604100041
 30
0.0
 11
-579.99999999999886
 21
-452.01353604100018
 31
0.0
  0
LINE
  8
0
  6
CONTINUOUS
 62
               3
  5
208
 10
-515.99999999999932
 20
-474.51353604099972
 30
0.0
 11
-576.0000000000025
 21
-474.51353604100041
 31
0.0
  0
LINE
  8
0
  6
CONTINUOUS
 62
               3
  5
209
 10
-515.99999999999932
 20
-452.01353604099961
 30
0.0
 11
-579.99999999999909
 21
-452.01353604100018
 31
0.0
  0
LINE
  8
0
  6
CONTINUOUS
 62
               3
  5
20A
 10
-579.99999999999955
 20
-367.51353604100132
 30
0.0
 11
-515.99999999999932
 21
-367.51353604100132
 31
0.0
  0
LINE
  8
0
  6
CONTINUOUS
 62
               3
  5
20B
 10
-576.99999999999955
 20
-367.51353604100132
 30
0.0
 11
-577.0
 21
-452.01353604100018
 31
0.0
  0
LINE
  8
0
  6
CONTINUOUS
 62
               3
  5
20C
 10
-483.99999999999932
 20
-344.51353604100075
 30
0.0
 11
-420.99999999999955
 21
-344.51353604100132
 31
0.0
  0
LINE
  8
0
  6
CONTINUOUS
 62
               3
  5
20D
 10
-483.99999999999881
 20
-474.51353604099972
 30
0.0
 11
-424.00000000000085
 21
-474.51353604100041
 31
0.0
  0
LINE
  8
0
  6
CONTINUOUS
 62
               3
  5
20E
 10
-483.99999999999881
 20
-452.01353604099972
 30
0.0
 11
-420.00000000000074
 21
-452.01353604100018
 31
0.0
  0
LINE
  8
0
  6
CONTINUOUS
 62
               3
  5
20F
 10
-419.99999999999932
 20
-367.51353604100132
 30
0.0
 11
-483.99999999999932
 21
-367.51353604100132
 31
0.0
  0
LINE
  8
0
  6
CONTINUOUS
 62
               3
  5
210
 10
-438.0
 20
-489.5135360409995
 30
0.0
 11
-438.0
 21
-474.51353604100041
 31
0.0
  0
LINE
  8
0
  6
CONTINUOUS
 62
               3
  5
211
 10
-515.99999999999932
 20
-343.51353604100132
 30
0.0
 11
-515.99999999999932
 21
-475.51353604099938
 31
0.0
  0
LINE
  8
0
  6
CONTINUOUS
 62
               3
  5
212
 10
-483.99999999999881
 20
-475.51353604099893
 30
0.0
 11
-483.99999999999932
 21
-343.51353604100132
 31
0.0
  0
LINE
  8
0
  6
CONTINUOUS
 62
               3
  5
213
 10
-515.99999999999989
 20
-343.51353604100132
 30
0.0
 11
-483.99999999999989
 21
-343.51353604100132
 31
0.0
  0
LINE
  8
0
  6
CONTINUOUS
 62
               3
  5
214
 10
-515.99999999999932
 20
-410.51353604100018
 30
0.0
 11
-483.99999999999881
 21
-410.51353604100018
 31
0.0
  0
LINE
  8
0
  6
CONTINUOUS
 62
               3
  5
215
 10
-515.99999999999932
 20
-409.51353604100041
 30
0.0
 11
-483.99999999999881
 21
-409.51353604100041
 31
0.0
  0
LINE
  8
0
  6
CONTINUOUS
 62
               3
  5
216
 10
-515.99999999999932
 20
-411.51353604100041
 30
0.0
 11
-483.99999999999881
 21
-411.51353604100041
 31
0.0
  0
ARC
  8
0
  6
CONTINUOUS
 62
               3
  5
217
 10
-424.00000000000051
 20
-348.51353604100132
 30
0.0
 40
4.0
 50
0.0000000000344079
 51
90.000000000017366
  0
LINE
  8
0
  6
CONTINUOUS
 62
               3
  5
218
 10
-420.00000000000051
 20
-348.51353604099893
 30
0.0
 11
-420.00000000000028
 21
-367.51353604100132
 31
0.0
  0
ARC
  8
0
  6
CONTINUOUS
 62
               3
  5
219
 10
-424.0000000000008
 20
-470.51353604100041
 30
0.0
 40
4.0
 50
270.00000000004979
 51
360.0000000000328
  0
LINE
  8
0
  6
CONTINUOUS
 62
               3
  5
21A
 10
-420.00000000000074
 20
-470.51353604100041
 30
0.0
 11
-420.00000000000085
 21
-452.01353604100018
 31
0.0
  0
LINE
  8
0
  6
CONTINUOUS
 62
               3
  5
21B
 10
-423.00000000000028
 20
-367.51353604100132
 30
0.0
 11
-422.99999999999972
 21
-452.01353604100018
 31
0.0
  0
LINE
  8
0
  6
CONTINUOUS
 62
               3
  5
21C
 10
-62.000000000000171
 20
-489.5135360409995
 30
0.0
 11
-62.000000000000171
 21
-474.51353604100041
 31
0.0
  0
LINE
  8
0
  6
CONTINUOUS
 62
               3
  5
21D
 10
-65.0
 20
-489.5135360409995
 30
0.0
 11
64.999999999999986
 21
-489.5135360409995
 31
0.0
  0
ARC
  8
0
  6
CONTINUOUS
 62
               3
  5
21E
 10
-75.999999999999375
 20
-348.51353604100132
 30
0.0
 40
4.0
 50
89.999999999982236
 51
179.99999999996518
  0
ARC
  8
0
  6
CONTINUOUS
 62
               3
  5
21F
 10
-78.999999999999346
 20
-345.51353604100132
 30
0.0
 40
1.0000000000000004
 50
89.999999999981483
 51
179.99999999996524
  0
ARC
  8
0
  6
CONTINUOUS
 62
               3
  5
220
 10
-78.999999999999346
 20
-345.51353604100132
 30
0.0
 40
1.9999999999999996
 50
89.999999999983004
 51
179.99999999996524
  0
LINE
  8
0
  6
CONTINUOUS
 62
               3
  5
221
 10
-80.999999999999375
 20
-345.51353604100132
 30
0.0
 11
-80.999999999999943
 21
-408.51353604100018
 31
0.0
  0
LINE
  8
0
  6
CONTINUOUS
 62
               3
  5
222
 10
-79.999999999999574
 20
-345.51353604100132
 30
0.0
 11
-80.000000000000142
 21
-408.51353604100018
 31
0.0
  0
ARC
  8
0
  6
CONTINUOUS
 62
               3
  5
223
 10
-81.999999999999886
 20
-408.51353604100018
 30
0.0
 40
1.9999999999999996
 50
269.99999999994748
 51
359.99999999993048
  0
ARC
  8
0
  6
CONTINUOUS
 62
               3
  5
224
 10
-81.999999999999886
 20
-408.51353604100018
 30
0.0
 40
1.0000000000000004
 50
269.99999999994748
 51
359.99999999993048
  0
LINE
  8
0
  6
CONTINUOUS
 62
               3
  5
225
 10
-81.999999999999886
 20
-410.51353604100018
 30
0.0
 11
-145.0
 21
-410.51353604100063
 31
0.0
  0
LINE
  8
0
  6
CONTINUOUS
 62
               3
  5
226
 10
-81.999999999999886
 20
-409.51353604100018
 30
0.0
 11
-145.0
 21
-409.51353604100063
 31
0.0
  0
LINE
  8
0
  6
CONTINUOUS
 62
               3
  5
227
 10
-64.999999999999574
 20
-343.51353604100132
 30
0.0
 11
-78.999999999999346
 21
-343.51353604100132
 31
0.0
  0
LINE
  8
0
  6
CONTINUOUS
 62
               3
  5
228
 10
0.0000000000005684
 20
-344.51353604100063
 30
0.0
 11
-78.999999999999346
 21
-344.51353604100132
 31
0.0
  0
LINE
  8
0
  6
CONTINUOUS
 62
               3
  5
229
 10
-64.999999999999574
 20
-343.51353604100132
 30
0.0
 11
-64.999999999999574
 21
-344.5135360410012
 31
0.0
  0
LINE
  8
0
  6
CONTINUOUS
 62
               3
  5
22A
 10
-64.999999999999005
 20
-475.51353604100018
 30
0.0
 11
-78.99999999999892
 21
-475.51353604100041
 31
0.0
  0
ARC
  8
0
  6
CONTINUOUS
 62
               3
  5
22B
 10
-78.99999999999892
 20
-473.51353604100041
 30
0.0
 40
1.0000000000000004
 50
179.99999999996601
 51
269.99999999994748
  0
ARC
  8
0
  6
CONTINUOUS
 62
               3
  5
22C
 10
-78.99999999999892
 20
-473.51353604100041
 30
0.0
 40
1.9999999999999996
 50
179.99999999996601
 51
269.99999999994901
  0
ARC
  8
0
  6
CONTINUOUS
 62
               3
  5
22D
 10
-75.999999999999091
 20
-470.51353604100041
 30
0.0
 40
4.0
 50
179.99999999996601
 51
269.99999999994901
  0
LINE
  8
0
  6
CONTINUOUS
 62
               3
  5
22E
 10
-64.999999999999005
 20
-475.51353604100018
 30
0.0
 11
-64.999999999999005
 21
-474.51353604100041
 31
0.0
  0
LINE
  8
0
  6
CONTINUOUS
 62
               3
  5
22F
 10
-80.999999999999091
 20
-473.51353604100041
 30
0.0
 11
-80.999999999999943
 21
-412.51353604100018
 31
0.0
  0
LINE
  8
0
  6
CONTINUOUS
 62
               3
  5
230
 10
-79.999999999999005
 20
-473.51353604100041
 30
0.0
 11
-80.0
 21
-412.51353604100018
 31
0.0
  0
LINE
  8
0
  6
CONTINUOUS
 62
               3
  5
231
 10
0.0
 20
-474.5135360409995
 30
0.0
 11
-78.99999999999892
 21
-474.51353604100041
 31
0.0
  0
LINE
  8
0
  6
CONTINUOUS
 62
               3
  5
232
 10
0.0
 20
-452.0135360409995
 30
0.0
 11
-79.999999999999147
 21
-452.01353604100018
 31
0.0
  0
ARC
  8
0
  6
CONTINUOUS
 62
               3
  5
233
 10
-81.999999999999886
 20
-412.51353604100018
 30
0.0
 40
1.9999999999999996
 50
0.000000000001145
 51
89.999999999983004
  0
ARC
  8
0
  6
CONTINUOUS
 62
               3
  5
234
 10
-81.999999999999886
 20
-412.51353604100018
 30
0.0
 40
1.0000000000000004
 50
0.0000000000007633
 51
89.999999999984539
  0
LINE
  8
0
  6
CONTINUOUS
 62
               3
  5
235
 10
-81.999999999999886
 20
-411.51353604100018
 30
0.0
 11
-145.0
 21
-411.51353604100063
 31
0.0
  0
LINE
  8
0
  6
CONTINUOUS
 62
               3
  5
236
 10
-79.999999999999574
 20
-367.51353604100132
 30
0.0
 11
0.0000000000005684
 21
-367.51353604100132
 31
0.0
  0
LINE
  8
0
  6
CONTINUOUS
 62
               3
  5
237
 10
-76.999999999999602
 20
-367.51353604100132
 30
0.0
 11
-77.000000000000171
 21
-452.01353604100018
 31
0.0
  0
LINE
  8
0
  6
CONTINUOUS
 62
               3
  5
238
 10
-145.0
 20
-409.51353604100063
 30
0.0
 11
-145.0
 21
-410.51353604100063
 31
0.0
  0
LINE
  8
0
  6
CONTINUOUS
 62
               3
  5
239
 10
-145.0
 20
-411.51353604100063
 30
0.0
 11
-145.0
 21
-410.51353604100063
 31
0.0
  0
LINE
  8
0
  6
CONTINUOUS
 62
               3
  5
23A
 10
-87.249999999999943
 20
-408.01353604100018
 30
0.0
 11
-94.749999999999943
 21
-408.01353604100018
 31
0.0
  0
LINE
  8
0
  6
CONTINUOUS
 62
               3
  5
23B
 10
-87.249999999999943
 20
-413.01353604100018
 30
0.0
 11
-94.749999999999943
 21
-413.01353604100041
 31
0.0
  0
LINE
  8
0
  6
CONTINUOUS
 62
               3
  5
23C
 10
-87.249999999999943
 20
-408.01353604100018
 30
0.0
 11
-87.249999999999943
 21
-409.51353604100018
 31
0.0
  0
LINE
  8
0
  6
CONTINUOUS
 62
               3
  5
23D
 10
-87.249999999999943
 20
-411.51353604100018
 30
0.0
 11
-87.249999999999943
 21
-413.01353604100018
 31
0.0
  0
LINE
  8
0
  6
CONTINUOUS
 62
               3
  5
23E
 10
-94.749999999999943
 20
-408.01353604100018
 30
0.0
 11
-94.749999999999943
 21
-409.51353604100018
 31
0.0
  0
LINE
  8
0
  6
CONTINUOUS
 62
               3
  5
23F
 10
-94.749999999999943
 20
-411.51353604100041
 30
0.0
 11
-94.749999999999943
 21
-413.01353604100041
 31
0.0
  0
ARC
  8
0
  6
CONTINUOUS
 62
               3
  5
240
 10
76.000000000000384
 20
-348.51353604100132
 30
0.0
 40
4.0
 50
0.0000000000344079
 51
90.000000000017366
  0
ARC
  8
0
  6
CONTINUOUS
 62
               3
  5
241
 10
79.000000000000327
 20
-345.51353604100132
 30
0.0
 40
1.0000000000000004
 50
0.000000000034357
 51
90.000000000018133
  0
ARC
  8
0
  6
CONTINUOUS
 62
               3
  5
242
 10
79.000000000000327
 20
-345.51353604100132
 30
0.0
 40
1.9999999999999996
 50
0.000000000034357
 51
90.000000000016598
  0
LINE
  8
0
  6
CONTINUOUS
 62
               3
  5
243
 10
81.000000000000384
 20
-345.51353604100132
 30
0.0
 11
80.999999999999815
 21
-408.51353604100018
 31
0.0
  0
LINE
  8
0
  6
CONTINUOUS
 62
               3
  5
244
 10
80.000000000000554
 20
-345.51353604100132
 30
0.0
 11
79.999999999999986
 21
-408.51353604100018
 31
0.0
  0
ARC
  8
0
  6
CONTINUOUS
 62
               3
  5
245
 10
81.999999999999872
 20
-408.51353604100018
 30
0.0
 40
1.9999999999999996
 50
180.0000000000683
 51
270.00000000005133
  0
ARC
  8
0
  6
CONTINUOUS
 62
               3
  5
246
 10
81.999999999999872
 20
-408.51353604100018
 30
0.0
 40
1.0000000000000004
 50
180.0000000000683
 51
270.00000000005133
  0
LINE
  8
0
  6
CONTINUOUS
 62
               3
  5
247
 10
81.999999999999872
 20
-410.51353604100018
 30
0.0
 11
145.0
 21
-410.51353604100063
 31
0.0
  0
LINE
  8
0
  6
CONTINUOUS
 62
               3
  5
248
 10
81.999999999999872
 20
-409.51353604100018
 30
0.0
 11
145.0
 21
-409.51353604100063
 31
0.0
  0
LINE
  8
0
  6
CONTINUOUS
 62
               3
  5
249
 10
65.000000000000554
 20
-343.51353604100132
 30
0.0
 11
79.000000000000327
 21
-343.51353604100132
 31
0.0
  0
LINE
  8
0
  6
CONTINUOUS
 62
               3
  5
24A
 10
0.0000000000005684
 20
-344.51353604100063
 30
0.0
 11
79.000000000000327
 21
-344.51353604100132
 31
0.0
  0
LINE
  8
0
  6
CONTINUOUS
 62
               3
  5
24B
 10
65.000000000000554
 20
-343.51353604100132
 30
0.0
 11
65.000000000000554
 21
-344.5135360410012
 31
0.0
  0
LINE
  8
0
  6
CONTINUOUS
 62
               3
  5
24C
 10
64.999999999998849
 20
-475.51353604100018
 30
0.0
 11
78.999999999998906
 21
-475.51353604100041
 31
0.0
  0
ARC
  8
0
  6
CONTINUOUS
 62
               3
  5
24D
 10
78.999999999998906
 20
-473.51353604100041
 30
0.0
 40
1.0000000000000004
 50
270.00000000005133
 51
360.0000000000328
  0
ARC
  8
0
  6
CONTINUOUS
 62
               3
  5
24E
 10
78.999999999998906
 20
-473.51353604100041
 30
0.0
 40
1.9999999999999996
 50
270.00000000004979
 51
360.0000000000328
  0
ARC
  8
0
  6
CONTINUOUS
 62
               3
  5
24F
 10
75.999999999998963
 20
-470.51353604100041
 30
0.0
 40
4.0
 50
270.00000000004979
 51
360.0000000000328
  0
LINE
  8
0
  6
CONTINUOUS
 62
               3
  5
250
 10
64.999999999998849
 20
-475.51353604100018
 30
0.0
 11
64.999999999998849
 21
-474.51353604100041
 31
0.0
  0
LINE
  8
0
  6
CONTINUOUS
 62
               3
  5
251
 10
80.999999999998792
 20
-473.51353604100041
 30
0.0
 11
80.999999999999815
 21
-412.51353604100018
 31
0.0
  0
LINE
  8
0
  6
CONTINUOUS
 62
               3
  5
252
 10
79.999999999998849
 20
-473.51353604100041
 30
0.0
 11
79.999999999999872
 21
-412.51353604100018
 31
0.0
  0
LINE
  8
0
  6
CONTINUOUS
 62
               3
  5
253
 10
0.0
 20
-474.5135360409995
 30
0.0
 11
78.999999999998906
 21
-474.51353604100041
 31
0.0
  0
LINE
  8
0
  6
CONTINUOUS
 62
               3
  5
254
 10
0.0
 20
-452.0135360409995
 30
0.0
 11
79.999999999999133
 21
-452.01353604100018
 31
0.0
  0
ARC
  8
0
  6
CONTINUOUS
 62
               3
  5
255
 10
81.999999999999872
 20
-412.51353604100018
 30
0.0
 40
1.9999999999999996
 50
90.000000000016598
 51
179.99999999999847
  0
ARC
  8
0
  6
CONTINUOUS
 62
               3
  5
256
 10
81.999999999999872
 20
-412.51353604100018
 30
0.0
 40
1.0000000000000004
 50
90.000000000015078
 51
179.99999999999883
  0
LINE
  8
0
  6
CONTINUOUS
 62
               3
  5
257
 10
81.999999999999872
 20
-411.51353604100018
 30
0.0
 11
145.0
 21
-411.51353604100063
 31
0.0
  0
LINE
  8
0
  6
CONTINUOUS
 62
               3
  5
258
 10
80.000000000000554
 20
-367.51353604100132
 30
0.0
 11
0.0000000000005684
 21
-367.51353604100132
 31
0.0
  0
LINE
  8
0
  6
CONTINUOUS
 62
               3
  5
259
 10
77.000000000000441
 20
-367.51353604100132
 30
0.0
 11
76.999999999999872
 21
-452.01353604100018
 31
0.0
  0
LINE
  8
0
  6
CONTINUOUS
 62
               3
  5
25A
 10
145.0
 20
-409.51353604100063
 30
0.0
 11
145.0
 21
-410.51353604100063
 31
0.0
  0
LINE
  8
0
  6
CONTINUOUS
 62
               3
  5
25B
 10
145.0
 20
-411.51353604100063
 30
0.0
 11
145.0
 21
-410.51353604100063
 31
0.0
  0
LINE
  8
0
  6
CONTINUOUS
 62
               3
  5
25C
 10
87.249999999999815
 20
-408.01353604100018
 30
0.0
 11
94.749999999999815
 21
-408.01353604100018
 31
0.0
  0
LINE
  8
0
  6
CONTINUOUS
 62
               3
  5
25D
 10
87.249999999999815
 20
-413.01353604100018
 30
0.0
 11
94.749999999999815
 21
-413.01353604100041
 31
0.0
  0
LINE
  8
0
  6
CONTINUOUS
 62
               3
  5
25E
 10
87.249999999999815
 20
-408.01353604100018
 30
0.0
 11
87.249999999999815
 21
-409.51353604100018
 31
0.0
  0
LINE
  8
0
  6
CONTINUOUS
 62
               3
  5
25F
 10
87.249999999999815
 20
-411.51353604100018
 30
0.0
 11
87.249999999999815
 21
-413.01353604100018
 31
0.0
  0
LINE
  8
0
  6
CONTINUOUS
 62
               3
  5
260
 10
94.749999999999815
 20
-408.01353604100018
 30
0.0
 11
94.749999999999815
 21
-409.51353604100018
 31
0.0
  0
LINE
  8
0
  6
CONTINUOUS
 62
               3
  5
261
 10
94.749999999999815
 20
-411.51353604100041
 30
0.0
 11
94.749999999999815
 21
-413.01353604100041
 31
0.0
  0
LINE
  8
0
  6
CONTINUOUS
 62
               3
  5
262
 10
61.999999999999886
 20
-489.5135360409995
 30
0.0
 11
61.999999999999886
 21
-474.51353604100041
 31
0.0
  0
LINE
  8
0
  6
CONTINUOUS
 62
               3
  5
263
 10
437.99999999999977
 20
-489.5135360409995
 30
0.0
 11
437.99999999999977
 21
-474.51353604100041
 31
0.0
  0
LINE
  8
0
  6
CONTINUOUS
 62
               3
  5
264
 10
434.99999999999994
 20
-489.5135360409995
 30
0.0
 11
564.99999999999989
 21
-489.5135360409995
 31
0.0
  0
ARC
  8
0
  6
CONTINUOUS
 62
               3
  5
265
 10
424.00000000000057
 20
-348.51353604100132
 30
0.0
 40
4.0
 50
89.999999999982236
 51
179.99999999996518
  0
LINE
  8
0
  6
CONTINUOUS
 62
               3
  5
266
 10
420.00000000000057
 20
-348.51353604099893
 30
0.0
 11
420.00000000000034
 21
-367.51353604100132
 31
0.0
  0
LINE
  8
0
  6
CONTINUOUS
 62
               3
  5
267
 10
484.00000000000057
 20
-344.51353604100075
 30
0.0
 11
424.00000000000051
 21
-344.51353604100132
 31
0.0
  0
LINE
  8
0
  6
CONTINUOUS
 62
               3
  5
268
 10
484.00000000000057
 20
-475.51353604099938
 30
0.0
 11
516.00000000000102
 21
-475.51353604099893
 31
0.0
  0
ARC
  8
0
  6
CONTINUOUS
 62
               3
  5
269
 10
424.00000000000085
 20
-470.51353604100041
 30
0.0
 40
4.0
 50
179.99999999996601
 51
269.99999999994901
  0
LINE
  8
0
  6
CONTINUOUS
 62
               3
  5
26A
 10
420.0000000000008
 20
-470.51353604100041
 30
0.0
 11
420.00000000000091
 21
-452.01353604100018
 31
0.0
  0
LINE
  8
0
  6
CONTINUOUS
 62
               3
  5
26B
 10
484.00000000000057
 20
-474.51353604099972
 30
0.0
 11
423.99999999999733
 21
-474.51353604100041
 31
0.0
  0
LINE
  8
0
  6
CONTINUOUS
 62
               3
  5
26C
 10
484.00000000000057
 20
-452.01353604099961
 30
0.0
 11
420.0000000000008
 21
-452.01353604100018
 31
0.0
  0
LINE
  8
0
  6
CONTINUOUS
 62
               3
  5
26D
 10
420.00000000000034
 20
-367.51353604100132
 30
0.0
 11
484.00000000000057
 21
-367.51353604100132
 31
0.0
  0
LINE
  8
0
  6
CONTINUOUS
 62
               3
  5
26E
 10
423.00000000000034
 20
-367.51353604100132
 30
0.0
 11
422.99999999999977
 21
-452.01353604100018
 31
0.0
  0
LINE
  8
0
  6
CONTINUOUS
 62
               3
  5
26F
 10
516.00000000000057
 20
-344.51353604100075
 30
0.0
 11
579.00000000000034
 21
-344.51353604100132
 31
0.0
  0
LINE
  8
0
  6
CONTINUOUS
 62
               3
  5
270
 10
516.00000000000102
 20
-474.51353604099972
 30
0.0
 11
575.99999999999898
 21
-474.51353604100041
 31
0.0
  0
LINE
  8
0
  6
CONTINUOUS
 62
               3
  5
271
 10
516.00000000000102
 20
-452.01353604099972
 30
0.0
 11
579.99999999999909
 21
-452.01353604100018
 31
0.0
  0
LINE
  8
0
  6
CONTINUOUS
 62
               3
  5
272
 10
580.00000000000057
 20
-367.51353604100132
 30
0.0
 11
516.00000000000057
 21
-367.51353604100132
 31
0.0
  0
LINE
  8
0
  6
CONTINUOUS
 62
               3
  5
273
 10
561.99999999999989
 20
-489.5135360409995
 30
0.0
 11
561.99999999999989
 21
-474.51353604100041
 31
0.0
  0
LINE
  8
0
  6
CONTINUOUS
 62
               3
  5
274
 10
484.00000000000057
 20
-343.51353604100132
 30
0.0
 11
484.00000000000057
 21
-475.51353604099938
 31
0.0
  0
LINE
  8
0
  6
CONTINUOUS
 62
               3
  5
275
 10
516.00000000000102
 20
-475.51353604099893
 30
0.0
 11
516.00000000000057
 21
-343.51353604100132
 31
0.0
  0
LINE
  8
0
  6
CONTINUOUS
 62
               3
  5
276
 10
483.99999999999989
 20
-343.51353604100132
 30
0.0
 11
515.99999999999989
 21
-343.51353604100132
 31
0.0
  0
LINE
  8
0
  6
CONTINUOUS
 62
               3
  5
277
 10
484.00000000000057
 20
-410.51353604100018
 30
0.0
 11
516.00000000000102
 21
-410.51353604100018
 31
0.0
  0
LINE
  8
0
  6
CONTINUOUS
 62
               3
  5
278
 10
484.00000000000057
 20
-409.51353604100041
 30
0.0
 11
516.00000000000102
 21
-409.51353604100041
 31
0.0
  0
LINE
  8
0
  6
CONTINUOUS
 62
               3
  5
279
 10
484.00000000000057
 20
-411.51353604100041
 30
0.0
 11
516.00000000000102
 21
-411.51353604100041
 31
0.0
  0
ARC
  8
0
  6
CONTINUOUS
 62
               3
  5
27A
 10
575.99999999999932
 20
-348.51353604100132
 30
0.0
 40
4.0
 50
0.0000000000344079
 51
90.000000000017366
  0
LINE
  8
0
  6
CONTINUOUS
 62
               3
  5
27B
 10
579.99999999999932
 20
-348.51353604099893
 30
0.0
 11
579.99999999999955
 21
-367.51353604100132
 31
0.0
  0
ARC
  8
0
  6
CONTINUOUS
 62
               3
  5
27C
 10
575.99999999999898
 20
-470.51353604100041
 30
0.0
 40
4.0
 50
270.00000000004979
 51
360.0000000000328
  0
LINE
  8
0
  6
CONTINUOUS
 62
               3
  5
27D
 10
579.99999999999909
 20
-470.51353604100041
 30
0.0
 11
579.99999999999898
 21
-452.01353604100018
 31
0.0
  0
LINE
  8
0
  6
CONTINUOUS
 62
               3
  5
27E
 10
576.99999999999955
 20
-367.51353604100132
 30
0.0
 11
577.00000000000011
 21
-452.01353604100018
 31
0.0
  0
CIRCLE
  8
0
  6
CONTINUOUS
 62
               3
  5
27F
 10
609.28652321630807
 20
-973.37040055404998
 30
0.0
 40
75.0
  0
CIRCLE
  8
0
  6
CONTINUOUS
 62
               3
  5
280
 10
609.28652321630807
 20
-973.37040055404998
 30
0.0
 40
52.5
  0
LINE
  8
0
  6
CONTINUOUS
 62
               3
  5
281
 10
523.07602501568283
 20
-953.37040055404998
 30
0.0
 11
537.0023617423027
 21
-953.37040055404998
 31
0.0
  0
LINE
  8
0
  6
CONTINUOUS
 62
               3
  5
282
 10
537.0023617423027
 20
-993.37040055404998
 30
0.0
 11
523.07602501568283
 21
-993.37040055404998
 31
0.0
  0
ARC
  8
0
  6
CONTINUOUS
 62
               3
  5
283
 10
609.28652321630807
 20
-973.37040055404998
 30
0.0
 40
88.5
 50
166.93897588510336
 51
193.06102411468945
  0
LINE
  8
0
  6
CONTINUOUS
 62
               3
  5
284
 10
589.28652321630807
 20
-1059.5808987546748
 30
0.0
 11
589.28652321630807
 21
-1045.6545620280549
 31
0.0
  0
LINE
  8
0
  6
CONTINUOUS
 62
               3
  5
285
 10
629.28652321630807
 20
-1045.6545620280549
 30
0.0
 11
629.28652321630807
 21
-1059.5808987546748
 31
0.0
  0
ARC
  8
0
  6
CONTINUOUS
 62
               3
  5
286
 10
609.28652321630807
 20
-973.37040055404998
 30
0.0
 40
88.5
 50
256.93897588505166
 51
283.06102411463769
  0
LINE
  8
0
  6
CONTINUOUS
 62
               3
  5
287
 10
695.49702141693274
 20
-993.37040055404998
 30
0.0
 11
681.57068469031219
 21
-993.37040055404998
 31
0.0
  0
LINE
  8
0
  6
CONTINUOUS
 62
               3
  5
288
 10
681.57068469031219
 20
-953.37040055404998
 30
0.0
 11
695.49702141693274
 21
-953.37040055404998
 31
0.0
  0
ARC
  8
0
  6
CONTINUOUS
 62
               3
  5
289
 10
609.28652321630807
 20
-973.37040055404998
 30
0.0
 40
88.5
 50
346.93897588499982
 51
373.06102411458585
  0
LINE
  8
0
  6
CONTINUOUS
 62
               3
  5
28A
 10
629.28652321630807
 20
-887.1599023534244
 30
0.0
 11
629.28652321630807
 21
-901.08623908004495
 31
0.0
  0
LINE
  8
0
  6
CONTINUOUS
 62
               3
  5
28B
 10
589.28652321630807
 20
-901.08623908004495
 30
0.0
 11
589.28652321630807
 21
-887.1599023534244
 31
0.0
  0
ARC
  8
0
  6
CONTINUOUS
 62
               3
  5
28C
 10
609.28652321630807
 20
-973.37040055404998
 30
0.0
 40
88.5
 50
76.938975885155216
 51
103.06102411474124
  0
LINE
  8
0
  6
CONTINUOUS
 62
               3
  5
28D
 10
561.61839969544701
 20
-995.37040055405043
 30
0.0
 11
656.95464673716788
 21
-995.37040055405043
 31
0.0
  0
ARC
  8
0
  6
CONTINUOUS
 62
               3
  5
28E
 10
621.7901348656892
 20
-964.66400292643095
 30
0.0
 40
54.763804151667173
 50
141.3859176367566
 51
145.15009542087031
  0
ARC
  8
0
  6
CONTINUOUS
 62
               3
  5
28F
 10
609.28652321630807
 20
-973.37040055404998
 30
0.0
 40
51.5
 50
334.71098847326505
 51
410.95932736340404
  0
ARC
  8
0
  6
CONTINUOUS
 62
               3
  5
290
 10
609.28652321630807
 20
-973.37040055404998
 30
0.0
 40
51.5
 50
129.04067263628559
 51
205.28901152642416
  0
ARC
  8
0
  6
CONTINUOUS
 62
               3
  5
291
 10
609.28652321630807
 20
-973.37040055404998
 30
0.0
 40
77.5
 50
104.95524831658301
 51
128.57288309095932
  0
ARC
  8
0
  6
CONTINUOUS
 62
               3
  5
292
 10
609.28652321630807
 20
-973.37040055404998
 30
0.0
 40
77.5
 50
14.9552483166347
 51
75.044751683313535
  0
ARC
  8
0
  6
CONTINUOUS
 62
               3
  5
293
 10
609.28652321630807
 20
-973.37040055404998
 30
0.0
 40
77.5
 50
321.42711690878122
 51
345.04475168315804
  0
LINE
  8
0
  6
CONTINUOUS
 62
               3
  5
294
 10
469.28652321630801
 20
-1028.3704005540499
 30
0.0
 11
469.95807934227224
 21
-1028.3704005540499
 31
0.0
  0
LINE
  8
0
  6
CONTINUOUS
 62
               3
  5
295
 10
472.4580793422727
 20
-1030.8704005540499
 30
0.0
 11
469.95807934227224
 21
-1028.3704005540499
 31
0.0
  0
LINE
  8
0
  6
CONTINUOUS
 62
               3
  5
296
 10
469.28652321630801
 20
-918.37040055404998
 30
0.0
 11
469.95807934227224
 21
-918.37040055404998
 31
0.0
  0
LINE
  8
0
  6
CONTINUOUS
 62
               3
  5
297
 10
472.45807934227224
 20
-915.87040055404998
 30
0.0
 11
469.95807934227224
 21
-918.37040055404998
 31
0.0
  0
LINE
  8
0
  6
CONTINUOUS
 62
               3
  5
298
 10
469.95807934227224
 20
-918.37040055404998
 30
0.0
 11
469.95807934227224
 21
-1028.3704005540499
 31
0.0
  0
LINE
  8
0
  6
CONTINUOUS
 62
               3
  5
299
 10
563.79618742993011
 20
-912.68080353570838
 30
0.0
 11
472.45807934227224
 21
-915.87040055404998
 31
0.0
  0
LINE
  8
0
  6
CONTINUOUS
 62
               3
  5
29A
 10
544.45005149975702
 20
-1033.3844156190175
 30
0.0
 11
472.45807934227281
 21
-1030.8704005540499
 31
0.0
  0
LINE
  8
0
  6
CONTINUOUS
 62
               3
  5
29B
 10
464.28652321630801
 20
-918.5419566800141
 30
0.0
 11
464.28652321630801
 21
-1028.4704005540498
 31
0.0
  0
LINE
  8
0
  6
CONTINUOUS
 62
               3
  5
29C
 10
469.28652321630801
 20
-1030.9704005540498
 30
0.0
 11
469.28652321630801
 21
-915.77040055404984
 31
0.0
  0
LINE
  8
0
  6
CONTINUOUS
 62
               3
  5
29D
 10
469.28652321630801
 20
-915.77040055404984
 30
0.0
 11
466.78652321630801
 21
-915.77040055404984
 31
0.0
  0
LINE
  8
0
  6
CONTINUOUS
 62
               3
  5
29E
 10
469.28652321630801
 20
-1030.9704005540498
 30
0.0
 11
466.78652321630801
 21
-1030.9704005540498
 31
0.0
  0
ARC
  8
0
  6
CONTINUOUS
 62
               3
  5
29F
 10
466.78652321630801
 20
-1028.4704005540498
 30
0.0
 40
2.5
 50
179.99999999989538
 51
269.99999999984436
  0
ARC
  8
0
  6
CONTINUOUS
 62
               3
  5
2A0
 10
466.78652321630801
 20
-918.27040055404984
 30
0.0
 40
2.5
 50
89.999999999948997
 51
179.99999999989538
  0
LINE
  8
0
  6
CONTINUOUS
 62
               3
  5
2A1
 10
576.84812004969046
 20
-933.37040055405021
 30
0.0
 11
609.28652321630807
 21
-933.37040055405021
 31
0.0
  0
LINE
  8
0
  6
CONTINUOUS
 62
               3
  5
2A2
 10
609.28652321630807
 20
-933.37040055405021
 30
0.0
 11
643.29019948814675
 21
-933.37040055405021
 31
0.0
  0
LINE
  8
0
  6
CONTINUOUS
 62
               3
  5
2A3
 10
472.4580793422727
 20
-1030.8704005540499
 30
0.0
 11
472.45807934227224
 21
-915.87040055404998
 31
0.0
  0
ARC
  8
0
  6
CONTINUOUS
 62
               3
  5
2A4
 10
563.62168994641763
 20
-907.68384940061276
 30
0.0
 40
5.0
 50
271.99999999984402
 51
304.806757870252
  0
LINE
  8
0
  6
CONTINUOUS
 62
               3
  5
2A5
 10
664.28652321630784
 20
-1113.3704005540499
 30
0.0
 11
664.28652321630784
 21
-1112.6988444280855
 31
0.0
  0
LINE
  8
0
  6
CONTINUOUS
 62
               3
  5
2A6
 10
666.78652321630784
 20
-1110.1988444280851
 30
0.0
 11
664.28652321630784
 21
-1112.6988444280855
 31
0.0
  0
LINE
  8
0
  6
CONTINUOUS
 62
               3
  5
2A7
 10
554.28652321630796
 20
-1113.3704005540499
 30
0.0
 11
554.28652321630796
 21
-1112.6988444280855
 31
0.0
  0
LINE
  8
0
  6
CONTINUOUS
 62
               3
  5
2A8
 10
551.78652321630796
 20
-1110.1988444280855
 30
0.0
 11
554.28652321630796
 21
-1112.6988444280855
 31
0.0
  0
LINE
  8
0
  6
CONTINUOUS
 62
               3
  5
2A9
 10
554.28652321630796
 20
-1112.6988444280855
 30
0.0
 11
664.28652321630784
 21
-1112.6988444280855
 31
0.0
  0
LINE
  8
0
  6
CONTINUOUS
 62
               3
  5
2AA
 10
554.45807934227207
 20
-1118.3704005540499
 30
0.0
 11
664.38652321630798
 21
-1118.3704005540499
 31
0.0
  0
LINE
  8
0
  6
CONTINUOUS
 62
               3
  5
2AB
 10
666.88652321630798
 20
-1113.3704005540499
 30
0.0
 11
551.68652321630793
 21
-1113.3704005540499
 31
0.0
  0
LINE
  8
0
  6
CONTINUOUS
 62
               3
  5
2AC
 10
551.68652321630793
 20
-1113.3704005540499
 30
0.0
 11
551.68652321630793
 21
-1115.8704005540499
 31
0.0
  0
LINE
  8
0
  6
CONTINUOUS
 62
               3
  5
2AD
 10
666.88652321630798
 20
-1113.3704005540499
 30
0.0
 11
666.88652321630798
 21
-1115.8704005540499
 31
0.0
  0
ARC
  8
0
  6
CONTINUOUS
 62
               3
  5
2AE
 10
664.38652321630798
 20
-1115.8704005540499
 30
0.0
 40
2.5
 50
269.99999999984567
 51
359.99999999979337
  0
ARC
  8
0
  6
CONTINUOUS
 62
               3
  5
2AF
 10
554.18652321630793
 20
-1115.8704005540499
 30
0.0
 40
2.5
 50
179.99999999989538
 51
269.99999999984567
  0
LINE
  8
0
  6
CONTINUOUS
 62
               3
  5
2B0
 10
666.78652321630784
 20
-1110.1988444280851
 30
0.0
 11
551.78652321630796
 21
-1110.1988444280855
 31
0.0
  0
LINE
  8
0
  6
CONTINUOUS
 62
               3
  5
2B1
 10
669.97612023464899
 20
-1018.8607363404282
 30
0.0
 11
666.78652321630784
 21
-1110.1988444280851
 31
0.0
  0
ARC
  8
0
  6
CONTINUOUS
 62
               3
  5
2B2
 10
674.97307436974461
 20
-1019.035233823941
 30
0.0
 40
5.0
 50
145.19324212948862
 51
177.99999999989819
  0
LINE
  8
0
  6
CONTINUOUS
 62
               3
  5
2B3
 10
549.27250815133993
 20
-1038.2068722706008
 30
0.0
 11
551.78652321630796
 21
-1110.1988444280855
 31
0.0
  0
ARC
  8
0
  6
CONTINUOUS
 62
               3
  5
2B4
 10
544.27555401624454
 20
-1038.3813697541127
 30
0.0
 40
5.0
 50
1.9999999999958187
 51
87.99999999994921
  0
LINE
  8
0
  6
CONTINUOUS
 62
               3
  5
2B5
 10
534.28652321630807
 20
-1281.869834302634
 30
0.0
 11
684.28652321630807
 21
-1281.869834302634
 31
0.0
  0
LINE
  8
0
  6
CONTINUOUS
 62
               3
  5
2B6
 10
520.78652321630784
 20
-1291.869834302634
 30
0.0
 11
520.78652321630784
 21
-1298.8698343026335
 31
0.0
  0
LINE
  8
0
  6
CONTINUOUS
 62
               3
  5
2B7
 10
520.78652321630784
 20
-1291.869834302634
 30
0.0
 11
534.28652321630807
 21
-1281.869834302634
 31
0.0
  0
ARC
  8
0
  6
CONTINUOUS
 62
               3
  5
2B8
 10
532.28652321630818
 20
-1303.4524099975893
 30
0.0
 40
4.9999999999999991
 50
0.0
 51
66.421821521760023
  0
LINE
  8
0
  6
CONTINUOUS
 62
               3
  5
2B9
 10
520.78652321630784
 20
-1298.8698343026335
 30
0.0
 11
697.78652321630761
 21
-1298.8698343026335
 31
0.0
  0
ARC
  8
0
  6
CONTINUOUS
 62
               3
  5
2BA
 10
554.28652321630807
 20
-1388.869834302634
 30
0.0
 40
19.999999999999996
 50
148.21166938286279
 51
167.26981986159123
  0
LINE
  8
0
  6
CONTINUOUS
 62
               3
  5
2BB
 10
537.28652321630818
 20
-1303.4524099975893
 30
0.0
 11
537.28652321630818
 21
-1378.3341805497812
 31
0.0
  0
LINE
  8
0
  6
CONTINUOUS
 62
               3
  5
2BC
 10
681.28652321630784
 20
-1373.3341805497807
 30
0.0
 11
681.28652321630784
 21
-1303.4524099975893
 31
0.0
  0
LINE
  8
0
  6
CONTINUOUS
 62
               3
  5
2BD
 10
537.28652321630818
 20
-1378.3341805497812
 30
0.0
 11
680.7865232163083
 21
-1378.3341805497812
 31
0.0
  0
LINE
  8
0
  6
CONTINUOUS
 62
               3
  5
2BE
 10
589.28652321630807
 20
-1298.8698343026335
 30
0.0
 11
589.28652321630807
 21
-1281.869834302634
 31
0.0
  0
LINE
  8
0
  6
CONTINUOUS
 62
               3
  5
2BF
 10
629.28652321630807
 20
-1281.869834302634
 30
0.0
 11
629.28652321630807
 21
-1298.8698343026335
 31
0.0
  0
LINE
  8
0
  6
CONTINUOUS
 62
               3
  5
2C0
 10
589.28652321630807
 20
-1291.869834302634
 30
0.0
 11
629.28652321630807
 21
-1291.869834302634
 31
0.0
  0
LINE
  8
0
  6
CONTINUOUS
 62
               3
  5
2C1
 10
537.0023617423027
 20
-1281.869834302634
 30
0.0
 11
537.0023617423027
 21
-1298.8698343026335
 31
0.0
  0
LINE
  8
0
  6
CONTINUOUS
 62
               3
  5
2C2
 10
523.07602501568283
 20
-1291.869834302634
 30
0.0
 11
523.07602501568283
 21
-1298.8698343026335
 31
0.0
  0
LINE
  8
0
  6
CONTINUOUS
 62
               3
  5
2C3
 10
520.78652321630784
 20
-1291.869834302634
 30
0.0
 11
523.07602501568283
 21
-1291.869834302634
 31
0.0
  0
LINE
  8
0
  6
CONTINUOUS
 62
               3
  5
2C4
 10
523.07602501568283
 20
-1291.869834302634
 30
0.0
 11
537.0023617423027
 21
-1281.869834302634
 31
0.0
  0
LINE
  8
0
  6
CONTINUOUS
 62
               3
  5
2C5
 10
697.78652321630761
 20
-1291.869834302634
 30
0.0
 11
697.78652321630761
 21
-1298.8698343026335
 31
0.0
  0
LINE
  8
0
  6
CONTINUOUS
 62
               3
  5
2C6
 10
697.78652321630761
 20
-1291.869834302634
 30
0.0
 11
684.28652321630807
 21
-1281.869834302634
 31
0.0
  0
ARC
  8
0
  6
CONTINUOUS
 62
               3
  5
2C7
 10
686.28652321630784
 20
-1303.4524099975893
 30
0.0
 40
4.9999999999999991
 50
113.57817847813573
 51
179.99999999989538
  0
LINE
  8
0
  6
CONTINUOUS
 62
               3
  5
2C8
 10
681.57068469031219
 20
-1281.869834302634
 30
0.0
 11
681.57068469031219
 21
-1298.8698343026335
 31
0.0
  0
LINE
  8
0
  6
CONTINUOUS
 62
               3
  5
2C9
 10
695.49702141693319
 20
-1291.869834302634
 30
0.0
 11
695.49702141693319
 21
-1298.8698343026335
 31
0.0
  0
LINE
  8
0
  6
CONTINUOUS
 62
               3
  5
2CA
 10
697.78652321630761
 20
-1291.869834302634
 30
0.0
 11
695.49702141693319
 21
-1291.869834302634
 31
0.0
  0
LINE
  8
0
  6
CONTINUOUS
 62
               3
  5
2CB
 10
695.49702141693319
 20
-1291.869834302634
 30
0.0
 11
681.57068469031219
 21
-1281.869834302634
 31
0.0
  0
ARC
  8
0
  6
CONTINUOUS
 62
               3
  5
2CC
 10
544.28652321630807
 20
-1510.369834302634
 30
0.0
 40
2.4999999999999996
 50
89.99999999994769
 51
269.99999999984567
  0
ARC
  8
0
  6
CONTINUOUS
 62
               3
  5
2CD
 10
684.28652321630807
 20
-1510.369834302634
 30
0.0
 40
2.4999999999999996
 50
269.99999999984567
 51
449.99999999974102
  0
LINE
  8
0
  6
CONTINUOUS
 62
               3
  5
2CE
 10
469.28652321630801
 20
-1502.869834302634
 30
0.0
 11
469.95807934227236
 21
-1502.869834302634
 31
0.0
  0
LINE
  8
0
  6
CONTINUOUS
 62
               3
  5
2CF
 10
472.45807934227247
 20
-1505.3698343026335
 30
0.0
 11
469.95807934227236
 21
-1502.869834302634
 31
0.0
  0
LINE
  8
0
  6
CONTINUOUS
 62
               3
  5
2D0
 10
472.45807934227327
 20
-1505.369834302634
 30
0.0
 11
514.62318959855065
 21
-1506.8422723984881
 31
0.0
  0
LINE
  8
0
  6
CONTINUOUS
 62
               3
  5
2D1
 10
532.82205712224061
 20
-1523.1415237289202
 30
0.0
 11
517.98422602097082
 21
-1508.3036926276509
 31
0.0
  0
ARC
  8
0
  6
CONTINUOUS
 62
               3
  5
2D2
 10
529.28652321630807
 20
-1526.6770576348531
 30
0.0
 40
4.9999999999999991
 50
0.0
 51
44.999999999973191
  0
LINE
  8
0
  6
CONTINUOUS
 62
               3
  5
2D3
 10
469.28652321630801
 20
-1392.869834302634
 30
0.0
 11
469.95807934227236
 21
-1392.869834302634
 31
0.0
  0
LINE
  8
0
  6
CONTINUOUS
 62
               3
  5
2D4
 10
472.45807934227247
 20
-1390.369834302634
 30
0.0
 11
469.95807934227236
 21
-1392.869834302634
 31
0.0
  0
LINE
  8
0
  6
CONTINUOUS
 62
               3
  5
2D5
 10
472.45807934227236
 20
-1390.369834302634
 30
0.0
 11
530.07555554444673
 21
-1388.3577876974819
 31
0.0
  0
LINE
  8
0
  6
CONTINUOUS
 62
               3
  5
2D6
 10
469.95807934227236
 20
-1392.869834302634
 30
0.0
 11
469.95807934227236
 21
-1502.869834302634
 31
0.0
  0
LINE
  8
0
  6
CONTINUOUS
 62
               3
  5
2D7
 10
469.28652321630801
 20
-1505.4698343026339
 30
0.0
 11
469.28652321630801
 21
-1390.2698343026341
 31
0.0
  0
LINE
  8
0
  6
CONTINUOUS
 62
               3
  5
2D8
 10
469.28652321630801
 20
-1390.2698343026341
 30
0.0
 11
466.78652321630801
 21
-1390.2698343026341
 31
0.0
  0
ARC
  8
0
  6
CONTINUOUS
 62
               3
  5
2D9
 10
466.78652321630801
 20
-1392.7698343026341
 30
0.0
 40
2.5
 50
89.999999999948997
 51
179.99999999989538
  0
LINE
  8
0
  6
CONTINUOUS
 62
               3
  5
2DA
 10
464.28652321630801
 20
-1392.7698343026341
 30
0.0
 11
464.28652321630801
 21
-1502.9698343026339
 31
0.0
  0
LINE
  8
0
  6
CONTINUOUS
 62
               3
  5
2DB
 10
469.28652321630801
 20
-1505.4698343026339
 30
0.0
 11
466.78652321630801
 21
-1505.4698343026339
 31
0.0
  0
ARC
  8
0
  6
CONTINUOUS
 62
               3
  5
2DC
 10
466.78652321630801
 20
-1502.9698343026339
 30
0.0
 40
2.5
 50
179.99999999989538
 51
269.99999999984436
  0
LINE
  8
0
  6
CONTINUOUS
 62
               3
  5
2DD
 10
472.45807934227247
 20
-1390.369834302634
 30
0.0
 11
472.45807934227327
 21
-1505.369834302634
 31
0.0
  0
ARC
  8
0
  6
CONTINUOUS
 62
               3
  5
2DE
 10
514.44869211503817
 20
-1511.8392265335838
 30
0.0
 40
5.0
 50
44.999999999975948
 51
87.999999999949253
  0
ARC
  8
0
  6
CONTINUOUS
 62
               3
  5
2DF
 10
529.90105806093425
 20
-1383.3608335623862
 30
0.0
 40
5.0
 50
271.99999999984408
 51
347.26981986148661
  0
CIRCLE
  8
0
  6
CONTINUOUS
 62
               3
  5
2E0
 10
609.28652321630807
 20
-1447.869834302634
 30
0.0
 40
48.5
  0
CIRCLE
  8
0
  6
CONTINUOUS
 62
               3
  5
2E1
 10
609.28652321630807
 20
-1447.869834302634
 30
0.0
 40
47.299999999999997
  0
LINE
  8
0
  6
CONTINUOUS
 62
               3
  5
2E2
 10
577.46671806291351
 20
-1479.6896394560285
 30
0.0
 11
575.84037246618436
 21
-1481.3159850527577
 31
0.0
  0
LINE
  8
0
  6
CONTINUOUS
 62
               3
  5
2E3
 10
641.10632836970262
 20
-1479.6896394560285
 30
0.0
 11
642.73267396643178
 21
-1481.3159850527577
 31
0.0
  0
ARC
  8
0
  6
CONTINUOUS
 62
               3
  5
2E4
 10
609.28652321630807
 20
-1447.869834302634
 30
0.0
 40
45.0
 50
224.99999999987043
 51
314.99999999981884
  0
CIRCLE
  8
0
  6
CONTINUOUS
 62
               3
  5
2E5
 10
609.28652321630807
 20
-1447.869834302634
 30
0.0
 40
57.600000000000001
  0
ARC
  8
0
  6
CONTINUOUS
 62
               3
  5
2E6
 10
586.78652321630864
 20
-1510.369834302634
 30
0.0
 40
2.4999999999999996
 50
269.99999999984567
 51
449.99999999974102
  0
ARC
  8
0
  6
CONTINUOUS
 62
               3
  5
2E7
 10
631.78652321630852
 20
-1510.369834302634
 30
0.0
 40
2.4999999999999996
 50
89.99999999994769
 51
269.99999999984567
  0
LINE
  8
0
  6
CONTINUOUS
 62
               3
  5
2E8
 10
544.28652321630807
 20
-1512.869834302634
 30
0.0
 11
586.78652321630864
 21
-1512.869834302634
 31
0.0
  0
LINE
  8
0
  6
CONTINUOUS
 62
               3
  5
2E9
 10
544.28652321630807
 20
-1507.869834302634
 30
0.0
 11
586.78652321630864
 21
-1507.869834302634
 31
0.0
  0
LINE
  8
0
  6
CONTINUOUS
 62
               3
  5
2EA
 10
631.78652321630852
 20
-1507.869834302634
 30
0.0
 11
684.28652321630807
 21
-1507.869834302634
 31
0.0
  0
LINE
  8
0
  6
CONTINUOUS
 62
               3
  5
2EB
 10
631.78652321630852
 20
-1512.869834302634
 30
0.0
 11
684.28652321630807
 21
-1512.869834302634
 31
0.0
  0
CIRCLE
  8
0
  6
CONTINUOUS
 62
               3
  5
2EC
 10
609.28652321630807
 20
-973.37040055404998
 30
0.0
 40
59.0
  0
LINE
  8
0
  6
CONTINUOUS
 62
               4
  5
2ED
 10
76.999999999999886
 20
179.02211771185216
 30
0.0
 11
71.999999999999886
 21
184.02211771185216
 31
0.0
  0
LINE
  8
0
  6
CONTINUOUS
 62
               4
  5
2EE
 10
76.999999999999886
 20
45.333440361882481
 30
0.0
 11
76.999999999999886
 21
-148.62710427125569
 31
0.0
  0
LINE
  8
0
  6
CONTINUOUS
 62
               4
  5
2EF
 10
76.999999999999886
 20
-148.62710427125569
 30
0.0
 11
60.271775600348853
 21
-295.24176044065189
 31
0.0
  0
LINE
  8
0
  6
CONTINUOUS
 62
               4
  5
2F0
 10
58.000000000000107
 20
-297.51353604100041
 30
0.0
 11
60.271775600348853
 21
-295.24176044065189
 31
0.0
  0
ARC
  8
0
  6
CONTINUOUS
 62
               4
  5
2F1
 10
54.499999999999879
 20
168.48646395899937
 30
0.0
 40
19.999999999999996
 50
0.0
 51
31.788330617045627
  0
LINE
  8
0
  6
CONTINUOUS
 62
               4
  5
2F2
 10
71.500000000000341
 20
179.02211771185216
 30
0.0
 11
71.500000000000341
 21
184.02211771185273
 31
0.0
  0
LINE
  8
0
  6
CONTINUOUS
 62
               4
  5
2F3
 10
71.999999999999886
 20
184.02211771185216
 30
0.0
 11
71.500000000000341
 21
184.02211771185216
 31
0.0
  0
LINE
  8
0
  6
CONTINUOUS
 62
               4
  5
2F4
 10
76.750000000000114
 20
178.77211771185216
 30
0.0
 11
71.500000000000341
 21
184.02211771185216
 31
0.0
  0
LINE
  8
0
  6
CONTINUOUS
 62
               4
  5
2F5
 10
76.750000000000114
 20
178.77211771185216
 30
0.0
 11
76.999999999999886
 21
179.02211771185216
 31
0.0
  0
LINE
  8
0
  6
CONTINUOUS
 62
               4
  5
2F6
 10
74.499999999999886
 20
44.333440361882253
 30
0.0
 11
74.499999999999886
 21
-148.48514398343616
 31
0.0
  0
LINE
  8
0
  6
CONTINUOUS
 62
               4
  5
2F7
 10
76.750000000000114
 20
45.048083254746416
 30
0.0
 11
76.750000000000114
 21
-148.61290824247374
 31
0.0
  0
LINE
  8
0
  6
CONTINUOUS
 62
               4
  5
2F8
 10
74.499999999999886
 20
-148.48514398343616
 30
0.0
 11
57.496765133650449
 21
-297.51353604100098
 31
0.0
  0
LINE
  8
0
  6
CONTINUOUS
 62
               4
  5
2F9
 10
74.496765133649774
 20
-148.51353604100052
 30
0.0
 11
76.999999999999886
 21
-148.62710427125569
 31
0.0
  0
LINE
  8
0
  6
CONTINUOUS
 62
               4
  5
2FA
 10
76.750000000000114
 20
-148.61290824247374
 30
0.0
 11
59.994274553678785
 21
-295.46893800068676
 31
0.0
  0
LINE
  8
0
  6
CONTINUOUS
 62
               4
  5
2FB
 10
57.496765133650449
 20
-297.51353604100098
 30
0.0
 11
60.271775600348853
 21
-295.24176044065189
 31
0.0
  0
LINE
  8
0
  6
CONTINUOUS
 62
               4
  5
2FC
 10
76.999999999999886
 20
179.02211771185216
 30
0.0
 11
76.999999999999886
 21
48.333440361882367
 31
0.0
  0
LINE
  8
0
  6
CONTINUOUS
 62
               4
  5
2FD
 10
76.750000000000114
 20
178.77211771185216
 30
0.0
 11
76.750000000000114
 21
48.618797469017863
 31
0.0
  0
LINE
  8
0
  6
CONTINUOUS
 62
               4
  5
2FE
 10
74.499999999999886
 20
168.48646395899937
 30
0.0
 11
74.499999999999886
 21
49.486463958999366
 31
0.0
  0
LINE
  8
0
  6
CONTINUOUS
 62
               4
  5
2FF
 10
58.141132586505925
 20
-202.29804509720032
 30
0.0
 11
-65.512000000000512
 21
-98.540747149947492
 31
0.0
  0
ARC
  8
0
  6
CONTINUOUS
 62
               4
  5
300
 10
-914.27232010053956
 20
-1243.0991642768961
 30
0.0
 40
1424.9238755783815
 50
50.18995614625684
 51
53.440796050721552
  0
ARC
  8
0
  6
CONTINUOUS
 62
               4
  5
301
 10
63.579388837032973
 20
-77.740877126154373
 30
0.0
 40
130.75634311527989
 50
189.15312334026754
 51
212.76918311271189
  0
ARC
  8
0
  6
CONTINUOUS
 62
               4
  5
302
 10
61.364025499551069
 20
-67.606856374914059
 30
0.0
 40
134.72974192119386
 50
216.90649751129573
 51
268.62928723405531
  0
ARC
  8
0
  6
CONTINUOUS
 62
               4
  5
303
 10
-733.63034809850831
 20
-1026.7602069520094
 30
0.0
 40
1143.0835201141012
 50
46.158732653416578
 51
50.202696616646634
  0
LINE
  8
0
  6
CONTINUOUS
 62
               4
  5
304
 10
-57.0
 20
-309.51353604100063
 30
0.0
 11
57.0
 21
-309.51353604100063
 31
0.0
  0
LINE
  8
0
  6
CONTINUOUS
 62
               4
  5
305
 10
-57.999999999999545
 20
-308.51353604100109
 30
0.0
 11
58.000000000000391
 21
-308.51353604100063
 31
0.0
  0
ARC
  8
0
  6
CONTINUOUS
 62
               4
  5
306
 10
474.21603418803386
 20
168.48646395899939
 30
0.0
 40
17.566965811965957
 50
0.0
 51
36.851448659223884
  0
LINE
  8
0
  6
CONTINUOUS
 62
               4
  5
307
 10
511.7270000000002
 20
184.02211771185219
 30
0.0
 11
488.2729999999998
 21
184.02211771185219
 31
0.0
  0
ARC
  8
0
  6
CONTINUOUS
 62
               4
  5
308
 10
525.78396581196557
 20
168.48646395899939
 30
0.0
 40
17.566965811965957
 50
143.14855134074139
 51
179.9999999999653
  0
LINE
  8
0
  6
CONTINUOUS
 62
               4
  5
309
 10
488.2729999999998
 20
179.02211771185219
 30
0.0
 11
488.2729999999998
 21
184.02211771185219
 31
0.0
  0
LINE
  8
0
  6
CONTINUOUS
 62
               4
  5
30A
 10
511.7270000000002
 20
179.02211771185219
 30
0.0
 11
511.7270000000002
 21
184.02211771185219
 31
0.0
  0
LINE
  8
0
  6
CONTINUOUS
 62
               4
  5
30B
 10
488.2729999999998
 20
184.02211771185219
 30
0.0
 11
493.99999999999977
 21
179.02211771185219
 31
0.0
  0
LINE
  8
0
  6
CONTINUOUS
 62
               4
  5
30C
 10
505.99999999999966
 20
179.02211771185219
 30
0.0
 11
511.7270000000002
 21
184.02211771185219
 31
0.0
  0
LINE
  8
0
  6
CONTINUOUS
 62
               4
  5
30D
 10
493.99999999999977
 20
179.02211771185219
 30
0.0
 11
505.99999999999966
 21
179.02211771185219
 31
0.0
  0
LINE
  8
0
  6
CONTINUOUS
 62
               4
  5
30E
 10
505.99999999999909
 20
48.486463958999508
 30
0.0
 11
493.9999999999992
 21
48.486463958999508
 31
0.0
  0
ARC
  8
0
  6
CONTINUOUS
 62
               4
  5
30F
 10
491.9383554665842
 20
47.072384110532795
 30
0.0
 40
2.4999999999999996
 50
34.446185822137757
 51
93.56278057377726
  0
ARC
  8
0
  6
CONTINUOUS
 62
               4
  5
310
 10
508.06164453341466
 20
47.072384110532795
 30
0.0
 40
2.4999999999999996
 50
86.437219426187951
 51
145.55381417782721
  0
LINE
  8
0
  6
CONTINUOUS
 62
               4
  5
311
 10
505.99999999999909
 20
45.486463958999622
 30
0.0
 11
493.9999999999992
 21
45.486463958999622
 31
0.0
  0
ARC
  8
0
  6
CONTINUOUS
 62
               4
  5
312
 10
491.9383554665842
 20
46.900543807465993
 30
0.0
 40
2.4999999999999996
 50
266.43721942615309
 51
325.55381417779245
  0
ARC
  8
0
  6
CONTINUOUS
 62
               4
  5
313
 10
508.06164453341466
 20
46.900543807465993
 30
0.0
 40
2.4999999999999996
 50
214.44618582210299
 51
273.56278057374249
  0
LINE
  8
0
  6
CONTINUOUS
 62
               4
  5
314
 10
491.78299999999922
 20
44.486463958999394
 30
0.0
 11
491.78299999999979
 21
-297.51353604100086
 31
0.0
  0
LINE
  8
0
  6
CONTINUOUS
 62
               4
  5
315
 10
508.21699999999908
 20
44.400543807465993
 30
0.0
 11
508.21699999999964
 21
-297.51353604100086
 31
0.0
  0
LINE
  8
0
  6
CONTINUOUS
 62
               4
  5
316
 10
493.9999999999992
 20
45.486463958999622
 30
0.0
 11
493.99999999999977
 21
-295.24176044065189
 31
0.0
  0
LINE
  8
0
  6
CONTINUOUS
 62
               4
  5
317
 10
505.99999999999966
 20
-295.24176044065189
 30
0.0
 11
505.99999999999909
 21
45.486463958999622
 31
0.0
  0
LINE
  8
0
  6
CONTINUOUS
 62
               4
  5
318
 10
508.21699999999964
 20
-148.51353604100052
 30
0.0
 11
491.78299999999979
 21
-148.51353604100052
 31
0.0
  0
LINE
  8
0
  6
CONTINUOUS
 62
               4
  5
319
 10
493.99999999999977
 20
-295.24176044065189
 30
0.0
 11
505.99999999999966
 21
-295.24176044065189
 31
0.0
  0
LINE
  8
0
  6
CONTINUOUS
 62
               4
  5
31A
 10
491.78299999999979
 20
-297.51353604100086
 30
0.0
 11
493.99999999999977
 21
-295.24176044065189
 31
0.0
  0
LINE
  8
0
  6
CONTINUOUS
 62
               4
  5
31B
 10
505.99999999999966
 20
-295.24176044065189
 30
0.0
 11
508.21699999999964
 21
-297.51353604100086
 31
0.0
  0
LINE
  8
0
  6
CONTINUOUS
 62
               4
  5
31C
 10
491.78299999999979
 20
168.48646395899939
 30
0.0
 11
491.78299999999922
 21
49.486463958999394
 31
0.0
  0
LINE
  8
0
  6
CONTINUOUS
 62
               4
  5
31D
 10
508.21699999999964
 20
168.48646395899939
 30
0.0
 11
508.21699999999908
 21
49.486463958999394
 31
0.0
  0
LINE
  8
0
  6
CONTINUOUS
 62
               4
  5
31E
 10
505.99999999999909
 20
48.486463958999508
 30
0.0
 11
505.99999999999966
 21
179.02211771185219
 31
0.0
  0
LINE
  8
0
  6
CONTINUOUS
 62
               4
  5
31F
 10
493.99999999999977
 20
179.02211771185219
 30
0.0
 11
493.9999999999992
 21
48.486463958999508
 31
0.0
  0
ARC
  8
0
  6
CONTINUOUS
 62
               4
  5
320
 10
485.02192705347227
 20
-152.81078569458214
 30
0.0
 40
59.149634972654262
 50
186.49999999996388
 51
236.78754046664218
  0
ARC
  8
0
  6
CONTINUOUS
 62
               4
  5
321
 10
505.92691953069391
 20
-140.96176859583045
 30
0.0
 40
81.261593956721953
 50
186.49999999996388
 51
229.00792456449781
  0
ARC
  8
0
  6
CONTINUOUS
 62
               4
  5
322
 10
360.68129117650477
 20
-225.29928742052516
 30
0.0
 40
204.24864340422488
 50
353.49999999993162
 51
373.4368021674054
  0
ARC
  8
0
  6
CONTINUOUS
 62
               4
  5
323
 10
398.37230094456584
 20
-223.01487035111745
 30
0.0
 40
167.18634723772169
 50
351.25933879886691
 51
375.67746336847057
  0
ARC
  8
0
  6
CONTINUOUS
 62
               4
  5
324
 10
-778.9292288491248
 20
-270.18593445246302
 30
0.0
 40
359.11818398045398
 50
13.306177675727664
 51
28.552443501612977
  0
ARC
  8
0
  6
CONTINUOUS
 62
               4
  5
325
 10
-500.33118646999401
 20
-161.93925854989379
 30
0.0
 40
73.327111796148202
 50
342.62945642124168
 51
419.8368916055386
  0
LINE
  8
0
  6
CONTINUOUS
 62
               4
  5
326
 10
-556.99999999999989
 20
-309.51353604100063
 30
0.0
 11
-442.99999999999989
 21
-309.51353604100063
 31
0.0
  0
LINE
  8
0
  6
CONTINUOUS
 62
               4
  5
327
 10
-557.99999999999943
 20
-308.51353604100109
 30
0.0
 11
-441.99999999999949
 21
-308.51353604100063
 31
0.0
  0
LINE
  8
0
  6
CONTINUOUS
 62
               4
  5
328
 10
443.0
 20
-309.51353604100063
 30
0.0
 11
557.0
 21
-309.51353604100063
 31
0.0
  0
LINE
  8
0
  6
CONTINUOUS
 62
               4
  5
329
 10
442.00000000000045
 20
-308.51353604100109
 30
0.0
 11
558.00000000000045
 21
-308.51353604100063
 31
0.0
  0
LINE
  8
0
  6
CONTINUOUS
 62
               4
  5
32A
 10
-565.50000000000091
 20
-514.5135360409995
 30
0.0
 11
-434.49999999999892
 21
-514.5135360409995
 31
0.0
  0
LINE
  8
0
  6
CONTINUOUS
 62
               4
  5
32B
 10
-90.999999999999943
 20
-415.25875782832304
 30
0.0
 11
-90.999999999999943
 21
-405.38447162126727
 31
0.0
  0
LINE
  8
0
  6
CONTINUOUS
 62
               4
  5
32C
 10
90.999999999999815
 20
-415.25875782832304
 30
0.0
 11
90.999999999999815
 21
-405.38447162126727
 31
0.0
  0
LINE
  8
0
  6
CONTINUOUS
 62
               4
  5
32D
 10
-65.500000000000966
 20
-514.5135360409995
 30
0.0
 11
65.500000000000952
 21
-514.5135360409995
 31
0.0
  0
LINE
  8
0
  6
CONTINUOUS
 62
               4
  5
32E
 10
434.49999999999898
 20
-514.5135360409995
 30
0.0
 11
565.50000000000091
 21
-514.5135360409995
 31
0.0
  0
POINT
  8
0
  6
CONTINUOUS
 62
               4
  5
32F
 10
-247.03776905046854
 20
-986.55483612584078
 30
0.0
  0
POINT
  8
0
  6
CONTINUOUS
 62
               4
  5
330
 10
-537.23776905046839
 20
-986.55483612584078
 30
0.0
  0
POINT
  8
0
  6
CONTINUOUS
 62
               4
  5
331
 10
-349.58372644623506
 20
-878.48695205680599
 30
0.0
  0
POINT
  8
0
  6
CONTINUOUS
 62
               4
  5
332
 10
242.83392368588116
 20
-986.55483612584078
 30
0.0
  0
POINT
  8
0
  6
CONTINUOUS
 62
               4
  5
333
 10
-1.0781087646046892
 20
-986.55483612584078
 30
0.0
  0
POINT
  8
0
  6
CONTINUOUS
 62
               4
  5
334
 10
165.37790746063834
 20
-898.59881990059819
 30
0.0
  0
LINE
  8
0
  6
CONTINUOUS
 62
               4
  5
335
 10
686.28652321630784
 20
-1378.3341805497812
 30
0.0
 11
681.28652321630784
 21
-1373.3341805497812
 31
0.0
  0
ARC
  8
0
  6
CONTINUOUS
 62
               4
  5
336
 10
663.78652321630784
 20
-1388.869834302634
 30
0.0
 40
19.999999999999996
 50
0.0
 51
31.78833061703342
  0
LINE
  8
0
  6
CONTINUOUS
 62
               4
  5
337
 10
680.7865232163083
 20
-1378.3341805497812
 30
0.0
 11
680.7865232163083
 21
-1373.3341805497807
 31
0.0
  0
LINE
  8
0
  6
CONTINUOUS
 62
               4
  5
338
 10
681.28652321630784
 20
-1373.3341805497812
 30
0.0
 11
680.7865232163083
 21
-1373.3341805497812
 31
0.0
  0
LINE
  8
0
  6
CONTINUOUS
 62
               4
  5
339
 10
686.03652321630807
 20
-1378.5841805497812
 30
0.0
 11
680.7865232163083
 21
-1373.3341805497812
 31
0.0
  0
LINE
  8
0
  6
CONTINUOUS
 62
               4
  5
33A
 10
686.03652321630807
 20
-1378.5841805497812
 30
0.0
 11
686.28652321630784
 21
-1378.3341805497812
 31
0.0
  0
LINE
  8
0
  6
CONTINUOUS
 62
               4
  5
33B
 10
686.28652321630784
 20
-1378.3341805497812
 30
0.0
 11
686.28652321630784
 21
-1509.0228578997512
 31
0.0
  0
LINE
  8
0
  6
CONTINUOUS
 62
               4
  5
33C
 10
686.03652321630807
 20
-1378.5841805497812
 30
0.0
 11
686.03652321630807
 21
-1508.7375007926157
 31
0.0
  0
LINE
  8
0
  6
CONTINUOUS
 62
               4
  5
33D
 10
683.78652321630784
 20
-1388.7168107055168
 30
0.0
 11
683.78652321630784
 21
-1507.869834302634
 31
0.0
  0
POINT
  8
0
  6
CONTINUOUS
 62
               4
  5
33E
 10
653.78652321630807
 20
-1117.77040055405
 30
0.0
  0
POINT
  8
0
  6
CONTINUOUS
 62
               4
  5
33F
 10
464.88652321630803
 20
-1403.369834302634
 30
0.0
  0
POINT
  8
0
  6
CONTINUOUS
 62
               4
  5
340
 10
464.88652321630815
 20
-1017.8704005540495
 30
0.0
  0
LINE
  8
0
  6
DASHED2
 62
               4
  5
341
 10
-56.999999999999886
 20
210.48646395899937
 30
0.0
 11
56.999999999999879
 21
210.48646395899937
 31
0.0
  0
LINE
  8
0
  6
DASHED2
 62
               4
  5
342
 10
443.00000000000011
 20
210.48646395899937
 30
0.0
 11
556.99999999999989
 21
210.48646395899937
 31
0.0
  0
LINE
  8
0
  6
DASHED2
 62
               4
  5
343
 10
-557.00000000000034
 20
210.48646395899937
 30
0.0
 11
-443.00000000000063
 21
210.48646395899937
 31
0.0
  0
LINE
  8
0
  6
DASHED2
 62
               4
  5
344
 10
-556.99999999999886
 20
-344.51353604100018
 30
0.0
 11
-556.99999999999886
 21
-409.51353604100063
 31
0.0
  0
LINE
  8
0
  6
DASHED2
 62
               4
  5
345
 10
-557.50000000000227
 20
-424.51353604100177
 30
0.0
 11
-557.50000000000227
 21
-489.5135360409995
 31
0.0
  0
LINE
  8
0
  6
DASHED2
 62
               4
  5
346
 10
-499.99999999999932
 20
-409.51353604100063
 30
0.0
 11
-556.99999999999955
 21
-409.51353604100063
 31
0.0
  0
LINE
  8
0
  6
DASHED2
 62
               4
  5
347
 10
-557.50000000000227
 20
-424.51353604100177
 30
0.0
 11
-500.00000000000045
 21
-424.51353604100063
 31
0.0
  0
LINE
  8
0
  6
DASHED2
 62
               4
  5
348
 10
-442.99999999999972
 20
-344.5135360410012
 30
0.0
 11
-442.99999999999972
 21
-409.51353604100063
 31
0.0
  0
LINE
  8
0
  6
DASHED2
 62
               4
  5
349
 10
-499.99999999999932
 20
-409.51353604100063
 30
0.0
 11
-442.99999999999943
 21
-409.51353604100063
 31
0.0
  0
LINE
  8
0
  6
DASHED2
 62
               4
  5
34A
 10
-442.49999999999761
 20
-424.51353604100177
 30
0.0
 11
-499.99999999999932
 21
-424.51353604100063
 31
0.0
  0
LINE
  8
0
  6
DASHED2
 62
               4
  5
34B
 10
-442.49999999999761
 20
-424.51353604100177
 30
0.0
 11
-442.49999999999761
 21
-489.5135360409995
 31
0.0
  0
LINE
  8
0
  6
DASHED2
 62
               4
  5
34C
 10
-511.7600000000001
 20
-409.51353604100063
 30
0.0
 11
-511.7600000000001
 21
-400.98740754169341
 31
0.0
  0
LINE
  8
0
  6
DASHED2
 62
               4
  5
34D
 10
-505.87102725426564
 20
-400.98740754169341
 30
0.0
 11
-505.87102725426564
 21
-409.51353604100063
 31
0.0
  0
LINE
  8
0
  6
DASHED2
 62
               4
  5
34E
 10
-508.81551362713276
 20
-399.9135360410005
 30
0.0
 11
-491.18448637286679
 21
-399.9135360410005
 31
0.0
  0
LINE
  8
0
  6
DASHED2
 62
               4
  5
34F
 10
-488.23999999999978
 20
-409.51353604100063
 30
0.0
 11
-488.23999999999978
 21
-400.98740754169341
 31
0.0
  0
LINE
  8
0
  6
DASHED2
 62
               4
  5
350
 10
-494.12897274573447
 20
-409.51353604100063
 30
0.0
 11
-494.12897274573447
 21
-400.98740754169341
 31
0.0
  0
ARC
  8
0
  6
DASHED2
 62
               4
  5
351
 10
-508.81551362713276
 20
-404.48726762511649
 30
0.0
 40
4.5737315841157447
 50
49.925579661612304
 51
130.07442033835341
  0
ARC
  8
0
  6
DASHED2
 62
               4
  5
352
 10
-491.18448637286679
 20
-404.48726762511649
 30
0.0
 40
4.5737315841157686
 50
49.925579661612304
 51
130.07442033835341
  0
ARC
  8
0
  6
DASHED2
 62
               4
  5
353
 10
-499.99999999999989
 20
-416.49939431052098
 30
0.0
 40
16.58585826952007
 50
69.269184858547646
 51
110.73081514141818
  0
LINE
  8
0
  6
DASHED2
 62
               4
  5
354
 10
-511.76000000000147
 20
-411.51353604100098
 30
0.0
 11
-511.76000000000147
 21
-420.03966454030819
 31
0.0
  0
LINE
  8
0
  6
DASHED2
 62
               4
  5
355
 10
-505.87102725426712
 20
-420.03966454030819
 30
0.0
 11
-505.87102725426712
 21
-411.51353604100098
 31
0.0
  0
LINE
  8
0
  6
DASHED2
 62
               4
  5
356
 10
-508.81551362713412
 20
-421.11353604100077
 30
0.0
 11
-491.18448637286849
 21
-421.11353604100077
 31
0.0
  0
LINE
  8
0
  6
DASHED2
 62
               4
  5
357
 10
-488.24000000000115
 20
-411.51353604100098
 30
0.0
 11
-488.24000000000115
 21
-420.03966454030819
 31
0.0
  0
LINE
  8
0
  6
DASHED2
 62
               4
  5
358
 10
-494.12897274573561
 20
-411.51353604100098
 30
0.0
 11
-494.12897274573561
 21
-420.03966454030819
 31
0.0
  0
ARC
  8
0
  6
DASHED2
 62
               4
  5
359
 10
-508.81551362713412
 20
-416.53980445688535
 30
0.0
 40
4.5737315841157447
 50
229.92557966157796
 51
310.07442033831961
  0
ARC
  8
0
  6
DASHED2
 62
               4
  5
35A
 10
-491.18448637286849
 20
-416.53980445688535
 30
0.0
 40
4.5737315841157686
 50
229.92557966157852
 51
310.07442033831961
  0
ARC
  8
0
  6
DASHED2
 62
               4
  5
35B
 10
-500.00000000000136
 20
-404.52767777148085
 30
0.0
 40
16.58585826952007
 50
249.26918485851303
 51
290.73081514138352
  0
LINE
  8
0
  6
DASHED2
 62
               4
  5
35C
 10
-505.99999999999989
 20
-421.11353604100077
 30
0.0
 11
-505.99999999999989
 21
-431.63290228332539
 31
0.0
  0
LINE
  8
0
  6
DASHED2
 62
               4
  5
35D
 10
-494.0
 20
-421.11353604100077
 30
0.0
 11
-494.0
 21
-431.63290228332539
 31
0.0
  0
LINE
  8
0
  6
DASHED2
 62
               4
  5
35E
 10
-504.80000000000007
 20
-432.83290228332578
 30
0.0
 11
-495.20000000000005
 21
-432.83290228332578
 31
0.0
  0
LINE
  8
0
  6
DASHED2
 62
               4
  5
35F
 10
-505.99999999999989
 20
-431.63290228332539
 30
0.0
 11
-504.80000000000007
 21
-432.83290228332578
 31
0.0
  0
LINE
  8
0
  6
DASHED2
 62
               4
  5
360
 10
-494.0
 20
-431.63290228332539
 30
0.0
 11
-495.20000000000005
 21
-432.83290228332578
 31
0.0
  0
LINE
  8
0
  6
DASHED2
 62
               4
  5
361
 10
-511.7600000000001
 20
-409.51353604100063
 30
0.0
 11
-488.23999999999978
 21
-409.51353604100063
 31
0.0
  0
LINE
  8
0
  6
DASHED2
 62
               4
  5
362
 10
-488.24000000000115
 20
-411.51353604100098
 30
0.0
 11
-511.76000000000147
 21
-411.51353604100098
 31
0.0
  0
LINE
  8
0
  6
DASHED2
 62
               4
  5
363
 10
-505.99999999999989
 20
-294.44995656507183
 30
0.0
 11
-505.99999999999989
 21
-399.9135360410005
 31
0.0
  0
LINE
  8
0
  6
DASHED2
 62
               4
  5
364
 10
-494.0
 20
-294.44995656507183
 30
0.0
 11
-494.0
 21
-399.9135360410005
 31
0.0
  0
LINE
  8
0
  6
DASHED2
 62
               4
  5
365
 10
-494.0
 20
-294.44995656507183
 30
0.0
 11
-505.99999999999989
 21
-294.44995656507183
 31
0.0
  0
LINE
  8
0
  6
DASHED2
 62
               4
  5
366
 10
-56.999999999999034
 20
-344.51353604100018
 30
0.0
 11
-56.999999999999034
 21
-409.51353604100063
 31
0.0
  0
LINE
  8
0
  6
DASHED2
 62
               4
  5
367
 10
-57.500000000002416
 20
-424.51353604100177
 30
0.0
 11
-57.500000000002416
 21
-489.5135360409995
 31
0.0
  0
LINE
  8
0
  6
DASHED2
 62
               4
  5
368
 10
0.0000000000005684
 20
-409.51353604100063
 30
0.0
 11
-56.999999999999602
 21
-409.51353604100063
 31
0.0
  0
LINE
  8
0
  6
DASHED2
 62
               4
  5
369
 10
-57.500000000002416
 20
-424.51353604100177
 30
0.0
 11
-0.0000000000005684
 21
-424.51353604100063
 31
0.0
  0
LINE
  8
0
  6
DASHED2
 62
               4
  5
36A
 10
57.000000000000171
 20
-344.5135360410012
 30
0.0
 11
57.000000000000171
 21
-409.51353604100063
 31
0.0
  0
LINE
  8
0
  6
DASHED2
 62
               4
  5
36B
 10
0.0000000000005684
 20
-409.51353604100063
 30
0.0
 11
57.000000000000455
 21
-409.51353604100063
 31
0.0
  0
LINE
  8
0
  6
DASHED2
 62
               4
  5
36C
 10
57.500000000002274
 20
-424.51353604100177
 30
0.0
 11
0.0000000000005684
 21
-424.51353604100063
 31
0.0
  0
LINE
  8
0
  6
DASHED2
 62
               4
  5
36D
 10
57.500000000002274
 20
-424.51353604100177
 30
0.0
 11
57.500000000002274
 21
-489.5135360409995
 31
0.0
  0
LINE
  8
0
  6
DASHED2
 62
               4
  5
36E
 10
-136.76000000000016
 20
-409.51353604100018
 30
0.0
 11
-136.76000000000016
 21
-400.98740754169296
 31
0.0
  0
LINE
  8
0
  6
DASHED2
 62
               4
  5
36F
 10
-130.87102725426575
 20
-400.98740754169296
 30
0.0
 11
-130.87102725426575
 21
-409.51353604100018
 31
0.0
  0
LINE
  8
0
  6
DASHED2
 62
               4
  5
370
 10
-133.81551362713282
 20
-399.91353604100004
 30
0.0
 11
-116.1844863728669
 21
-399.91353604100004
 31
0.0
  0
LINE
  8
0
  6
DASHED2
 62
               4
  5
371
 10
-113.23999999999984
 20
-409.51353604100018
 30
0.0
 11
-113.23999999999984
 21
-400.98740754169296
 31
0.0
  0
LINE
  8
0
  6
DASHED2
 62
               4
  5
372
 10
-119.12897274573453
 20
-409.51353604100018
 30
0.0
 11
-119.12897274573453
 21
-400.98740754169296
 31
0.0
  0
ARC
  8
0
  6
DASHED2
 62
               4
  5
373
 10
-133.81551362713282
 20
-404.48726762511603
 30
0.0
 40
4.5737315841157447
 50
49.925579661612304
 51
130.07442033835341
  0
ARC
  8
0
  6
DASHED2
 62
               4
  5
374
 10
-116.1844863728669
 20
-404.48726762511603
 30
0.0
 40
4.5737315841157686
 50
49.925579661612304
 51
130.07442033835341
  0
ARC
  8
0
  6
DASHED2
 62
               4
  5
375
 10
-125.0
 20
-416.49939431052053
 30
0.0
 40
16.58585826952007
 50
69.269184858547646
 51
110.73081514141818
  0
LINE
  8
0
  6
DASHED2
 62
               4
  5
376
 10
-136.76000000000158
 20
-411.51353604100052
 30
0.0
 11
-136.76000000000158
 21
-420.03966454030774
 31
0.0
  0
LINE
  8
0
  6
DASHED2
 62
               4
  5
377
 10
-130.87102725426718
 20
-420.03966454030774
 30
0.0
 11
-130.87102725426718
 21
-411.51353604100052
 31
0.0
  0
LINE
  8
0
  6
DASHED2
 62
               4
  5
378
 10
-133.81551362713424
 20
-421.11353604100032
 30
0.0
 11
-116.18448637286861
 21
-421.11353604100032
 31
0.0
  0
LINE
  8
0
  6
DASHED2
 62
               4
  5
379
 10
-113.24000000000126
 20
-411.51353604100052
 30
0.0
 11
-113.24000000000126
 21
-420.03966454030774
 31
0.0
  0
LINE
  8
0
  6
DASHED2
 62
               4
  5
37A
 10
-119.12897274573567
 20
-411.51353604100052
 30
0.0
 11
-119.12897274573567
 21
-420.03966454030774
 31
0.0
  0
ARC
  8
0
  6
DASHED2
 62
               4
  5
37B
 10
-133.81551362713424
 20
-416.53980445688489
 30
0.0
 40
4.5737315841157447
 50
229.92557966157796
 51
310.07442033831961
  0
ARC
  8
0
  6
DASHED2
 62
               4
  5
37C
 10
-116.18448637286861
 20
-416.53980445688489
 30
0.0
 40
4.5737315841157686
 50
229.92557966157852
 51
310.07442033831961
  0
ARC
  8
0
  6
DASHED2
 62
               4
  5
37D
 10
-125.00000000000142
 20
-404.5276777714804
 30
0.0
 40
16.58585826952007
 50
249.26918485851303
 51
290.73081514138352
  0
LINE
  8
0
  6
DASHED2
 62
               4
  5
37E
 10
-130.99999999999994
 20
-421.11353604100032
 30
0.0
 11
-130.99999999999994
 21
-431.63290228332494
 31
0.0
  0
LINE
  8
0
  6
DASHED2
 62
               4
  5
37F
 10
-119.00000000000006
 20
-421.11353604100032
 30
0.0
 11
-119.00000000000006
 21
-431.63290228332494
 31
0.0
  0
LINE
  8
0
  6
DASHED2
 62
               4
  5
380
 10
-129.80000000000018
 20
-432.83290228332532
 30
0.0
 11
-120.2000000000001
 21
-432.83290228332532
 31
0.0
  0
LINE
  8
0
  6
DASHED2
 62
               4
  5
381
 10
-130.99999999999994
 20
-431.63290228332494
 30
0.0
 11
-129.80000000000018
 21
-432.83290228332532
 31
0.0
  0
LINE
  8
0
  6
DASHED2
 62
               4
  5
382
 10
-119.00000000000006
 20
-431.63290228332494
 30
0.0
 11
-120.2000000000001
 21
-432.83290228332532
 31
0.0
  0
LINE
  8
0
  6
DASHED2
 62
               4
  5
383
 10
-136.76000000000016
 20
-409.51353604100018
 30
0.0
 11
-113.23999999999984
 21
-409.51353604100018
 31
0.0
  0
LINE
  8
0
  6
DASHED2
 62
               4
  5
384
 10
-113.24000000000126
 20
-411.51353604100052
 30
0.0
 11
-136.76000000000158
 21
-411.51353604100052
 31
0.0
  0
LINE
  8
0
  6
DASHED2
 62
               4
  5
385
 10
-130.99999999999994
 20
-294.44995656507137
 30
0.0
 11
-130.99999999999994
 21
-399.91353604100004
 31
0.0
  0
LINE
  8
0
  6
DASHED2
 62
               4
  5
386
 10
-119.00000000000006
 20
-294.44995656507137
 30
0.0
 11
-119.00000000000006
 21
-399.91353604100004
 31
0.0
  0
LINE
  8
0
  6
DASHED2
 62
               4
  5
387
 10
-119.00000000000006
 20
-294.44995656507137
 30
0.0
 11
-130.99999999999994
 21
-294.44995656507137
 31
0.0
  0
LINE
  8
0
  6
DASHED2
 62
               4
  5
388
 10
136.76000000000016
 20
-409.51353604100018
 30
0.0
 11
136.76000000000016
 21
-400.98740754169296
 31
0.0
  0
LINE
  8
0
  6
DASHED2
 62
               4
  5
389
 10
130.87102725426575
 20
-400.98740754169296
 30
0.0
 11
130.87102725426575
 21
-409.51353604100018
 31
0.0
  0
LINE
  8
0
  6
DASHED2
 62
               4
  5
38A
 10
133.81551362713282
 20
-399.91353604100004
 30
0.0
 11
116.18448637286689
 21
-399.91353604100004
 31
0.0
  0
LINE
  8
0
  6
DASHED2
 62
               4
  5
38B
 10
113.23999999999982
 20
-409.51353604100018
 30
0.0
 11
113.23999999999982
 21
-400.98740754169296
 31
0.0
  0
LINE
  8
0
  6
DASHED2
 62
               4
  5
38C
 10
119.12897274573452
 20
-409.51353604100018
 30
0.0
 11
119.12897274573452
 21
-400.98740754169296
 31
0.0
  0
ARC
  8
0
  6
DASHED2
 62
               4
  5
38D
 10
133.81551362713282
 20
-404.48726762511603
 30
0.0
 40
4.5737315841157447
 50
49.925579661646204
 51
130.07442033838728
  0
ARC
  8
0
  6
DASHED2
 62
               4
  5
38E
 10
116.18448637286689
 20
-404.48726762511603
 30
0.0
 40
4.5737315841157686
 50
49.925579661646204
 51
130.07442033838728
  0
ARC
  8
0
  6
DASHED2
 62
               4
  5
38F
 10
124.99999999999999
 20
-416.49939431052053
 30
0.0
 40
16.58585826952007
 50
69.269184858581426
 51
110.73081514145197
  0
LINE
  8
0
  6
DASHED2
 62
               4
  5
390
 10
136.76000000000158
 20
-411.51353604100052
 30
0.0
 11
136.76000000000158
 21
-420.03966454030774
 31
0.0
  0
LINE
  8
0
  6
DASHED2
 62
               4
  5
391
 10
130.87102725426718
 20
-420.03966454030774
 30
0.0
 11
130.87102725426718
 21
-411.51353604100052
 31
0.0
  0
LINE
  8
0
  6
DASHED2
 62
               4
  5
392
 10
133.81551362713424
 20
-421.11353604100032
 30
0.0
 11
116.18448637286859
 21
-421.11353604100032
 31
0.0
  0
LINE
  8
0
  6
DASHED2
 62
               4
  5
393
 10
113.24000000000125
 20
-411.51353604100052
 30
0.0
 11
113.24000000000125
 21
-420.03966454030774
 31
0.0
  0
LINE
  8
0
  6
DASHED2
 62
               4
  5
394
 10
119.12897274573565
 20
-411.51353604100052
 30
0.0
 11
119.12897274573565
 21
-420.03966454030774
 31
0.0
  0
ARC
  8
0
  6
DASHED2
 62
               4
  5
395
 10
133.81551362713424
 20
-416.53980445688489
 30
0.0
 40
4.5737315841157447
 50
229.92557966167917
 51
310.07442033842085
  0
ARC
  8
0
  6
DASHED2
 62
               4
  5
396
 10
116.18448637286859
 20
-416.53980445688489
 30
0.0
 40
4.5737315841157686
 50
229.92557966167917
 51
310.07442033842028
  0
ARC
  8
0
  6
DASHED2
 62
               4
  5
397
 10
125.00000000000141
 20
-404.5276777714804
 30
0.0
 40
16.58585826952007
 50
249.26918485861526
 51
290.73081514148578
  0
LINE
  8
0
  6
DASHED2
 62
               4
  5
398
 10
130.99999999999994
 20
-421.11353604100032
 30
0.0
 11
130.99999999999994
 21
-431.63290228332494
 31
0.0
  0
LINE
  8
0
  6
DASHED2
 62
               4
  5
399
 10
119.00000000000004
 20
-421.11353604100032
 30
0.0
 11
119.00000000000004
 21
-431.63290228332494
 31
0.0
  0
LINE
  8
0
  6
DASHED2
 62
               4
  5
39A
 10
129.80000000000018
 20
-432.83290228332532
 30
0.0
 11
120.20000000000009
 21
-432.83290228332532
 31
0.0
  0
LINE
  8
0
  6
DASHED2
 62
               4
  5
39B
 10
130.99999999999994
 20
-431.63290228332494
 30
0.0
 11
129.80000000000018
 21
-432.83290228332532
 31
0.0
  0
LINE
  8
0
  6
DASHED2
 62
               4
  5
39C
 10
119.00000000000004
 20
-431.63290228332494
 30
0.0
 11
120.20000000000009
 21
-432.83290228332532
 31
0.0
  0
LINE
  8
0
  6
DASHED2
 62
               4
  5
39D
 10
136.76000000000016
 20
-409.51353604100018
 30
0.0
 11
113.23999999999982
 21
-409.51353604100018
 31
0.0
  0
LINE
  8
0
  6
DASHED2
 62
               4
  5
39E
 10
113.24000000000125
 20
-411.51353604100052
 30
0.0
 11
136.76000000000158
 21
-411.51353604100052
 31
0.0
  0
LINE
  8
0
  6
DASHED2
 62
               4
  5
39F
 10
130.99999999999994
 20
-294.44995656507137
 30
0.0
 11
130.99999999999994
 21
-399.91353604100004
 31
0.0
  0
LINE
  8
0
  6
DASHED2
 62
               4
  5
3A0
 10
119.00000000000004
 20
-294.44995656507137
 30
0.0
 11
119.00000000000004
 21
-399.91353604100004
 31
0.0
  0
LINE
  8
0
  6
DASHED2
 62
               4
  5
3A1
 10
119.00000000000004
 20
-294.44995656507137
 30
0.0
 11
130.99999999999994
 21
-294.44995656507137
 31
0.0
  0
LINE
  8
0
  6
DASHED2
 62
               4
  5
3A2
 10
443.00000000000091
 20
-344.51353604100018
 30
0.0
 11
443.00000000000091
 21
-409.51353604100063
 31
0.0
  0
LINE
  8
0
  6
DASHED2
 62
               4
  5
3A3
 10
442.49999999999756
 20
-424.51353604100177
 30
0.0
 11
442.49999999999756
 21
-489.5135360409995
 31
0.0
  0
LINE
  8
0
  6
DASHED2
 62
               4
  5
3A4
 10
500.00000000000057
 20
-409.51353604100063
 30
0.0
 11
443.00000000000034
 21
-409.51353604100063
 31
0.0
  0
LINE
  8
0
  6
DASHED2
 62
               4
  5
3A5
 10
442.49999999999756
 20
-424.51353604100177
 30
0.0
 11
499.99999999999943
 21
-424.51353604100063
 31
0.0
  0
LINE
  8
0
  6
DASHED2
 62
               4
  5
3A6
 10
557.00000000000011
 20
-344.5135360410012
 30
0.0
 11
557.00000000000011
 21
-409.51353604100063
 31
0.0
  0
LINE
  8
0
  6
DASHED2
 62
               4
  5
3A7
 10
500.00000000000057
 20
-409.51353604100063
 30
0.0
 11
557.00000000000034
 21
-409.51353604100063
 31
0.0
  0
LINE
  8
0
  6
DASHED2
 62
               4
  5
3A8
 10
557.50000000000216
 20
-424.51353604100177
 30
0.0
 11
500.00000000000057
 21
-424.51353604100063
 31
0.0
  0
LINE
  8
0
  6
DASHED2
 62
               4
  5
3A9
 10
557.50000000000216
 20
-424.51353604100177
 30
0.0
 11
557.50000000000216
 21
-489.5135360409995
 31
0.0
  0
LINE
  8
0
  6
DASHED2
 62
               4
  5
3AA
 10
488.23999999999967
 20
-409.51353604100063
 30
0.0
 11
488.23999999999967
 21
-400.98740754169341
 31
0.0
  0
LINE
  8
0
  6
DASHED2
 62
               4
  5
3AB
 10
494.12897274573413
 20
-400.98740754169341
 30
0.0
 11
494.12897274573413
 21
-409.51353604100063
 31
0.0
  0
LINE
  8
0
  6
DASHED2
 62
               4
  5
3AC
 10
491.18448637286713
 20
-399.9135360410005
 30
0.0
 11
508.8155136271331
 21
-399.9135360410005
 31
0.0
  0
LINE
  8
0
  6
DASHED2
 62
               4
  5
3AD
 10
511.7600000000001
 20
-409.51353604100063
 30
0.0
 11
511.7600000000001
 21
-400.98740754169341
 31
0.0
  0
LINE
  8
0
  6
DASHED2
 62
               4
  5
3AE
 10
505.87102725426541
 20
-409.51353604100063
 30
0.0
 11
505.87102725426541
 21
-400.98740754169341
 31
0.0
  0
ARC
  8
0
  6
DASHED2
 62
               4
  5
3AF
 10
491.18448637286713
 20
-404.48726762511649
 30
0.0
 40
4.5737315841157447
 50
49.925579661612304
 51
130.07442033835341
  0
ARC
  8
0
  6
DASHED2
 62
               4
  5
3B0
 10
508.8155136271331
 20
-404.48726762511649
 30
0.0
 40
4.5737315841157686
 50
49.925579661612304
 51
130.07442033835341
  0
ARC
  8
0
  6
DASHED2
 62
               4
  5
3B1
 10
499.99999999999989
 20
-416.49939431052098
 30
0.0
 40
16.58585826952007
 50
69.269184858547646
 51
110.73081514141818
  0
LINE
  8
0
  6
DASHED2
 62
               4
  5
3B2
 10
488.2399999999983
 20
-411.51353604100098
 30
0.0
 11
488.2399999999983
 21
-420.03966454030819
 31
0.0
  0
LINE
  8
0
  6
DASHED2
 62
               4
  5
3B3
 10
494.12897274573277
 20
-420.03966454030819
 30
0.0
 11
494.12897274573277
 21
-411.51353604100098
 31
0.0
  0
LINE
  8
0
  6
DASHED2
 62
               4
  5
3B4
 10
491.18448637286576
 20
-421.11353604100077
 30
0.0
 11
508.81551362713128
 21
-421.11353604100077
 31
0.0
  0
LINE
  8
0
  6
DASHED2
 62
               4
  5
3B5
 10
511.75999999999874
 20
-411.51353604100098
 30
0.0
 11
511.75999999999874
 21
-420.03966454030819
 31
0.0
  0
LINE
  8
0
  6
DASHED2
 62
               4
  5
3B6
 10
505.87102725426428
 20
-411.51353604100098
 30
0.0
 11
505.87102725426428
 21
-420.03966454030819
 31
0.0
  0
ARC
  8
0
  6
DASHED2
 62
               4
  5
3B7
 10
491.18448637286576
 20
-416.53980445688535
 30
0.0
 40
4.5737315841157447
 50
229.92557966157796
 51
310.07442033831961
  0
ARC
  8
0
  6
DASHED2
 62
               4
  5
3B8
 10
508.81551362713128
 20
-416.53980445688535
 30
0.0
 40
4.5737315841157686
 50
229.92557966157852
 51
310.07442033831961
  0
ARC
  8
0
  6
DASHED2
 62
               4
  5
3B9
 10
499.99999999999852
 20
-404.52767777148085
 30
0.0
 40
16.58585826952007
 50
249.26918485851303
 51
290.73081514138352
  0
LINE
  8
0
  6
DASHED2
 62
               4
  5
3BA
 10
493.99999999999989
 20
-421.11353604100077
 30
0.0
 11
493.99999999999989
 21
-431.63290228332539
 31
0.0
  0
LINE
  8
0
  6
DASHED2
 62
               4
  5
3BB
 10
505.99999999999989
 20
-421.11353604100077
 30
0.0
 11
505.99999999999989
 21
-431.63290228332539
 31
0.0
  0
LINE
  8
0
  6
DASHED2
 62
               4
  5
3BC
 10
495.1999999999997
 20
-432.83290228332578
 30
0.0
 11
504.79999999999984
 21
-432.83290228332578
 31
0.0
  0
LINE
  8
0
  6
DASHED2
 62
               4
  5
3BD
 10
493.99999999999989
 20
-431.63290228332539
 30
0.0
 11
495.1999999999997
 21
-432.83290228332578
 31
0.0
  0
LINE
  8
0
  6
DASHED2
 62
               4
  5
3BE
 10
505.99999999999989
 20
-431.63290228332539
 30
0.0
 11
504.79999999999984
 21
-432.83290228332578
 31
0.0
  0
LINE
  8
0
  6
DASHED2
 62
               4
  5
3BF
 10
488.23999999999967
 20
-409.51353604100063
 30
0.0
 11
511.7600000000001
 21
-409.51353604100063
 31
0.0
  0
LINE
  8
0
  6
DASHED2
 62
               4
  5
3C0
 10
511.75999999999874
 20
-411.51353604100098
 30
0.0
 11
488.2399999999983
 21
-411.51353604100098
 31
0.0
  0
LINE
  8
0
  6
DASHED2
 62
               4
  5
3C1
 10
493.99999999999989
 20
-294.44995656507183
 30
0.0
 11
493.99999999999989
 21
-399.9135360410005
 31
0.0
  0
LINE
  8
0
  6
DASHED2
 62
               4
  5
3C2
 10
505.99999999999989
 20
-294.44995656507183
 30
0.0
 11
505.99999999999989
 21
-399.9135360410005
 31
0.0
  0
LINE
  8
0
  6
DASHED2
 62
               4
  5
3C3
 10
505.99999999999989
 20
-294.44995656507183
 30
0.0
 11
493.99999999999989
 21
-294.44995656507183
 31
0.0
  0
LINE
  8
0
  6
DASHED2
 62
               4
  5
3C4
 10
552.28652321630818
 20
-1346.869834302634
 30
0.0
 11
666.28652321630784
 21
-1346.869834302634
 31
0.0
  0
LINE
  8
0
  6
DASHDOT
 62
               4
  5
3C5
 10
-161.99999999999989
 20
109.48646395899937
 30
0.0
 11
-61.999999999999872
 21
109.48646395899937
 31
0.0
  0
LINE
  8
0
  6
DASHDOT
 62
               4
  5
3C6
 10
0.0
 20
305.0
 30
0.0
 11
0.0000000000001655
 21
-629.40664064465045
 31
0.0
  0
LINE
  8
0
  6
DASHDOT
 62
               4
  5
3C7
 10
500.0
 20
295.48646395899937
 30
0.0
 11
500.00000000000011
 21
-629.40664064465045
 31
0.0
  0
LINE
  8
0
  6
DASHDOT
 62
               4
  5
3C8
 10
-431.47477522477578
 20
109.48646395899942
 30
0.0
 11
-568.17557442557506
 21
109.48646395899942
 31
0.0
  0
LINE
  8
0
  6
DASHDOT
 62
               4
  5
3C9
 10
-499.99999999999989
 20
299.38130993056325
 30
0.0
 11
-499.99999999999966
 21
-629.40664064465045
 31
0.0
  0
LINE
  8
0
  6
DASHDOT
 62
               4
  5
3CA
 10
0.0
 20
708.5
 30
0.0
 11
-0.0000000000000782
 21
501.8812114702904
 31
0.0
  0
LINE
  8
0
  6
DASHDOT
 62
               4
  5
3CB
 10
-161.99999999999989
 20
600.0
 30
0.0
 11
108.50000000000023
 21
600.0
 31
0.0
  0
LINE
  8
0
  6
DASHDOT
 62
               4
  5
3CC
 10
-125.0
 20
-288.52343404299529
 30
0.0
 11
-125.0
 21
-452.90179566248571
 31
0.0
  0
LINE
  8
0
  6
DASHDOT
 62
               4
  5
3CD
 10
124.99999999999999
 20
-288.52343404299529
 30
0.0
 11
124.99999999999999
 21
-452.90179566248571
 31
0.0
  0
LINE
  8
0
  6
DASHDOT
 62
               4
  5
3CE
 10
-392.13776905046853
 20
-1095.5548361258407
 30
0.0
 11
-392.13776905046842
 21
-966.55483612584101
 31
0.0
  0
LINE
  8
0
  6
DASHDOT
 62
               4
  5
3CF
 10
-450.13776905046848
 20
-1037.5548361258407
 30
0.0
 11
-334.13776905046853
 21
-1037.5548361258407
 31
0.0
  0
LINE
  8
0
  6
DASHDOT
 62
               4
  5
3D0
 10
-461.94094753457603
 20
-1031.0548361258407
 30
0.0
 11
-327.63776905046853
 21
-1031.0548361258407
 31
0.0
  0
LINE
  8
0
  6
DASHDOT
 62
               4
  5
3D1
 10
-268.23776905046844
 20
-1031.0548361258407
 30
0.0
 11
-169.63776905046856
 21
-1031.0548361258407
 31
0.0
  0
LINE
  8
0
  6
DASHDOT
 62
               4
  5
3D2
 10
-302.63776905046853
 20
-1037.5548361258407
 30
0.0
 11
-228.23776905046859
 21
-1037.5548361258407
 31
0.0
  0
LINE
  8
0
  6
DASHDOT
 62
               4
  5
3D3
 10
-516.03776905046834
 20
-1031.0548361258407
 30
0.0
 11
-614.63776905046848
 21
-1031.0548361258402
 31
0.0
  0
LINE
  8
0
  6
DASHDOT
 62
               4
  5
3D4
 10
-481.63776905046848
 20
-1037.5548361258407
 30
0.0
 11
-556.03776905046834
 21
-1037.5548361258407
 31
0.0
  0
LINE
  8
0
  6
DASHDOT
 62
               4
  5
3D5
 10
-394.08372644623506
 20
-934.0869520568059
 30
0.0
 11
-394.08372644623506
 21
-801.0869520568059
 31
0.0
  0
LINE
  8
0
  6
DASHDOT
 62
               4
  5
3D6
 10
221.63392368588111
 20
-1031.0548361258407
 30
0.0
 11
320.23392368588128
 21
-1031.0548361258407
 31
0.0
  0
LINE
  8
0
  6
DASHDOT
 62
               4
  5
3D7
 10
196.63392368588111
 20
-1045.5548361258407
 30
0.0
 11
261.63392368588114
 21
-1045.5548361258407
 31
0.0
  0
LINE
  8
0
  6
DASHDOT
 62
               4
  5
3D8
 10
70.877907460638127
 20
-1045.5548361258407
 30
0.0
 11
170.87790746063834
 21
-1045.5548361258407
 31
0.0
  0
LINE
  8
0
  6
DASHDOT
 62
               4
  5
3D9
 10
120.87790746063813
 20
-1095.5548361258407
 30
0.0
 11
120.87790746063835
 21
-966.55483612584101
 31
0.0
  0
LINE
  8
0
  6
DASHDOT
 62
               4
  5
3DA
 10
56.377907460638127
 20
-1031.0548361258407
 30
0.0
 11
190.92191724058935
 21
-1031.0548361258407
 31
0.0
  0
LINE
  8
0
  6
DASHDOT
 62
               4
  5
3DB
 10
20.121891235395356
 20
-1031.0548361258407
 30
0.0
 11
-78.47810876460467
 21
-1031.0548361258407
 31
0.0
  0
LINE
  8
0
  6
DASHDOT
 62
               4
  5
3DC
 10
45.121891235395353
 20
-1045.5548361258407
 30
0.0
 11
-19.878108764604644
 21
-1045.5548361258407
 31
0.0
  0
LINE
  8
0
  6
DASHDOT
 62
               4
  5
3DD
 10
120.87790746063835
 20
-944.79881990059823
 30
0.0
 11
120.87790746063835
 21
-821.1988199005981
 31
0.0
  0
LINE
  8
0
  6
DASHDOT
 62
               4
  5
3DE
 10
609.28652321630807
 20
-864.87040055404998
 30
0.0
 11
609.28652321630807
 21
-1135.4171873538762
 31
0.0
  0
LINE
  8
0
  6
DASHDOT
 62
               4
  5
3DF
 10
447.28652321630813
 20
-973.37040055404998
 30
0.0
 11
717.7865232163083
 21
-973.37040055404998
 31
0.0
  0
LINE
  8
0
  6
DASHDOT
 62
               4
  5
3E0
 10
677.81174799153268
 20
-1447.869834302634
 30
0.0
 11
447.55790992287979
 21
-1447.869834302634
 31
0.0
  0
LINE
  8
0
  6
DASHDOT
 62
               4
  5
3E1
 10
609.28652321630807
 20
-1261.869834302634
 30
0.0
 11
609.28652321630807
 21
-1512.869834302634
 31
0.0
  0
LINE
  8
0
  6
DASHDOT
 62
               4
  5
3E2
 10
559.28652321630807
 20
-1462.369834302634
 30
0.0
 11
659.2865232163083
 21
-1462.369834302634
 31
0.0
  0
LINE
  8
0
  6
DASHDOT
 62
               4
  5
3E3
 10
609.28652321630807
 20
-1163.9704005540498
 30
0.0
 11
609.28652321630807
 21
-1040.3704005540494
 31
0.0
  0
LINE
  8
0
  6
DASHDOT
 62
               4
  5
3E4
 10
409.28652321630801
 20
-1454.369834302634
 30
0.0
 11
483.68652321630799
 21
-1454.369834302634
 31
0.0
  0
LINE
  8
0
  6
DASHDOT
 62
               4
  5
3E5
 10
409.28652321630824
 20
-973.37040055404975
 30
0.0
 11
542.2865232163083
 21
-973.37040055404975
 31
0.0
  0
ARC
  8
0
  6
DIVIDE
 62
               4
  5
3E6
 10
-528.49999999999977
 20
-656.44651734516913
 30
0.0
 40
55.0
 50
58.789629707489617
 51
121.21037029250985
  0
ARC
  8
0
  6
DIVIDE
 62
               4
  5
3E7
 10
-528.49999999999977
 20
-562.36676394413166
 30
0.0
 40
55.0
 50
238.78962970748935
 51
301.21037029250937
  0
ARC
  8
0
  6
DIVIDE
 62
               4
  5
3E8
 10
-532.49999999999989
 20
-631.90913808044695
 30
0.0
 40
65.0
 50
59.999999999999723
 51
119.99999999999987
  0
ARC
  8
0
  6
DIVIDE
 62
               4
  5
3E9
 10
-471.49999999999977
 20
-562.36676394413178
 30
0.0
 40
55.0
 50
238.78962970748941
 51
301.21037029250959
  0
ARC
  8
0
  6
DIVIDE
 62
               4
  5
3EA
 10
-467.49999999999989
 20
-519.32583558847
 30
0.0
 40
65.0
 50
239.99999999999966
 51
299.99999999999932
  0
LINE
  8
0
  6
DIVIDE
 62
               4
  5
3EB
 10
-556.99999999999977
 20
-571.70324135927842
 30
0.0
 11
-556.99999999999977
 21
-609.40664064465045
 31
0.0
  0
LINE
  8
0
  6
DIVIDE
 62
               4
  5
3EC
 10
-442.99999999999972
 20
-579.53173230963841
 30
0.0
 11
-442.99999999999972
 21
-609.40664064465045
 31
0.0
  0
ARC
  8
0
  6
DIVIDE
 62
               4
  5
3ED
 10
-532.49999999999989
 20
-519.32583558847011
 30
0.0
 40
65.0
 50
239.99999999999929
 51
247.85677929855132
  0
LINE
  8
0
  6
DIVIDE
 62
               4
  5
3EE
 10
-434.99999999999989
 20
-489.5135360409995
 30
0.0
 11
-434.99999999999989
 21
-575.61748683445853
 31
0.0
  0
LINE
  8
0
  6
DIVIDE
 62
               4
  5
3EF
 10
-564.99999999999989
 20
-489.5135360409995
 30
0.0
 11
-564.99999999999989
 21
-575.61748683445853
 31
0.0
  0
ARC
  8
0
  6
DIVIDE
 62
               4
  5
3F0
 10
-28.499999999999943
 20
-656.44651734516913
 30
0.0
 40
55.0
 50
58.789629707489617
 51
121.21037029250985
  0
ARC
  8
0
  6
DIVIDE
 62
               4
  5
3F1
 10
-28.499999999999943
 20
-562.36676394413166
 30
0.0
 40
55.0
 50
238.78962970748935
 51
301.21037029250937
  0
ARC
  8
0
  6
DIVIDE
 62
               4
  5
3F2
 10
-32.5
 20
-631.90913808044695
 30
0.0
 40
65.0
 50
59.999999999999723
 51
119.99999999999987
  0
ARC
  8
0
  6
DIVIDE
 62
               4
  5
3F3
 10
28.500000000000085
 20
-562.36676394413178
 30
0.0
 40
55.0
 50
238.78962970748941
 51
301.21037029250959
  0
ARC
  8
0
  6
DIVIDE
 62
               4
  5
3F4
 10
32.5
 20
-519.32583558847
 30
0.0
 40
65.0
 50
239.99999999999966
 51
299.99999999999932
  0
LINE
  8
0
  6
DIVIDE
 62
               4
  5
3F5
 10
-56.999999999999886
 20
-571.70324135927842
 30
0.0
 11
-56.999999999999886
 21
-609.40664064465045
 31
0.0
  0
LINE
  8
0
  6
DIVIDE
 62
               4
  5
3F6
 10
57.000000000000171
 20
-579.53173230963841
 30
0.0
 11
57.000000000000171
 21
-609.40664064465045
 31
0.0
  0
ARC
  8
0
  6
DIVIDE
 62
               4
  5
3F7
 10
-32.5
 20
-519.32583558847011
 30
0.0
 40
65.0
 50
239.99999999999929
 51
247.85677929855132
  0
LINE
  8
0
  6
DIVIDE
 62
               4
  5
3F8
 10
64.999999999999986
 20
-489.5135360409995
 30
0.0
 11
64.999999999999986
 21
-575.61748683445853
 31
0.0
  0
LINE
  8
0
  6
DIVIDE
 62
               4
  5
3F9
 10
-65.0
 20
-489.5135360409995
 30
0.0
 11
-65.0
 21
-575.61748683445853
 31
0.0
  0
ARC
  8
0
  6
DIVIDE
 62
               4
  5
3FA
 10
471.5
 20
-656.44651734516913
 30
0.0
 40
55.0
 50
58.789629707489617
 51
121.21037029250985
  0
ARC
  8
0
  6
DIVIDE
 62
               4
  5
3FB
 10
471.5
 20
-562.36676394413166
 30
0.0
 40
55.0
 50
238.78962970748935
 51
301.21037029250937
  0
ARC
  8
0
  6
DIVIDE
 62
               4
  5
3FC
 10
467.49999999999989
 20
-631.90913808044695
 30
0.0
 40
65.0
 50
59.999999999999723
 51
119.99999999999987
  0
ARC
  8
0
  6
DIVIDE
 62
               4
  5
3FD
 10
528.50000000000011
 20
-562.36676394413178
 30
0.0
 40
55.0
 50
238.78962970748941
 51
301.21037029250959
  0
ARC
  8
0
  6
DIVIDE
 62
               4
  5
3FE
 10
532.49999999999989
 20
-519.32583558847
 30
0.0
 40
65.0
 50
239.99999999999966
 51
299.99999999999932
  0
LINE
  8
0
  6
DIVIDE
 62
               4
  5
3FF
 10
443.00000000000006
 20
-571.70324135927842
 30
0.0
 11
443.00000000000006
 21
-609.40664064465045
 31
0.0
  0
LINE
  8
0
  6
DIVIDE
 62
               4
  5
400
 10
557.00000000000011
 20
-579.53173230963841
 30
0.0
 11
557.00000000000011
 21
-609.40664064465045
 31
0.0
  0
ARC
  8
0
  6
DIVIDE
 62
               4
  5
401
 10
467.49999999999989
 20
-519.32583558847011
 30
0.0
 40
65.0
 50
239.99999999999929
 51
247.85677929855132
  0
LINE
  8
0
  6
DIVIDE
 62
               4
  5
402
 10
564.99999999999989
 20
-489.5135360409995
 30
0.0
 11
564.99999999999989
 21
-575.61748683445853
 31
0.0
  0
LINE
  8
0
  6
DIVIDE
 62
               4
  5
403
 10
434.99999999999994
 20
-489.5135360409995
 30
0.0
 11
434.99999999999994
 21
-575.61748683445853
 31
0.0
  0
POINT
  8
0
  6
DASHDOT
 62
               5
  5
404
 10
0.0
 20
-109.51353604100063
 30
0.0
  0
POINT
  8
0
  6
CONTINUOUS
 62
               5
  5
405
 10
-392.13776905046853
 20
-1031.0548361258407
 30
0.0
  0
POINT
  8
0
  6
CONTINUOUS
 62
               5
  5
406
 10
-218.90769754050822
 20
-1032.3456302007298
 30
0.0
  0
POINT
  8
0
  6
CONTINUOUS
 62
               5
  5
407
 10
-565.3678405604287
 20
-1032.3456302007294
 30
0.0
  0
POINT
  8
0
  6
CONTINUOUS
 62
               5
  5
408
 10
-395.37452052112411
 20
-850.35688054684567
 30
0.0
  0
POINT
  8
0
  6
CONTINUOUS
 62
               5
  5
409
 10
493.01659472626835
 20
-1449.1606283775232
 30
0.0
  0
POINT
  8
0
  6
CONTINUOUS
 62
               5
  5
40A
 10
493.01659472626847
 20
-972.07960647916082
 30
0.0
  0
CIRCLE
  8
0
  6
CONTINUOUS
 62
               7
  5
40B
 10
-392.13776905046853
 20
-1037.5548361258407
 30
0.0
 40
38.0
  0
CIRCLE
  8
0
  6
CONTINUOUS
 62
               7
  5
40C
 10
-392.13776905046853
 20
-1037.5548361258407
 30
0.0
 40
33.5
  0
LINE
  8
0
  6
CONTINUOUS
 62
               7
  5
40D
 10
-247.63776905046856
 20
-986.55483612584078
 30
0.0
 11
-247.63776905046856
 21
-1075.5496000051662
 31
0.0
  0
LINE
  8
0
  6
CONTINUOUS
 62
               7
  5
40E
 10
-247.03776905046854
 20
-986.55483612584078
 30
0.0
 11
-247.63776905046856
 21
-986.55483612584078
 31
0.0
  0
LINE
  8
0
  6
CONTINUOUS
 62
               7
  5
40F
 10
-282.63776905046853
 20
-1074.5548361258407
 30
0.0
 11
-282.63776905046853
 21
-1000.5548361258408
 31
0.0
  0
LINE
  8
0
  6
CONTINUOUS
 62
               7
  5
410
 10
-189.63776905046856
 20
-1074.5548361258407
 30
0.0
 11
-189.63776905046856
 21
-987.55483612584078
 31
0.0
  0
LINE
  8
0
  6
CONTINUOUS
 62
               7
  5
411
 10
-247.63776905046856
 20
-986.55483612584078
 30
0.0
 11
-190.63776905046856
 21
-986.55483612584078
 31
0.0
  0
LINE
  8
0
  6
CONTINUOUS
 62
               7
  5
412
 10
-281.63776905046853
 20
-1075.5548361258407
 30
0.0
 11
-190.63776905046856
 21
-1075.5548361258407
 31
0.0
  0
LINE
  8
0
  6
CONTINUOUS
 62
               7
  5
413
 10
-190.63776905046856
 20
-986.55483612584078
 30
0.0
 11
-189.63776905046856
 21
-987.55483612584078
 31
0.0
  0
LINE
  8
0
  6
CONTINUOUS
 62
               7
  5
414
 10
-189.63776905046856
 20
-1074.5548361258407
 30
0.0
 11
-190.63776905046856
 21
-1075.5548361258407
 31
0.0
  0
LINE
  8
0
  6
CONTINUOUS
 62
               7
  5
415
 10
-281.63776905046853
 20
-999.55483612584078
 30
0.0
 11
-247.63776905046856
 21
-999.55483612584078
 31
0.0
  0
CIRCLE
  8
0
  6
CONTINUOUS
 62
               7
  5
416
 10
-392.13776905046853
 20
-1031.0548361258407
 30
0.0
 40
44.5
  0
LINE
  8
0
  6
CONTINUOUS
 62
               7
  5
417
 10
-281.63776905046853
 20
-999.55483612584078
 30
0.0
 11
-282.63776905046853
 21
-1000.5548361258408
 31
0.0
  0
LINE
  8
0
  6
CONTINUOUS
 62
               7
  5
418
 10
-282.63776905046853
 20
-1074.5548361258407
 30
0.0
 11
-281.63776905046853
 21
-1075.5548361258407
 31
0.0
  0
LINE
  8
0
  6
CONTINUOUS
 62
               7
  5
419
 10
-536.63776905046848
 20
-986.55483612584078
 30
0.0
 11
-536.63776905046848
 21
-1075.5496000051662
 31
0.0
  0
LINE
  8
0
  6
CONTINUOUS
 62
               7
  5
41A
 10
-537.23776905046839
 20
-986.55483612584078
 30
0.0
 11
-536.63776905046848
 21
-986.55483612584078
 31
0.0
  0
LINE
  8
0
  6
CONTINUOUS
 62
               7
  5
41B
 10
-501.63776905046848
 20
-1074.5548361258407
 30
0.0
 11
-501.63776905046848
 21
-1000.5548361258408
 31
0.0
  0
LINE
  8
0
  6
CONTINUOUS
 62
               7
  5
41C
 10
-594.63776905046848
 20
-1074.5548361258407
 30
0.0
 11
-594.63776905046848
 21
-987.55483612584078
 31
0.0
  0
LINE
  8
0
  6
CONTINUOUS
 62
               7
  5
41D
 10
-536.63776905046848
 20
-986.55483612584078
 30
0.0
 11
-593.63776905046848
 21
-986.55483612584078
 31
0.0
  0
LINE
  8
0
  6
CONTINUOUS
 62
               7
  5
41E
 10
-502.63776905046848
 20
-1075.5548361258407
 30
0.0
 11
-593.63776905046848
 21
-1075.5548361258407
 31
0.0
  0
LINE
  8
0
  6
CONTINUOUS
 62
               7
  5
41F
 10
-593.63776905046848
 20
-986.55483612584078
 30
0.0
 11
-594.63776905046848
 21
-987.55483612584078
 31
0.0
  0
LINE
  8
0
  6
CONTINUOUS
 62
               7
  5
420
 10
-594.63776905046848
 20
-1074.5548361258407
 30
0.0
 11
-593.63776905046848
 21
-1075.5548361258407
 31
0.0
  0
LINE
  8
0
  6
CONTINUOUS
 62
               7
  5
421
 10
-502.63776905046848
 20
-999.55483612584078
 30
0.0
 11
-536.63776905046848
 21
-999.55483612584078
 31
0.0
  0
LINE
  8
0
  6
CONTINUOUS
 62
               7
  5
422
 10
-502.63776905046848
 20
-999.55483612584078
 30
0.0
 11
-501.63776905046848
 21
-1000.5548361258408
 31
0.0
  0
LINE
  8
0
  6
CONTINUOUS
 62
               7
  5
423
 10
-501.63776905046848
 20
-1074.5548361258407
 30
0.0
 11
-502.63776905046848
 21
-1075.5548361258407
 31
0.0
  0
LINE
  8
0
  6
CONTINUOUS
 62
               7
  5
424
 10
-349.58372644623506
 20
-879.08695205680613
 30
0.0
 11
-438.57849032556055
 21
-879.0869520568059
 31
0.0
  0
LINE
  8
0
  6
CONTINUOUS
 62
               7
  5
425
 10
-349.58372644623506
 20
-878.48695205680599
 30
0.0
 11
-349.58372644623506
 21
-879.08695205680613
 31
0.0
  0
LINE
  8
0
  6
CONTINUOUS
 62
               7
  5
426
 10
-431.083726446235
 20
-914.0869520568059
 30
0.0
 11
-357.08372644623506
 21
-914.08695205680613
 31
0.0
  0
LINE
  8
0
  6
CONTINUOUS
 62
               7
  5
427
 10
-437.583726446235
 20
-821.0869520568059
 30
0.0
 11
-350.58372644623506
 21
-821.08695205680613
 31
0.0
  0
LINE
  8
0
  6
CONTINUOUS
 62
               7
  5
428
 10
-349.58372644623506
 20
-879.08695205680613
 30
0.0
 11
-349.58372644623506
 21
-822.08695205680613
 31
0.0
  0
LINE
  8
0
  6
CONTINUOUS
 62
               7
  5
429
 10
-432.083726446235
 20
-913.0869520568059
 30
0.0
 11
-432.083726446235
 21
-879.0869520568059
 31
0.0
  0
LINE
  8
0
  6
CONTINUOUS
 62
               7
  5
42A
 10
-349.58372644623506
 20
-822.08695205680613
 30
0.0
 11
-350.58372644623506
 21
-821.08695205680613
 31
0.0
  0
LINE
  8
0
  6
CONTINUOUS
 62
               7
  5
42B
 10
-437.583726446235
 20
-821.0869520568059
 30
0.0
 11
-438.583726446235
 21
-822.0869520568059
 31
0.0
  0
LINE
  8
0
  6
CONTINUOUS
 62
               7
  5
42C
 10
-356.08372644623506
 20
-913.08695205680613
 30
0.0
 11
-356.08372644623506
 21
-879.0869520568059
 31
0.0
  0
LINE
  8
0
  6
CONTINUOUS
 62
               7
  5
42D
 10
-356.08372644623506
 20
-913.08695205680613
 30
0.0
 11
-357.08372644623506
 21
-914.08695205680613
 31
0.0
  0
LINE
  8
0
  6
CONTINUOUS
 62
               7
  5
42E
 10
-431.083726446235
 20
-914.0869520568059
 30
0.0
 11
-432.083726446235
 21
-913.0869520568059
 31
0.0
  0
LINE
  8
0
  6
CONTINUOUS
 62
               7
  5
42F
 10
-438.583726446235
 20
-879.0869520568059
 30
0.0
 11
-438.583726446235
 21
-822.0869520568059
 31
0.0
  0
LINE
  8
0
  6
CONTINUOUS
 62
               7
  5
430
 10
216.63392368588111
 20
-1074.5548361258407
 30
0.0
 11
216.63392368588111
 21
-1016.5548361258408
 31
0.0
  0
LINE
  8
0
  6
CONTINUOUS
 62
               7
  5
431
 10
242.23392368588102
 20
-986.55483612584078
 30
0.0
 11
242.23392368588102
 21
-1075.5548361258407
 31
0.0
  0
LINE
  8
0
  6
CONTINUOUS
 62
               7
  5
432
 10
242.83392368588116
 20
-986.55483612584078
 30
0.0
 11
242.23392368588102
 21
-986.55483612584078
 31
0.0
  0
LINE
  8
0
  6
CONTINUOUS
 62
               7
  5
433
 10
300.23392368588128
 20
-1074.5548361258407
 30
0.0
 11
300.23392368588128
 21
-987.55483612584078
 31
0.0
  0
CIRCLE
  8
0
  6
CONTINUOUS
 62
               7
  5
434
 10
120.87790746063813
 20
-1045.5548361258407
 30
0.0
 40
30.0
  0
CIRCLE
  8
0
  6
CONTINUOUS
 62
               7
  5
435
 10
120.87790746063813
 20
-1045.5548361258407
 30
0.0
 40
25.5
  0
CIRCLE
  8
0
  6
CONTINUOUS
 62
               7
  5
436
 10
120.87790746063813
 20
-1031.0548361258407
 30
0.0
 40
44.5
  0
LINE
  8
0
  6
CONTINUOUS
 62
               7
  5
437
 10
242.36837543136144
 20
-986.55483612584078
 30
0.0
 11
299.23392368588128
 21
-986.55483612584078
 31
0.0
  0
LINE
  8
0
  6
CONTINUOUS
 62
               7
  5
438
 10
217.63392368588111
 20
-1075.5548361258407
 30
0.0
 11
299.23392368588128
 21
-1075.5548361258407
 31
0.0
  0
LINE
  8
0
  6
CONTINUOUS
 62
               7
  5
439
 10
217.63392368588111
 20
-1015.5548361258408
 30
0.0
 11
242.23392368588102
 21
-1015.5548361258408
 31
0.0
  0
LINE
  8
0
  6
CONTINUOUS
 62
               7
  5
43A
 10
217.63392368588111
 20
-1015.5548361258408
 30
0.0
 11
216.63392368588111
 21
-1016.5548361258408
 31
0.0
  0
LINE
  8
0
  6
CONTINUOUS
 62
               7
  5
43B
 10
299.23392368588128
 20
-986.55483612584078
 30
0.0
 11
300.23392368588128
 21
-987.55483612584078
 31
0.0
  0
LINE
  8
0
  6
CONTINUOUS
 62
               7
  5
43C
 10
216.63392368588111
 20
-1074.5548361258407
 30
0.0
 11
217.63392368588111
 21
-1075.5548361258407
 31
0.0
  0
LINE
  8
0
  6
CONTINUOUS
 62
               7
  5
43D
 10
300.23392368588128
 20
-1074.5548361258407
 30
0.0
 11
299.23392368588128
 21
-1075.5548361258407
 31
0.0
  0
LINE
  8
0
  6
CONTINUOUS
 62
               7
  5
43E
 10
25.121891235395356
 20
-1074.5548361258407
 30
0.0
 11
25.121891235395356
 21
-1016.5548361258408
 31
0.0
  0
LINE
  8
0
  6
CONTINUOUS
 62
               7
  5
43F
 10
-0.4781087646046665
 20
-986.55483612584078
 30
0.0
 11
-0.4781087646046665
 21
-1075.5548361258407
 31
0.0
  0
LINE
  8
0
  6
CONTINUOUS
 62
               7
  5
440
 10
-1.0781087646046892
 20
-986.55483612584078
 30
0.0
 11
-0.4781087646046665
 21
-986.55483612584078
 31
0.0
  0
LINE
  8
0
  6
CONTINUOUS
 62
               7
  5
441
 10
-58.47810876460467
 20
-1074.5548361258407
 30
0.0
 11
-58.47810876460467
 21
-987.55483612584078
 31
0.0
  0
LINE
  8
0
  6
CONTINUOUS
 62
               7
  5
442
 10
-0.6125605100849718
 20
-986.55483612584078
 30
0.0
 11
-57.47810876460467
 21
-986.55483612584078
 31
0.0
  0
LINE
  8
0
  6
CONTINUOUS
 62
               7
  5
443
 10
24.121891235395356
 20
-1075.5548361258407
 30
0.0
 11
-57.47810876460467
 21
-1075.5548361258407
 31
0.0
  0
LINE
  8
0
  6
CONTINUOUS
 62
               7
  5
444
 10
24.121891235395356
 20
-1015.5548361258408
 30
0.0
 11
-0.4781087646046665
 21
-1015.5548361258408
 31
0.0
  0
LINE
  8
0
  6
CONTINUOUS
 62
               7
  5
445
 10
24.121891235395356
 20
-1015.5548361258408
 30
0.0
 11
25.121891235395356
 21
-1016.5548361258408
 31
0.0
  0
LINE
  8
0
  6
CONTINUOUS
 62
               7
  5
446
 10
-57.47810876460467
 20
-986.55483612584078
 30
0.0
 11
-58.47810876460467
 21
-987.55483612584078
 31
0.0
  0
LINE
  8
0
  6
CONTINUOUS
 62
               7
  5
447
 10
25.121891235395356
 20
-1074.5548361258407
 30
0.0
 11
24.121891235395356
 21
-1075.5548361258407
 31
0.0
  0
LINE
  8
0
  6
CONTINUOUS
 62
               7
  5
448
 10
-58.47810876460467
 20
-1074.5548361258407
 30
0.0
 11
-57.47810876460467
 21
-1075.5548361258407
 31
0.0
  0
LINE
  8
0
  6
CONTINUOUS
 62
               7
  5
449
 10
91.877907460638355
 20
-924.79881990059823
 30
0.0
 11
149.87790746063834
 21
-924.79881990059823
 31
0.0
  0
LINE
  8
0
  6
CONTINUOUS
 62
               7
  5
44A
 10
165.37790746063834
 20
-899.1988199005981
 30
0.0
 11
76.377907460638355
 21
-899.1988199005981
 31
0.0
  0
LINE
  8
0
  6
CONTINUOUS
 62
               7
  5
44B
 10
165.37790746063834
 20
-898.59881990059819
 30
0.0
 11
165.37790746063834
 21
-899.1988199005981
 31
0.0
  0
LINE
  8
0
  6
CONTINUOUS
 62
               7
  5
44C
 10
77.377907460638355
 20
-841.1988199005981
 30
0.0
 11
164.37790746063834
 21
-841.1988199005981
 31
0.0
  0
LINE
  8
0
  6
CONTINUOUS
 62
               7
  5
44D
 10
165.37790746063834
 20
-899.0643681551179
 30
0.0
 11
165.37790746063834
 21
-842.1988199005981
 31
0.0
  0
LINE
  8
0
  6
CONTINUOUS
 62
               7
  5
44E
 10
90.877907460638355
 20
-923.79881990059823
 30
0.0
 11
90.877907460638355
 21
-899.1988199005981
 31
0.0
  0
LINE
  8
0
  6
CONTINUOUS
 62
               7
  5
44F
 10
150.87790746063834
 20
-923.79881990059823
 30
0.0
 11
150.87790746063834
 21
-899.1988199005981
 31
0.0
  0
LINE
  8
0
  6
CONTINUOUS
 62
               7
  5
450
 10
150.87790746063834
 20
-923.79881990059823
 30
0.0
 11
149.87790746063834
 21
-924.79881990059823
 31
0.0
  0
LINE
  8
0
  6
CONTINUOUS
 62
               7
  5
451
 10
165.37790746063834
 20
-842.1988199005981
 30
0.0
 11
164.37790746063834
 21
-841.1988199005981
 31
0.0
  0
LINE
  8
0
  6
CONTINUOUS
 62
               7
  5
452
 10
91.877907460638355
 20
-924.79881990059823
 30
0.0
 11
90.877907460638355
 21
-923.79881990059823
 31
0.0
  0
LINE
  8
0
  6
CONTINUOUS
 62
               7
  5
453
 10
77.377907460638355
 20
-841.1988199005981
 30
0.0
 11
76.377907460638355
 21
-842.1988199005981
 31
0.0
  0
LINE
  8
0
  6
CONTINUOUS
 62
               7
  5
454
 10
76.377907460638355
 20
-899.06436815511768
 30
0.0
 11
76.377907460638355
 21
-842.1988199005981
 31
0.0
  0
CIRCLE
  8
0
  6
CONTINUOUS
 62
               7
  5
455
 10
609.28652321630807
 20
-1462.369834302634
 30
0.0
 40
25.5
  0
CIRCLE
  8
0
  6
CONTINUOUS
 62
               7
  5
456
 10
609.28652321630807
 20
-1447.869834302634
 30
0.0
 40
44.5
  0
CIRCLE
  8
0
  6
CONTINUOUS
 62
               7
  5
457
 10
609.28652321630807
 20
-1462.369834302634
 30
0.0
 40
30.0
  0
LINE
  8
0
  6
CONTINUOUS
 62
               7
  5
458
 10
580.28652321630807
 20
-1143.9704005540498
 30
0.0
 11
638.28652321630807
 21
-1143.9704005540498
 31
0.0
  0
LINE
  8
0
  6
CONTINUOUS
 62
               7
  5
459
 10
653.78652321630807
 20
-1118.3704005540499
 30
0.0
 11
564.78652321630807
 21
-1118.3704005540499
 31
0.0
  0
LINE
  8
0
  6
CONTINUOUS
 62
               7
  5
45A
 10
653.78652321630807
 20
-1117.77040055405
 30
0.0
 11
653.78652321630807
 21
-1118.3704005540499
 31
0.0
  0
LINE
  8
0
  6
CONTINUOUS
 62
               7
  5
45B
 10
565.78652321630807
 20
-1060.3704005540494
 30
0.0
 11
652.78652321630807
 21
-1060.3704005540494
 31
0.0
  0
LINE
  8
0
  6
CONTINUOUS
 62
               7
  5
45C
 10
653.78652321630807
 20
-1118.2359488085694
 30
0.0
 11
653.78652321630807
 21
-1061.3704005540494
 31
0.0
  0
LINE
  8
0
  6
CONTINUOUS
 62
               7
  5
45D
 10
579.28652321630807
 20
-1142.9704005540498
 30
0.0
 11
579.28652321630807
 21
-1118.3704005540499
 31
0.0
  0
LINE
  8
0
  6
CONTINUOUS
 62
               7
  5
45E
 10
639.28652321630807
 20
-1142.9704005540498
 30
0.0
 11
639.28652321630807
 21
-1118.3704005540499
 31
0.0
  0
LINE
  8
0
  6
CONTINUOUS
 62
               7
  5
45F
 10
639.28652321630807
 20
-1142.9704005540498
 30
0.0
 11
638.28652321630807
 21
-1143.9704005540498
 31
0.0
  0
LINE
  8
0
  6
CONTINUOUS
 62
               7
  5
460
 10
653.78652321630807
 20
-1061.3704005540494
 30
0.0
 11
652.78652321630807
 21
-1060.3704005540494
 31
0.0
  0
LINE
  8
0
  6
CONTINUOUS
 62
               7
  5
461
 10
580.28652321630807
 20
-1143.9704005540498
 30
0.0
 11
579.28652321630807
 21
-1142.9704005540498
 31
0.0
  0
LINE
  8
0
  6
CONTINUOUS
 62
               7
  5
462
 10
565.78652321630807
 20
-1060.3704005540494
 30
0.0
 11
564.78652321630807
 21
-1061.3704005540494
 31
0.0
  0
LINE
  8
0
  6
CONTINUOUS
 62
               7
  5
463
 10
564.78652321630807
 20
-1118.2359488085694
 30
0.0
 11
564.78652321630807
 21
-1061.3704005540494
 31
0.0
  0
LINE
  8
0
  6
CONTINUOUS
 62
               7
  5
464
 10
464.28652321630801
 20
-1403.369834302634
 30
0.0
 11
464.28652321630801
 21
-1492.3645981819595
 31
0.0
  0
LINE
  8
0
  6
CONTINUOUS
 62
               7
  5
465
 10
464.88652321630803
 20
-1403.369834302634
 30
0.0
 11
464.28652321630801
 21
-1403.369834302634
 31
0.0
  0
LINE
  8
0
  6
CONTINUOUS
 62
               7
  5
466
 10
429.28652321630801
 20
-1491.369834302634
 30
0.0
 11
429.28652321630801
 21
-1417.369834302634
 31
0.0
  0
LINE
  8
0
  6
CONTINUOUS
 62
               7
  5
467
 10
522.28652321630807
 20
-1491.369834302634
 30
0.0
 11
522.28652321630807
 21
-1404.369834302634
 31
0.0
  0
LINE
  8
0
  6
CONTINUOUS
 62
               7
  5
468
 10
464.28652321630801
 20
-1403.369834302634
 30
0.0
 11
521.28652321630807
 21
-1403.369834302634
 31
0.0
  0
LINE
  8
0
  6
CONTINUOUS
 62
               7
  5
469
 10
430.28652321630801
 20
-1492.369834302634
 30
0.0
 11
521.28652321630807
 21
-1492.369834302634
 31
0.0
  0
LINE
  8
0
  6
CONTINUOUS
 62
               7
  5
46A
 10
521.28652321630807
 20
-1403.369834302634
 30
0.0
 11
522.28652321630807
 21
-1404.369834302634
 31
0.0
  0
LINE
  8
0
  6
CONTINUOUS
 62
               7
  5
46B
 10
522.28652321630807
 20
-1491.369834302634
 30
0.0
 11
521.28652321630807
 21
-1492.369834302634
 31
0.0
  0
LINE
  8
0
  6
CONTINUOUS
 62
               7
  5
46C
 10
430.28652321630801
 20
-1416.369834302634
 30
0.0
 11
464.28652321630801
 21
-1416.369834302634
 31
0.0
  0
LINE
  8
0
  6
CONTINUOUS
 62
               7
  5
46D
 10
430.28652321630801
 20
-1416.369834302634
 30
0.0
 11
429.28652321630801
 21
-1417.369834302634
 31
0.0
  0
LINE
  8
0
  6
CONTINUOUS
 62
               7
  5
46E
 10
429.28652321630801
 20
-1491.369834302634
 30
0.0
 11
430.28652321630801
 21
-1492.369834302634
 31
0.0
  0
LINE
  8
0
  6
CONTINUOUS
 62
               7
  5
46F
 10
464.28652321630801
 20
-1017.8704005540495
 30
0.0
 11
464.28652321630824
 21
-928.87563667472421
 31
0.0
  0
LINE
  8
0
  6
CONTINUOUS
 62
               7
  5
470
 10
464.88652321630815
 20
-1017.8704005540495
 30
0.0
 11
464.28652321630801
 21
-1017.8704005540495
 31
0.0
  0
LINE
  8
0
  6
CONTINUOUS
 62
               7
  5
471
 10
429.28652321630824
 20
-936.37040055404975
 30
0.0
 11
429.28652321630801
 21
-1010.3704005540495
 31
0.0
  0
LINE
  8
0
  6
CONTINUOUS
 62
               7
  5
472
 10
522.2865232163083
 20
-929.87040055404998
 30
0.0
 11
522.28652321630807
 21
-1016.8704005540495
 31
0.0
  0
LINE
  8
0
  6
CONTINUOUS
 62
               7
  5
473
 10
464.28652321630801
 20
-1017.8704005540495
 30
0.0
 11
521.28652321630807
 21
-1017.8704005540495
 31
0.0
  0
LINE
  8
0
  6
CONTINUOUS
 62
               7
  5
474
 10
430.28652321630824
 20
-935.37040055404975
 30
0.0
 11
464.28652321630824
 21
-935.37040055404975
 31
0.0
  0
LINE
  8
0
  6
CONTINUOUS
 62
               7
  5
475
 10
521.28652321630807
 20
-1017.8704005540495
 30
0.0
 11
522.28652321630807
 21
-1016.8704005540495
 31
0.0
  0
LINE
  8
0
  6
CONTINUOUS
 62
               7
  5
476
 10
522.2865232163083
 20
-929.87040055404998
 30
0.0
 11
521.2865232163083
 21
-928.87040055404998
 31
0.0
  0
LINE
  8
0
  6
CONTINUOUS
 62
               7
  5
477
 10
430.28652321630801
 20
-1011.3704005540495
 30
0.0
 11
464.28652321630824
 21
-1011.3704005540495
 31
0.0
  0
LINE
  8
0
  6
CONTINUOUS
 62
               7
  5
478
 10
430.28652321630801
 20
-1011.3704005540495
 30
0.0
 11
429.28652321630801
 21
-1010.3704005540495
 31
0.0
  0
LINE
  8
0
  6
CONTINUOUS
 62
               7
  5
479
 10
429.28652321630824
 20
-936.37040055404975
 30
0.0
 11
430.28652321630824
 21
-935.37040055404975
 31
0.0
  0
LINE
  8
0
  6
CONTINUOUS
 62
               7
  5
47A
 10
464.28652321630824
 20
-928.87040055404975
 30
0.0
 11
521.2865232163083
 21
-928.87040055404975
 31
0.0
  0
CIRCLE
  8
0
  6
DASHED
 62
               7
  5
47B
 10
-392.13776905046853
 20
-1031.0548361258407
 30
0.0
 40
40.0
  0
CIRCLE
  8
0
  6
DASHED
 62
               7
  5
47C
 10
120.87790746063813
 20
-1031.0548361258407
 30
0.0
 40
40.0
  0
CIRCLE
  8
0
  6
DASHED
 62
               7
  5
47D
 10
609.28652321630807
 20
-1447.869834302634
 30
0.0
 40
40.0
  0
TEXT
  8
0
 62
               3
  5
47E
 10
-392.13776905046853
 20
-1115.5548361258407
 30
0.0
 40
40.0
  1
EMB_80×65
 41
0.8
 72
               1
 11
-392.13776905046853
 21
-1115.5548361258407
 31
0.0
 73
               3
  0
TEXT
  8
0
 62
               3
  5
47F
 10
120.87790746063813
 20
-1115.5548361258407
 30
0.0
 40
40.0
  1
EMB_80×50
 41
0.8
 72
               1
 11
120.87790746063813
 21
-1115.5548361258407
 31
0.0
 73
               3
  0
TEXT
  8
0
 62
               3
  5
480
 10
605.58911923866776
 20
-793.92403204883055
 30
0.0
 40
40.0
  1
EMB使用例
 41
0.8
 72
               1
 11
605.58911923866776
 21
-793.92403204883055
 31
0.0
 73
               3
  0
TEXT
  8
0
 62
               3
  5
481
 10
-123.74270409089074
 20
-739.56389614849115
 30
0.0
 40
35.0
  1
横枝管に呼び６５、５０の管を接続するときは、EMBをご使用ください。
 41
0.8
 72
               1
 11
-123.74270409089074
 21
-739.56389614849115
 31
0.0
 73
               3
  0
ENDSEC
  0
EOF
