  0
SECTION
  2
HEADER
  9
$ACADVER
  1
AC1009
  9
$INSBASE
 10
0.0
 20
0.0
 30
0.0
  9
$EXTMIN
 10
-384.27999999999986
 20
-397.93789584186214
 30
0.0
  9
$EXTMAX
 10
384.27999999999986
 20
397.93789584186214
 30
0.0
  9
$LIMMIN
 10
-408.29749999999984
 20
-422.80901433197852
  9
$LIMMAX
 10
408.29749999999984
 20
422.80901433197852
  9
$ORTHOMODE
 70
               0
  9
$REGENMODE
 70
               1
  9
$FILLMODE
 70
               1
  9
$QTEXTMODE
 70
               0
  9
$MIRRTEXT
 70
               1
  9
$DRAGMODE
 70
               2
  9
$LTSCALE
 40
1.0
  9
$OSMODE
 70
               0
  9
$ATTMODE
 70
               1
  9
$TEXTSIZE
 40
0.2
  9
$TRACEWID
 40
0.05
  9
$TEXTSTYLE
  7
STANDARD
  9
$CLAYER
  8
0
  9
$CELTYPE
  6
CONTINUOUS
  9
$CECOLOR
 62
             256
  9
$DIMSCALE
 40
1.0
  9
$DIMASZ
 40
0.18
  9
$DIMEXO
 40
0.0625
  9
$DIMDLI
 40
0.38
  9
$DIMRND
 40
0.0
  9
$DIMDLE
 40
0.0
  9
$DIMEXE
 40
0.18
  9
$DIMTP
 40
0.0
  9
$DIMTM
 40
0.0
  9
$DIMTXT
 40
0.18
  9
$DIMCEN
 40
0.09
  9
$DIMTSZ
 40
0.0
  9
$DIMTOL
 70
               0
  9
$DIMLIM
 70
               0
  9
$DIMTIH
 70
               1
  9
$DIMTOH
 70
               1
  9
$DIMSE1
 70
               0
  9
$DIMSE2
 70
               0
  9
$DIMTAD
 70
               0
  9
$DIMZIN
 70
               0
  9
$DIMBLK
  1

  9
$DIMASO
 70
               1
  9
$DIMSHO
 70
               1
  9
$DIMPOST
  1

  9
$DIMAPOST
  1

  9
$DIMALT
 70
               0
  9
$DIMALTD
 70
               2
  9
$DIMALTF
 40
25.399999999999999
  9
$DIMLFAC
 40
1.0
  9
$DIMTOFL
 70
               0
  9
$DIMTVP
 40
0.0
  9
$DIMTIX
 70
               0
  9
$DIMSOXD
 70
               0
  9
$DIMSAH
 70
               0
  9
$DIMBLK1
  1

  9
$DIMBLK2
  1

  9
$DIMSTYLE
  2
STANDARD
  9
$DIMCLRD
 70
               0
  9
$DIMCLRE
 70
               0
  9
$DIMCLRT
 70
               0
  9
$DIMTFAC
 40
1.0
  9
$DIMGAP
 40
0.09
  9
$LUNITS
 70
               2
  9
$LUPREC
 70
               4
  9
$AXISMODE
 70
               0
  9
$AXISUNIT
 10
0.0
 20
0.0
  9
$SKETCHINC
 40
0.1
  9
$FILLETRAD
 40
0.0
  9
$AUNITS
 70
               0
  9
$AUPREC
 70
               0
  9
$MENU
  1
acad
  9
$ELEVATION
 40
0.0
  9
$PELEVATION
 40
0.0
  9
$THICKNESS
 40
0.0
  9
$LIMCHECK
 70
               0
  9
$BLIPMODE
 70
               1
  9
$CHAMFERA
 40
0.0
  9
$CHAMFERB
 40
0.0
  9
$SKPOLY
 70
               0
  9
$TDCREATE
 40
0.000000000
  9
$TDUPDATE
 40
0.000000000
  9
$TDINDWG
 40
0.0000000000
  9
$TDUSRTIMER
 40
0.0000000000
  9
$USRTIMER
 70
               1
  9
$ANGBASE
 50
0.0
  9
$ANGDIR
 70
               0
  9
$PDMODE
 70
               0
  9
$PDSIZE
 40
1.0
  9
$PLINEWID
 40
0.0
  9
$COORDS
 70
               1
  9
$SPLFRAME
 70
               0
  9
$SPLINETYPE
 70
               6
  9
$SPLINESEGS
 70
               8
  9
$ATTDIA
 70
               0
  9
$ATTREQ
 70
               1
  9
$HANDLING
 70
               1
  9
$HANDSEED
  5
464
  9
$SURFTAB1
 70
               6
  9
$SURFTAB2
 70
               6
  9
$SURFTYPE
 70
               6
  9
$SURFU
 70
               6
  9
$SURFV
 70
               6
  9
$UCSNAME
  2

  9
$UCSORG
 10
0.0
 20
0.0
 30
0.0
  9
$UCSXDIR
 10
1.0
 20
0.0
 30
0.0
  9
$UCSYDIR
 10
0.0
 20
1.0
 30
0.0
  9
$PUCSNAME
  2

  9
$PUCSORG
 10
0.0
 20
0.0
 30
0.0
  9
$PUCSXDIR
 10
1.0
 20
0.0
 30
0.0
  9
$PUCSYDIR
 10
0.0
 20
1.0
 30
0.0
  9
$USERI1
 70
               0
  9
$USERI2
 70
               0
  9
$USERI3
 70
               0
  9
$USERI4
 70
               0
  9
$USERI5
 70
               0
  9
$USERR1
 40
0.0
  9
$USERR2
 40
0.0
  9
$USERR3
 40
0.0
  9
$USERR4
 40
0.0
  9
$USERR5
 40
0.0
  9
$WORLDVIEW
 70
               1
  9
$SHADEDGE
 70
               3
  9
$SHADEDIF
 70
              70
  9
$TILEMODE
 70
               1
  9
$MAXACTVP
 70
              16
  9
$PINSBASE
 10
0.0
 20
0.0
 30
0.0
  9
$PLIMCHECK
 70
               0
  9
$PEXTMIN
 10
1.0000000000000000E+20
 20
1.0000000000000000E+20
 30
1.0000000000000000E+20
  9
$PEXTMAX
 10
-1.0000000000000000E+20
 20
-1.0000000000000000E+20
 30
-1.0000000000000000E+20
  9
$PLIMMIN
 10
0.0
 20
0.0
  9
$PLIMMAX
 10
12.0
 20
9.0
  9
$UNITMODE
 70
               0
  9
$VISRETAIN
 70
               0
  9
$PLINEGEN
 70
               1
  9
$PSLTSCALE
 70
               0
  9
$TREEDEPTH
 70
            3020
  9
$DWGCODEPAGE
  3
dos932
  0
ENDSEC
  0
SECTION
  2
TABLES
  0
TABLE
  2
VPORT
 70
               1
  0
VPORT
  2
*ACTIVE
 70
               0
 10
0.0
 20
0.0
 11
1.0
 21
1.0
 12
0.0
 22
0.0
 13
0.0
 23
0.0
 14
1.0
 24
1.0
 15
0.0
 25
0.0
 16
0.0
 26
0.0
 36
1.0
 17
0.0
 27
0.0
 37
0.0
 40
845.61802866395703
 41
0.9656783232143092
 42
50.0
 43
0.0
 44
0.0
 50
0.0
 51
0.0
 71
               0
 72
             100
 73
               1
 74
               1
 75
               0
 76
               0
 77
               0
 78
               0
  0
ENDTAB
  0
TABLE
  2
LTYPE
 70
              26
  0
LTYPE
  2
CONTINUOUS
 70
               0
  3
Solid line
 72
              65
 73
               0
 40
0.0
  0
LTYPE
  2
HIDDENX2
 70
               0
  3
CADPAC FUSION LINETYPE
 72
              65
 73
               2
 40
47.560000000000002
 49
35.670000000000002
 49
-11.890000000000001
  0
LTYPE
  2
HIDDEN
 70
               0
  3
CADPAC FUSION LINETYPE
 72
              65
 73
               2
 40
35.670000000000002
 49
23.780000000000001
 49
-11.890000000000001
  0
LTYPE
  2
HIDDEN2
 70
               0
  3
CADPAC FUSION LINETYPE
 72
              65
 73
               2
 40
29.725000000000001
 49
17.835000000000001
 49
-11.890000000000001
  0
LTYPE
  2
DASHED
 70
               0
  3
CADPAC FUSION LINETYPE
 72
              65
 73
               2
 40
35.670000000000002
 49
23.780000000000001
 49
-11.890000000000001
  0
LTYPE
  2
DASHED2
 70
               0
  3
CADPAC FUSION LINETYPE
 72
              65
 73
               2
 40
26.752500000000001
 49
17.835000000000001
 49
-8.9175000000000004
  0
LTYPE
  2
DASHEDX2
 70
               0
  3
CADPAC FUSION LINETYPE
 72
              65
 73
               2
 40
53.505000000000003
 49
35.670000000000002
 49
-17.835000000000001
  0
LTYPE
  2
DOTX2
 70
               0
  3
CADPAC FUSION LINETYPE
 72
              65
 73
               2
 40
14.862500000000001
 49
0.0
 49
-14.862500000000001
  0
LTYPE
  2
DOT
 70
               0
  3
CADPAC FUSION LINETYPE
 72
              65
 73
               2
 40
11.890000000000001
 49
0.0
 49
-11.890000000000001
  0
LTYPE
  2
DOTS
 70
               0
  3
CADPAC FUSION LINETYPE
 72
              65
 73
               2
 40
11.890000000000001
 49
0.0
 49
-11.890000000000001
  0
LTYPE
  2
DOT2
 70
               0
  3
CADPAC FUSION LINETYPE
 72
              65
 73
               2
 40
8.9175000000000004
 49
0.0
 49
-8.9175000000000004
  0
LTYPE
  2
CENTERX2
 70
               0
  3
CADPAC FUSION LINETYPE
 72
              65
 73
               4
 40
71.340000000000003
 49
29.725000000000001
 49
-14.862500000000001
 49
11.890000000000001
 49
-14.862500000000001
  0
LTYPE
  2
CENTER
 70
               0
  3
CADPAC FUSION LINETYPE
 72
              65
 73
               4
 40
54.694000000000003
 49
23.780000000000001
 49
-11.890000000000001
 49
7.1340000000000003
 49
-11.890000000000001
  0
LTYPE
  2
CENTER2
 70
               0
  3
CADPAC FUSION LINETYPE
 72
              65
 73
               4
 40
38.048000000000002
 49
17.835000000000001
 49
-8.9175000000000004
 49
2.3780000000000001
 49
-8.9175000000000004
  0
LTYPE
  2
DASHDOTX2
 70
               0
  3
CADPAC FUSION LINETYPE
 72
              65
 73
               4
 40
59.450000000000003
 49
29.725000000000001
 49
-14.862500000000001
 49
0.0
 49
-14.862500000000001
  0
LTYPE
  2
DASHDOT
 70
               0
  3
CADPAC FUSION LINETYPE
 72
              65
 73
               4
 40
47.560000000000002
 49
23.780000000000001
 49
-11.890000000000001
 49
0.0
 49
-11.890000000000001
  0
LTYPE
  2
DASHDOT2
 70
               0
  3
CADPAC FUSION LINETYPE
 72
              65
 73
               4
 40
35.670000000000002
 49
17.835000000000001
 49
-8.9175000000000004
 49
0.0
 49
-8.9175000000000004
  0
LTYPE
  2
DIVIDEX2
 70
               0
  3
CADPAC FUSION LINETYPE
 72
              65
 73
               6
 40
74.3125
 49
29.725000000000001
 49
-14.862500000000001
 49
0.0
 49
-14.862500000000001
 49
0.0
 49
-14.862500000000001
  0
LTYPE
  2
DIVIDE
 70
               0
  3
CADPAC FUSION LINETYPE
 72
              65
 73
               6
 40
59.450000000000003
 49
23.780000000000001
 49
-11.890000000000001
 49
0.0
 49
-11.890000000000001
 49
0.0
 49
-11.890000000000001
  0
LTYPE
  2
DIVIDE2
 70
               0
  3
CADPAC FUSION LINETYPE
 72
              65
 73
               6
 40
44.587500000000006
 49
17.835000000000001
 49
-8.9175000000000004
 49
0.0
 49
-8.9175000000000004
 49
0.0
 49
-8.9175000000000004
  0
LTYPE
  2
BORDERX2
 70
               0
  3
CADPAC FUSION LINETYPE
 72
              65
 73
               6
 40
104.03750000000001
 49
29.725000000000001
 49
-14.862500000000001
 49
29.725000000000001
 49
-14.862500000000001
 49
0.0
 49
-14.862500000000001
  0
LTYPE
  2
BORDER
 70
               0
  3
CADPAC FUSION LINETYPE
 72
              65
 73
               6
 40
83.230000000000004
 49
23.780000000000001
 49
-11.890000000000001
 49
23.780000000000001
 49
-11.890000000000001
 49
0.0
 49
-11.890000000000001
  0
LTYPE
  2
BORDER2
 70
               0
  3
CADPAC FUSION LINETYPE
 72
              65
 73
               6
 40
62.422499999999999
 49
17.835000000000001
 49
-8.9175000000000004
 49
17.835000000000001
 49
-8.9175000000000004
 49
0.0
 49
-8.9175000000000004
  0
LTYPE
  2
PHANTOMX2
 70
               0
  3
CADPAC FUSION LINETYPE
 72
              65
 73
               6
 40
89.175000000000011
 49
29.725000000000001
 49
-11.890000000000001
 49
11.890000000000001
 49
-11.890000000000001
 49
11.890000000000001
 49
-11.890000000000001
  0
LTYPE
  2
PHANTOM
 70
               0
  3
CADPAC FUSION LINETYPE
 72
              65
 73
               6
 40
73.718000000000004
 49
23.780000000000001
 49
-11.890000000000001
 49
7.1340000000000003
 49
-11.890000000000001
 49
7.1340000000000003
 49
-11.890000000000001
  0
LTYPE
  2
PHANTOM2
 70
               0
  3
CADPAC FUSION LINETYPE
 72
              65
 73
               6
 40
63.017000000000003
 49
17.835000000000001
 49
-11.890000000000001
 49
4.7560000000000002
 49
-11.890000000000001
 49
4.7560000000000002
 49
-11.890000000000001
  0
ENDTAB
  0
TABLE
  2
LAYER
 70
             256
  0
LAYER
  2
0
 70
               0
 62
               7
  6
CONTINUOUS
  0
LAYER
  2
LAYER001
 70
               0
 62
               7
  6
CONTINUOUS
  0
LAYER
  2
LAYER002
 70
               0
 62
               7
  6
CONTINUOUS
  0
LAYER
  2
LAYER003
 70
               0
 62
               7
  6
CONTINUOUS
  0
LAYER
  2
LAYER004
 70
               0
 62
               7
  6
CONTINUOUS
  0
LAYER
  2
LAYER005
 70
               0
 62
               7
  6
CONTINUOUS
  0
LAYER
  2
LAYER006
 70
               0
 62
               7
  6
CONTINUOUS
  0
LAYER
  2
LAYER007
 70
               0
 62
               7
  6
CONTINUOUS
  0
LAYER
  2
LAYER008
 70
               0
 62
               7
  6
CONTINUOUS
  0
LAYER
  2
LAYER009
 70
               0
 62
               7
  6
CONTINUOUS
  0
LAYER
  2
LAYER010
 70
               0
 62
               7
  6
CONTINUOUS
  0
LAYER
  2
LAYER011
 70
               0
 62
               7
  6
CONTINUOUS
  0
LAYER
  2
LAYER012
 70
               0
 62
               7
  6
CONTINUOUS
  0
LAYER
  2
LAYER013
 70
               0
 62
               7
  6
CONTINUOUS
  0
LAYER
  2
LAYER014
 70
               0
 62
               7
  6
CONTINUOUS
  0
LAYER
  2
LAYER015
 70
               0
 62
               7
  6
CONTINUOUS
  0
LAYER
  2
LAYER016
 70
               0
 62
               7
  6
CONTINUOUS
  0
LAYER
  2
LAYER017
 70
               0
 62
               7
  6
CONTINUOUS
  0
LAYER
  2
LAYER018
 70
               0
 62
               7
  6
CONTINUOUS
  0
LAYER
  2
LAYER019
 70
               0
 62
               7
  6
CONTINUOUS
  0
LAYER
  2
LAYER020
 70
               0
 62
               7
  6
CONTINUOUS
  0
LAYER
  2
LAYER021
 70
               0
 62
               7
  6
CONTINUOUS
  0
LAYER
  2
LAYER022
 70
               0
 62
               7
  6
CONTINUOUS
  0
LAYER
  2
LAYER023
 70
               0
 62
               7
  6
CONTINUOUS
  0
LAYER
  2
LAYER024
 70
               0
 62
               7
  6
CONTINUOUS
  0
LAYER
  2
LAYER025
 70
               0
 62
               7
  6
CONTINUOUS
  0
LAYER
  2
LAYER026
 70
               0
 62
               7
  6
CONTINUOUS
  0
LAYER
  2
LAYER027
 70
               0
 62
               7
  6
CONTINUOUS
  0
LAYER
  2
LAYER028
 70
               0
 62
               7
  6
CONTINUOUS
  0
LAYER
  2
LAYER029
 70
               0
 62
               7
  6
CONTINUOUS
  0
LAYER
  2
LAYER030
 70
               0
 62
               7
  6
CONTINUOUS
  0
LAYER
  2
LAYER031
 70
               0
 62
               7
  6
CONTINUOUS
  0
LAYER
  2
LAYER032
 70
               0
 62
               7
  6
CONTINUOUS
  0
LAYER
  2
LAYER033
 70
               0
 62
               7
  6
CONTINUOUS
  0
LAYER
  2
LAYER034
 70
               0
 62
               7
  6
CONTINUOUS
  0
LAYER
  2
LAYER035
 70
               0
 62
               7
  6
CONTINUOUS
  0
LAYER
  2
LAYER036
 70
               0
 62
               7
  6
CONTINUOUS
  0
LAYER
  2
LAYER037
 70
               0
 62
               7
  6
CONTINUOUS
  0
LAYER
  2
LAYER038
 70
               0
 62
               7
  6
CONTINUOUS
  0
LAYER
  2
LAYER039
 70
               0
 62
               7
  6
CONTINUOUS
  0
LAYER
  2
LAYER040
 70
               0
 62
               7
  6
CONTINUOUS
  0
LAYER
  2
LAYER041
 70
               0
 62
               7
  6
CONTINUOUS
  0
LAYER
  2
LAYER042
 70
               0
 62
               7
  6
CONTINUOUS
  0
LAYER
  2
LAYER043
 70
               0
 62
               7
  6
CONTINUOUS
  0
LAYER
  2
LAYER044
 70
               0
 62
               7
  6
CONTINUOUS
  0
LAYER
  2
LAYER045
 70
               0
 62
               7
  6
CONTINUOUS
  0
LAYER
  2
LAYER046
 70
               0
 62
               7
  6
CONTINUOUS
  0
LAYER
  2
LAYER047
 70
               0
 62
               7
  6
CONTINUOUS
  0
LAYER
  2
LAYER048
 70
               0
 62
               7
  6
CONTINUOUS
  0
LAYER
  2
LAYER049
 70
               0
 62
               7
  6
CONTINUOUS
  0
LAYER
  2
LAYER050
 70
               0
 62
               7
  6
CONTINUOUS
  0
LAYER
  2
LAYER051
 70
               0
 62
               7
  6
CONTINUOUS
  0
LAYER
  2
LAYER052
 70
               0
 62
               7
  6
CONTINUOUS
  0
LAYER
  2
LAYER053
 70
               0
 62
               7
  6
CONTINUOUS
  0
LAYER
  2
LAYER054
 70
               0
 62
               7
  6
CONTINUOUS
  0
LAYER
  2
LAYER055
 70
               0
 62
               7
  6
CONTINUOUS
  0
LAYER
  2
LAYER056
 70
               0
 62
               7
  6
CONTINUOUS
  0
LAYER
  2
LAYER057
 70
               0
 62
               7
  6
CONTINUOUS
  0
LAYER
  2
LAYER058
 70
               0
 62
               7
  6
CONTINUOUS
  0
LAYER
  2
LAYER059
 70
               0
 62
               7
  6
CONTINUOUS
  0
LAYER
  2
LAYER060
 70
               0
 62
               7
  6
CONTINUOUS
  0
LAYER
  2
LAYER061
 70
               0
 62
               7
  6
CONTINUOUS
  0
LAYER
  2
LAYER062
 70
               0
 62
               7
  6
CONTINUOUS
  0
LAYER
  2
LAYER063
 70
               0
 62
               7
  6
CONTINUOUS
  0
LAYER
  2
LAYER064
 70
               0
 62
               7
  6
CONTINUOUS
  0
LAYER
  2
LAYER065
 70
               0
 62
               7
  6
CONTINUOUS
  0
LAYER
  2
LAYER066
 70
               0
 62
               7
  6
CONTINUOUS
  0
LAYER
  2
LAYER067
 70
               0
 62
               7
  6
CONTINUOUS
  0
LAYER
  2
LAYER068
 70
               0
 62
               7
  6
CONTINUOUS
  0
LAYER
  2
LAYER069
 70
               0
 62
               7
  6
CONTINUOUS
  0
LAYER
  2
LAYER070
 70
               0
 62
               7
  6
CONTINUOUS
  0
LAYER
  2
LAYER071
 70
               0
 62
               7
  6
CONTINUOUS
  0
LAYER
  2
LAYER072
 70
               0
 62
               7
  6
CONTINUOUS
  0
LAYER
  2
LAYER073
 70
               0
 62
               7
  6
CONTINUOUS
  0
LAYER
  2
LAYER074
 70
               0
 62
               7
  6
CONTINUOUS
  0
LAYER
  2
LAYER075
 70
               0
 62
               7
  6
CONTINUOUS
  0
LAYER
  2
LAYER076
 70
               0
 62
               7
  6
CONTINUOUS
  0
LAYER
  2
LAYER077
 70
               0
 62
               7
  6
CONTINUOUS
  0
LAYER
  2
LAYER078
 70
               0
 62
               7
  6
CONTINUOUS
  0
LAYER
  2
LAYER079
 70
               0
 62
               7
  6
CONTINUOUS
  0
LAYER
  2
LAYER080
 70
               0
 62
               7
  6
CONTINUOUS
  0
LAYER
  2
LAYER081
 70
               0
 62
               7
  6
CONTINUOUS
  0
LAYER
  2
LAYER082
 70
               0
 62
               7
  6
CONTINUOUS
  0
LAYER
  2
LAYER083
 70
               0
 62
               7
  6
CONTINUOUS
  0
LAYER
  2
LAYER084
 70
               0
 62
               7
  6
CONTINUOUS
  0
LAYER
  2
LAYER085
 70
               0
 62
               7
  6
CONTINUOUS
  0
LAYER
  2
LAYER086
 70
               0
 62
               7
  6
CONTINUOUS
  0
LAYER
  2
LAYER087
 70
               0
 62
               7
  6
CONTINUOUS
  0
LAYER
  2
LAYER088
 70
               0
 62
               7
  6
CONTINUOUS
  0
LAYER
  2
LAYER089
 70
               0
 62
               7
  6
CONTINUOUS
  0
LAYER
  2
LAYER090
 70
               0
 62
               7
  6
CONTINUOUS
  0
LAYER
  2
LAYER091
 70
               0
 62
               7
  6
CONTINUOUS
  0
LAYER
  2
LAYER092
 70
               0
 62
               7
  6
CONTINUOUS
  0
LAYER
  2
LAYER093
 70
               0
 62
               7
  6
CONTINUOUS
  0
LAYER
  2
LAYER094
 70
               0
 62
               7
  6
CONTINUOUS
  0
LAYER
  2
LAYER095
 70
               0
 62
               7
  6
CONTINUOUS
  0
LAYER
  2
LAYER096
 70
               0
 62
               7
  6
CONTINUOUS
  0
LAYER
  2
LAYER097
 70
               0
 62
               7
  6
CONTINUOUS
  0
LAYER
  2
LAYER098
 70
               0
 62
               7
  6
CONTINUOUS
  0
LAYER
  2
LAYER099
 70
               0
 62
               7
  6
CONTINUOUS
  0
LAYER
  2
LAYER100
 70
               0
 62
               7
  6
CONTINUOUS
  0
LAYER
  2
LAYER101
 70
               0
 62
               7
  6
CONTINUOUS
  0
LAYER
  2
LAYER102
 70
               0
 62
               7
  6
CONTINUOUS
  0
LAYER
  2
LAYER103
 70
               0
 62
               7
  6
CONTINUOUS
  0
LAYER
  2
LAYER104
 70
               0
 62
               7
  6
CONTINUOUS
  0
LAYER
  2
LAYER105
 70
               0
 62
               7
  6
CONTINUOUS
  0
LAYER
  2
LAYER106
 70
               0
 62
               7
  6
CONTINUOUS
  0
LAYER
  2
LAYER107
 70
               0
 62
               7
  6
CONTINUOUS
  0
LAYER
  2
LAYER108
 70
               0
 62
               7
  6
CONTINUOUS
  0
LAYER
  2
LAYER109
 70
               0
 62
               7
  6
CONTINUOUS
  0
LAYER
  2
LAYER110
 70
               0
 62
               7
  6
CONTINUOUS
  0
LAYER
  2
LAYER111
 70
               0
 62
               7
  6
CONTINUOUS
  0
LAYER
  2
LAYER112
 70
               0
 62
               7
  6
CONTINUOUS
  0
LAYER
  2
LAYER113
 70
               0
 62
               7
  6
CONTINUOUS
  0
LAYER
  2
LAYER114
 70
               0
 62
               7
  6
CONTINUOUS
  0
LAYER
  2
LAYER115
 70
               0
 62
               7
  6
CONTINUOUS
  0
LAYER
  2
LAYER116
 70
               0
 62
               7
  6
CONTINUOUS
  0
LAYER
  2
LAYER117
 70
               0
 62
               7
  6
CONTINUOUS
  0
LAYER
  2
LAYER118
 70
               0
 62
               7
  6
CONTINUOUS
  0
LAYER
  2
LAYER119
 70
               0
 62
               7
  6
CONTINUOUS
  0
LAYER
  2
LAYER120
 70
               0
 62
               7
  6
CONTINUOUS
  0
LAYER
  2
LAYER121
 70
               0
 62
               7
  6
CONTINUOUS
  0
LAYER
  2
LAYER122
 70
               0
 62
               7
  6
CONTINUOUS
  0
LAYER
  2
LAYER123
 70
               0
 62
               7
  6
CONTINUOUS
  0
LAYER
  2
LAYER124
 70
               0
 62
               7
  6
CONTINUOUS
  0
LAYER
  2
LAYER125
 70
               0
 62
               7
  6
CONTINUOUS
  0
LAYER
  2
LAYER126
 70
               0
 62
               7
  6
CONTINUOUS
  0
LAYER
  2
LAYER127
 70
               0
 62
               7
  6
CONTINUOUS
  0
LAYER
  2
LAYER128
 70
               0
 62
               7
  6
CONTINUOUS
  0
LAYER
  2
LAYER129
 70
               0
 62
               7
  6
CONTINUOUS
  0
LAYER
  2
LAYER130
 70
               0
 62
               7
  6
CONTINUOUS
  0
LAYER
  2
LAYER131
 70
               0
 62
               7
  6
CONTINUOUS
  0
LAYER
  2
LAYER132
 70
               0
 62
               7
  6
CONTINUOUS
  0
LAYER
  2
LAYER133
 70
               0
 62
               7
  6
CONTINUOUS
  0
LAYER
  2
LAYER134
 70
               0
 62
               7
  6
CONTINUOUS
  0
LAYER
  2
LAYER135
 70
               0
 62
               7
  6
CONTINUOUS
  0
LAYER
  2
LAYER136
 70
               0
 62
               7
  6
CONTINUOUS
  0
LAYER
  2
LAYER137
 70
               0
 62
               7
  6
CONTINUOUS
  0
LAYER
  2
LAYER138
 70
               0
 62
               7
  6
CONTINUOUS
  0
LAYER
  2
LAYER139
 70
               0
 62
               7
  6
CONTINUOUS
  0
LAYER
  2
LAYER140
 70
               0
 62
               7
  6
CONTINUOUS
  0
LAYER
  2
LAYER141
 70
               0
 62
               7
  6
CONTINUOUS
  0
LAYER
  2
LAYER142
 70
               0
 62
               7
  6
CONTINUOUS
  0
LAYER
  2
LAYER143
 70
               0
 62
               7
  6
CONTINUOUS
  0
LAYER
  2
LAYER144
 70
               0
 62
               7
  6
CONTINUOUS
  0
LAYER
  2
LAYER145
 70
               0
 62
               7
  6
CONTINUOUS
  0
LAYER
  2
LAYER146
 70
               0
 62
               7
  6
CONTINUOUS
  0
LAYER
  2
LAYER147
 70
               0
 62
               7
  6
CONTINUOUS
  0
LAYER
  2
LAYER148
 70
               0
 62
               7
  6
CONTINUOUS
  0
LAYER
  2
LAYER149
 70
               0
 62
               7
  6
CONTINUOUS
  0
LAYER
  2
LAYER150
 70
               0
 62
               7
  6
CONTINUOUS
  0
LAYER
  2
LAYER151
 70
               0
 62
               7
  6
CONTINUOUS
  0
LAYER
  2
LAYER152
 70
               0
 62
               7
  6
CONTINUOUS
  0
LAYER
  2
LAYER153
 70
               0
 62
               7
  6
CONTINUOUS
  0
LAYER
  2
LAYER154
 70
               0
 62
               7
  6
CONTINUOUS
  0
LAYER
  2
LAYER155
 70
               0
 62
               7
  6
CONTINUOUS
  0
LAYER
  2
LAYER156
 70
               0
 62
               7
  6
CONTINUOUS
  0
LAYER
  2
LAYER157
 70
               0
 62
               7
  6
CONTINUOUS
  0
LAYER
  2
LAYER158
 70
               0
 62
               7
  6
CONTINUOUS
  0
LAYER
  2
LAYER159
 70
               0
 62
               7
  6
CONTINUOUS
  0
LAYER
  2
LAYER160
 70
               0
 62
               7
  6
CONTINUOUS
  0
LAYER
  2
LAYER161
 70
               0
 62
               7
  6
CONTINUOUS
  0
LAYER
  2
LAYER162
 70
               0
 62
               7
  6
CONTINUOUS
  0
LAYER
  2
LAYER163
 70
               0
 62
               7
  6
CONTINUOUS
  0
LAYER
  2
LAYER164
 70
               0
 62
               7
  6
CONTINUOUS
  0
LAYER
  2
LAYER165
 70
               0
 62
               7
  6
CONTINUOUS
  0
LAYER
  2
LAYER166
 70
               0
 62
               7
  6
CONTINUOUS
  0
LAYER
  2
LAYER167
 70
               0
 62
               7
  6
CONTINUOUS
  0
LAYER
  2
LAYER168
 70
               0
 62
               7
  6
CONTINUOUS
  0
LAYER
  2
LAYER169
 70
               0
 62
               7
  6
CONTINUOUS
  0
LAYER
  2
LAYER170
 70
               0
 62
               7
  6
CONTINUOUS
  0
LAYER
  2
LAYER171
 70
               0
 62
               7
  6
CONTINUOUS
  0
LAYER
  2
LAYER172
 70
               0
 62
               7
  6
CONTINUOUS
  0
LAYER
  2
LAYER173
 70
               0
 62
               7
  6
CONTINUOUS
  0
LAYER
  2
LAYER174
 70
               0
 62
               7
  6
CONTINUOUS
  0
LAYER
  2
LAYER175
 70
               0
 62
               7
  6
CONTINUOUS
  0
LAYER
  2
LAYER176
 70
               0
 62
               7
  6
CONTINUOUS
  0
LAYER
  2
LAYER177
 70
               0
 62
               7
  6
CONTINUOUS
  0
LAYER
  2
LAYER178
 70
               0
 62
               7
  6
CONTINUOUS
  0
LAYER
  2
LAYER179
 70
               0
 62
               7
  6
CONTINUOUS
  0
LAYER
  2
LAYER180
 70
               0
 62
               7
  6
CONTINUOUS
  0
LAYER
  2
LAYER181
 70
               0
 62
               7
  6
CONTINUOUS
  0
LAYER
  2
LAYER182
 70
               0
 62
               7
  6
CONTINUOUS
  0
LAYER
  2
LAYER183
 70
               0
 62
               7
  6
CONTINUOUS
  0
LAYER
  2
LAYER184
 70
               0
 62
               7
  6
CONTINUOUS
  0
LAYER
  2
LAYER185
 70
               0
 62
               7
  6
CONTINUOUS
  0
LAYER
  2
LAYER186
 70
               0
 62
               7
  6
CONTINUOUS
  0
LAYER
  2
LAYER187
 70
               0
 62
               7
  6
CONTINUOUS
  0
LAYER
  2
LAYER188
 70
               0
 62
               7
  6
CONTINUOUS
  0
LAYER
  2
LAYER189
 70
               0
 62
               7
  6
CONTINUOUS
  0
LAYER
  2
LAYER190
 70
               0
 62
               7
  6
CONTINUOUS
  0
LAYER
  2
LAYER191
 70
               0
 62
               7
  6
CONTINUOUS
  0
LAYER
  2
LAYER192
 70
               0
 62
               7
  6
CONTINUOUS
  0
LAYER
  2
LAYER193
 70
               0
 62
               7
  6
CONTINUOUS
  0
LAYER
  2
LAYER194
 70
               0
 62
               7
  6
CONTINUOUS
  0
LAYER
  2
LAYER195
 70
               0
 62
               7
  6
CONTINUOUS
  0
LAYER
  2
LAYER196
 70
               0
 62
               7
  6
CONTINUOUS
  0
LAYER
  2
LAYER197
 70
               0
 62
               7
  6
CONTINUOUS
  0
LAYER
  2
LAYER198
 70
               0
 62
               7
  6
CONTINUOUS
  0
LAYER
  2
LAYER199
 70
               0
 62
               7
  6
CONTINUOUS
  0
LAYER
  2
LAYER200
 70
               0
 62
               7
  6
CONTINUOUS
  0
LAYER
  2
LAYER201
 70
               0
 62
               7
  6
CONTINUOUS
  0
LAYER
  2
LAYER202
 70
               0
 62
               7
  6
CONTINUOUS
  0
LAYER
  2
LAYER203
 70
               0
 62
               7
  6
CONTINUOUS
  0
LAYER
  2
LAYER204
 70
               0
 62
               7
  6
CONTINUOUS
  0
LAYER
  2
LAYER205
 70
               0
 62
               7
  6
CONTINUOUS
  0
LAYER
  2
LAYER206
 70
               0
 62
               7
  6
CONTINUOUS
  0
LAYER
  2
LAYER207
 70
               0
 62
               7
  6
CONTINUOUS
  0
LAYER
  2
LAYER208
 70
               0
 62
               7
  6
CONTINUOUS
  0
LAYER
  2
LAYER209
 70
               0
 62
               7
  6
CONTINUOUS
  0
LAYER
  2
LAYER210
 70
               0
 62
               7
  6
CONTINUOUS
  0
LAYER
  2
LAYER211
 70
               0
 62
               7
  6
CONTINUOUS
  0
LAYER
  2
LAYER212
 70
               0
 62
               7
  6
CONTINUOUS
  0
LAYER
  2
LAYER213
 70
               0
 62
               7
  6
CONTINUOUS
  0
LAYER
  2
LAYER214
 70
               0
 62
               7
  6
CONTINUOUS
  0
LAYER
  2
LAYER215
 70
               0
 62
               7
  6
CONTINUOUS
  0
LAYER
  2
LAYER216
 70
               0
 62
               7
  6
CONTINUOUS
  0
LAYER
  2
LAYER217
 70
               0
 62
               7
  6
CONTINUOUS
  0
LAYER
  2
LAYER218
 70
               0
 62
               7
  6
CONTINUOUS
  0
LAYER
  2
LAYER219
 70
               0
 62
               7
  6
CONTINUOUS
  0
LAYER
  2
LAYER220
 70
               0
 62
               7
  6
CONTINUOUS
  0
LAYER
  2
LAYER221
 70
               0
 62
               7
  6
CONTINUOUS
  0
LAYER
  2
LAYER222
 70
               0
 62
               7
  6
CONTINUOUS
  0
LAYER
  2
LAYER223
 70
               0
 62
               7
  6
CONTINUOUS
  0
LAYER
  2
LAYER224
 70
               0
 62
               7
  6
CONTINUOUS
  0
LAYER
  2
LAYER225
 70
               0
 62
               7
  6
CONTINUOUS
  0
LAYER
  2
LAYER226
 70
               0
 62
               7
  6
CONTINUOUS
  0
LAYER
  2
LAYER227
 70
               0
 62
               7
  6
CONTINUOUS
  0
LAYER
  2
LAYER228
 70
               0
 62
               7
  6
CONTINUOUS
  0
LAYER
  2
LAYER229
 70
               0
 62
               7
  6
CONTINUOUS
  0
LAYER
  2
LAYER230
 70
               0
 62
               7
  6
CONTINUOUS
  0
LAYER
  2
LAYER231
 70
               0
 62
               7
  6
CONTINUOUS
  0
LAYER
  2
LAYER232
 70
               0
 62
               7
  6
CONTINUOUS
  0
LAYER
  2
LAYER233
 70
               0
 62
               7
  6
CONTINUOUS
  0
LAYER
  2
LAYER234
 70
               0
 62
               7
  6
CONTINUOUS
  0
LAYER
  2
LAYER235
 70
               0
 62
               7
  6
CONTINUOUS
  0
LAYER
  2
LAYER236
 70
               0
 62
               7
  6
CONTINUOUS
  0
LAYER
  2
LAYER237
 70
               0
 62
               7
  6
CONTINUOUS
  0
LAYER
  2
LAYER238
 70
               0
 62
               7
  6
CONTINUOUS
  0
LAYER
  2
LAYER239
 70
               0
 62
               7
  6
CONTINUOUS
  0
LAYER
  2
LAYER240
 70
               0
 62
               7
  6
CONTINUOUS
  0
LAYER
  2
LAYER241
 70
               0
 62
               7
  6
CONTINUOUS
  0
LAYER
  2
LAYER242
 70
               0
 62
               7
  6
CONTINUOUS
  0
LAYER
  2
LAYER243
 70
               0
 62
               7
  6
CONTINUOUS
  0
LAYER
  2
LAYER244
 70
               0
 62
               7
  6
CONTINUOUS
  0
LAYER
  2
LAYER245
 70
               0
 62
               7
  6
CONTINUOUS
  0
LAYER
  2
LAYER246
 70
               0
 62
               7
  6
CONTINUOUS
  0
LAYER
  2
LAYER247
 70
               0
 62
               7
  6
CONTINUOUS
  0
LAYER
  2
LAYER248
 70
               0
 62
               7
  6
CONTINUOUS
  0
LAYER
  2
LAYER249
 70
               0
 62
               7
  6
CONTINUOUS
  0
LAYER
  2
LAYER250
 70
               0
 62
               7
  6
CONTINUOUS
  0
LAYER
  2
LAYER251
 70
               0
 62
               7
  6
CONTINUOUS
  0
LAYER
  2
LAYER252
 70
               0
 62
               7
  6
CONTINUOUS
  0
LAYER
  2
LAYER253
 70
               0
 62
               7
  6
CONTINUOUS
  0
LAYER
  2
LAYER254
 70
               0
 62
               7
  6
CONTINUOUS
  0
LAYER
  2
LAYER255
 70
               0
 62
               7
  6
CONTINUOUS
  0
ENDTAB
  0
TABLE
  2
STYLE
 70
               1
  0
STYLE
  2
STANDARD
 70
               0
 40
0.0
 41
1.0
 50
0.0
 71
               0
 42
0.0
  3
txt
  4

  0
ENDTAB
  0
TABLE
  2
VIEW
 70
               0
  0
VIEW
  2
QQQQ
 70
               0
 40
845.61802866395703
 10
0.0
 20
0.0
 41
816.59499999999969
 11
0.0
 21
0.0
 31
1.0
 12
100.0
 22
100.0
 32
0.0
 42
50.0
 43
0.0
 44
0.0
 50
0.0
 71
               0
  0
ENDTAB
  0
TABLE
  2
UCS
 70
               0
  0
ENDTAB
  0
TABLE
  2
APPID
 70
               1
  0
APPID
  2
ACAD
 70
               0
  0
ENDTAB
  0
TABLE
  2
DIMSTYLE
 70
               1
  0
DIMSTYLE
  2
STANDARD
 70
               0
  3

  4

  5

  6

  7

 40
1.0
 41
0.18
 42
0.0625
 43
0.38
 44
0.18
 45
0.0
 46
0.0
 47
0.0
 48
0.0
140
0.18
141
0.09
142
0.0
143
25.399999999999999
144
1.0
145
0.0
146
1.0
147
0.09
 71
               0
 72
               0
 73
               1
 74
               1
 75
               0
 76
               0
 77
               0
 78
               0
170
               0
171
               2
172
               0
173
               0
174
               0
175
               0
176
               0
177
               0
178
               0
  0
ENDTAB
  0
ENDSEC
  0
SECTION
  2
BLOCKS
  0
BLOCK
  8
0
  5
13B
  2
GROUP_1
 70
               0
 10
0.0
 20
0.0
 30
0.0
  3
GROUP_1
  0
LINE
  8
0
  6
CONTINUOUS
 62
               4
  5
13C
 10
-43.373363266045615
 20
-4.954335121903668
 30
0.0
 11
-43.387202968440377
 21
-4.857945195820264
 31
0.0
  0
LINE
  8
0
  6
CONTINUOUS
 62
               4
  5
13D
 10
-43.387202968440377
 20
-4.857945195820264
 30
0.0
 11
-43.401398810432916
 21
-4.7616091407028449
 31
0.0
  0
LINE
  8
0
  6
CONTINUOUS
 62
               4
  5
13E
 10
-43.401398810432916
 20
-4.7616091407028449
 30
0.0
 11
-43.415950590397756
 21
-4.6653283248253956
 31
0.0
  0
LINE
  8
0
  6
CONTINUOUS
 62
               4
  5
13F
 10
-43.415950590397756
 20
-4.6653283248253956
 30
0.0
 11
-43.430858101654003
 21
-4.5691041156773622
 31
0.0
  0
LINE
  8
0
  6
CONTINUOUS
 62
               4
  5
140
 10
-43.430858101654003
 20
-4.5691041156773622
 30
0.0
 11
-43.446121132468264
 21
-4.4729378799441832
 31
0.0
  0
LINE
  8
0
  6
CONTINUOUS
 62
               4
  5
141
 10
-43.446121132468264
 20
-4.4729378799441832
 30
0.0
 11
-43.461739466057644
 21
-4.376830983487892
 31
0.0
  0
LINE
  8
0
  6
CONTINUOUS
 62
               4
  5
142
 10
-43.461739466057644
 20
-4.376830983487892
 30
0.0
 11
-43.477712880592847
 21
-4.2807847913277115
 31
0.0
  0
LINE
  8
0
  6
CONTINUOUS
 62
               4
  5
143
 10
-43.477712880592847
 20
-4.2807847913277115
 30
0.0
 11
-43.494041149201308
 21
-4.1848006676206921
 31
0.0
  0
LINE
  8
0
  6
CONTINUOUS
 62
               4
  5
144
 10
-43.494041149201308
 20
-4.1848006676206921
 30
0.0
 11
-43.51072403997042
 21
-4.088879975642314
 31
0.0
  0
LINE
  8
0
  6
CONTINUOUS
 62
               4
  5
145
 10
-43.51072403997042
 20
-4.088879975642314
 30
0.0
 11
-43.527761315950841
 21
-3.9930240777671102
 31
0.0
  0
LINE
  8
0
  6
CONTINUOUS
 62
               4
  5
146
 10
-43.527761315950841
 20
-3.9930240777671102
 30
0.0
 11
-43.545152735159817
 21
-3.8972343354493475
 31
0.0
  0
LINE
  8
0
  6
CONTINUOUS
 62
               4
  5
147
 10
-43.545152735159817
 20
-3.8972343354493475
 30
0.0
 11
-43.5628980505847
 21
-3.8015121092036779
 31
0.0
  0
LINE
  8
0
  6
CONTINUOUS
 62
               4
  5
148
 10
-43.5628980505847
 20
-3.8015121092036779
 30
0.0
 11
-43.580997010186366
 21
-3.7058587585858049
 31
0.0
  0
LINE
  8
0
  6
CONTINUOUS
 62
               4
  5
149
 10
-43.580997010186366
 20
-3.7058587585858049
 30
0.0
 11
-43.599449356902838
 21
-3.6102756421731925
 31
0.0
  0
LINE
  8
0
  6
CONTINUOUS
 62
               4
  5
14A
 10
-43.599449356902838
 20
-3.6102756421731925
 30
0.0
 11
-43.618254828652951
 21
-3.5147641175457522
 31
0.0
  0
LINE
  8
0
  6
CONTINUOUS
 62
               4
  5
14B
 10
-43.618254828652951
 20
-3.5147641175457522
 30
0.0
 11
-43.637413158340053
 21
-3.4193255412665735
 31
0.0
  0
LINE
  8
0
  6
CONTINUOUS
 62
               4
  5
14C
 10
-43.637413158340053
 20
-3.4193255412665735
 30
0.0
 11
-43.656924073855798
 21
-3.3239612688626394
 31
0.0
  0
LINE
  8
0
  6
CONTINUOUS
 62
               4
  5
14D
 10
-43.656924073855798
 20
-3.3239612688626394
 30
0.0
 11
-43.676787298084008
 21
-3.2286726548055924
 31
0.0
  0
LINE
  8
0
  6
CONTINUOUS
 62
               4
  5
14E
 10
-43.676787298084008
 20
-3.2286726548055924
 30
0.0
 11
-43.697002548904649
 21
-3.1334610524924926
 31
0.0
  0
LINE
  8
0
  6
CONTINUOUS
 62
               4
  5
14F
 10
-43.697002548904649
 20
-3.1334610524924926
 30
0.0
 11
-43.717569539197754
 21
-3.0383278142265908
 31
0.0
  0
LINE
  8
0
  6
CONTINUOUS
 62
               4
  5
150
 10
-43.717569539197754
 20
-3.0383278142265908
 30
0.0
 11
-43.738487976847608
 21
-2.943274291198108
 31
0.0
  0
LINE
  8
0
  6
CONTINUOUS
 62
               4
  5
151
 10
-43.738487976847608
 20
-2.943274291198108
 30
0.0
 11
-43.759757564746792
 21
-2.8483018334650865
 31
0.0
  0
LINE
  8
0
  6
CONTINUOUS
 62
               4
  5
152
 10
-43.759757564746792
 20
-2.8483018334650865
 30
0.0
 11
-43.781378000800501
 21
-2.7534117899341553
 31
0.0
  0
LINE
  8
0
  6
CONTINUOUS
 62
               4
  5
153
 10
-43.781378000800501
 20
-2.7534117899341553
 30
0.0
 11
-43.803348977930739
 21
-2.6586055083414379
 31
0.0
  0
LINE
  8
0
  6
CONTINUOUS
 62
               4
  5
154
 10
-43.803348977930739
 20
-2.6586055083414379
 30
0.0
 11
-43.825670184080764
 21
-2.5638843352333396
 31
0.0
  0
LINE
  8
0
  6
CONTINUOUS
 62
               4
  5
155
 10
-43.825670184080764
 20
-2.5638843352333396
 30
0.0
 11
-43.84834130221946
 21
-2.4692496159474899
 31
0.0
  0
LINE
  8
0
  6
CONTINUOUS
 62
               4
  5
156
 10
-43.84834130221946
 20
-2.4692496159474899
 30
0.0
 11
-43.871362010345884
 21
-2.3747026945935801
 31
0.0
  0
LINE
  8
0
  6
CONTINUOUS
 62
               4
  5
157
 10
-43.871362010345884
 20
-2.3747026945935801
 30
0.0
 11
-43.894731981493806
 21
-2.2802449140343057
 31
0.0
  0
LINE
  8
0
  6
CONTINUOUS
 62
               4
  5
158
 10
-43.894731981493806
 20
-2.2802449140343057
 30
0.0
 11
-43.918450883736362
 21
-2.1858776158662891
 31
0.0
  0
LINE
  8
0
  6
CONTINUOUS
 62
               4
  5
159
 10
-43.918450883736362
 20
-2.1858776158662891
 30
0.0
 11
-43.942518380190791
 21
-2.0916021404010081
 31
0.0
  0
LINE
  8
0
  6
CONTINUOUS
 62
               4
  5
15A
 10
-43.942518380190791
 20
-2.0916021404010081
 30
0.0
 11
-43.96693412902318
 21
-1.9974198266457748
 31
0.0
  0
LINE
  8
0
  6
CONTINUOUS
 62
               4
  5
15B
 10
-43.96693412902318
 20
-1.9974198266457748
 30
0.0
 11
-43.991697783453361
 21
-1.9033320122847144
 31
0.0
  0
LINE
  8
0
  6
CONTINUOUS
 62
               4
  5
15C
 10
-43.991697783453361
 20
-1.9033320122847144
 30
0.0
 11
-44.016808991759788
 21
-1.8093400336597654
 31
0.0
  0
LINE
  8
0
  6
CONTINUOUS
 62
               4
  5
15D
 10
-44.016808991759788
 20
-1.8093400336597654
 30
0.0
 11
-44.042267397284597
 21
-1.7154452257516937
 31
0.0
  0
LINE
  8
0
  6
CONTINUOUS
 62
               4
  5
15E
 10
-44.042267397284597
 20
-1.7154452257516937
 30
0.0
 11
-44.068072638438608
 21
-1.6216489221611283
 31
0.0
  0
LINE
  8
0
  6
CONTINUOUS
 62
               4
  5
15F
 10
-44.068072638438608
 20
-1.6216489221611283
 30
0.0
 11
-44.09422434870649
 21
-1.5279524550896539
 31
0.0
  0
LINE
  8
0
  6
CONTINUOUS
 62
               4
  5
160
 10
-44.09422434870649
 20
-1.5279524550896539
 30
0.0
 11
-44.120722156651979
 21
-1.4343571553208392
 31
0.0
  0
LINE
  8
0
  6
CONTINUOUS
 62
               4
  5
161
 10
-44.120722156651979
 20
-1.4343571553208392
 30
0.0
 11
-44.147565685923119
 21
-1.340864352201379
 31
0.0
  0
LINE
  8
0
  6
CONTINUOUS
 62
               4
  5
162
 10
-44.147565685923119
 20
-1.340864352201379
 30
0.0
 11
-44.17475455525765
 21
-1.2474753736221658
 31
0.0
  0
LINE
  8
0
  6
CONTINUOUS
 62
               4
  5
163
 10
-44.17475455525765
 20
-1.2474753736221658
 30
0.0
 11
-44.202288378488376
 21
-1.1541915459994954
 31
0.0
  0
LINE
  8
0
  6
CONTINUOUS
 62
               4
  5
164
 10
-44.202288378488376
 20
-1.1541915459994954
 30
0.0
 11
-44.230166764548699
 21
-1.0610141942561597
 31
0.0
  0
LINE
  8
0
  6
CONTINUOUS
 62
               4
  5
165
 10
-44.230166764548699
 20
-1.0610141942561597
 30
0.0
 11
-44.25838931747812
 21
-0.9679446418026743
 31
0.0
  0
LINE
  8
0
  6
CONTINUOUS
 62
               4
  5
166
 10
-44.25838931747812
 20
-0.9679446418026743
 30
0.0
 11
-44.286955636427926
 21
-0.8749842105184769
 31
0.0
  0
LINE
  8
0
  6
CONTINUOUS
 62
               4
  5
167
 10
-44.286955636427926
 20
-0.8749842105184769
 30
0.0
 11
-44.315865315666827
 21
-0.7821342207331057
 31
0.0
  0
LINE
  8
0
  6
CONTINUOUS
 62
               4
  5
168
 10
-44.315865315666827
 20
-0.7821342207331057
 30
0.0
 11
-44.345117944586725
 21
-0.6893959912075189
 31
0.0
  0
LINE
  8
0
  6
CONTINUOUS
 62
               4
  5
169
 10
-44.345117944586725
 20
-0.6893959912075189
 30
0.0
 11
-44.374713107708601
 21
-0.5967708391153224
 31
0.0
  0
LINE
  8
0
  6
CONTINUOUS
 62
               4
  5
16A
 10
-44.374713107708601
 20
-0.5967708391153224
 30
0.0
 11
-44.404650384688352
 21
-0.5042600800240535
 31
0.0
  0
LINE
  8
0
  6
CONTINUOUS
 62
               4
  5
16B
 10
-44.404650384688352
 20
-0.5042600800240535
 30
0.0
 11
-44.434929350322783
 21
-0.4118650278765159
 31
0.0
  0
LINE
  8
0
  6
CONTINUOUS
 62
               4
  5
16C
 10
-44.434929350322783
 20
-0.4118650278765159
 30
0.0
 11
-44.465549574555659
 21
-0.3195869949721342
 31
0.0
  0
LINE
  8
0
  6
CONTINUOUS
 62
               4
  5
16D
 10
-44.465549574555659
 20
-0.3195869949721342
 30
0.0
 11
-44.496510622483797
 21
-0.2274272919482527
 31
0.0
  0
LINE
  8
0
  6
CONTINUOUS
 62
               4
  5
16E
 10
-44.496510622483797
 20
-0.2274272919482527
 30
0.0
 11
-44.527812054363253
 21
-0.1353872277615977
 31
0.0
  0
LINE
  8
0
  6
CONTINUOUS
 62
               4
  5
16F
 10
-44.527812054363253
 20
-0.1353872277615977
 30
0.0
 11
-44.559453425615565
 21
-0.0434681096696181
 31
0.0
  0
LINE
  8
0
  6
CONTINUOUS
 62
               4
  5
170
 10
-44.559453425615565
 20
-0.0434681096696181
 30
0.0
 11
-44.591434286834058
 21
0.048328756788024
 31
0.0
  0
LINE
  8
0
  6
CONTINUOUS
 62
               4
  5
171
 10
-44.591434286834058
 20
0.048328756788024
 30
0.0
 11
-44.623754183790247
 21
0.1400020678080409
 31
0.0
  0
LINE
  8
0
  6
CONTINUOUS
 62
               4
  5
172
 10
-44.623754183790247
 20
0.1400020678080409
 30
0.0
 11
-44.656412657440264
 21
0.2315505213420153
 31
0.0
  0
LINE
  8
0
  6
CONTINUOUS
 62
               4
  5
173
 10
-44.656412657440264
 20
0.2315505213420153
 30
0.0
 11
-44.689409243931394
 21
0.3229728171148878
 31
0.0
  0
LINE
  8
0
  6
CONTINUOUS
 62
               4
  5
174
 10
-44.689409243931394
 20
0.3229728171148878
 30
0.0
 11
-44.72274347460867
 21
0.4142676566434531
 31
0.0
  0
LINE
  8
0
  6
CONTINUOUS
 62
               4
  5
175
 10
-44.72274347460867
 20
0.4142676566434531
 30
0.0
 11
-44.756414876021509
 21
0.5054337432547698
 31
0.0
  0
LINE
  8
0
  6
CONTINUOUS
 62
               4
  5
176
 10
-44.756414876021509
 20
0.5054337432547698
 30
0.0
 11
-44.790422969930447
 21
0.5964697821045917
 31
0.0
  0
LINE
  8
0
  6
CONTINUOUS
 62
               4
  5
177
 10
-44.790422969930447
 20
0.5964697821045917
 30
0.0
 11
-44.824767273313924
 21
0.6873744801957642
 31
0.0
  0
LINE
  8
0
  6
CONTINUOUS
 62
               4
  5
178
 10
-44.824767273313924
 20
0.6873744801957642
 30
0.0
 11
-44.85944729837518
 21
0.7781465463965844
 31
0.0
  0
LINE
  8
0
  6
CONTINUOUS
 62
               4
  5
179
 10
-44.85944729837518
 20
0.7781465463965844
 30
0.0
 11
-44.894462552549115
 21
0.8687846914591333
 31
0.0
  0
LINE
  8
0
  6
CONTINUOUS
 62
               4
  5
17A
 10
-44.894462552549115
 20
0.8687846914591333
 30
0.0
 11
-44.92981253850936
 21
0.9592876280376004
 31
0.0
  0
LINE
  8
0
  6
CONTINUOUS
 62
               4
  5
17B
 10
-44.92981253850936
 20
0.9592876280376004
 30
0.0
 11
-44.965496754175277
 21
1.0496540707065378
 31
0.0
  0
LINE
  8
0
  6
CONTINUOUS
 62
               4
  5
17C
 10
-44.965496754175277
 20
1.0496540707065378
 30
0.0
 11
-45.001514692719141
 21
1.139882735979171
 31
0.0
  0
LINE
  8
0
  6
CONTINUOUS
 62
               4
  5
17D
 10
-45.001514692719141
 20
1.139882735979171
 30
0.0
 11
-45.037865842573304
 21
1.2299723423255742
 31
0.0
  0
LINE
  8
0
  6
CONTINUOUS
 62
               4
  5
17E
 10
-45.037865842573304
 20
1.2299723423255742
 30
0.0
 11
-45.074549687437468
 21
1.3199216101908959
 31
0.0
  0
LINE
  8
0
  6
CONTINUOUS
 62
               4
  5
17F
 10
-45.074549687437468
 20
1.3199216101908959
 30
0.0
 11
-45.111565706286029
 21
1.4097292620135349
 31
0.0
  0
LINE
  8
0
  6
CONTINUOUS
 62
               4
  5
180
 10
-45.111565706286029
 20
1.4097292620135349
 30
0.0
 11
-45.148913373375485
 21
1.4993940222432869
 31
0.0
  0
LINE
  8
0
  6
CONTINUOUS
 62
               4
  5
181
 10
-45.148913373375485
 20
1.4993940222432869
 30
0.0
 11
-45.186592158251862
 21
1.5889146173594497
 31
0.0
  0
LINE
  8
0
  6
CONTINUOUS
 62
               4
  5
182
 10
-45.186592158251862
 20
1.5889146173594497
 30
0.0
 11
-45.224601525758295
 21
1.6782897758889135
 31
0.0
  0
LINE
  8
0
  6
CONTINUOUS
 62
               4
  5
183
 10
-45.224601525758295
 20
1.6782897758889135
 30
0.0
 11
-45.262940936042597
 21
1.7675182284242368
 31
0.0
  0
LINE
  8
0
  6
CONTINUOUS
 62
               4
  5
184
 10
-45.262940936042597
 20
1.7675182284242368
 30
0.0
 11
-45.301609844564958
 21
1.8565987076416519
 31
0.0
  0
LINE
  8
0
  6
CONTINUOUS
 62
               4
  5
185
 10
-45.301609844564958
 20
1.8565987076416519
 30
0.0
 11
-45.340607702105636
 21
1.9455299483190842
 31
0.0
  0
LINE
  8
0
  6
CONTINUOUS
 62
               4
  5
186
 10
-45.340607702105636
 20
1.9455299483190842
 30
0.0
 11
-45.379933954772795
 21
2.0343106873541075
 31
0.0
  0
LINE
  8
0
  6
CONTINUOUS
 62
               4
  5
187
 10
-45.379933954772795
 20
2.0343106873541075
 30
0.0
 11
-45.419588044010354
 21
2.1229396637818922
 31
0.0
  0
LINE
  8
0
  6
CONTINUOUS
 62
               4
  5
188
 10
-45.419588044010354
 20
2.1229396637818922
 30
0.0
 11
-45.459569406605937
 21
2.2114156187931187
 31
0.0
  0
LINE
  8
0
  6
CONTINUOUS
 62
               4
  5
189
 10
-45.459569406605937
 20
2.2114156187931187
 30
0.0
 11
-45.499877474698849
 21
2.2997372957518394
 31
0.0
  0
LINE
  8
0
  6
CONTINUOUS
 62
               4
  5
18A
 10
-45.499877474698849
 20
2.2997372957518394
 30
0.0
 11
-45.540511675788139
 21
2.387903440213357
 31
0.0
  0
LINE
  8
0
  6
CONTINUOUS
 62
               4
  5
18B
 10
-45.540511675788139
 20
2.387903440213357
 30
0.0
 11
-45.581471432740777
 21
2.4759127999420016
 31
0.0
  0
LINE
  8
0
  6
CONTINUOUS
 62
               4
  5
18C
 10
-45.581471432740777
 20
2.4759127999420016
 30
0.0
 11
-45.622756163799792
 21
2.5637641249289587
 31
0.0
  0
LINE
  8
0
  6
CONTINUOUS
 62
               4
  5
18D
 10
-45.622756163799792
 20
2.5637641249289587
 30
0.0
 11
-45.664365282592584
 21
2.6514561674099895
 31
0.0
  0
LINE
  8
0
  6
CONTINUOUS
 62
               4
  5
18E
 10
-45.664365282592584
 20
2.6514561674099895
 30
0.0
 11
-45.706298198139208
 21
2.7389876818831738
 31
0.0
  0
LINE
  8
0
  6
CONTINUOUS
 62
               4
  5
18F
 10
-45.706298198139208
 20
2.7389876818831738
 30
0.0
 11
-45.748554314860812
 21
2.8263574251265879
 31
0.0
  0
LINE
  8
0
  6
CONTINUOUS
 62
               4
  5
190
 10
-45.748554314860812
 20
2.8263574251265879
 30
0.0
 11
-45.791133032588043
 21
2.9135641562159549
 31
0.0
  0
LINE
  8
0
  6
CONTINUOUS
 62
               4
  5
191
 10
-45.791133032588043
 20
2.9135641562159549
 30
0.0
 11
-45.834033746569638
 21
3.0006066365423081
 31
0.0
  0
LINE
  8
0
  6
CONTINUOUS
 62
               4
  5
192
 10
-45.834033746569638
 20
3.0006066365423081
 30
0.0
 11
-45.87725584748096
 21
3.0874836298295421
 31
0.0
  0
LINE
  8
0
  6
CONTINUOUS
 62
               4
  5
193
 10
-45.87725584748096
 20
3.0874836298295421
 30
0.0
 11
-45.920798721432668
 21
3.1741939021519769
 31
0.0
  0
LINE
  8
0
  6
CONTINUOUS
 62
               4
  5
194
 10
-45.920798721432668
 20
3.1741939021519769
 30
0.0
 11
-45.964661749979442
 21
3.2607362219519089
 31
0.0
  0
LINE
  8
0
  6
CONTINUOUS
 62
               4
  5
195
 10
-45.964661749979442
 20
3.2607362219519089
 30
0.0
 11
-46.008844310128765
 21
3.3471093600570825
 31
0.0
  0
LINE
  8
0
  6
CONTINUOUS
 62
               4
  5
196
 10
-46.008844310128765
 20
3.3471093600570825
 30
0.0
 11
-46.053345774349765
 21
3.4333120896981484
 31
0.0
  0
LINE
  8
0
  6
CONTINUOUS
 62
               4
  5
197
 10
-46.053345774349765
 20
3.4333120896981484
 30
0.0
 11
-46.098165510582135
 21
3.5193431865260862
 31
0.0
  0
LINE
  8
0
  6
CONTINUOUS
 62
               4
  5
198
 10
-46.098165510582135
 20
3.5193431865260862
 30
0.0
 11
-46.143302882245109
 21
3.6052014286296199
 31
0.0
  0
LINE
  8
0
  6
CONTINUOUS
 62
               4
  5
199
 10
-46.143302882245109
 20
3.6052014286296199
 30
0.0
 11
-46.188757248246503
 21
3.6908855965525333
 31
0.0
  0
LINE
  8
0
  6
CONTINUOUS
 62
               4
  5
19A
 10
-46.188757248246503
 20
3.6908855965525333
 30
0.0
 11
-46.234527962991805
 21
3.7763944733110151
 31
0.0
  0
LINE
  8
0
  6
CONTINUOUS
 62
               4
  5
19B
 10
-46.234527962991805
 20
3.7763944733110151
 30
0.0
 11
-46.280614376393387
 21
3.8617268444109456
 31
0.0
  0
LINE
  8
0
  6
CONTINUOUS
 62
               4
  5
19C
 10
-46.280614376393387
 20
3.8617268444109456
 30
0.0
 11
-46.327015833879685
 21
3.946881497865121
 31
0.0
  0
LINE
  8
0
  6
CONTINUOUS
 62
               4
  5
19D
 10
-46.327015833879685
 20
3.946881497865121
 30
0.0
 11
-46.373731676404539
 21
4.0318572242105049
 31
0.0
  0
LINE
  8
0
  6
CONTINUOUS
 62
               4
  5
19E
 10
-46.373731676404539
 20
4.0318572242105049
 30
0.0
 11
-46.420761240456514
 21
4.1166528165253737
 31
0.0
  0
LINE
  8
0
  6
CONTINUOUS
 62
               4
  5
19F
 10
-46.420761240456514
 20
4.1166528165253737
 30
0.0
 11
-46.468103858068375
 21
4.2012670704464767
 31
0.0
  0
LINE
  8
0
  6
CONTINUOUS
 62
               4
  5
1A0
 10
-46.468103858068375
 20
4.2012670704464767
 30
0.0
 11
-46.515758856826508
 21
4.2856987841861383
 31
0.0
  0
LINE
  8
0
  6
CONTINUOUS
 62
               4
  5
1A1
 10
-46.515758856826508
 20
4.2856987841861383
 30
0.0
 11
-46.563725559880552
 21
4.3699467585493323
 31
0.0
  0
LINE
  8
0
  6
CONTINUOUS
 62
               4
  5
1A2
 10
-46.563725559880552
 20
4.3699467585493323
 30
0.0
 11
-46.612003285952937
 21
4.4540097969506789
 31
0.0
  0
LINE
  8
0
  6
CONTINUOUS
 62
               4
  5
1A3
 10
-46.612003285952937
 20
4.4540097969506789
 30
0.0
 11
-46.660591349348593
 21
4.5378867054315037
 31
0.0
  0
LINE
  8
0
  6
CONTINUOUS
 62
               4
  5
1A4
 10
-46.660591349348593
 20
4.5378867054315037
 30
0.0
 11
-46.709489059964696
 21
4.6215762926767496
 31
0.0
  0
LINE
  8
0
  6
CONTINUOUS
 62
               4
  5
1A5
 10
-46.709489059964696
 20
4.6215762926767496
 30
0.0
 11
-46.758695723300463
 21
4.7050773700318871
 31
0.0
  0
LINE
  8
0
  6
CONTINUOUS
 62
               4
  5
1A6
 10
-46.758695723300463
 20
4.7050773700318871
 30
0.0
 11
-46.808210640466996
 21
4.7883887515198538
 31
0.0
  0
LINE
  8
0
  6
CONTINUOUS
 62
               4
  5
1A7
 10
-46.808210640466996
 20
4.7883887515198538
 30
0.0
 11
-46.858033108197247
 21
4.8715092538578375
 31
0.0
  0
LINE
  8
0
  6
CONTINUOUS
 62
               4
  5
1A8
 10
-46.858033108197247
 20
4.8715092538578375
 30
0.0
 11
-46.908162418855973
 21
4.9544376964741161
 31
0.0
  0
LINE
  8
0
  6
CONTINUOUS
 62
               4
  5
1A9
 10
-46.908162418855973
 20
4.9544376964741161
 30
0.0
 11
-46.958597860449814
 21
5.0371729015248121
 31
0.0
  0
LINE
  8
0
  6
CONTINUOUS
 62
               4
  5
1AA
 10
-46.958597860449814
 20
5.0371729015248121
 30
0.0
 11
-47.009338716637359
 21
5.1197136939106471
 31
0.0
  0
LINE
  8
0
  6
CONTINUOUS
 62
               4
  5
1AB
 10
-47.009338716637359
 20
5.1197136939106471
 30
0.0
 11
-47.060384266739398
 21
5.2020589012935901
 31
0.0
  0
LINE
  8
0
  6
CONTINUOUS
 62
               4
  5
1AC
 10
-47.060384266739398
 20
5.2020589012935901
 30
0.0
 11
-47.111733785749074
 21
5.2842073541135406
 31
0.0
  0
LINE
  8
0
  6
CONTINUOUS
 62
               4
  5
1AD
 10
-47.111733785749074
 20
5.2842073541135406
 30
0.0
 11
-47.163386544342238
 21
5.3661578856049204
 31
0.0
  0
LINE
  8
0
  6
CONTINUOUS
 62
               4
  5
1AE
 10
-47.163386544342238
 20
5.3661578856049204
 30
0.0
 11
-47.215341808887786
 21
5.4479093318132641
 31
0.0
  0
LINE
  8
0
  6
CONTINUOUS
 62
               4
  5
1AF
 10
-47.215341808887786
 20
5.4479093318132641
 30
0.0
 11
-47.26759884145806
 21
5.5294605316117469
 31
0.0
  0
LINE
  8
0
  6
CONTINUOUS
 62
               4
  5
1B0
 10
-47.26759884145806
 20
5.5294605316117469
 30
0.0
 11
-47.32015689983939
 21
5.6108103267176546
 31
0.0
  0
LINE
  8
0
  6
CONTINUOUS
 62
               4
  5
1B1
 10
-47.32015689983939
 20
5.6108103267176546
 30
0.0
 11
-47.37301523754256
 21
5.6919575617088611
 31
0.0
  0
LINE
  8
0
  6
CONTINUOUS
 62
               4
  5
1B2
 10
-47.37301523754256
 20
5.6919575617088611
 30
0.0
 11
-47.426173103813468
 21
5.7729010840402282
 31
0.0
  0
LINE
  8
0
  6
CONTINUOUS
 62
               4
  5
1B3
 10
-47.426173103813468
 20
5.7729010840402282
 30
0.0
 11
-47.479629743643756
 21
5.8536397440599686
 31
0.0
  0
LINE
  8
0
  6
CONTINUOUS
 62
               4
  5
1B4
 10
-47.479629743643756
 20
5.8536397440599686
 30
0.0
 11
-47.533384397781546
 21
5.9341723950259961
 31
0.0
  0
LINE
  8
0
  6
CONTINUOUS
 62
               4
  5
1B5
 10
-47.533384397781546
 20
5.9341723950259961
 30
0.0
 11
-47.587436302742226
 21
6.0144978931221971
 31
0.0
  0
LINE
  8
0
  6
CONTINUOUS
 62
               4
  5
1B6
 10
-47.587436302742226
 20
6.0144978931221971
 30
0.0
 11
-47.641784690819293
 21
6.0946150974746587
 31
0.0
  0
LINE
  8
0
  6
CONTINUOUS
 62
               4
  5
1B7
 10
-47.641784690819293
 20
6.0946150974746587
 30
0.0
 11
-47.69642879009524
 21
6.1745228701679054
 31
0.0
  0
LINE
  8
0
  6
CONTINUOUS
 62
               4
  5
1B8
 10
-47.69642879009524
 20
6.1745228701679054
 30
0.0
 11
-47.751367824452551
 21
6.2542200762610634
 31
0.0
  0
LINE
  8
0
  6
CONTINUOUS
 62
               4
  5
1B9
 10
-47.751367824452551
 20
6.2542200762610634
 30
0.0
 11
-47.806601013584697
 21
6.3337055838039404
 31
0.0
  0
LINE
  8
0
  6
CONTINUOUS
 62
               4
  5
1BA
 10
-47.806601013584697
 20
6.3337055838039404
 30
0.0
 11
-47.862127573007243
 21
6.4129782638531339
 31
0.0
  0
LINE
  8
0
  6
CONTINUOUS
 62
               4
  5
1BB
 10
-47.862127573007243
 20
6.4129782638531339
 30
0.0
 11
-47.917946714068954
 21
6.4920369904880602
 31
0.0
  0
LINE
  8
0
  6
CONTINUOUS
 62
               4
  5
1BC
 10
-47.917946714068954
 20
6.4920369904880602
 30
0.0
 11
-47.974057643963036
 21
6.5708806408269567
 31
0.0
  0
LINE
  8
0
  6
CONTINUOUS
 62
               4
  5
1BD
 10
-47.974057643963036
 20
6.5708806408269567
 30
0.0
 11
-48.030459565738369
 21
6.6495080950428047
 31
0.0
  0
LINE
  8
0
  6
CONTINUOUS
 62
               4
  5
1BE
 10
-48.030459565738369
 20
6.6495080950428047
 30
0.0
 11
-48.087151678310832
 21
6.7279182363792458
 31
0.0
  0
LINE
  8
0
  6
CONTINUOUS
 62
               4
  5
1BF
 10
-48.087151678310832
 20
6.7279182363792458
 30
0.0
 11
-48.14413317647471
 21
6.8061099511664551
 31
0.0
  0
LINE
  8
0
  6
CONTINUOUS
 62
               4
  5
1C0
 10
-48.14413317647471
 20
6.8061099511664551
 30
0.0
 11
-48.201403250914076
 21
6.884082128836944
 31
0.0
  0
LINE
  8
0
  6
CONTINUOUS
 62
               4
  5
1C1
 10
-48.201403250914076
 20
6.884082128836944
 30
0.0
 11
-48.258961088214335
 21
6.9618336619413412
 31
0.0
  0
LINE
  8
0
  6
CONTINUOUS
 62
               4
  5
1C2
 10
-48.258961088214335
 20
6.9618336619413412
 30
0.0
 11
-48.316805870873736
 21
7.0393634461641241
 31
0.0
  0
LINE
  8
0
  6
CONTINUOUS
 62
               4
  5
1C3
 10
-48.316805870873736
 20
7.0393634461641241
 30
0.0
 11
-48.374936777315028
 21
7.1166703803392934
 31
0.0
  0
LINE
  8
0
  6
CONTINUOUS
 62
               4
  5
1C4
 10
-48.374936777315028
 20
7.1166703803392934
 30
0.0
 11
-48.433352981897102
 21
7.1937533664660194
 31
0.0
  0
LINE
  8
0
  6
CONTINUOUS
 62
               4
  5
1C5
 10
-48.433352981897102
 20
7.1937533664660194
 30
0.0
 11
-48.4920536549267
 21
7.270611309724238
 31
0.0
  0
LINE
  8
0
  6
CONTINUOUS
 62
               4
  5
1C6
 10
-48.4920536549267
 20
7.270611309724238
 30
0.0
 11
-48.551037962670236
 21
7.3472431184901978
 31
0.0
  0
LINE
  8
0
  6
CONTINUOUS
 62
               4
  5
1C7
 10
-48.551037962670236
 20
7.3472431184901978
 30
0.0
 11
-48.61030506736563
 21
7.4236477043519784
 31
0.0
  0
LINE
  8
0
  6
CONTINUOUS
 62
               4
  5
1C8
 10
-48.61030506736563
 20
7.4236477043519784
 30
0.0
 11
-48.669854127234174
 21
7.4998239821249157
 31
0.0
  0
LINE
  8
0
  6
CONTINUOUS
 62
               4
  5
1C9
 10
-48.669854127234174
 20
7.4998239821249157
 30
0.0
 11
-48.729684296492543
 21
7.5757708698670569
 31
0.0
  0
LINE
  8
0
  6
CONTINUOUS
 62
               4
  5
1CA
 10
-48.729684296492543
 20
7.5757708698670569
 30
0.0
 11
-48.78979472536475
 21
7.6514872888944865
 31
0.0
  0
LINE
  8
0
  6
CONTINUOUS
 62
               4
  5
1CB
 10
-48.78979472536475
 20
7.6514872888944865
 30
0.0
 11
-48.850184560094263
 21
7.726972163796674
 31
0.0
  0
LINE
  8
0
  6
CONTINUOUS
 62
               4
  5
1CC
 10
-48.850184560094263
 20
7.726972163796674
 30
0.0
 11
-48.910852942956083
 21
7.802224422451765
 31
0.0
  0
LINE
  8
0
  6
CONTINUOUS
 62
               4
  5
1CD
 10
-48.910852942956083
 20
7.802224422451765
 30
0.0
 11
-48.971799012269003
 21
7.877242996041744
 31
0.0
  0
LINE
  8
0
  6
CONTINUOUS
 62
               4
  5
1CE
 10
-48.971799012269003
 20
7.877242996041744
 30
0.0
 11
-49.033021902407754
 21
7.9520268190676973
 31
0.0
  0
LINE
  8
0
  6
CONTINUOUS
 62
               4
  5
1CF
 10
-49.033021902407754
 20
7.9520268190676973
 30
0.0
 11
-49.094520743815352
 21
8.0265748293648755
 31
0.0
  0
LINE
  8
0
  6
CONTINUOUS
 62
               4
  5
1D0
 10
-49.094520743815352
 20
8.0265748293648755
 30
0.0
 11
-49.156294663015444
 21
8.100885968117808
 31
0.0
  0
LINE
  8
0
  6
CONTINUOUS
 62
               4
  5
1D1
 10
-49.156294663015444
 20
8.100885968117808
 30
0.0
 11
-49.218342782624731
 21
8.1749591798753727
 31
0.0
  0
ENDBLK
  8
0
  5
1D2
  0
BLOCK
  8
0
  5
1D3
  2
GROUP_2
 70
               0
 10
0.0
 20
0.0
 30
0.0
  3
GROUP_2
  0
LINE
  8
0
  6
CONTINUOUS
 62
               4
  5
1D4
 10
-52.154340935116672
 20
-8.8131263419344563
 30
0.0
 11
-52.103807540509088
 21
-8.8905927214673142
 31
0.0
  0
LINE
  8
0
  6
CONTINUOUS
 62
               4
  5
1D5
 10
-52.103807540509088
 20
-8.8905927214673142
 30
0.0
 11
-52.052031720384178
 21
-8.9670546787562699
 31
0.0
  0
LINE
  8
0
  6
CONTINUOUS
 62
               4
  5
1D6
 10
-52.052031720384178
 20
-8.9670546787562699
 30
0.0
 11
-51.999029884641452
 21
-9.0424879798436066
 31
0.0
  0
LINE
  8
0
  6
CONTINUOUS
 62
               4
  5
1D7
 10
-51.999029884641452
 20
-9.0424879798436066
 30
0.0
 11
-51.944818831755498
 21
-9.1168687167953166
 31
0.0
  0
LINE
  8
0
  6
CONTINUOUS
 62
               4
  5
1D8
 10
-51.944818831755498
 20
-9.1168687167953166
 30
0.0
 11
-51.889415743451849
 21
-9.190173315278507
 31
0.0
  0
LINE
  8
0
  6
CONTINUOUS
 62
               4
  5
1D9
 10
-51.889415743451849
 20
-9.190173315278507
 30
0.0
 11
-51.832838179261365
 21
-9.2623785420331046
 31
0.0
  0
LINE
  8
0
  6
CONTINUOUS
 62
               4
  5
1DA
 10
-51.832838179261365
 20
-9.2623785420331046
 30
0.0
 11
-51.775104070954924
 21
-9.3334615122354023
 31
0.0
  0
LINE
  8
0
  6
CONTINUOUS
 62
               4
  5
1DB
 10
-51.775104070954924
 20
-9.3334615122354023
 30
0.0
 11
-51.716231716860065
 21
-9.4033996967512508
 31
0.0
  0
LINE
  8
0
  6
CONTINUOUS
 62
               4
  5
1DC
 10
-51.716231716860065
 20
-9.4033996967512508
 30
0.0
 11
-51.656239776061526
 21
-9.4721709292764089
 31
0.0
  0
LINE
  8
0
  6
CONTINUOUS
 62
               4
  5
1DD
 10
-51.656239776061526
 20
-9.4721709292764089
 30
0.0
 11
-51.595147262487387
 21
-9.5397534133620425
 31
0.0
  0
LINE
  8
0
  6
CONTINUOUS
 62
               4
  5
1DE
 10
-51.595147262487387
 20
-9.5397534133620425
 30
0.0
 11
-51.532973538882779
 21
-9.606125729322855
 31
0.0
  0
LINE
  8
0
  6
CONTINUOUS
 62
               4
  5
1DF
 10
-51.532973538882779
 20
-9.606125729322855
 30
0.0
 11
-51.469738310673009
 21
-9.6712668410259113
 31
0.0
  0
LINE
  8
0
  6
CONTINUOUS
 62
               4
  5
1E0
 10
-51.469738310673009
 20
-9.6712668410259113
 30
0.0
 11
-51.405461619718125
 21
-9.7351561025578235
 31
0.0
  0
LINE
  8
0
  6
CONTINUOUS
 62
               4
  5
1E1
 10
-51.405461619718125
 20
-9.7351561025578235
 30
0.0
 11
-51.340163837960802
 21
-9.7977732647683382
 31
0.0
  0
LINE
  8
0
  6
CONTINUOUS
 62
               4
  5
1E2
 10
-51.340163837960802
 20
-9.7977732647683382
 30
0.0
 11
-51.273865660969633
 21
-9.8590984816880933
 31
0.0
  0
LINE
  8
0
  6
CONTINUOUS
 62
               4
  5
1E3
 10
-51.273865660969633
 20
-9.8590984816880933
 30
0.0
 11
-51.206588101379864
 21
-9.919112316818655
 31
0.0
  0
LINE
  8
0
  6
CONTINUOUS
 62
               4
  5
1E4
 10
-51.206588101379864
 20
-9.919112316818655
 30
0.0
 11
-51.138352482233586
 21
-9.9777957492927101
 31
0.0
  0
LINE
  8
0
  6
CONTINUOUS
 62
               4
  5
1E5
 10
-51.138352482233586
 20
-9.9777957492927101
 30
0.0
 11
-51.069180430221621
 21
-10.035130179902616
 31
0.0
  0
LINE
  8
0
  6
CONTINUOUS
 62
               4
  5
1E6
 10
-51.069180430221621
 20
-10.035130179902616
 30
0.0
 11
-50.999093868829092
 21
-10.091097436995213
 31
0.0
  0
LINE
  8
0
  6
CONTINUOUS
 62
               4
  5
1E7
 10
-50.999093868829092
 20
-10.091097436995213
 30
0.0
 11
-50.928115011386993
 21
-10.145679782231213
 31
0.0
  0
LINE
  8
0
  6
CONTINUOUS
 62
               4
  5
1E8
 10
-50.928115011386993
 20
-10.145679782231213
 30
0.0
 11
-50.856266354031845
 21
-10.198859916207162
 31
0.0
  0
LINE
  8
0
  6
CONTINUOUS
 62
               4
  5
1E9
 10
-50.856266354031845
 20
-10.198859916207162
 30
0.0
 11
-50.783570668575749
 21
-10.250620983938404
 31
0.0
  0
LINE
  8
0
  6
CONTINUOUS
 62
               4
  5
1EA
 10
-50.783570668575749
 20
-10.250620983938404
 30
0.0
 11
-50.710050995289066
 21
-10.300946580201064
 31
0.0
  0
LINE
  8
0
  6
CONTINUOUS
 62
               4
  5
1EB
 10
-50.710050995289066
 20
-10.300946580201064
 30
0.0
 11
-50.635730635597966
 21
-10.349820754731567
 31
0.0
  0
LINE
  8
0
  6
CONTINUOUS
 62
               4
  5
1EC
 10
-50.635730635597966
 20
-10.349820754731567
 30
0.0
 11
-50.560633144699295
 21
-10.397228017281947
 31
0.0
  0
LINE
  8
0
  6
CONTINUOUS
 62
               4
  5
1ED
 10
-50.560633144699295
 20
-10.397228017281947
 30
0.0
 11
-50.484782324094915
 21
-10.443153342529321
 31
0.0
  0
LINE
  8
0
  6
CONTINUOUS
 62
               4
  5
1EE
 10
-50.484782324094915
 20
-10.443153342529321
 30
0.0
 11
-50.408202214048046
 21
-10.487582174838053
 31
0.0
  0
LINE
  8
0
  6
CONTINUOUS
 62
               4
  5
1EF
 10
-50.408202214048046
 20
-10.487582174838053
 30
0.0
 11
-50.330917085963904
 21
-10.53050043287304
 31
0.0
  0
LINE
  8
0
  6
CONTINUOUS
 62
               4
  5
1F0
 10
-50.330917085963904
 20
-10.53050043287304
 30
0.0
 11
-50.252951434697074
 21
-10.571894514062656
 31
0.0
  0
LINE
  8
0
  6
CONTINUOUS
 62
               4
  5
1F1
 10
-50.252951434697074
 20
-10.571894514062656
 30
0.0
 11
-50.174329970788129
 21
-10.611751298909979
 31
0.0
  0
LINE
  8
0
  6
CONTINUOUS
 62
               4
  5
1F2
 10
-50.174329970788129
 20
-10.611751298909979
 30
0.0
 11
-50.095077612631762
 21
-10.650058155150894
 31
0.0
  0
LINE
  8
0
  6
CONTINUOUS
 62
               4
  5
1F3
 10
-50.095077612631762
 20
-10.650058155150894
 30
0.0
 11
-50.015219478579183
 21
-10.686802941757804
 31
0.0
  0
LINE
  8
0
  6
CONTINUOUS
 62
               4
  5
1F4
 10
-50.015219478579183
 20
-10.686802941757804
 30
0.0
 11
-49.934780878977023
 21
-10.721974012787591
 31
0.0
  0
LINE
  8
0
  6
CONTINUOUS
 62
               4
  5
1F5
 10
-49.934780878977023
 20
-10.721974012787591
 30
0.0
 11
-49.853787308145485
 21
-10.755560221072713
 31
0.0
  0
LINE
  8
0
  6
CONTINUOUS
 62
               4
  5
1F6
 10
-49.853787308145485
 20
-10.755560221072713
 30
0.0
 11
-49.772264436298101
 21
-10.787550921754217
 31
0.0
  0
LINE
  8
0
  6
CONTINUOUS
 62
               4
  5
1F7
 10
-49.772264436298101
 20
-10.787550921754217
 30
0.0
 11
-49.690238101405797
 21
-10.817935975655487
 31
0.0
  0
LINE
  8
0
  6
CONTINUOUS
 62
               4
  5
1F8
 10
-49.690238101405797
 20
-10.817935975655487
 30
0.0
 11
-49.607734301007753
 21
-10.846705752495851
 31
0.0
  0
LINE
  8
0
  6
CONTINUOUS
 62
               4
  5
1F9
 10
-49.607734301007753
 20
-10.846705752495851
 30
0.0
 11
-49.524779183971759
 21
-10.873851133942722
 31
0.0
  0
LINE
  8
0
  6
CONTINUOUS
 62
               4
  5
1FA
 10
-49.524779183971759
 20
-10.873851133942722
 30
0.0
 11
-49.441399042206477
 21
-10.899363516501644
 31
0.0
  0
LINE
  8
0
  6
CONTINUOUS
 62
               4
  5
1FB
 10
-49.441399042206477
 20
-10.899363516501644
 30
0.0
 11
-49.357620302328527
 21
-10.92323481424306
 31
0.0
  0
LINE
  8
0
  6
CONTINUOUS
 62
               4
  5
1FC
 10
-49.357620302328527
 20
-10.92323481424306
 30
0.0
 11
-49.273469517286728
 21
-10.945457461365088
 31
0.0
  0
LINE
  8
0
  6
CONTINUOUS
 62
               4
  5
1FD
 10
-49.273469517286728
 20
-10.945457461365088
 30
0.0
 11
-49.188973357946431
 21
-10.966024414591445
 31
0.0
  0
LINE
  8
0
  6
CONTINUOUS
 62
               4
  5
1FE
 10
-49.188973357946431
 20
-10.966024414591445
 30
0.0
 11
-49.104158604636382
 21
-10.984929155403734
 31
0.0
  0
LINE
  8
0
  6
CONTINUOUS
 62
               4
  5
1FF
 10
-49.104158604636382
 20
-10.984929155403734
 30
0.0
 11
-49.019052138660939
 21
-11.002165692107454
 31
0.0
  0
LINE
  8
0
  6
CONTINUOUS
 62
               4
  5
200
 10
-49.019052138660939
 20
-11.002165692107454
 30
0.0
 11
-48.933680933780259
 21
-11.017728561731005
 31
0.0
  0
LINE
  8
0
  6
CONTINUOUS
 62
               4
  5
201
 10
-48.933680933780259
 20
-11.017728561731005
 30
0.0
 11
-48.848072047661226
 21
-11.031612831757101
 31
0.0
  0
LINE
  8
0
  6
CONTINUOUS
 62
               4
  5
202
 10
-48.848072047661226
 20
-11.031612831757101
 30
0.0
 11
-48.762252613301747
 21
-11.043814101686152
 31
0.0
  0
LINE
  8
0
  6
CONTINUOUS
 62
               4
  5
203
 10
-48.762252613301747
 20
-11.043814101686152
 30
0.0
 11
-48.676249830431161
 21
-11.054328504430913
 31
0.0
  0
LINE
  8
0
  6
CONTINUOUS
 62
               4
  5
204
 10
-48.676249830431161
 20
-11.054328504430913
 30
0.0
 11
-48.590090956889547
 21
-11.063152707542152
 31
0.0
  0
LINE
  8
0
  6
CONTINUOUS
 62
               4
  5
205
 10
-48.590090956889547
 20
-11.063152707542152
 30
0.0
 11
-48.503803299988569
 21
-11.070283914264806
 31
0.0
  0
LINE
  8
0
  6
CONTINUOUS
 62
               4
  5
206
 10
-48.503803299988569
 20
-11.070283914264806
 30
0.0
 11
-48.417414207856666
 21
-11.075719864424435
 31
0.0
  0
LINE
  8
0
  6
CONTINUOUS
 62
               4
  5
207
 10
-48.417414207856666
 20
-11.075719864424435
 30
0.0
 11
-48.330951060771312
 21
-11.079458835143527
 31
0.0
  0
LINE
  8
0
  6
CONTINUOUS
 62
               4
  5
208
 10
-48.330951060771312
 20
-11.079458835143527
 30
0.0
 11
-48.244441262481033
 21
-11.081499641387573
 31
0.0
  0
LINE
  8
0
  6
CONTINUOUS
 62
               4
  5
209
 10
-48.244441262481033
 20
-11.081499641387573
 30
0.0
 11
-48.157912231520086
 21
-11.081841636340641
 31
0.0
  0
LINE
  8
0
  6
CONTINUOUS
 62
               4
  5
20A
 10
-48.157912231520086
 20
-11.081841636340641
 30
0.0
 11
-48.071391392518322
 21
-11.080484711610382
 31
0.0
  0
LINE
  8
0
  6
CONTINUOUS
 62
               4
  5
20B
 10
-48.071391392518322
 20
-11.080484711610382
 30
0.0
 11
-47.984906167509251
 21
-11.07742929726237
 31
0.0
  0
LINE
  8
0
  6
CONTINUOUS
 62
               4
  5
20C
 10
-47.984906167509251
 20
-11.07742929726237
 30
0.0
 11
-47.898483967238811
 21
-11.072676361683833
 31
0.0
  0
LINE
  8
0
  6
CONTINUOUS
 62
               4
  5
20D
 10
-47.898483967238811
 20
-11.072676361683833
 30
0.0
 11
-47.812152182477817
 21
-11.066227411276707
 31
0.0
  0
LINE
  8
0
  6
CONTINUOUS
 62
               4
  5
20E
 10
-47.812152182477817
 20
-11.066227411276707
 30
0.0
 11
-47.725938175340644
 21
-11.058084489980175
 31
0.0
  0
LINE
  8
0
  6
CONTINUOUS
 62
               4
  5
20F
 10
-47.725938175340644
 20
-11.058084489980175
 30
0.0
 11
-47.639869270613076
 21
-11.048250178622901
 31
0.0
  0
LINE
  8
0
  6
CONTINUOUS
 62
               4
  5
210
 10
-47.639869270613076
 20
-11.048250178622901
 30
0.0
 11
-47.553972747091954
 21
-11.036727594105017
 31
0.0
  0
LINE
  8
0
  6
CONTINUOUS
 62
               4
  5
211
 10
-47.553972747091954
 20
-11.036727594105017
 30
0.0
 11
-47.468275828939355
 21
-11.02352038841029
 31
0.0
  0
LINE
  8
0
  6
CONTINUOUS
 62
               4
  5
212
 10
-47.468275828939355
 20
-11.02352038841029
 30
0.0
 11
-47.382805677054172
 21
-11.008632747448615
 31
0.0
  0
LINE
  8
0
  6
CONTINUOUS
 62
               4
  5
213
 10
-47.382805677054172
 20
-11.008632747448615
 30
0.0
 11
-47.297589380463698
 21
-10.992069389729373
 31
0.0
  0
LINE
  8
0
  6
CONTINUOUS
 62
               4
  5
214
 10
-47.297589380463698
 20
-10.992069389729373
 30
0.0
 11
-47.212653947737955
 21
-10.97383556486588
 31
0.0
  0
LINE
  8
0
  6
CONTINUOUS
 62
               4
  5
215
 10
-47.212653947737955
 20
-10.97383556486588
 30
0.0
 11
-47.128026298429596
 21
-10.953937051911637
 31
0.0
  0
LINE
  8
0
  6
CONTINUOUS
 62
               4
  5
216
 10
-47.128026298429596
 20
-10.953937051911637
 30
0.0
 11
-47.043733254541991
 21
-10.932380157528655
 31
0.0
  0
LINE
  8
0
  6
CONTINUOUS
 62
               4
  5
217
 10
-47.043733254541991
 20
-10.932380157528655
 30
0.0
 11
-46.95980153202818
 21
-10.909171713988627
 31
0.0
  0
LINE
  8
0
  6
CONTINUOUS
 62
               4
  5
218
 10
-46.95980153202818
 20
-10.909171713988627
 30
0.0
 11
-46.876257732323538
 21
-10.884319077007511
 31
0.0
  0
LINE
  8
0
  6
CONTINUOUS
 62
               4
  5
219
 10
-46.876257732323538
 20
-10.884319077007511
 30
0.0
 11
-46.79312833391463
 21
-10.857830123414203
 31
0.0
  0
LINE
  8
0
  6
CONTINUOUS
 62
               4
  5
21A
 10
-46.79312833391463
 20
-10.857830123414203
 30
0.0
 11
-46.710439683947122
 21
-10.829713248654016
 31
0.0
  0
LINE
  8
0
  6
CONTINUOUS
 62
               4
  5
21B
 10
-46.710439683947122
 20
-10.829713248654016
 30
0.0
 11
-46.628217989875253
 21
-10.799977364127834
 31
0.0
  0
LINE
  8
0
  6
CONTINUOUS
 62
               4
  5
21C
 10
-46.628217989875253
 20
-10.799977364127834
 30
0.0
 11
-46.546489311155625
 21
-10.768631894367729
 31
0.0
  0
LINE
  8
0
  6
CONTINUOUS
 62
               4
  5
21D
 10
-46.546489311155625
 20
-10.768631894367729
 30
0.0
 11
-46.46527955098788
 21
-10.735686774049917
 31
0.0
  0
LINE
  8
0
  6
CONTINUOUS
 62
               4
  5
21E
 10
-46.46527955098788
 20
-10.735686774049917
 30
0.0
 11
-46.384614448104891
 21
-10.701152444846059
 31
0.0
  0
LINE
  8
0
  6
CONTINUOUS
 62
               4
  5
21F
 10
-46.384614448104891
 20
-10.701152444846059
 30
0.0
 11
-46.304519568615113
 21
-10.665039852113878
 31
0.0
  0
LINE
  8
0
  6
CONTINUOUS
 62
               4
  5
220
 10
-46.304519568615113
 20
-10.665039852113878
 30
0.0
 11
-46.225020297899619
 21
-10.627360441428074
 31
0.0
  0
LINE
  8
0
  6
CONTINUOUS
 62
               4
  5
221
 10
-46.225020297899619
 20
-10.627360441428074
 30
0.0
 11
-46.1461418325664
 21
-10.588126154952818
 31
0.0
  0
LINE
  8
0
  6
CONTINUOUS
 62
               4
  5
222
 10
-46.1461418325664
 20
-10.588126154952818
 30
0.0
 11
-46.067909172464567
 21
-10.547349427656712
 31
0.0
  0
LINE
  8
0
  6
CONTINUOUS
 62
               4
  5
223
 10
-46.067909172464567
 20
-10.547349427656712
 30
0.0
 11
-45.990347112760801
 21
-10.505043183371697
 31
0.0
  0
LINE
  8
0
  6
CONTINUOUS
 62
               4
  5
224
 10
-45.990347112760801
 20
-10.505043183371697
 30
0.0
 11
-45.913480236080801
 21
-10.461220830696917
 31
0.0
  0
LINE
  8
0
  6
CONTINUOUS
 62
               4
  5
225
 10
-45.913480236080801
 20
-10.461220830696917
 30
0.0
 11
-45.837332904717989
 21
-10.415896258749001
 31
0.0
  0
LINE
  8
0
  6
CONTINUOUS
 62
               4
  5
226
 10
-45.837332904717989
 20
-10.415896258749001
 30
0.0
 11
-45.761929252912104
 21
-10.369083832759991
 31
0.0
  0
LINE
  8
0
  6
CONTINUOUS
 62
               4
  5
227
 10
-45.761929252912104
 20
-10.369083832759991
 30
0.0
 11
-45.687293179200076
 21
-10.320798389524462
 31
0.0
  0
LINE
  8
0
  6
CONTINUOUS
 62
               4
  5
228
 10
-45.687293179200076
 20
-10.320798389524462
 30
0.0
 11
-45.613448338841572
 21
-10.271055232697073
 31
0.0
  0
LINE
  8
0
  6
CONTINUOUS
 62
               4
  5
229
 10
-45.613448338841572
 20
-10.271055232697073
 30
0.0
 11
-45.540418136321676
 21
-10.219870127942251
 31
0.0
  0
LINE
  8
0
  6
CONTINUOUS
 62
               4
  5
22A
 10
-45.540418136321676
 20
-10.219870127942251
 30
0.0
 11
-45.468225717933038
 21
-10.167259297937363
 31
0.0
  0
LINE
  8
0
  6
CONTINUOUS
 62
               4
  5
22B
 10
-45.468225717933038
 20
-10.167259297937363
 30
0.0
 11
-45.396893964439855
 21
-10.1132394172311
 31
0.0
  0
LINE
  8
0
  6
CONTINUOUS
 62
               4
  5
22C
 10
-45.396893964439855
 20
-10.1132394172311
 30
0.0
 11
-45.326445483826014
 21
-10.057827606958625
 31
0.0
  0
LINE
  8
0
  6
CONTINUOUS
 62
               4
  5
22D
 10
-45.326445483826014
 20
-10.057827606958625
 30
0.0
 11
-45.256902604129664
 21
-10.001041429415139
 31
0.0
  0
LINE
  8
0
  6
CONTINUOUS
 62
               4
  5
22E
 10
-45.256902604129664
 20
-10.001041429415139
 30
0.0
 11
-45.188287366366588
 21
-9.942898882489736
 31
0.0
  0
LINE
  8
0
  6
CONTINUOUS
 62
               4
  5
22F
 10
-45.188287366366588
 20
-9.942898882489736
 30
0.0
 11
-45.120621517544436
 21
-9.8834183939610512
 31
0.0
  0
LINE
  8
0
  6
CONTINUOUS
 62
               4
  5
230
 10
-45.120621517544436
 20
-9.8834183939610512
 30
0.0
 11
-45.053926503770235
 21
-9.8226188156567815
 31
0.0
  0
LINE
  8
0
  6
CONTINUOUS
 62
               4
  5
231
 10
-45.053926503770235
 20
-9.8226188156567815
 30
0.0
 11
-44.98822346345321
 21
-9.7605194174787471
 31
0.0
  0
LINE
  8
0
  6
CONTINUOUS
 62
               4
  5
232
 10
-44.98822346345321
 20
-9.7605194174787471
 30
0.0
 11
-44.923533220605165
 21
-9.6971398812954561
 31
0.0
  0
LINE
  8
0
  6
CONTINUOUS
 62
               4
  5
233
 10
-44.923533220605165
 20
-9.6971398812954561
 30
0.0
 11
-44.859876278240485
 21
-9.6325002947041298
 31
0.0
  0
LINE
  8
0
  6
CONTINUOUS
 62
               4
  5
234
 10
-44.859876278240485
 20
-9.6325002947041298
 30
0.0
 11
-44.797272811877868
 21
-9.566621144664083
 31
0.0
  0
LINE
  8
0
  6
CONTINUOUS
 62
               4
  5
235
 10
-44.797272811877868
 20
-9.566621144664083
 30
0.0
 11
-44.735742663145899
 21
-9.4995233110035642
 31
0.0
  0
LINE
  8
0
  6
CONTINUOUS
 62
               4
  5
236
 10
-44.735742663145899
 20
-9.4995233110035642
 30
0.0
 11
-44.675305333494386
 21
-9.4312280598021019
 31
0.0
  0
LINE
  8
0
  6
CONTINUOUS
 62
               4
  5
237
 10
-44.675305333494386
 20
-9.4312280598021019
 30
0.0
 11
-44.61597997801357
 21
-9.3617570366503742
 31
0.0
  0
LINE
  8
0
  6
CONTINUOUS
 62
               4
  5
238
 10
-44.61597997801357
 20
-9.3617570366503742
 30
0.0
 11
-44.557785399363055
 21
-9.2911322597898263
 31
0.0
  0
LINE
  8
0
  6
CONTINUOUS
 62
               4
  5
239
 10
-44.557785399363055
 20
-9.2911322597898263
 30
0.0
 11
-44.500740041812499
 21
-9.2193761131342029
 31
0.0
  0
LINE
  8
0
  6
CONTINUOUS
 62
               4
  5
23A
 10
-44.500740041812499
 20
-9.2193761131342029
 30
0.0
 11
-44.444861985395846
 21
-9.1465113391751416
 31
0.0
  0
LINE
  8
0
  6
CONTINUOUS
 62
               4
  5
23B
 10
-44.444861985395846
 20
-9.1465113391751416
 30
0.0
 11
-44.390168940180999
 21
-9.0725610317741285
 31
0.0
  0
LINE
  8
0
  6
CONTINUOUS
 62
               4
  5
23C
 10
-44.390168940180999
 20
-9.0725610317741285
 30
0.0
 11
-44.336678240656802
 21
-8.997548628843127
 31
0.0
  0
LINE
  8
0
  6
CONTINUOUS
 62
               4
  5
23D
 10
-44.336678240656802
 20
-8.997548628843127
 30
0.0
 11
-44.284406840239001
 21
-8.9214979049160945
 31
0.0
  0
LINE
  8
0
  6
CONTINUOUS
 62
               4
  5
23E
 10
-44.284406840239001
 20
-8.9214979049160945
 30
0.0
 11
-44.233371305897009
 21
-8.8444329636138974
 31
0.0
  0
LINE
  8
0
  6
CONTINUOUS
 62
               4
  5
23F
 10
-44.233371305897009
 20
-8.8444329636138974
 30
0.0
 11
-44.183587812903141
 21
-8.7663782300048183
 31
0.0
  0
LINE
  8
0
  6
CONTINUOUS
 62
               4
  5
240
 10
-44.183587812903141
 20
-8.7663782300048183
 30
0.0
 11
-44.135072139706011
 21
-8.6873584428632853
 31
0.0
  0
LINE
  8
0
  6
CONTINUOUS
 62
               4
  5
241
 10
-44.135072139706011
 20
-8.6873584428632853
 30
0.0
 11
-44.087839662929703
 21
-8.6073986468291395
 31
0.0
  0
LINE
  8
0
  6
CONTINUOUS
 62
               4
  5
242
 10
-44.087839662929703
 20
-8.6073986468291395
 30
0.0
 11
-44.041905352500237
 21
-8.526524184469892
 31
0.0
  0
LINE
  8
0
  6
CONTINUOUS
 62
               4
  5
243
 10
-44.041905352500237
 20
-8.526524184469892
 30
0.0
 11
-43.997283766901027
 21
-8.4447606882486923
 31
0.0
  0
LINE
  8
0
  6
CONTINUOUS
 62
               4
  5
244
 10
-43.997283766901027
 20
-8.4447606882486923
 30
0.0
 11
-43.953989048558675
 21
-8.3621340724002735
 31
0.0
  0
LINE
  8
0
  6
CONTINUOUS
 62
               4
  5
245
 10
-43.953989048558675
 20
-8.3621340724002735
 30
0.0
 11
-43.912034919360657
 21
-8.2786705247176968
 31
0.0
  0
LINE
  8
0
  6
CONTINUOUS
 62
               4
  5
246
 10
-43.912034919360657
 20
-8.2786705247176968
 30
0.0
 11
-43.871434676306272
 21
-8.1943964982523738
 31
0.0
  0
LINE
  8
0
  6
CONTINUOUS
 62
               4
  5
247
 10
-43.871434676306272
 20
-8.1943964982523738
 30
0.0
 11
-43.832201187292291
 21
-8.109338702929918
 31
0.0
  0
LINE
  8
0
  6
CONTINUOUS
 62
               4
  5
248
 10
-43.832201187292291
 20
-8.109338702929918
 30
0.0
 11
-43.7943468870346
 21
-8.0235240970847812
 31
0.0
  0
LINE
  8
0
  6
CONTINUOUS
 62
               4
  5
249
 10
-43.7943468870346
 20
-8.0235240970847812
 30
0.0
 11
-43.757883773127077
 21
-7.9369798789159489
 31
0.0
  0
LINE
  8
0
  6
CONTINUOUS
 62
               4
  5
24A
 10
-43.757883773127077
 20
-7.9369798789159489
 30
0.0
 11
-43.722823402239101
 21
-7.849733477866728
 31
0.0
  0
LINE
  8
0
  6
CONTINUOUS
 62
               4
  5
24B
 10
-43.722823402239101
 20
-7.849733477866728
 30
0.0
 11
-43.689176886452771
 21
-7.7618125459312637
 31
0.0
  0
LINE
  8
0
  6
CONTINUOUS
 62
               4
  5
24C
 10
-43.689176886452771
 20
-7.7618125459312637
 30
0.0
 11
-43.656954889740987
 21
-7.6732449488904209
 31
0.0
  0
LINE
  8
0
  6
CONTINUOUS
 62
               4
  5
24D
 10
-43.656954889740987
 20
-7.6732449488904209
 30
0.0
 11
-43.626167624587623
 21
-7.5840587574800082
 31
0.0
  0
LINE
  8
0
  6
CONTINUOUS
 62
               4
  5
24E
 10
-43.626167624587623
 20
-7.5840587574800082
 30
0.0
 11
-43.596824848750764
 21
-7.4942822384939589
 31
0.0
  0
LINE
  8
0
  6
CONTINUOUS
 62
               4
  5
24F
 10
-43.596824848750764
 20
-7.4942822384939589
 30
0.0
 11
-43.568935862170065
 21
-7.4039438458254665
 31
0.0
  0
LINE
  8
0
  6
CONTINUOUS
 62
               4
  5
250
 10
-43.568935862170065
 20
-7.4039438458254665
 30
0.0
 11
-43.542509504019229
 21
-7.313072211448727
 31
0.0
  0
LINE
  8
0
  6
CONTINUOUS
 62
               4
  5
251
 10
-43.542509504019229
 20
-7.313072211448727
 30
0.0
 11
-43.517554149904484
 21
-7.221696136344292
 31
0.0
  0
LINE
  8
0
  6
CONTINUOUS
 62
               4
  5
252
 10
-43.517554149904484
 20
-7.221696136344292
 30
0.0
 11
-43.494077709210018
 21
-7.1298445813708611
 31
0.0
  0
LINE
  8
0
  6
CONTINUOUS
 62
               4
  5
253
 10
-43.494077709210018
 20
-7.1298445813708611
 30
0.0
 11
-43.472087622591189
 21
-7.0375466580863559
 31
0.0
  0
LINE
  8
0
  6
CONTINUOUS
 62
               4
  5
254
 10
-43.472087622591189
 20
-7.0375466580863559
 30
0.0
 11
-43.451590859616232
 21
-6.9448316195213096
 31
0.0
  0
LINE
  8
0
  6
CONTINUOUS
 62
               4
  5
255
 10
-43.451590859616232
 20
-6.9448316195213096
 30
0.0
 11
-43.432593916557344
 21
-6.8517288509073353
 31
0.0
  0
LINE
  8
0
  6
CONTINUOUS
 62
               4
  5
256
 10
-43.432593916557344
 20
-6.8517288509073353
 30
0.0
 11
-43.415102814331739
 21
-6.7582678603637305
 31
0.0
  0
LINE
  8
0
  6
CONTINUOUS
 62
               4
  5
257
 10
-43.415102814331739
 20
-6.7582678603637305
 30
0.0
 11
-43.399123096593378
 21
-6.6644782695451568
 31
0.0
  0
LINE
  8
0
  6
CONTINUOUS
 62
               4
  5
258
 10
-43.399123096593378
 20
-6.6644782695451568
 30
0.0
 11
-43.384659827975923
 21
-6.5703898042532813
 31
0.0
  0
LINE
  8
0
  6
CONTINUOUS
 62
               4
  5
259
 10
-43.384659827975923
 20
-6.5703898042532813
 30
0.0
 11
-43.371717592487599
 21
-6.4760322850154637
 31
0.0
  0
LINE
  8
0
  6
CONTINUOUS
 62
               4
  5
25A
 10
-43.371717592487599
 20
-6.4760322850154637
 30
0.0
 11
-43.360300492058286
 21
-6.3814356176334144
 31
0.0
  0
LINE
  8
0
  6
CONTINUOUS
 62
               4
  5
25B
 10
-43.360300492058286
 20
-6.3814356176334144
 30
0.0
 11
-43.350412145239474
 21
-6.2866297837047398
 31
0.0
  0
LINE
  8
0
  6
CONTINUOUS
 62
               4
  5
25C
 10
-43.350412145239474
 20
-6.2866297837047398
 30
0.0
 11
-43.342055686057364
 21
-6.1916448311206267
 31
0.0
  0
LINE
  8
0
  6
CONTINUOUS
 62
               4
  5
25D
 10
-43.342055686057364
 20
-6.1916448311206267
 30
0.0
 11
-43.335233763019616
 21
-6.0965108645423385
 31
0.0
  0
LINE
  8
0
  6
CONTINUOUS
 62
               4
  5
25E
 10
-43.335233763019616
 20
-6.0965108645423385
 30
0.0
 11
-43.329948538275886
 21
-6.0012580358598484
 31
0.0
  0
LINE
  8
0
  6
CONTINUOUS
 62
               4
  5
25F
 10
-43.329948538275886
 20
-6.0012580358598484
 30
0.0
 11
-43.326201686932549
 21
-5.9059165346354519
 31
0.0
  0
LINE
  8
0
  6
CONTINUOUS
 62
               4
  5
260
 10
-43.326201686932549
 20
-5.9059165346354519
 30
0.0
 11
-43.323994396521812
 21
-5.8105165785354416
 31
0.0
  0
LINE
  8
0
  6
CONTINUOUS
 62
               4
  5
261
 10
-43.323994396521812
 20
-5.8105165785354416
 30
0.0
 11
-43.323327366625342
 21
-5.7150884037528868
 31
0.0
  0
LINE
  8
0
  6
CONTINUOUS
 62
               4
  5
262
 10
-43.323327366625342
 20
-5.7150884037528868
 30
0.0
 11
-43.324200808652499
 21
-5.6196622554245081
 31
0.0
  0
LINE
  8
0
  6
CONTINUOUS
 62
               4
  5
263
 10
-43.324200808652499
 20
-5.6196622554245081
 30
0.0
 11
-43.326614445773373
 21
-5.5242683780447663
 31
0.0
  0
LINE
  8
0
  6
CONTINUOUS
 62
               4
  5
264
 10
-43.326614445773373
 20
-5.5242683780447663
 30
0.0
 11
-43.3305675130065
 21
-5.4289370058801154
 31
0.0
  0
LINE
  8
0
  6
CONTINUOUS
 62
               4
  5
265
 10
-43.3305675130065
 20
-5.4289370058801154
 30
0.0
 11
-43.336058757461323
 21
-5.3336983533865521
 31
0.0
  0
LINE
  8
0
  6
CONTINUOUS
 62
               4
  5
266
 10
-43.336058757461323
 20
-5.3336983533865521
 30
0.0
 11
-43.343086438735284
 21
-5.2385826056333258
 31
0.0
  0
LINE
  8
0
  6
CONTINUOUS
 62
               4
  5
267
 10
-43.343086438735284
 20
-5.2385826056333258
 30
0.0
 11
-43.351648329465441
 21
-5.1436199087361203
 31
0.0
  0
LINE
  8
0
  6
CONTINUOUS
 62
               4
  5
268
 10
-43.351648329465441
 20
-5.1436199087361203
 30
0.0
 11
-43.361741716034373
 21
-5.0488403603024707
 31
0.0
  0
LINE
  8
0
  6
CONTINUOUS
 62
               4
  5
269
 10
-43.361741716034373
 20
-5.0488403603024707
 30
0.0
 11
-43.373363399430303
 21
-4.9542739998925782
 31
0.0
  0
ENDBLK
  8
0
  5
26A
  0
BLOCK
  8
0
  5
26B
  2
GROUP_3
 70
               0
 10
0.0
 20
0.0
 30
0.0
  3
GROUP_3
  0
LINE
  8
0
  6
CONTINUOUS
 62
               4
  5
26C
 10
-63.0
 20
18.274646481244595
 30
0.0
 11
29.861707687377933
 21
111.13635416862252
 31
0.0
  0
LINE
  8
0
  6
CONTINUOUS
 62
               4
  5
26D
 10
-67.5
 20
84.48532458183054
 30
0.0
 11
-59.111806284013738
 21
92.873518297816787
 31
0.0
  0
LINE
  8
0
  6
CONTINUOUS
 62
               4
  5
26E
 10
-59.111806284013738
 20
92.873518297816787
 30
0.0
 11
-40.848970413208015
 21
111.13635416862252
 31
0.0
  0
LINE
  8
0
  6
CONTINUOUS
 62
               4
  5
26F
 10
-63.0
 20
-52.43603161934135
 30
0.0
 11
67.500000000000028
 21
78.063968380658665
 31
0.0
  0
LINE
  8
0
  6
CONTINUOUS
 62
               4
  5
270
 10
-8.7169361114501971
 20
-68.863645831377482
 30
0.0
 11
62.999999999999972
 21
2.8532902800726774
 31
0.0
  0
ENDBLK
  8
0
  5
271
  0
BLOCK
  8
0
  5
272
  2
GROUP_4
 70
               0
 10
0.0
 20
0.0
 30
0.0
  3
GROUP_4
  0
LINE
  8
0
  6
CONTINUOUS
 62
               4
  5
273
 10
237.0
 20
18.274646481244595
 30
0.0
 11
329.86170768737793
 21
111.13635416862252
 31
0.0
  0
LINE
  8
0
  6
CONTINUOUS
 62
               4
  5
274
 10
232.5
 20
84.48532458183054
 30
0.0
 11
240.88819371598626
 21
92.873518297816787
 31
0.0
  0
LINE
  8
0
  6
CONTINUOUS
 62
               4
  5
275
 10
240.88819371598626
 20
92.873518297816787
 30
0.0
 11
259.15102958679199
 21
111.13635416862252
 31
0.0
  0
LINE
  8
0
  6
CONTINUOUS
 62
               4
  5
276
 10
237.0
 20
-52.43603161934135
 30
0.0
 11
367.5
 21
78.063968380658665
 31
0.0
  0
LINE
  8
0
  6
CONTINUOUS
 62
               4
  5
277
 10
291.2830638885498
 20
-68.863645831377482
 30
0.0
 11
363.0
 21
2.8532902800726774
 31
0.0
  0
ENDBLK
  8
0
  5
278
  0
BLOCK
  8
0
  5
279
  2
GROUP_5
 70
               0
 10
0.0
 20
0.0
 30
0.0
  3
GROUP_5
  0
LINE
  8
0
  6
CONTINUOUS
 62
               4
  5
27A
 10
-363.0
 20
18.274646481244595
 30
0.0
 11
-270.13829231262207
 21
111.13635416862252
 31
0.0
  0
LINE
  8
0
  6
CONTINUOUS
 62
               4
  5
27B
 10
-367.5
 20
84.48532458183054
 30
0.0
 11
-359.11180628401371
 21
92.873518297816787
 31
0.0
  0
LINE
  8
0
  6
CONTINUOUS
 62
               4
  5
27C
 10
-359.11180628401371
 20
92.873518297816787
 30
0.0
 11
-340.84897041320801
 21
111.13635416862252
 31
0.0
  0
LINE
  8
0
  6
CONTINUOUS
 62
               4
  5
27D
 10
-363.0
 20
-52.43603161934135
 30
0.0
 11
-232.49999999999997
 21
78.063968380658665
 31
0.0
  0
LINE
  8
0
  6
CONTINUOUS
 62
               4
  5
27E
 10
-308.7169361114502
 20
-68.863645831377482
 30
0.0
 11
-237.00000000000003
 21
2.8532902800726774
 31
0.0
  0
ENDBLK
  8
0
  5
27F
  0
ENDSEC
  0
SECTION
  2
ENTITIES
  0
LINE
  8
0
  6
DASHDOT
 62
               4
  5
280
 10
0.0
 20
125.99729651245224
 30
0.0
 11
0.0000000000000309
 21
-378.6583226895774
 31
0.0
  0
LINE
  8
0
  6
DASHDOT
 62
               4
  5
281
 10
300.0
 20
126.51317134121638
 30
0.0
 11
300.00000000000006
 21
-382.6325921556367
 31
0.0
  0
LINE
  8
0
  6
DASHDOT
 62
               4
  5
282
 10
-300.00000000000051
 20
-378.6583226895774
 30
0.0
 11
-299.99999999999915
 21
125.99729651245303
 31
0.0
  0
LINE
  8
0
  6
DASHDOT
 62
               4
  5
283
 10
81.0
 20
301.13635416862252
 30
0.0
 11
-93.859202394094268
 21
301.13635416862257
 31
0.0
  0
LINE
  8
0
  6
DASHDOT
 62
               4
  5
284
 10
0.0
 20
220.1363541686224
 30
0.0
 11
0.0000000000000107
 21
382.6325921556367
 31
0.0
  0
LINE
  8
0
  6
DASHDOT
 62
               4
  5
285
 10
115.00000000000017
 20
-52.87354383337248
 30
0.0
 11
115.00000000000018
 21
-206.73301207370304
 31
0.0
  0
LINE
  8
0
  6
DASHDOT
 62
               4
  5
286
 10
-115.00000000000016
 20
-52.873543833372494
 30
0.0
 11
-115.00000000000011
 21
-206.73301207370338
 31
0.0
  0
LINE
  8
0
  6
DASHED2
 62
               4
  5
287
 10
-44.5
 20
51.136354168622518
 30
0.0
 11
44.500000000000014
 21
51.136354168622518
 31
0.0
  0
LINE
  8
0
  6
DASHED2
 62
               4
  5
288
 10
255.5
 20
51.136354168622518
 30
0.0
 11
344.5
 21
51.136354168622518
 31
0.0
  0
LINE
  8
0
  6
DASHED2
 62
               4
  5
289
 10
-344.5
 20
51.136354168622518
 30
0.0
 11
-255.5
 21
51.136354168622518
 31
0.0
  0
LINE
  8
0
  6
DASHED2
 62
               4
  5
28A
 10
-311.76000000000033
 20
-163.31521808592754
 30
0.0
 11
-311.76000000000033
 21
-154.78908958662032
 31
0.0
  0
LINE
  8
0
  6
DASHED2
 62
               4
  5
28B
 10
-305.87102725426587
 20
-154.78908958662032
 30
0.0
 11
-305.87102725426587
 21
-163.31521808592754
 31
0.0
  0
LINE
  8
0
  6
DASHED2
 62
               4
  5
28C
 10
-308.81551362713287
 20
-153.7152180859274
 30
0.0
 11
-291.1844863728669
 21
-153.7152180859274
 31
0.0
  0
LINE
  8
0
  6
DASHED2
 62
               4
  5
28D
 10
-288.2399999999999
 20
-163.31521808592754
 30
0.0
 11
-288.2399999999999
 21
-154.78908958662032
 31
0.0
  0
LINE
  8
0
  6
DASHED2
 62
               4
  5
28E
 10
-294.12897274573459
 20
-163.31521808592754
 30
0.0
 11
-294.12897274573459
 21
-154.78908958662032
 31
0.0
  0
ARC
  8
0
  6
DASHED2
 62
               4
  5
28F
 10
-308.81551362713287
 20
-158.28894967004339
 30
0.0
 40
4.5737315841157447
 50
49.925579661603059
 51
130.07442033832857
  0
ARC
  8
0
  6
DASHED2
 62
               4
  5
290
 10
-291.1844863728669
 20
-158.28894967004339
 30
0.0
 40
4.5737315841157686
 50
49.925579661602519
 51
130.07442033832834
  0
ARC
  8
0
  6
DASHED2
 62
               4
  5
291
 10
-300.00000000000011
 20
-170.30107635544789
 30
0.0
 40
16.58585826952007
 50
69.269184858534501
 51
110.73081514139706
  0
LINE
  8
0
  6
DASHED2
 62
               4
  5
292
 10
-311.7600000000017
 20
-166.51521808592793
 30
0.0
 11
-311.7600000000017
 21
-175.04134658523515
 31
0.0
  0
LINE
  8
0
  6
DASHED2
 62
               4
  5
293
 10
-305.87102725426723
 20
-175.04134658523515
 30
0.0
 11
-305.87102725426723
 21
-166.51521808592793
 31
0.0
  0
LINE
  8
0
  6
DASHED2
 62
               4
  5
294
 10
-308.81551362713424
 20
-176.11521808592772
 30
0.0
 11
-291.18448637286872
 21
-176.11521808592772
 31
0.0
  0
LINE
  8
0
  6
DASHED2
 62
               4
  5
295
 10
-288.24000000000126
 20
-166.51521808592793
 30
0.0
 11
-288.24000000000126
 21
-175.04134658523515
 31
0.0
  0
LINE
  8
0
  6
DASHED2
 62
               4
  5
296
 10
-294.12897274573572
 20
-166.51521808592793
 30
0.0
 11
-294.12897274573572
 21
-175.04134658523515
 31
0.0
  0
ARC
  8
0
  6
DASHED2
 62
               4
  5
297
 10
-308.81551362713424
 20
-171.5414865018123
 30
0.0
 40
4.5737315841157447
 50
229.92557966153393
 51
310.07442033826015
  0
ARC
  8
0
  6
DASHED2
 62
               4
  5
298
 10
-291.18448637286872
 20
-171.5414865018123
 30
0.0
 40
4.5737315841157686
 50
229.92557966153436
 51
310.07442033826015
  0
ARC
  8
0
  6
DASHED2
 62
               4
  5
299
 10
-300.00000000000148
 20
-159.5293598164078
 30
0.0
 40
16.58585826952007
 50
249.26918485846545
 51
290.73081514132804
  0
LINE
  8
0
  6
DASHED2
 62
               4
  5
29A
 10
-306.00000000000011
 20
-176.11521808592772
 30
0.0
 11
-306.00000000000011
 21
-186.63458432825166
 31
0.0
  0
LINE
  8
0
  6
DASHED2
 62
               4
  5
29B
 10
-294.00000000000011
 20
-176.11521808592772
 30
0.0
 11
-294.00000000000011
 21
-186.63458432825166
 31
0.0
  0
LINE
  8
0
  6
DASHED2
 62
               4
  5
29C
 10
-304.8000000000003
 20
-187.83458432825205
 30
0.0
 11
-295.20000000000016
 21
-187.83458432825205
 31
0.0
  0
LINE
  8
0
  6
DASHED2
 62
               4
  5
29D
 10
-306.00000000000011
 20
-186.63458432825166
 30
0.0
 11
-304.8000000000003
 21
-187.83458432825205
 31
0.0
  0
LINE
  8
0
  6
DASHED2
 62
               4
  5
29E
 10
-294.00000000000011
 20
-186.63458432825166
 30
0.0
 11
-295.20000000000016
 21
-187.83458432825205
 31
0.0
  0
LINE
  8
0
  6
DASHED2
 62
               4
  5
29F
 10
-311.76000000000033
 20
-163.31521808592754
 30
0.0
 11
-288.2399999999999
 21
-163.31521808592754
 31
0.0
  0
LINE
  8
0
  6
DASHED2
 62
               4
  5
2A0
 10
-288.24000000000126
 20
-166.51521808592793
 30
0.0
 11
-311.7600000000017
 21
-166.51521808592793
 31
0.0
  0
LINE
  8
0
  6
DASHED2
 62
               4
  5
2A1
 10
-306.00000000000011
 20
-58.701638609997019
 30
0.0
 11
-306.00000000000011
 21
-153.7152180859274
 31
0.0
  0
LINE
  8
0
  6
DASHED2
 62
               4
  5
2A2
 10
-294.00000000000011
 20
-58.701638609997019
 30
0.0
 11
-294.00000000000011
 21
-153.7152180859274
 31
0.0
  0
LINE
  8
0
  6
DASHED2
 62
               4
  5
2A3
 10
-294.00000000000011
 20
-58.701638609997019
 30
0.0
 11
-306.00000000000011
 21
-58.701638609997019
 31
0.0
  0
LINE
  8
0
  6
DASHED2
 62
               4
  5
2A4
 10
-344.5
 20
-173.76521808592639
 30
0.0
 11
-255.5
 21
-173.76521808592639
 31
0.0
  0
LINE
  8
0
  6
DASHED2
 62
               4
  5
2A5
 10
-255.5
 20
-108.76521808592639
 30
0.0
 11
-255.5
 21
-173.76521808592639
 31
0.0
  0
LINE
  8
0
  6
DASHED2
 62
               4
  5
2A6
 10
-344.5
 20
-108.86364583137748
 30
0.0
 11
-344.5
 21
-173.76521808592639
 31
0.0
  0
LINE
  8
0
  6
DASHED2
 62
               4
  5
2A7
 10
-345.00000000000205
 20
-183.76521808592747
 30
0.0
 11
-345.00000000000148
 21
-238.76521808592634
 31
0.0
  0
LINE
  8
0
  6
DASHED2
 62
               4
  5
2A8
 10
-345.00000000000205
 20
-183.76521808592747
 30
0.0
 11
-299.99999999999977
 21
-183.76521808592599
 31
0.0
  0
LINE
  8
0
  6
DASHED2
 62
               4
  5
2A9
 10
-254.99999999999665
 20
-183.76521808592645
 30
0.0
 11
-299.99999999999864
 21
-183.76521808592599
 31
0.0
  0
LINE
  8
0
  6
DASHED2
 62
               4
  5
2AA
 10
-254.99999999999665
 20
-183.76521808592645
 30
0.0
 11
-254.99999999999608
 21
-238.76521808592531
 31
0.0
  0
LINE
  8
0
  6
DASHED2
 62
               4
  5
2AB
 10
-126.76000000000056
 20
-163.41364583137857
 30
0.0
 11
-126.76000000000056
 21
-154.88751733207147
 31
0.0
  0
LINE
  8
0
  6
DASHED2
 62
               4
  5
2AC
 10
-120.87102725426615
 20
-154.88751733207147
 30
0.0
 11
-120.87102725426615
 21
-163.41364583137857
 31
0.0
  0
LINE
  8
0
  6
DASHED2
 62
               4
  5
2AD
 10
-123.81551362713321
 20
-153.81364583137844
 30
0.0
 11
-106.1844863728673
 21
-153.81364583137844
 31
0.0
  0
LINE
  8
0
  6
DASHED2
 62
               4
  5
2AE
 10
-103.24000000000024
 20
-163.41364583137857
 30
0.0
 11
-103.24000000000024
 21
-154.88751733207147
 31
0.0
  0
LINE
  8
0
  6
DASHED2
 62
               4
  5
2AF
 10
-109.12897274573493
 20
-163.41364583137857
 30
0.0
 11
-109.12897274573493
 21
-154.88751733207147
 31
0.0
  0
ARC
  8
0
  6
DASHED2
 62
               4
  5
2B0
 10
-123.81551362713321
 20
-158.38737741549443
 30
0.0
 40
4.5737315841157447
 50
49.925579661602789
 51
130.07442033832857
  0
ARC
  8
0
  6
DASHED2
 62
               4
  5
2B1
 10
-106.1844863728673
 20
-158.38737741549443
 30
0.0
 40
4.5737315841157686
 50
49.925579661602647
 51
130.07442033832848
  0
ARC
  8
0
  6
DASHED2
 62
               4
  5
2B2
 10
-115.0000000000004
 20
-170.39950410089892
 30
0.0
 40
16.58585826952007
 50
69.269184858534402
 51
110.73081514139702
  0
LINE
  8
0
  6
DASHED2
 62
               4
  5
2B3
 10
-126.76000000000198
 20
-166.61364583137885
 30
0.0
 11
-126.76000000000198
 21
-175.13977433068607
 31
0.0
  0
LINE
  8
0
  6
DASHED2
 62
               4
  5
2B4
 10
-120.87102725426757
 20
-175.13977433068607
 30
0.0
 11
-120.87102725426757
 21
-166.61364583137885
 31
0.0
  0
LINE
  8
0
  6
DASHED2
 62
               4
  5
2B5
 10
-123.81551362713464
 20
-176.21364583137864
 30
0.0
 11
-106.184486372869
 21
-176.21364583137864
 31
0.0
  0
LINE
  8
0
  6
DASHED2
 62
               4
  5
2B6
 10
-103.24000000000166
 20
-166.61364583137885
 30
0.0
 11
-103.24000000000166
 21
-175.13977433068607
 31
0.0
  0
LINE
  8
0
  6
DASHED2
 62
               4
  5
2B7
 10
-109.12897274573606
 20
-166.61364583137885
 30
0.0
 11
-109.12897274573606
 21
-175.13977433068607
 31
0.0
  0
ARC
  8
0
  6
DASHED2
 62
               4
  5
2B8
 10
-123.81551362713464
 20
-171.63991424726322
 30
0.0
 40
4.5737315841157447
 50
229.92557966153404
 51
310.07442033826032
  0
ARC
  8
0
  6
DASHED2
 62
               4
  5
2B9
 10
-106.184486372869
 20
-171.63991424726322
 30
0.0
 40
4.5737315841157686
 50
229.92557966153464
 51
310.0744203382605
  0
ARC
  8
0
  6
DASHED2
 62
               4
  5
2BA
 10
-115.00000000000182
 20
-159.62778756185872
 30
0.0
 40
16.58585826952007
 50
249.26918485846539
 51
290.73081514132798
  0
LINE
  8
0
  6
DASHED2
 62
               4
  5
2BB
 10
-121.00000000000034
 20
-176.21364583137864
 30
0.0
 11
-121.00000000000034
 21
-186.73301207370338
 31
0.0
  0
LINE
  8
0
  6
DASHED2
 62
               4
  5
2BC
 10
-109.00000000000045
 20
-176.21364583137864
 30
0.0
 11
-109.00000000000045
 21
-186.73301207370338
 31
0.0
  0
LINE
  8
0
  6
DASHED2
 62
               4
  5
2BD
 10
-119.80000000000058
 20
-187.93301207370365
 30
0.0
 11
-110.2000000000005
 21
-187.93301207370365
 31
0.0
  0
LINE
  8
0
  6
DASHED2
 62
               4
  5
2BE
 10
-121.00000000000034
 20
-186.73301207370338
 30
0.0
 11
-119.80000000000058
 21
-187.93301207370365
 31
0.0
  0
LINE
  8
0
  6
DASHED2
 62
               4
  5
2BF
 10
-109.00000000000045
 20
-186.73301207370338
 30
0.0
 11
-110.2000000000005
 21
-187.93301207370365
 31
0.0
  0
LINE
  8
0
  6
DASHED2
 62
               4
  5
2C0
 10
-121.00000000000034
 20
-58.800066355448791
 30
0.0
 11
-121.00000000000034
 21
-154.41364583137846
 31
0.0
  0
LINE
  8
0
  6
DASHED2
 62
               4
  5
2C1
 10
-109.00000000000045
 20
-58.800066355448791
 30
0.0
 11
-109.00000000000045
 21
-154.41364583137846
 31
0.0
  0
LINE
  8
0
  6
DASHED2
 62
               4
  5
2C2
 10
-109.00000000000045
 20
-58.800066355448791
 30
0.0
 11
-121.00000000000034
 21
-58.800066355448791
 31
0.0
  0
LINE
  8
0
  6
DASHED2
 62
               4
  5
2C3
 10
-44.5
 20
-173.86364583137748
 30
0.0
 11
44.5
 21
-173.86364583137748
 31
0.0
  0
LINE
  8
0
  6
DASHED2
 62
               4
  5
2C4
 10
44.5
 20
-108.86364583137748
 30
0.0
 11
44.5
 21
-173.86364583137748
 31
0.0
  0
LINE
  8
0
  6
DASHED2
 62
               4
  5
2C5
 10
-44.5
 20
-108.96207357682857
 30
0.0
 11
-44.5
 21
-173.86364583137748
 31
0.0
  0
LINE
  8
0
  6
DASHED2
 62
               4
  5
2C6
 10
-45.00000000000199
 20
-183.86364583137919
 30
0.0
 11
-45.000000000001421
 21
-238.86364583137805
 31
0.0
  0
LINE
  8
0
  6
DASHED2
 62
               4
  5
2C7
 10
-45.00000000000199
 20
-183.86364583137919
 30
0.0
 11
0.0000000000002842
 21
-183.86364583137771
 31
0.0
  0
LINE
  8
0
  6
DASHED2
 62
               4
  5
2C8
 10
45.000000000003411
 20
-183.86364583137816
 30
0.0
 11
0.0000000000014211
 21
-183.86364583137771
 31
0.0
  0
LINE
  8
0
  6
DASHED2
 62
               4
  5
2C9
 10
45.000000000003411
 20
-183.86364583137816
 30
0.0
 11
45.000000000003979
 21
-238.86364583137703
 31
0.0
  0
LINE
  8
0
  6
DASHED2
 62
               4
  5
2CA
 10
126.76000000000033
 20
-163.41364583137835
 30
0.0
 11
126.76000000000033
 21
-154.88751733207113
 31
0.0
  0
LINE
  8
0
  6
DASHED2
 62
               4
  5
2CB
 10
120.87102725426593
 20
-154.88751733207113
 30
0.0
 11
120.87102725426593
 21
-163.41364583137835
 31
0.0
  0
LINE
  8
0
  6
DASHED2
 62
               4
  5
2CC
 10
123.81551362713299
 20
-153.81364583137821
 30
0.0
 11
106.18448637286707
 21
-153.81364583137821
 31
0.0
  0
LINE
  8
0
  6
DASHED2
 62
               4
  5
2CD
 10
103.24000000000001
 20
-163.41364583137835
 30
0.0
 11
103.24000000000001
 21
-154.88751733207113
 31
0.0
  0
LINE
  8
0
  6
DASHED2
 62
               4
  5
2CE
 10
109.1289727457347
 20
-163.41364583137835
 30
0.0
 11
109.1289727457347
 21
-154.88751733207113
 31
0.0
  0
ARC
  8
0
  6
DASHED2
 62
               4
  5
2CF
 10
123.81551362713299
 20
-158.38737741549431
 30
0.0
 40
4.5737315841157447
 50
49.925579661636654
 51
130.07442033836259
  0
ARC
  8
0
  6
DASHED2
 62
               4
  5
2D0
 10
106.18448637286707
 20
-158.38737741549431
 30
0.0
 40
4.5737315841157686
 50
49.925579661636753
 51
130.0744203383627
  0
ARC
  8
0
  6
DASHED2
 62
               4
  5
2D1
 10
115.00000000000017
 20
-170.3995041008987
 30
0.0
 40
16.58585826952007
 50
69.269184858568295
 51
110.73081514143087
  0
LINE
  8
0
  6
DASHED2
 62
               4
  5
2D2
 10
126.76000000000175
 20
-166.61364583137873
 30
0.0
 11
126.76000000000175
 21
-175.13977433068595
 31
0.0
  0
LINE
  8
0
  6
DASHED2
 62
               4
  5
2D3
 10
120.87102725426735
 20
-175.13977433068595
 30
0.0
 11
120.87102725426735
 21
-166.61364583137873
 31
0.0
  0
LINE
  8
0
  6
DASHED2
 62
               4
  5
2D4
 10
123.81551362713441
 20
-176.21364583137853
 30
0.0
 11
106.18448637286878
 21
-176.21364583137853
 31
0.0
  0
LINE
  8
0
  6
DASHED2
 62
               4
  5
2D5
 10
103.24000000000143
 20
-166.61364583137873
 30
0.0
 11
103.24000000000143
 21
-175.13977433068595
 31
0.0
  0
LINE
  8
0
  6
DASHED2
 62
               4
  5
2D6
 10
109.12897274573584
 20
-166.61364583137873
 30
0.0
 11
109.12897274573584
 21
-175.13977433068595
 31
0.0
  0
ARC
  8
0
  6
DASHED2
 62
               4
  5
2D7
 10
123.81551362713441
 20
-171.63991424726311
 30
0.0
 40
4.5737315841157447
 50
229.9255796616352
 51
310.07442033836156
  0
ARC
  8
0
  6
DASHED2
 62
               4
  5
2D8
 10
106.18448637286878
 20
-171.63991424726311
 30
0.0
 40
4.5737315841157686
 50
229.92557966163531
 51
310.07442033836116
  0
ARC
  8
0
  6
DASHED2
 62
               4
  5
2D9
 10
115.00000000000159
 20
-159.62778756185861
 30
0.0
 40
16.58585826952007
 50
249.2691848585678
 51
290.7308151414303
  0
LINE
  8
0
  6
DASHED2
 62
               4
  5
2DA
 10
121.00000000000011
 20
-176.21364583137853
 30
0.0
 11
121.0000000000004
 21
-186.73301207370304
 31
0.0
  0
LINE
  8
0
  6
DASHED2
 62
               4
  5
2DB
 10
109.00000000000023
 20
-176.21364583137853
 30
0.0
 11
109.00000000000023
 21
-186.73301207370315
 31
0.0
  0
LINE
  8
0
  6
DASHED2
 62
               4
  5
2DC
 10
119.80000000000035
 20
-187.93301207370354
 30
0.0
 11
110.20000000000027
 21
-187.93301207370354
 31
0.0
  0
LINE
  8
0
  6
DASHED2
 62
               4
  5
2DD
 10
121.0000000000004
 20
-186.73301207370304
 30
0.0
 11
119.80000000000035
 21
-187.93301207370354
 31
0.0
  0
LINE
  8
0
  6
DASHED2
 62
               4
  5
2DE
 10
109.00000000000023
 20
-186.73301207370315
 30
0.0
 11
110.20000000000027
 21
-187.93301207370354
 31
0.0
  0
LINE
  8
0
  6
DASHED2
 62
               4
  5
2DF
 10
120.99999999999983
 20
-58.800066355448564
 30
0.0
 11
121.00000000000011
 21
-154.41364583137812
 31
0.0
  0
LINE
  8
0
  6
DASHED2
 62
               4
  5
2E0
 10
108.99999999999994
 20
-58.800066355448564
 30
0.0
 11
109.00000000000023
 21
-154.41364583137835
 31
0.0
  0
LINE
  8
0
  6
DASHED2
 62
               4
  5
2E1
 10
108.99999999999994
 20
-58.800066355448564
 30
0.0
 11
120.99999999999983
 21
-58.800066355448564
 31
0.0
  0
LINE
  8
0
  6
DASHED2
 62
               4
  5
2E2
 10
288.2399999999983
 20
-166.51521808592793
 30
0.0
 11
288.2399999999983
 21
-175.04134658523515
 31
0.0
  0
LINE
  8
0
  6
DASHED2
 62
               4
  5
2E3
 10
294.12897274573277
 20
-175.04134658523515
 30
0.0
 11
294.12897274573277
 21
-166.51521808592793
 31
0.0
  0
LINE
  8
0
  6
DASHED2
 62
               4
  5
2E4
 10
291.18448637286576
 20
-176.11521808592772
 30
0.0
 11
308.81551362713128
 21
-176.11521808592772
 31
0.0
  0
LINE
  8
0
  6
DASHED2
 62
               4
  5
2E5
 10
311.75999999999874
 20
-166.51521808592793
 30
0.0
 11
311.75999999999874
 21
-175.04134658523515
 31
0.0
  0
LINE
  8
0
  6
DASHED2
 62
               4
  5
2E6
 10
305.87102725426428
 20
-166.51521808592793
 30
0.0
 11
305.87102725426428
 21
-175.04134658523515
 31
0.0
  0
ARC
  8
0
  6
DASHED2
 62
               4
  5
2E7
 10
291.18448637286576
 20
-171.5414865018123
 30
0.0
 40
4.5737315841157447
 50
229.92557966153393
 51
310.07442033826015
  0
ARC
  8
0
  6
DASHED2
 62
               4
  5
2E8
 10
308.81551362713128
 20
-171.5414865018123
 30
0.0
 40
4.5737315841157686
 50
229.92557966153436
 51
310.07442033826015
  0
ARC
  8
0
  6
DASHED2
 62
               4
  5
2E9
 10
299.99999999999852
 20
-159.5293598164078
 30
0.0
 40
16.58585826952007
 50
249.26918485846545
 51
290.73081514132804
  0
LINE
  8
0
  6
DASHED2
 62
               4
  5
2EA
 10
293.99999999999989
 20
-176.11521808592772
 30
0.0
 11
293.99999999999989
 21
-186.63458432825166
 31
0.0
  0
LINE
  8
0
  6
DASHED2
 62
               4
  5
2EB
 10
305.99999999999989
 20
-176.11521808592772
 30
0.0
 11
305.99999999999989
 21
-186.63458432825166
 31
0.0
  0
LINE
  8
0
  6
DASHED2
 62
               4
  5
2EC
 10
295.1999999999997
 20
-187.83458432825205
 30
0.0
 11
304.79999999999984
 21
-187.83458432825205
 31
0.0
  0
LINE
  8
0
  6
DASHED2
 62
               4
  5
2ED
 10
293.99999999999989
 20
-186.63458432825166
 30
0.0
 11
295.1999999999997
 21
-187.83458432825205
 31
0.0
  0
LINE
  8
0
  6
DASHED2
 62
               4
  5
2EE
 10
305.99999999999989
 20
-186.63458432825166
 30
0.0
 11
304.79999999999984
 21
-187.83458432825205
 31
0.0
  0
LINE
  8
0
  6
DASHED2
 62
               4
  5
2EF
 10
311.75999999999874
 20
-166.51521808592793
 30
0.0
 11
288.2399999999983
 21
-166.51521808592793
 31
0.0
  0
LINE
  8
0
  6
DASHED2
 62
               4
  5
2F0
 10
255.5
 20
-173.76521808592639
 30
0.0
 11
344.5
 21
-173.76521808592639
 31
0.0
  0
LINE
  8
0
  6
DASHED2
 62
               4
  5
2F1
 10
254.99999999999795
 20
-183.76521808592747
 30
0.0
 11
254.99999999999852
 21
-238.76521808592634
 31
0.0
  0
LINE
  8
0
  6
DASHED2
 62
               4
  5
2F2
 10
254.99999999999795
 20
-183.76521808592747
 30
0.0
 11
300.00000000000023
 21
-183.76521808592599
 31
0.0
  0
LINE
  8
0
  6
DASHED2
 62
               4
  5
2F3
 10
345.00000000000335
 20
-183.76521808592645
 30
0.0
 11
300.00000000000136
 21
-183.76521808592599
 31
0.0
  0
LINE
  8
0
  6
DASHED2
 62
               4
  5
2F4
 10
345.00000000000335
 20
-183.76521808592645
 30
0.0
 11
345.00000000000392
 21
-238.76521808592531
 31
0.0
  0
LINE
  8
0
  6
DASHED2
 62
               4
  5
2F5
 10
288.23999999999967
 20
-163.31521808592754
 30
0.0
 11
288.23999999999967
 21
-154.78908958662032
 31
0.0
  0
LINE
  8
0
  6
DASHED2
 62
               4
  5
2F6
 10
294.12897274573413
 20
-154.78908958662032
 30
0.0
 11
294.12897274573413
 21
-163.31521808592754
 31
0.0
  0
LINE
  8
0
  6
DASHED2
 62
               4
  5
2F7
 10
291.18448637286713
 20
-153.7152180859274
 30
0.0
 11
308.8155136271331
 21
-153.7152180859274
 31
0.0
  0
LINE
  8
0
  6
DASHED2
 62
               4
  5
2F8
 10
311.7600000000001
 20
-163.31521808592754
 30
0.0
 11
311.7600000000001
 21
-154.78908958662032
 31
0.0
  0
LINE
  8
0
  6
DASHED2
 62
               4
  5
2F9
 10
305.87102725426541
 20
-163.31521808592754
 30
0.0
 11
305.87102725426541
 21
-154.78908958662032
 31
0.0
  0
ARC
  8
0
  6
DASHED2
 62
               4
  5
2FA
 10
291.18448637286713
 20
-158.28894967004339
 30
0.0
 40
4.5737315841157447
 50
49.925579661603059
 51
130.07442033832857
  0
ARC
  8
0
  6
DASHED2
 62
               4
  5
2FB
 10
308.8155136271331
 20
-158.28894967004339
 30
0.0
 40
4.5737315841157686
 50
49.925579661602519
 51
130.07442033832834
  0
ARC
  8
0
  6
DASHED2
 62
               4
  5
2FC
 10
299.99999999999989
 20
-170.30107635544789
 30
0.0
 40
16.58585826952007
 50
69.269184858534501
 51
110.73081514139706
  0
LINE
  8
0
  6
DASHED2
 62
               4
  5
2FD
 10
288.23999999999967
 20
-163.31521808592754
 30
0.0
 11
311.7600000000001
 21
-163.31521808592754
 31
0.0
  0
LINE
  8
0
  6
DASHED2
 62
               4
  5
2FE
 10
344.5
 20
-108.76521808592639
 30
0.0
 11
344.5
 21
-173.76521808592639
 31
0.0
  0
LINE
  8
0
  6
DASHED2
 62
               4
  5
2FF
 10
255.5
 20
-108.86364583137748
 30
0.0
 11
255.5
 21
-173.76521808592639
 31
0.0
  0
LINE
  8
0
  6
DASHED2
 62
               4
  5
300
 10
293.99999999999989
 20
-58.701638609997019
 30
0.0
 11
293.99999999999989
 21
-153.7152180859274
 31
0.0
  0
LINE
  8
0
  6
DASHED2
 62
               4
  5
301
 10
305.99999999999989
 20
-58.701638609997019
 30
0.0
 11
305.99999999999989
 21
-153.7152180859274
 31
0.0
  0
LINE
  8
0
  6
DASHED2
 62
               4
  5
302
 10
305.99999999999989
 20
-58.701638609997019
 30
0.0
 11
293.99999999999989
 21
-58.701638609997019
 31
0.0
  0
LINE
  8
0
  6
CONTINUOUS
 62
               4
  5
303
 10
60.999999999999886
 20
111.13635416862252
 30
0.0
 11
60.999999999999886
 21
95.822067243197068
 31
0.0
  0
LINE
  8
0
  6
CONTINUOUS
 62
               4
  5
304
 10
-61.0
 20
111.13635416862252
 30
0.0
 11
-61.0
 21
95.822067243197068
 31
0.0
  0
LINE
  8
0
  6
CONTINUOUS
 62
               4
  5
305
 10
-58.999999999999993
 20
91.822067243196955
 30
0.0
 11
-58.999999999999993
 21
33.237942071960731
 31
0.0
  0
ARC
  8
0
  6
CONTINUOUS
 62
               4
  5
306
 10
-63.999999999999993
 20
91.822067243196955
 30
0.0
 40
5.0
 50
0.0
 51
53.130102354135616
  0
LINE
  8
0
  6
CONTINUOUS
 62
               4
  5
307
 10
59.0
 20
91.822067243196955
 30
0.0
 11
59.0
 21
33.237942071960845
 31
0.0
  0
ARC
  8
0
  6
CONTINUOUS
 62
               4
  5
308
 10
64.0
 20
91.822067243196955
 30
0.0
 40
5.0
 50
126.86989764579529
 51
179.99999999993088
  0
LINE
  8
0
  6
CONTINUOUS
 62
               4
  5
309
 10
-61.000000000000107
 20
111.13635416862252
 30
0.0
 11
60.999999999999787
 21
111.13635416862252
 31
0.0
  0
LINE
  8
0
  6
CONTINUOUS
 62
               4
  5
30A
 10
-61.0
 20
95.822067243197068
 30
0.0
 11
60.999999999999886
 21
95.822067243197068
 31
0.0
  0
LINE
  8
0
  6
CONTINUOUS
 62
               4
  5
30B
 10
-44.0
 20
-108.86364583137748
 30
0.0
 11
44.0
 21
-108.86364583137748
 31
0.0
  0
LINE
  8
0
  6
CONTINUOUS
 62
               4
  5
30C
 10
-45.499999999999886
 20
-107.34380329551723
 30
0.0
 11
-45.499999999999886
 21
-107.36364583137765
 31
0.0
  0
LINE
  8
0
  6
CONTINUOUS
 62
               4
  5
30D
 10
45.499999999999901
 20
-104.6369973840545
 30
0.0
 11
45.499999999999901
 21
-107.36364583137765
 31
0.0
  0
LINE
  8
0
  6
CONTINUOUS
 62
               4
  5
30E
 10
-54.500000000000163
 20
18.10176035190824
 30
0.0
 11
-54.499999999997293
 21
23.045411666583675
 31
0.0
  0
ARC
  8
0
  6
CONTINUOUS
 62
               4
  5
30F
 10
-44.500000000000163
 20
18.10176035190824
 30
0.0
 40
10.0
 50
179.99999999993079
 51
220.05916053511768
  0
ARC
  8
0
  6
CONTINUOUS
 62
               4
  5
310
 10
-55.877627851165037
 20
-10.129194079566219
 30
0.0
 40
3.9490378257560579
 50
19.466939432856851
 51
69.582914919447106
  0
ARC
  8
0
  6
CONTINUOUS
 62
               4
  5
311
 10
-95.007841695256189
 20
5.2553512360864829
 30
0.0
 40
42.15912244855646
 50
343.91096007674588
 51
373.13569460757913
  0
LINE
  8
0
  6
CONTINUOUS
 62
               4
  5
312
 10
-54.500000000000021
 20
23.401784285507631
 30
0.0
 11
-54.500000000000163
 21
18.101760351908354
 31
0.0
  0
LINE
  8
0
  6
CONTINUOUS
 62
               4
  5
313
 10
-54.499999999999993
 20
-6.4282426812166591
 30
0.0
 11
-54.500000000000014
 21
-60.390941954920322
 31
0.0
  0
LINE
  8
0
  6
CONTINUOUS
 62
               4
  5
314
 10
54.500000000000014
 20
23.401784285507631
 30
0.0
 11
54.500000000000014
 21
-60.390941954920322
 31
0.0
  0
ARC
  8
0
  6
CONTINUOUS
 62
               4
  5
315
 10
-59.499999999999993
 20
23.401784285507745
 30
0.0
 40
5.0
 50
359.99999999986028
 51
409.16778297237363
  0
ARC
  8
0
  6
CONTINUOUS
 62
               4
  5
316
 10
-51.0
 20
33.237942071960731
 30
0.0
 40
8.0
 50
179.99999999993079
 51
229.16778297244289
  0
ARC
  8
0
  6
CONTINUOUS
 62
               4
  5
317
 10
59.500000000000014
 20
23.401784285507745
 30
0.0
 40
5.0
 50
130.83221702741889
 51
179.99999999993207
  0
ARC
  8
0
  6
CONTINUOUS
 62
               4
  5
318
 10
51.000000000000014
 20
33.237942071960845
 30
0.0
 40
8.0
 50
310.83221702734954
 51
359.99999999986159
  0
LINE
  8
0
  6
CONTINUOUS
 62
               4
  5
319
 10
-52.15380359873631
 20
11.665978311474362
 30
0.0
 11
-49.218342782624198
 21
8.1749591798748042
 31
0.0
  0
LINE
  8
0
  6
CONTINUOUS
 62
               4
  5
31A
 10
54.500000000000014
 20
-60.390941954920322
 30
0.0
 11
-54.500000000000014
 21
-60.390941954920322
 31
0.0
  0
LINE
  8
0
  6
CONTINUOUS
 62
               4
  5
31B
 10
45.499999999999901
 20
-104.63699738405359
 30
0.0
 11
54.500000000000014
 21
-60.390941954920322
 31
0.0
  0
LINE
  8
0
  6
CONTINUOUS
 62
               4
  5
31C
 10
44.0
 20
-108.86364583137748
 30
0.0
 11
45.5
 21
-107.36364583137754
 31
0.0
  0
LINE
  8
0
  6
CONTINUOUS
 62
               4
  5
31D
 10
45.5
 20
-107.36364583137754
 30
0.0
 11
-45.499999999999886
 21
-107.36364583137754
 31
0.0
  0
LINE
  8
0
  6
CONTINUOUS
 62
               4
  5
31E
 10
-44.0
 20
-108.86364583137754
 30
0.0
 11
-45.5
 21
-107.36364583137754
 31
0.0
  0
LINE
  8
0
  6
CONTINUOUS
 62
               4
  5
31F
 10
-45.499999999999901
 20
-104.6369973840545
 30
0.0
 11
-45.499999999999901
 21
-107.36364583137765
 31
0.0
  0
LINE
  8
0
  6
CONTINUOUS
 62
               4
  5
320
 10
-45.499999999999901
 20
-104.63699738405359
 30
0.0
 11
-54.500000000000014
 21
-60.390941954920322
 31
0.0
  0
LINE
  8
0
  6
CONTINUOUS
 62
               4
  5
321
 10
239.00000000000017
 20
111.13635416862252
 30
0.0
 11
239.00000000000017
 21
95.822067243196955
 31
0.0
  0
LINE
  8
0
  6
CONTINUOUS
 62
               4
  5
322
 10
361.0
 20
111.13635416862252
 30
0.0
 11
361.0
 21
95.822067243196955
 31
0.0
  0
LINE
  8
0
  6
CONTINUOUS
 62
               4
  5
323
 10
359.0
 20
91.822067243197068
 30
0.0
 11
359.0
 21
33.237942071960731
 31
0.0
  0
ARC
  8
0
  6
CONTINUOUS
 62
               4
  5
324
 10
364.0
 20
91.822067243197068
 30
0.0
 40
5.0
 50
126.86989764579504
 51
179.99999999993088
  0
LINE
  8
0
  6
CONTINUOUS
 62
               4
  5
325
 10
354.50000000000011
 20
23.401784285507858
 30
0.0
 11
354.50000000000011
 21
-60.390941954920095
 31
0.0
  0
ARC
  8
0
  6
CONTINUOUS
 62
               4
  5
326
 10
359.50000000000011
 20
23.401784285507858
 30
0.0
 40
5.0
 50
130.83221702741892
 51
179.99999999993085
  0
LINE
  8
0
  6
CONTINUOUS
 62
               4
  5
327
 10
354.50000000000011
 20
-60.390941954920095
 30
0.0
 11
345.49999999999989
 21
-105.63699738405359
 31
0.0
  0
ARC
  8
0
  6
CONTINUOUS
 62
               4
  5
328
 10
351.0
 20
33.237942071960731
 30
0.0
 40
8.0
 50
310.83221702734949
 51
359.99999999986159
  0
LINE
  8
0
  6
CONTINUOUS
 62
               4
  5
329
 10
241.00000000000006
 20
91.822067243197068
 30
0.0
 11
241.00000000000006
 21
33.237942071960845
 31
0.0
  0
ARC
  8
0
  6
CONTINUOUS
 62
               4
  5
32A
 10
236.00000000000006
 20
91.822067243197068
 30
0.0
 40
5.0
 50
359.9999999998617
 51
413.13010235399707
  0
ARC
  8
0
  6
CONTINUOUS
 62
               4
  5
32B
 10
240.50000000000006
 20
23.401784285507858
 30
0.0
 40
5.0
 50
359.99999999986159
 51
409.16778297237335
  0
ARC
  8
0
  6
CONTINUOUS
 62
               4
  5
32C
 10
249.0
 20
33.237942071960845
 30
0.0
 40
8.0
 50
179.99999999993079
 51
229.16778297244281
  0
LINE
  8
0
  6
CONTINUOUS
 62
               4
  5
32D
 10
245.50000000000006
 20
23.401784285507858
 30
0.0
 11
245.50000000000006
 21
-60.390941954920095
 31
0.0
  0
LINE
  8
0
  6
CONTINUOUS
 62
               4
  5
32E
 10
245.50000000000006
 20
-60.390941954920095
 30
0.0
 11
254.50000000000011
 21
-105.63699738405404
 31
0.0
  0
LINE
  8
0
  6
CONTINUOUS
 62
               4
  5
32F
 10
361.00000000000011
 20
111.13635416862252
 30
0.0
 11
239.00000000000028
 21
111.13635416862252
 31
0.0
  0
LINE
  8
0
  6
CONTINUOUS
 62
               4
  5
330
 10
361.0
 20
95.822067243196955
 30
0.0
 11
239.00000000000017
 21
95.822067243196955
 31
0.0
  0
LINE
  8
0
  6
CONTINUOUS
 62
               4
  5
331
 10
256.0
 20
-108.86364583137748
 30
0.0
 11
344.0
 21
-108.86364583137748
 31
0.0
  0
LINE
  8
0
  6
CONTINUOUS
 62
               4
  5
332
 10
344.0
 20
-108.86364583137748
 30
0.0
 11
345.5
 21
-107.36364583137754
 31
0.0
  0
LINE
  8
0
  6
CONTINUOUS
 62
               4
  5
333
 10
345.5
 20
-107.36364583137754
 30
0.0
 11
254.50000000000011
 21
-107.36364583137754
 31
0.0
  0
LINE
  8
0
  6
CONTINUOUS
 62
               4
  5
334
 10
256.0
 20
-108.86364583137754
 30
0.0
 11
254.5
 21
-107.36364583137754
 31
0.0
  0
LINE
  8
0
  6
CONTINUOUS
 62
               4
  5
335
 10
345.49999999999989
 20
-105.63699738405353
 30
0.0
 11
345.49999999999989
 21
-107.36364583137765
 31
0.0
  0
LINE
  8
0
  6
CONTINUOUS
 62
               4
  5
336
 10
254.50000000000011
 20
-105.63699738405404
 30
0.0
 11
254.50000000000011
 21
-107.36364583137765
 31
0.0
  0
LINE
  8
0
  6
CONTINUOUS
 62
               4
  5
337
 10
-239.00000000000009
 20
111.13635416862252
 30
0.0
 11
-239.00000000000009
 21
95.822067243197182
 31
0.0
  0
LINE
  8
0
  6
CONTINUOUS
 62
               4
  5
338
 10
-361.0
 20
111.13635416862252
 30
0.0
 11
-361.0
 21
95.822067243197182
 31
0.0
  0
LINE
  8
0
  6
CONTINUOUS
 62
               4
  5
339
 10
-359.0
 20
91.822067243197068
 30
0.0
 11
-359.0
 21
33.237942071960731
 31
0.0
  0
ARC
  8
0
  6
CONTINUOUS
 62
               4
  5
33A
 10
-364.0
 20
91.822067243197068
 30
0.0
 40
5.0
 50
0.0
 51
53.130102354135552
  0
LINE
  8
0
  6
CONTINUOUS
 62
               4
  5
33B
 10
-354.5
 20
23.401784285507858
 30
0.0
 11
-354.5
 21
-60.390941954920095
 31
0.0
  0
ARC
  8
0
  6
CONTINUOUS
 62
               4
  5
33C
 10
-359.5
 20
23.401784285507858
 30
0.0
 40
5.0
 50
0.0
 51
49.167782972511823
  0
LINE
  8
0
  6
CONTINUOUS
 62
               4
  5
33D
 10
-354.5
 20
-60.390941954920095
 30
0.0
 11
-345.49999999999989
 21
-105.63699738405359
 31
0.0
  0
ARC
  8
0
  6
CONTINUOUS
 62
               4
  5
33E
 10
-351.0
 20
33.237942071960731
 30
0.0
 40
8.0
 50
179.99999999993079
 51
229.16778297244284
  0
LINE
  8
0
  6
CONTINUOUS
 62
               4
  5
33F
 10
-240.99999999999997
 20
91.822067243197068
 30
0.0
 11
-240.99999999999997
 21
33.237942071960845
 31
0.0
  0
ARC
  8
0
  6
CONTINUOUS
 62
               4
  5
340
 10
-235.99999999999997
 20
91.822067243197068
 30
0.0
 40
5.0
 50
126.86989764579529
 51
179.99999999993088
  0
ARC
  8
0
  6
CONTINUOUS
 62
               4
  5
341
 10
-240.50000000000003
 20
23.401784285507858
 30
0.0
 40
5.0
 50
130.83221702741892
 51
179.99999999993085
  0
ARC
  8
0
  6
CONTINUOUS
 62
               4
  5
342
 10
-249.00000000000003
 20
33.237942071960845
 30
0.0
 40
8.0
 50
310.83221702734949
 51
359.99999999986159
  0
LINE
  8
0
  6
CONTINUOUS
 62
               4
  5
343
 10
-245.50000000000003
 20
23.401784285507858
 30
0.0
 11
-245.50000000000003
 21
-60.390941954920095
 31
0.0
  0
LINE
  8
0
  6
CONTINUOUS
 62
               4
  5
344
 10
-245.50000000000003
 20
-60.390941954920095
 30
0.0
 11
-254.50000000000014
 21
-105.63699738405404
 31
0.0
  0
LINE
  8
0
  6
CONTINUOUS
 62
               4
  5
345
 10
-361.0
 20
95.822067243197182
 30
0.0
 11
-239.00000000000009
 21
95.822067243197182
 31
0.0
  0
LINE
  8
0
  6
CONTINUOUS
 62
               4
  5
346
 10
-344.0
 20
-108.86364583137748
 30
0.0
 11
-256.0
 21
-108.86364583137748
 31
0.0
  0
LINE
  8
0
  6
CONTINUOUS
 62
               4
  5
347
 10
-256.0
 20
-108.86364583137748
 30
0.0
 11
-254.50000000000003
 21
-107.36364583137754
 31
0.0
  0
LINE
  8
0
  6
CONTINUOUS
 62
               4
  5
348
 10
-254.50000000000003
 20
-107.36364583137754
 30
0.0
 11
-345.49999999999989
 21
-107.36364583137754
 31
0.0
  0
LINE
  8
0
  6
CONTINUOUS
 62
               4
  5
349
 10
-344.0
 20
-108.86364583137754
 30
0.0
 11
-345.5
 21
-107.36364583137754
 31
0.0
  0
LINE
  8
0
  6
CONTINUOUS
 62
               4
  5
34A
 10
-254.50000000000011
 20
-105.63699738405396
 30
0.0
 11
-254.50000000000011
 21
-107.36364583137765
 31
0.0
  0
LINE
  8
0
  6
CONTINUOUS
 62
               4
  5
34B
 10
-345.49999999999989
 20
-105.6369973840533
 30
0.0
 11
-345.49999999999989
 21
-107.36364583137765
 31
0.0
  0
POINT
  8
0
  6
CONTINUOUS
 62
               4
  5
34C
 10
-300.0
 20
0.9470598135291652
 30
0.0
  0
POINT
  8
0
  6
CONTINUOUS
 62
               4
  5
34D
 10
-300.0
 20
0.9470598135291652
 30
0.0
  0
ARC
  8
0
  6
CONTINUOUS
 62
               4
  5
34E
 10
-414.42527091467025
 20
-111.93132414079139
 30
0.0
 40
171.22836028630022
 50
38.037080543375176
 51
44.518937330836799
  0
ARC
  8
0
  6
CONTINUOUS
 62
               4
  5
34F
 10
-300.0
 20
0.9470598135291652
 30
0.0
 40
10.5
 50
43.123506116016451
 51
135.38991333442806
  0
LINE
  8
0
  6
CONTINUOUS
 62
               4
  5
350
 10
-300.0
 20
-0.4752232452366343
 30
0.0
 11
-284.32789459941745
 21
-11.448949586341485
 31
0.0
  0
LINE
  8
0
  6
CONTINUOUS
 62
               4
  5
351
 10
-300.0
 20
10.05748572707688
 30
0.0
 11
-300.0
 21
-0.4752231957444337
 31
0.0
  0
ARC
  8
0
  6
CONTINUOUS
 62
               4
  5
352
 10
-282.32037707218888
 20
-8.5819174313299982
 30
0.0
 40
3.5000000000000004
 50
234.99999999995484
 51
398.03708054330616
  0
ARC
  8
0
  6
CONTINUOUS
 62
               4
  5
353
 10
-185.57472908532981
 20
-111.93132414079139
 30
0.0
 40
171.22836028630022
 50
135.48106266912842
 51
141.96291945659001
  0
ARC
  8
0
  6
CONTINUOUS
 62
               4
  5
354
 10
-317.67962292781112
 20
-8.5819174313299982
 30
0.0
 40
3.5000000000000004
 50
141.96291945658959
 51
304.99999999994066
  0
LINE
  8
0
  6
CONTINUOUS
 62
               4
  5
355
 10
-300.0
 20
-0.4752232452366343
 30
0.0
 11
-315.67210540058255
 21
-11.448949586341485
 31
0.0
  0
ARC
  8
0
  6
CONTINUOUS
 62
               4
  5
356
 10
-299.99999999999994
 20
-33.831035675636087
 30
0.0
 40
27.323481941282026
 50
54.999999999989946
 51
124.99999999997546
  0
LINE
  8
0
  6
CONTINUOUS
 62
               4
  5
357
 10
-20.000000000000007
 20
265.91917086274151
 30
0.0
 11
-20.000000000000007
 21
296.47327758707212
 31
0.0
  0
ARC
  8
0
  6
CONTINUOUS
 62
               4
  5
358
 10
-30.000000000000007
 20
296.47327758707212
 30
0.0
 40
10.0
 50
359.99999999986159
 51
409.99999999984203
  0
CIRCLE
  8
0
  6
CONTINUOUS
 62
               4
  5
359
 10
0.0
 20
301.13635416862252
 30
0.0
 40
61.000000000000007
  0
LINE
  8
0
  6
CONTINUOUS
 62
               4
  5
35A
 10
-37.683810219924119
 20
315.97483277354644
 30
0.0
 11
-23.572123903134532
 21
304.13372201826184
 31
0.0
  0
CIRCLE
  8
0
  6
CONTINUOUS
 62
               4
  5
35B
 10
-0.0000000000005684
 20
301.13635416862252
 30
0.0
 40
40.499999999999964
  0
CIRCLE
  8
0
  6
CONTINUOUS
 62
               4
  5
35C
 10
0.0
 20
301.13635416862252
 30
0.0
 40
47.0
  0
LINE
  8
0
  6
CONTINUOUS
 62
               4
  5
35D
 10
-361.00000000000011
 20
111.13635416862252
 30
0.0
 11
-239.00000000000023
 21
111.13635416862252
 31
0.0
  0
LINE
  8
0
  6
CONTINUOUS
 62
               4
  5
35E
 10
-352.99999999999989
 20
-263.76521808592634
 30
0.0
 11
-246.99999999999739
 21
-263.76521808592554
 31
0.0
  0
LINE
  8
0
  6
CONTINUOUS
 62
               4
  5
35F
 10
-75.000000000000284
 20
-169.75886761870146
 30
0.0
 11
-75.000000000000284
 21
-159.88458141164557
 31
0.0
  0
LINE
  8
0
  6
CONTINUOUS
 62
               4
  5
360
 10
75.000000000000284
 20
-169.75886761870134
 30
0.0
 11
75.000000000000284
 21
-159.88458141164546
 31
0.0
  0
LINE
  8
0
  6
CONTINUOUS
 62
               4
  5
361
 10
-52.999999999999829
 20
-263.86364583137805
 30
0.0
 11
53.000000000002672
 21
-263.86364583137726
 31
0.0
  0
LINE
  8
0
  6
CONTINUOUS
 62
               4
  5
362
 10
247.00000000000011
 20
-263.76521808592634
 30
0.0
 11
353.00000000000261
 21
-263.76521808592554
 31
0.0
  0
LINE
  8
0
  6
CONTINUOUS
 62
               4
  5
363
 10
256.0
 20
-108.86364583137748
 30
0.0
 11
344.0
 21
-108.86364583137748
 31
0.0
  0
LINE
  8
0
  6
DIVIDE
 62
               4
  5
364
 10
-344.49999999999909
 20
-320.95492340420526
 30
0.0
 11
-344.49999999999909
 21
-358.6583226895774
 31
0.0
  0
LINE
  8
0
  6
DIVIDE
 62
               4
  5
365
 10
-255.49999999999818
 20
-328.84421126368784
 30
0.0
 11
-255.49999999999818
 21
-358.65832268957638
 31
0.0
  0
LINE
  8
0
  6
DIVIDE
 62
               4
  5
366
 10
-247.49999999999835
 20
-238.76521808592531
 30
0.0
 11
-247.49999999999835
 21
-324.86916887938457
 31
0.0
  0
LINE
  8
0
  6
DIVIDE
 62
               4
  5
367
 10
-352.4999999999992
 20
-238.76521808592634
 30
0.0
 11
-352.4999999999992
 21
-324.86916887938548
 31
0.0
  0
ARC
  8
0
  6
DIVIDE
 62
               4
  5
368
 10
-326.24999999999864
 20
-367.66104443099618
 30
0.0
 40
50.201664446754734
 50
58.473623406640556
 51
121.5263765933249
  0
ARC
  8
0
  6
DIVIDE
 62
               4
  5
369
 10
-273.75000000000091
 20
-282.07729332777456
 30
0.0
 40
50.201664446754734
 50
238.47362340660567
 51
301.52637659328991
  0
ARC
  8
0
  6
DIVIDE
 62
               4
  5
36A
 10
-326.24999999999864
 20
-282.07729332777444
 30
0.0
 40
50.201664446754734
 50
238.47362340660558
 51
248.68262418367755
  0
ARC
  8
0
  6
DIVIDE
 62
               4
  5
36B
 10
-322.24999999999977
 20
-391.98878439283783
 30
0.0
 40
40.074707451863929
 50
56.274610560462726
 51
123.72538943950254
  0
ARC
  8
0
  6
DIVIDE
 62
               4
  5
36C
 10
-322.24999999999977
 20
-325.32786098631789
 30
0.0
 40
40.074707451863929
 50
236.27461056042787
 51
303.72538943946773
  0
ARC
  8
0
  6
DIVIDE
 62
               4
  5
36D
 10
-277.75000000000011
 20
-325.32786098631789
 30
0.0
 40
40.074707451863929
 50
236.27461056042799
 51
303.72538943946779
  0
LINE
  8
0
  6
DIVIDE
 62
               4
  5
36E
 10
-44.499999999999034
 20
-321.05335114965698
 30
0.0
 11
-44.499999999999034
 21
-358.75675043502912
 31
0.0
  0
LINE
  8
0
  6
DIVIDE
 62
               4
  5
36F
 10
44.500000000001876
 20
-328.94263900913955
 30
0.0
 11
44.500000000001876
 21
-358.7567504350281
 31
0.0
  0
LINE
  8
0
  6
DIVIDE
 62
               4
  5
370
 10
52.500000000001705
 20
-238.86364583137703
 30
0.0
 11
52.500000000001705
 21
-324.96759662483629
 31
0.0
  0
LINE
  8
0
  6
DIVIDE
 62
               4
  5
371
 10
-52.499999999999147
 20
-238.86364583137805
 30
0.0
 11
-52.499999999999147
 21
-324.9675966248372
 31
0.0
  0
ARC
  8
0
  6
DIVIDE
 62
               4
  5
372
 10
-26.249999999998579
 20
-367.7594721764479
 30
0.0
 40
50.201664446754734
 50
58.473623406640556
 51
121.5263765933249
  0
ARC
  8
0
  6
DIVIDE
 62
               4
  5
373
 10
26.249999999999147
 20
-282.17572107322627
 30
0.0
 40
50.201664446754734
 50
238.47362340660567
 51
301.52637659328997
  0
ARC
  8
0
  6
DIVIDE
 62
               4
  5
374
 10
-26.249999999998579
 20
-282.17572107322616
 30
0.0
 40
50.201664446754734
 50
238.47362340660553
 51
248.68262418367755
  0
ARC
  8
0
  6
DIVIDE
 62
               4
  5
375
 10
-22.249999999999659
 20
-392.08721213828954
 30
0.0
 40
40.074707451863929
 50
56.274610560462754
 51
123.72538943950246
  0
ARC
  8
0
  6
DIVIDE
 62
               4
  5
376
 10
-22.249999999999659
 20
-325.4262887317696
 30
0.0
 40
40.074707451863929
 50
236.27461056042793
 51
303.72538943946773
  0
ARC
  8
0
  6
DIVIDE
 62
               4
  5
377
 10
22.249999999999943
 20
-325.4262887317696
 30
0.0
 40
40.074707451863929
 50
236.27461056042804
 51
303.72538943946773
  0
LINE
  8
0
  6
DIVIDE
 62
               4
  5
378
 10
255.50000000000091
 20
-320.95492340420526
 30
0.0
 11
255.50000000000091
 21
-358.6583226895774
 31
0.0
  0
LINE
  8
0
  6
DIVIDE
 62
               4
  5
379
 10
344.50000000000182
 20
-328.84421126368784
 30
0.0
 11
344.50000000000182
 21
-358.65832268957638
 31
0.0
  0
LINE
  8
0
  6
DIVIDE
 62
               4
  5
37A
 10
352.50000000000165
 20
-238.76521808592531
 30
0.0
 11
352.50000000000165
 21
-324.86916887938457
 31
0.0
  0
LINE
  8
0
  6
DIVIDE
 62
               4
  5
37B
 10
247.5000000000008
 20
-238.76521808592634
 30
0.0
 11
247.5000000000008
 21
-324.86916887938548
 31
0.0
  0
ARC
  8
0
  6
DIVIDE
 62
               4
  5
37C
 10
273.75000000000136
 20
-367.66104443099618
 30
0.0
 40
50.201664446754734
 50
58.473623406640556
 51
121.5263765933249
  0
ARC
  8
0
  6
DIVIDE
 62
               4
  5
37D
 10
326.24999999999909
 20
-282.07729332777456
 30
0.0
 40
50.201664446754734
 50
238.47362340660567
 51
301.52637659328991
  0
ARC
  8
0
  6
DIVIDE
 62
               4
  5
37E
 10
273.75000000000136
 20
-282.07729332777444
 30
0.0
 40
50.201664446754734
 50
238.47362340660553
 51
248.68262418367755
  0
ARC
  8
0
  6
DIVIDE
 62
               4
  5
37F
 10
277.75000000000023
 20
-391.98878439283783
 30
0.0
 40
40.074707451863929
 50
56.274610560462726
 51
123.72538943950248
  0
ARC
  8
0
  6
DIVIDE
 62
               4
  5
380
 10
277.75000000000023
 20
-325.32786098631789
 30
0.0
 40
40.074707451863929
 50
236.27461056042793
 51
303.72538943946773
  0
ARC
  8
0
  6
DIVIDE
 62
               4
  5
381
 10
322.24999999999989
 20
-325.32786098631789
 30
0.0
 40
40.074707451863929
 50
236.27461056042799
 51
303.72538943946779
  0
INSERT
  8
0
  6
CONTINUOUS
  5
382
  2
GROUP_1
 10
0.0
 20
0.0
 30
0.0
  0
INSERT
  8
0
  6
CONTINUOUS
  5
383
  2
GROUP_2
 10
0.0
 20
0.0
 30
0.0
  0
INSERT
  8
0
  6
CONTINUOUS
  5
384
  2
GROUP_3
 10
0.0
 20
0.0
 30
0.0
  0
INSERT
  8
0
  6
CONTINUOUS
  5
385
  2
GROUP_4
 10
0.0
 20
0.0
 30
0.0
  0
INSERT
  8
0
  6
CONTINUOUS
  5
386
  2
GROUP_5
 10
0.0
 20
0.0
 30
0.0
  0
CIRCLE
  8
0
  6
CONTINUOUS
 62
               3
  5
387
 10
0.0
 20
301.13635416862252
 30
0.0
 40
69.5
  0
LINE
  8
0
  6
CONTINUOUS
 62
               3
  5
388
 10
-300.0
 20
119.63635416862252
 30
0.0
 11
-230.50000000000009
 21
119.63635416862252
 31
0.0
  0
LINE
  8
0
  6
CONTINUOUS
 62
               3
  5
389
 10
-230.50000000000009
 20
119.63635416862252
 30
0.0
 11
-230.50000000000009
 21
97.002407130695985
 31
0.0
  0
LINE
  8
0
  6
CONTINUOUS
 62
               3
  5
38A
 10
-232.49999999999997
 20
90.641727355698151
 30
0.0
 11
-232.49999999999997
 21
34.327382116337787
 31
0.0
  0
LINE
  8
0
  6
CONTINUOUS
 62
               3
  5
38B
 10
-237.00000000000003
 20
22.312344241133928
 30
0.0
 11
-237.00000000000003
 21
-60.735661866670227
 31
0.0
  0
LINE
  8
0
  6
CONTINUOUS
 62
               3
  5
38C
 10
-237.09607359798386
 20
-61.711113476750654
 30
0.0
 11
-246.4752954365884
 21
-108.86364583137754
 31
0.0
  0
LINE
  8
0
  6
CONTINUOUS
 62
               3
  5
38D
 10
-232.95323445479372
 20
32.247256380492615
 30
0.0
 11
-236.54676554520628
 21
24.392469976979044
 31
0.0
  0
LINE
  8
0
  6
CONTINUOUS
 62
               3
  5
38E
 10
-231.02786404500048
 20
94.76633915319627
 30
0.0
 11
-231.97213595499963
 21
92.87779533319781
 31
0.0
  0
ARC
  8
0
  6
CONTINUOUS
 62
               3
  5
38F
 10
-235.50000000000009
 20
97.002407130695985
 30
0.0
 40
5.0
 50
333.43494882285842
 51
359.99999999993037
  0
ARC
  8
0
  6
CONTINUOUS
 62
               3
  5
390
 10
-227.49999999999997
 20
90.641727355698151
 30
0.0
 40
5.0
 50
153.43494882289409
 51
179.99999999996524
  0
ARC
  8
0
  6
CONTINUOUS
 62
               3
  5
391
 10
-242.00000000000003
 20
-60.735661866670227
 30
0.0
 40
5.0
 50
348.74999999993497
 51
359.99999999993048
  0
ARC
  8
0
  6
CONTINUOUS
 62
               3
  5
392
 10
-237.49999999999997
 20
34.327382116337787
 30
0.0
 40
5.0
 50
335.41610851366266
 51
359.99999999993042
  0
ARC
  8
0
  6
CONTINUOUS
 62
               3
  5
393
 10
-232.00000000000003
 20
22.312344241133928
 30
0.0
 40
5.0
 50
155.41610851369799
 51
179.99999999996518
  0
LINE
  8
0
  6
CONTINUOUS
 62
               3
  5
394
 10
-300.0
 20
-108.86364583137751
 30
0.0
 11
-246.4752954365884
 21
-108.86364583137748
 31
0.0
  0
LINE
  8
0
  6
CONTINUOUS
 62
               3
  5
395
 10
-300.0
 20
119.63635416862252
 30
0.0
 11
-369.49999999999989
 21
119.63635416862252
 31
0.0
  0
LINE
  8
0
  6
CONTINUOUS
 62
               3
  5
396
 10
-369.49999999999989
 20
119.63635416862252
 30
0.0
 11
-369.49999999999989
 21
97.002407130695985
 31
0.0
  0
LINE
  8
0
  6
CONTINUOUS
 62
               3
  5
397
 10
-367.5
 20
90.641727355698151
 30
0.0
 11
-367.5
 21
34.327382116337787
 31
0.0
  0
LINE
  8
0
  6
CONTINUOUS
 62
               3
  5
398
 10
-363.0
 20
22.312344241133928
 30
0.0
 11
-363.0
 21
-60.735661866670227
 31
0.0
  0
LINE
  8
0
  6
CONTINUOUS
 62
               3
  5
399
 10
-362.90392640201617
 20
-61.711113476750654
 30
0.0
 11
-353.5247045634116
 21
-108.86364583137754
 31
0.0
  0
LINE
  8
0
  6
CONTINUOUS
 62
               3
  5
39A
 10
-367.04676554520631
 20
32.247256380492615
 30
0.0
 11
-363.45323445479369
 21
24.392469976979044
 31
0.0
  0
LINE
  8
0
  6
CONTINUOUS
 62
               3
  5
39B
 10
-368.97213595499954
 20
94.76633915319627
 30
0.0
 11
-368.02786404500034
 21
92.87779533319781
 31
0.0
  0
ARC
  8
0
  6
CONTINUOUS
 62
               3
  5
39C
 10
-364.49999999999989
 20
97.002407130695985
 30
0.0
 40
5.0
 50
179.99999999996524
 51
206.56505117703725
  0
ARC
  8
0
  6
CONTINUOUS
 62
               3
  5
39D
 10
-372.5
 20
90.641727355698151
 30
0.0
 40
5.0
 50
0.0
 51
26.565051177071233
  0
ARC
  8
0
  6
CONTINUOUS
 62
               3
  5
39E
 10
-358.0
 20
-60.735661866670227
 30
0.0
 40
5.0
 50
179.99999999996524
 51
191.24999999996058
  0
ARC
  8
0
  6
CONTINUOUS
 62
               3
  5
39F
 10
-362.5
 20
34.327382116337787
 30
0.0
 40
5.0
 50
179.99999999996518
 51
204.58389148623286
  0
ARC
  8
0
  6
CONTINUOUS
 62
               3
  5
3A0
 10
-368.0
 20
22.312344241133928
 30
0.0
 40
5.0
 50
0.0
 51
24.583891486267174
  0
LINE
  8
0
  6
CONTINUOUS
 62
               3
  5
3A1
 10
-300.0
 20
-108.86364583137751
 30
0.0
 11
-353.5247045634116
 21
-108.86364583137748
 31
0.0
  0
ARC
  8
0
  6
CONTINUOUS
 62
               3
  5
3A2
 10
-62.5
 20
34.327382116337787
 30
0.0
 40
5.0
 50
179.99999999996518
 51
204.58389148623291
  0
LINE
  8
0
  6
CONTINUOUS
 62
               3
  5
3A3
 10
0.0
 20
119.63635416862252
 30
0.0
 11
69.499999999999915
 21
119.63635416862252
 31
0.0
  0
LINE
  8
0
  6
CONTINUOUS
 62
               3
  5
3A4
 10
69.499999999999915
 20
119.63635416862252
 30
0.0
 11
69.499999999999915
 21
97.002407130695985
 31
0.0
  0
LINE
  8
0
  6
CONTINUOUS
 62
               3
  5
3A5
 10
67.500000000000028
 20
90.641727355698151
 30
0.0
 11
67.500000000000028
 21
34.327382116337787
 31
0.0
  0
LINE
  8
0
  6
CONTINUOUS
 62
               3
  5
3A6
 10
62.999999999999972
 20
22.312344241133928
 30
0.0
 11
62.999999999999972
 21
-60.735661866670227
 31
0.0
  0
LINE
  8
0
  6
CONTINUOUS
 62
               3
  5
3A7
 10
62.90392640201614
 20
-61.711113476750654
 30
0.0
 11
53.524704563411603
 21
-108.86364583137754
 31
0.0
  0
LINE
  8
0
  6
CONTINUOUS
 62
               3
  5
3A8
 10
67.046765545206284
 20
32.247256380492615
 30
0.0
 11
63.453234454793716
 21
24.392469976979044
 31
0.0
  0
LINE
  8
0
  6
CONTINUOUS
 62
               3
  5
3A9
 10
68.972135954999516
 20
94.76633915319627
 30
0.0
 11
68.027864045000371
 21
92.87779533319781
 31
0.0
  0
ARC
  8
0
  6
CONTINUOUS
 62
               3
  5
3AA
 10
64.499999999999915
 20
97.002407130695985
 30
0.0
 40
5.0
 50
333.43494882285842
 51
359.99999999993037
  0
ARC
  8
0
  6
CONTINUOUS
 62
               3
  5
3AB
 10
72.500000000000028
 20
90.641727355698151
 30
0.0
 40
5.0
 50
153.43494882289414
 51
179.99999999996524
  0
ARC
  8
0
  6
CONTINUOUS
 62
               3
  5
3AC
 10
57.999999999999972
 20
-60.735661866670227
 30
0.0
 40
5.0
 50
348.74999999993497
 51
359.99999999993048
  0
ARC
  8
0
  6
CONTINUOUS
 62
               3
  5
3AD
 10
62.500000000000028
 20
34.327382116337787
 30
0.0
 40
5.0
 50
335.41610851366261
 51
359.99999999993042
  0
ARC
  8
0
  6
CONTINUOUS
 62
               3
  5
3AE
 10
67.999999999999972
 20
22.312344241133928
 30
0.0
 40
5.0
 50
155.41610851369805
 51
179.99999999996518
  0
LINE
  8
0
  6
CONTINUOUS
 62
               3
  5
3AF
 10
0.0
 20
-108.86364583137751
 30
0.0
 11
53.524704563411603
 21
-108.86364583137748
 31
0.0
  0
LINE
  8
0
  6
CONTINUOUS
 62
               3
  5
3B0
 10
0.0
 20
119.63635416862252
 30
0.0
 11
-69.499999999999886
 21
119.63635416862252
 31
0.0
  0
LINE
  8
0
  6
CONTINUOUS
 62
               3
  5
3B1
 10
-69.499999999999886
 20
119.63635416862252
 30
0.0
 11
-69.499999999999886
 21
97.002407130695985
 31
0.0
  0
LINE
  8
0
  6
CONTINUOUS
 62
               3
  5
3B2
 10
-67.5
 20
90.641727355698151
 30
0.0
 11
-67.5
 21
34.327382116337787
 31
0.0
  0
LINE
  8
0
  6
CONTINUOUS
 62
               3
  5
3B3
 10
-63.0
 20
22.312344241133928
 30
0.0
 11
-63.0
 21
-60.735661866670227
 31
0.0
  0
LINE
  8
0
  6
CONTINUOUS
 62
               3
  5
3B4
 10
-62.903926402016168
 20
-61.711113476750654
 30
0.0
 11
-53.524704563411603
 21
-108.86364583137754
 31
0.0
  0
LINE
  8
0
  6
CONTINUOUS
 62
               3
  5
3B5
 10
-67.046765545206313
 20
32.247256380492615
 30
0.0
 11
-63.453234454793687
 21
24.392469976979044
 31
0.0
  0
LINE
  8
0
  6
CONTINUOUS
 62
               3
  5
3B6
 10
-68.972135954999544
 20
94.76633915319627
 30
0.0
 11
-68.027864045000342
 21
92.87779533319781
 31
0.0
  0
ARC
  8
0
  6
CONTINUOUS
 62
               3
  5
3B7
 10
-64.499999999999886
 20
97.002407130695985
 30
0.0
 40
5.0
 50
179.99999999996524
 51
206.56505117703716
  0
ARC
  8
0
  6
CONTINUOUS
 62
               3
  5
3B8
 10
-72.5
 20
90.641727355698151
 30
0.0
 40
5.0
 50
0.0
 51
26.565051177071162
  0
ARC
  8
0
  6
CONTINUOUS
 62
               3
  5
3B9
 10
-58.0
 20
-60.735661866670227
 30
0.0
 40
5.0
 50
179.99999999996524
 51
191.24999999996052
  0
ARC
  8
0
  6
CONTINUOUS
 62
               3
  5
3BA
 10
-68.0
 20
22.312344241133928
 30
0.0
 40
5.0
 50
0.0
 51
24.583891486267138
  0
LINE
  8
0
  6
CONTINUOUS
 62
               3
  5
3BB
 10
0.0
 20
-108.86364583137751
 30
0.0
 11
-53.524704563411603
 21
-108.86364583137748
 31
0.0
  0
ARC
  8
0
  6
CONTINUOUS
 62
               3
  5
3BC
 10
237.5
 20
34.327382116337787
 30
0.0
 40
5.0
 50
179.99999999996518
 51
204.583891486233
  0
LINE
  8
0
  6
CONTINUOUS
 62
               3
  5
3BD
 10
300.0
 20
119.63635416862252
 30
0.0
 11
369.49999999999989
 21
119.63635416862252
 31
0.0
  0
LINE
  8
0
  6
CONTINUOUS
 62
               3
  5
3BE
 10
369.49999999999989
 20
119.63635416862252
 30
0.0
 11
369.49999999999989
 21
97.002407130695985
 31
0.0
  0
LINE
  8
0
  6
CONTINUOUS
 62
               3
  5
3BF
 10
367.5
 20
90.641727355698151
 30
0.0
 11
367.5
 21
34.327382116337787
 31
0.0
  0
LINE
  8
0
  6
CONTINUOUS
 62
               3
  5
3C0
 10
363.0
 20
22.312344241133928
 30
0.0
 11
363.0
 21
-60.735661866670227
 31
0.0
  0
LINE
  8
0
  6
CONTINUOUS
 62
               3
  5
3C1
 10
362.90392640201617
 20
-61.711113476750654
 30
0.0
 11
353.5247045634116
 21
-108.86364583137754
 31
0.0
  0
LINE
  8
0
  6
CONTINUOUS
 62
               3
  5
3C2
 10
367.04676554520631
 20
32.247256380492615
 30
0.0
 11
363.45323445479369
 21
24.392469976979044
 31
0.0
  0
LINE
  8
0
  6
CONTINUOUS
 62
               3
  5
3C3
 10
368.97213595499954
 20
94.76633915319627
 30
0.0
 11
368.02786404500034
 21
92.87779533319781
 31
0.0
  0
ARC
  8
0
  6
CONTINUOUS
 62
               3
  5
3C4
 10
364.49999999999989
 20
97.002407130695985
 30
0.0
 40
5.0
 50
333.43494882285825
 51
359.99999999993037
  0
ARC
  8
0
  6
CONTINUOUS
 62
               3
  5
3C5
 10
372.5
 20
90.641727355698151
 30
0.0
 40
5.0
 50
153.4349488228942
 51
179.99999999996524
  0
ARC
  8
0
  6
CONTINUOUS
 62
               3
  5
3C6
 10
358.0
 20
-60.735661866670227
 30
0.0
 40
5.0
 50
348.74999999993491
 51
359.99999999993048
  0
ARC
  8
0
  6
CONTINUOUS
 62
               3
  5
3C7
 10
362.5
 20
34.327382116337787
 30
0.0
 40
5.0
 50
335.41610851366266
 51
359.99999999993042
  0
ARC
  8
0
  6
CONTINUOUS
 62
               3
  5
3C8
 10
368.0
 20
22.312344241133928
 30
0.0
 40
5.0
 50
155.41610851369799
 51
179.99999999996518
  0
LINE
  8
0
  6
CONTINUOUS
 62
               3
  5
3C9
 10
300.0
 20
-108.86364583137751
 30
0.0
 11
353.5247045634116
 21
-108.86364583137748
 31
0.0
  0
LINE
  8
0
  6
CONTINUOUS
 62
               3
  5
3CA
 10
300.0
 20
119.63635416862252
 30
0.0
 11
230.50000000000011
 21
119.63635416862252
 31
0.0
  0
LINE
  8
0
  6
CONTINUOUS
 62
               3
  5
3CB
 10
230.50000000000011
 20
119.63635416862252
 30
0.0
 11
230.50000000000011
 21
97.002407130695985
 31
0.0
  0
LINE
  8
0
  6
CONTINUOUS
 62
               3
  5
3CC
 10
232.5
 20
90.641727355698151
 30
0.0
 11
232.5
 21
34.327382116337787
 31
0.0
  0
LINE
  8
0
  6
CONTINUOUS
 62
               3
  5
3CD
 10
237.0
 20
22.312344241133928
 30
0.0
 11
237.0
 21
-60.735661866670227
 31
0.0
  0
LINE
  8
0
  6
CONTINUOUS
 62
               3
  5
3CE
 10
237.09607359798383
 20
-61.711113476750654
 30
0.0
 11
246.4752954365884
 21
-108.86364583137754
 31
0.0
  0
LINE
  8
0
  6
CONTINUOUS
 62
               3
  5
3CF
 10
232.95323445479369
 20
32.247256380492615
 30
0.0
 11
236.54676554520631
 21
24.392469976979044
 31
0.0
  0
LINE
  8
0
  6
CONTINUOUS
 62
               3
  5
3D0
 10
231.02786404500046
 20
94.76633915319627
 30
0.0
 11
231.97213595499966
 21
92.87779533319781
 31
0.0
  0
ARC
  8
0
  6
CONTINUOUS
 62
               3
  5
3D1
 10
235.50000000000011
 20
97.002407130695985
 30
0.0
 40
5.0
 50
179.99999999996524
 51
206.56505117703711
  0
ARC
  8
0
  6
CONTINUOUS
 62
               3
  5
3D2
 10
227.5
 20
90.641727355698151
 30
0.0
 40
5.0
 50
0.0
 51
26.565051177071084
  0
ARC
  8
0
  6
CONTINUOUS
 62
               3
  5
3D3
 10
242.0
 20
-60.735661866670227
 30
0.0
 40
5.0
 50
179.99999999996524
 51
191.24999999996052
  0
ARC
  8
0
  6
CONTINUOUS
 62
               3
  5
3D4
 10
232.0
 20
22.312344241133928
 30
0.0
 40
5.0
 50
0.0
 51
24.583891486267174
  0
LINE
  8
0
  6
CONTINUOUS
 62
               3
  5
3D5
 10
300.0
 20
-108.86364583137751
 30
0.0
 11
246.4752954365884
 21
-108.86364583137748
 31
0.0
  0
LINE
  8
0
  6
CONTINUOUS
 62
               3
  5
3D6
 10
-69.499999999999886
 20
111.13635416862252
 30
0.0
 11
69.499999999999915
 21
111.13635416862252
 31
0.0
  0
LINE
  8
0
  6
CONTINUOUS
 62
               3
  5
3D7
 10
-61.481199258597776
 20
-68.863645831377482
 30
0.0
 11
61.481199258597748
 21
-68.863645831377482
 31
0.0
  0
LINE
  8
0
  6
CONTINUOUS
 62
               3
  5
3D8
 10
238.51880074140223
 20
-68.863645831377482
 30
0.0
 11
361.48119925859777
 21
-68.863645831377482
 31
0.0
  0
LINE
  8
0
  6
CONTINUOUS
 62
               3
  5
3D9
 10
-361.48119925859777
 20
-68.863645831377482
 30
0.0
 11
-238.51880074140226
 21
-68.863645831377482
 31
0.0
  0
LINE
  8
0
  6
CONTINUOUS
 62
               3
  5
3DA
 10
-369.49999999999989
 20
111.13635416862252
 30
0.0
 11
-230.50000000000009
 21
111.13635416862252
 31
0.0
  0
LINE
  8
0
  6
CONTINUOUS
 62
               3
  5
3DB
 10
230.50000000000011
 20
111.13635416862252
 30
0.0
 11
369.49999999999989
 21
111.13635416862252
 31
0.0
  0
ARC
  8
0
  6
CONTINUOUS
 62
               3
  5
3DC
 10
-360.00000000000023
 20
-112.76521808592702
 30
0.0
 40
4.0
 50
89.999999999964786
 51
179.99999999993079
  0
LINE
  8
0
  6
CONTINUOUS
 62
               3
  5
3DD
 10
-364.00000000000023
 20
-112.76521808592463
 30
0.0
 11
-364.00000000000045
 21
-133.76521808592634
 31
0.0
  0
LINE
  8
0
  6
CONTINUOUS
 62
               3
  5
3DE
 10
-315.99999999999955
 20
-108.76521808592616
 30
0.0
 11
-360.00000000000023
 21
-108.76521808592702
 31
0.0
  0
LINE
  8
0
  6
CONTINUOUS
 62
               3
  5
3DF
 10
-364.00000000000045
 20
-133.76521808592634
 30
0.0
 11
-315.99999999999955
 21
-133.76521808592599
 31
0.0
  0
LINE
  8
0
  6
CONTINUOUS
 62
               3
  5
3E0
 10
-283.99999999999898
 20
-108.76521808592594
 30
0.0
 11
-240.00000000000045
 21
-108.76521808592605
 31
0.0
  0
LINE
  8
0
  6
CONTINUOUS
 62
               3
  5
3E1
 10
-236.00000000000034
 20
-133.76521808592537
 30
0.0
 11
-283.99999999999898
 21
-133.76521808592577
 31
0.0
  0
ARC
  8
0
  6
CONTINUOUS
 62
               3
  5
3E2
 10
-240.00000000000045
 20
-112.7652180859269
 30
0.0
 40
4.0
 50
0.0000000000346044
 51
90.000000000000199
  0
LINE
  8
0
  6
CONTINUOUS
 62
               3
  5
3E3
 10
-236.00000000000034
 20
-112.7652180859269
 30
0.0
 11
-236.00000000000034
 21
-133.76521808592537
 31
0.0
  0
LINE
  8
0
  6
CONTINUOUS
 62
               3
  5
3E4
 10
-316.00000000000023
 20
-107.16521808592597
 30
0.0
 11
-284.00000000000011
 21
-107.16521808592597
 31
0.0
  0
LINE
  8
0
  6
CONTINUOUS
 62
               3
  5
3E5
 10
-315.99999999999955
 20
-225.36521808592613
 30
0.0
 11
-283.99999999999898
 21
-225.36521808592568
 31
0.0
  0
LINE
  8
0
  6
CONTINUOUS
 62
               3
  5
3E6
 10
-315.99999999999955
 20
-107.16521808592597
 30
0.0
 11
-315.99999999999955
 21
-225.36521808592613
 31
0.0
  0
LINE
  8
0
  6
CONTINUOUS
 62
               3
  5
3E7
 10
-283.99999999999898
 20
-225.36521808592568
 30
0.0
 11
-283.99999999999943
 21
-107.16521808592597
 31
0.0
  0
LINE
  8
0
  6
CONTINUOUS
 62
               3
  5
3E8
 10
-315.99999999999955
 20
-164.91521808592734
 30
0.0
 11
-283.99999999999898
 21
-164.91521808592734
 31
0.0
  0
LINE
  8
0
  6
CONTINUOUS
 62
               3
  5
3E9
 10
-315.99999999999955
 20
-163.31521808592731
 30
0.0
 11
-283.99999999999898
 21
-163.31521808592731
 31
0.0
  0
LINE
  8
0
  6
CONTINUOUS
 62
               3
  5
3EA
 10
-315.99999999999955
 20
-166.51521808592736
 30
0.0
 11
-283.99999999999898
 21
-166.51521808592736
 31
0.0
  0
LINE
  8
0
  6
CONTINUOUS
 62
               3
  5
3EB
 10
-352.4999999999992
 20
-238.76521808592634
 30
0.0
 11
-247.49999999999835
 21
-238.76521808592531
 31
0.0
  0
LINE
  8
0
  6
CONTINUOUS
 62
               3
  5
3EC
 10
-349.49999999999909
 20
-238.76521808592634
 30
0.0
 11
-349.49999999999909
 21
-223.76521808592724
 31
0.0
  0
LINE
  8
0
  6
CONTINUOUS
 62
               3
  5
3ED
 10
-250.50000000000074
 20
-238.76521808592622
 30
0.0
 11
-250.50000000000074
 21
-223.76521808592724
 31
0.0
  0
ARC
  8
0
  6
CONTINUOUS
 62
               3
  5
3EE
 10
-359.99999999999807
 20
-219.7652180859273
 30
0.0
 40
4.0
 50
179.99999999993119
 51
269.99999999989763
  0
LINE
  8
0
  6
CONTINUOUS
 62
               3
  5
3EF
 10
-363.99999999999807
 20
-219.7652180859273
 30
0.0
 11
-363.99999999999807
 21
-198.76521808592707
 31
0.0
  0
LINE
  8
0
  6
CONTINUOUS
 62
               3
  5
3F0
 10
-315.99999999999955
 20
-198.76521808592622
 30
0.0
 11
-363.99999999999784
 21
-198.76521808592707
 31
0.0
  0
LINE
  8
0
  6
CONTINUOUS
 62
               3
  5
3F1
 10
-315.99999999999955
 20
-223.76521808592611
 30
0.0
 11
-360.00000000000159
 21
-223.7652180859273
 31
0.0
  0
LINE
  8
0
  6
CONTINUOUS
 62
               3
  5
3F2
 10
-284.00000000000063
 20
-198.76521808592622
 30
0.0
 11
-236.00000000000227
 21
-198.76521808592707
 31
0.0
  0
LINE
  8
0
  6
CONTINUOUS
 62
               3
  5
3F3
 10
-284.00000000000063
 20
-223.76521808592611
 30
0.0
 11
-239.99999999999852
 21
-223.7652180859273
 31
0.0
  0
ARC
  8
0
  6
CONTINUOUS
 62
               3
  5
3F4
 10
-240.00000000000205
 20
-219.7652180859273
 30
0.0
 40
4.0
 50
269.99999999999818
 51
359.99999999996419
  0
LINE
  8
0
  6
CONTINUOUS
 62
               3
  5
3F5
 10
-236.00000000000205
 20
-219.7652180859273
 30
0.0
 11
-236.00000000000227
 21
-198.76521808592707
 31
0.0
  0
LINE
  8
0
  6
CONTINUOUS
 62
               3
  5
3F6
 10
-361.00000000000045
 20
-133.76521808592634
 30
0.0
 11
-360.99999999999932
 21
-198.76521808592702
 31
0.0
  0
LINE
  8
0
  6
CONTINUOUS
 62
               3
  5
3F7
 10
-239.00000000000023
 20
-133.76521808592622
 30
0.0
 11
-239.00000000000125
 21
-198.7652180859269
 31
0.0
  0
LINE
  8
0
  6
CONTINUOUS
 62
               3
  5
3F8
 10
-135.0000000000004
 20
-163.41364583137903
 30
0.0
 11
-135.0000000000004
 21
-165.01364583137905
 31
0.0
  0
LINE
  8
0
  6
CONTINUOUS
 62
               3
  5
3F9
 10
-135.0000000000004
 20
-166.61364583137896
 30
0.0
 11
-135.0000000000004
 21
-165.01364583137905
 31
0.0
  0
LINE
  8
0
  6
CONTINUOUS
 62
               3
  5
3FA
 10
-78.750000000000284
 20
-161.91364583137857
 30
0.0
 11
-78.750000000000284
 21
-163.41364583137857
 31
0.0
  0
LINE
  8
0
  6
CONTINUOUS
 62
               3
  5
3FB
 10
-78.750000000000284
 20
-166.61364583137885
 30
0.0
 11
-78.750000000000284
 21
-168.11364583137873
 31
0.0
  0
ARC
  8
0
  6
CONTINUOUS
 62
               3
  5
3FC
 10
-62.999999999999829
 20
-109.86364583137873
 30
0.0
 40
1.0000000000000004
 50
89.999999999964373
 51
179.99999999993119
  0
LINE
  8
0
  6
CONTINUOUS
 62
               3
  5
3FD
 10
-65.599999999999739
 20
-109.86364583137873
 30
0.0
 11
-65.599999999999739
 21
-162.41364583137857
 31
0.0
  0
LINE
  8
0
  6
CONTINUOUS
 62
               3
  5
3FE
 10
-64.000000000000057
 20
-109.86364583137873
 30
0.0
 11
-64.000000000000057
 21
-162.41364583137857
 31
0.0
  0
LINE
  8
0
  6
CONTINUOUS
 62
               3
  5
3FF
 10
-66.599999999999966
 20
-165.0136458313786
 30
0.0
 11
-135.0000000000004
 21
-165.01364583137905
 31
0.0
  0
LINE
  8
0
  6
CONTINUOUS
 62
               3
  5
400
 10
-66.599999999999966
 20
-163.41364583137857
 30
0.0
 11
-135.0000000000004
 21
-163.41364583137903
 31
0.0
  0
LINE
  8
0
  6
CONTINUOUS
 62
               3
  5
401
 10
-66.599999999999966
 20
-166.61364583137862
 30
0.0
 11
-135.0000000000004
 21
-166.61364583137896
 31
0.0
  0
LINE
  8
0
  6
CONTINUOUS
 62
               3
  5
402
 10
-71.250000000000284
 20
-161.91364583137857
 30
0.0
 11
-78.750000000000284
 21
-161.91364583137857
 31
0.0
  0
LINE
  8
0
  6
CONTINUOUS
 62
               3
  5
403
 10
-71.250000000000284
 20
-168.11364583137862
 30
0.0
 11
-78.750000000000284
 21
-168.11364583137873
 31
0.0
  0
LINE
  8
0
  6
CONTINUOUS
 62
               3
  5
404
 10
-71.250000000000284
 20
-161.91364583137857
 30
0.0
 11
-71.250000000000284
 21
-163.41364583137857
 31
0.0
  0
LINE
  8
0
  6
CONTINUOUS
 62
               3
  5
405
 10
-71.250000000000284
 20
-166.61364583137862
 30
0.0
 11
-71.250000000000284
 21
-168.11364583137862
 31
0.0
  0
ARC
  8
0
  6
CONTINUOUS
 62
               3
  5
406
 10
-62.999999999999829
 20
-109.86364583137873
 30
0.0
 40
2.6000000000000001
 50
89.999999999982577
 51
179.99999999996515
  0
ARC
  8
0
  6
CONTINUOUS
 62
               3
  5
407
 10
-66.599999999999966
 20
-162.41364583137857
 30
0.0
 40
2.6000000000000001
 50
269.9999999999477
 51
359.99999999993031
  0
ARC
  8
0
  6
CONTINUOUS
 62
               3
  5
408
 10
-66.599999999999966
 20
-162.41364583137857
 30
0.0
 40
1.0
 50
269.9999999999481
 51
359.99999999993082
  0
ARC
  8
0
  6
CONTINUOUS
 62
               3
  5
409
 10
-66.599999999999966
 20
-167.61364583137862
 30
0.0
 40
2.6000000000000001
 50
0.0000000000006263
 51
89.999999999983203
  0
ARC
  8
0
  6
CONTINUOUS
 62
               3
  5
40A
 10
-66.599999999999966
 20
-167.61364583137862
 30
0.0
 40
1.0
 50
0.0
 51
89.999999999983515
  0
LINE
  8
0
  6
CONTINUOUS
 62
               3
  5
40B
 10
-50.500000000000227
 20
-108.86364583137748
 30
0.0
 11
50.500000000000227
 21
-108.86364583137748
 31
0.0
  0
LINE
  8
0
  6
CONTINUOUS
 62
               3
  5
40C
 10
-49.499999999999034
 20
-238.86364583137805
 30
0.0
 11
-49.499999999999034
 21
-223.86364583137896
 31
0.0
  0
LINE
  8
0
  6
CONTINUOUS
 62
               3
  5
40D
 10
-52.499999999999147
 20
-238.86364583137805
 30
0.0
 11
52.500000000001705
 21
-238.86364583137703
 31
0.0
  0
ARC
  8
0
  6
CONTINUOUS
 62
               3
  5
40E
 10
-59.999999999999716
 20
-112.86364583137873
 30
0.0
 40
4.0
 50
89.999999999964984
 51
179.99999999993079
  0
LINE
  8
0
  6
CONTINUOUS
 62
               3
  5
40F
 10
-49.999999999999716
 20
-107.26364583137882
 30
0.0
 11
-62.999999999999829
 21
-107.26364583137882
 31
0.0
  0
LINE
  8
0
  6
CONTINUOUS
 62
               3
  5
410
 10
0.0000000000002842
 20
-108.86364583137771
 30
0.0
 11
-62.999999999999829
 21
-108.86364583137885
 31
0.0
  0
LINE
  8
0
  6
CONTINUOUS
 62
               3
  5
411
 10
-49.999999999999716
 20
-107.26364583137882
 30
0.0
 11
-49.999999999999716
 21
-108.86364583137862
 31
0.0
  0
LINE
  8
0
  6
CONTINUOUS
 62
               3
  5
412
 10
-49.99999999999801
 20
-225.46364583137876
 30
0.0
 11
-62.999999999999261
 21
-225.46364583137876
 31
0.0
  0
ARC
  8
0
  6
CONTINUOUS
 62
               3
  5
413
 10
-62.999999999997556
 20
-222.86364583137896
 30
0.0
 40
1.0000000000000004
 50
179.99999999993119
 51
269.99999999989598
  0
ARC
  8
0
  6
CONTINUOUS
 62
               3
  5
414
 10
-59.99999999999801
 20
-219.86364583137907
 30
0.0
 40
4.0
 50
179.99999999993119
 51
269.9999999998974
  0
LINE
  8
0
  6
CONTINUOUS
 62
               3
  5
415
 10
-49.99999999999801
 20
-225.46364583137876
 30
0.0
 11
-49.99999999999801
 21
-223.86364583137896
 31
0.0
  0
LINE
  8
0
  6
CONTINUOUS
 62
               3
  5
416
 10
-63.999999999997783
 20
-222.86364583137896
 30
0.0
 11
-64.000000000000625
 21
-167.61364583137851
 31
0.0
  0
LINE
  8
0
  6
CONTINUOUS
 62
               3
  5
417
 10
0.0000000000014211
 20
-223.86364583137771
 30
0.0
 11
-62.999999999997556
 21
-223.86364583137896
 31
0.0
  0
LINE
  8
0
  6
CONTINUOUS
 62
               3
  5
418
 10
0.0000000000014211
 20
-198.86364583137771
 30
0.0
 11
-63.999999999997783
 21
-198.86364583137885
 31
0.0
  0
LINE
  8
0
  6
CONTINUOUS
 62
               3
  5
419
 10
-64.000000000000057
 20
-133.86364583137805
 30
0.0
 11
0.0000000000002842
 21
-133.86364583137771
 31
0.0
  0
LINE
  8
0
  6
CONTINUOUS
 62
               3
  5
41A
 10
-60.999999999999943
 20
-133.86364583137805
 30
0.0
 11
-60.999999999998806
 21
-198.86364583137885
 31
0.0
  0
LINE
  8
0
  6
CONTINUOUS
 62
               3
  5
41B
 10
0.0000000000002842
 20
-108.86364583137771
 30
0.0
 11
62.999999999999829
 21
-108.86364583137782
 31
0.0
  0
LINE
  8
0
  6
CONTINUOUS
 62
               3
  5
41C
 10
0.0000000000014211
 20
-223.86364583137771
 30
0.0
 11
62.999999999999829
 21
-223.86364583137805
 31
0.0
  0
LINE
  8
0
  6
CONTINUOUS
 62
               3
  5
41D
 10
0.0000000000014211
 20
-198.86364583137771
 30
0.0
 11
64.000000000000057
 21
-198.86364583137782
 31
0.0
  0
LINE
  8
0
  6
CONTINUOUS
 62
               3
  5
41E
 10
64.000000000000057
 20
-133.86364583137703
 30
0.0
 11
0.0000000000002842
 21
-133.86364583137771
 31
0.0
  0
LINE
  8
0
  6
CONTINUOUS
 62
               3
  5
41F
 10
-65.59999999999917
 20
-222.86364583137896
 30
0.0
 11
-65.599999999999739
 21
-167.61364583137851
 31
0.0
  0
ARC
  8
0
  6
CONTINUOUS
 62
               3
  5
420
 10
-62.999999999999261
 20
-222.86364583137896
 30
0.0
 40
2.6000000000000001
 50
179.99999999996578
 51
269.9999999999477
  0
LINE
  8
0
  6
CONTINUOUS
 62
               3
  5
421
 10
49.499999999999318
 20
-238.86364583137794
 30
0.0
 11
49.499999999999318
 21
-223.86364583137896
 31
0.0
  0
ARC
  8
0
  6
CONTINUOUS
 62
               3
  5
422
 10
59.999999999999716
 20
-112.86364583137873
 30
0.0
 40
4.0
 50
0.0000000000346044
 51
90.000000000000313
  0
ARC
  8
0
  6
CONTINUOUS
 62
               3
  5
423
 10
62.999999999999829
 20
-109.86364583137862
 30
0.0
 40
1.0000000000000004
 50
0.0000000000341973
 51
90.000000000001023
  0
LINE
  8
0
  6
CONTINUOUS
 62
               3
  5
424
 10
65.599999999999739
 20
-109.86364583137862
 30
0.0
 11
65.599999999999739
 21
-162.41364583137835
 31
0.0
  0
LINE
  8
0
  6
CONTINUOUS
 62
               3
  5
425
 10
64.000000000000057
 20
-109.86364583137862
 30
0.0
 11
64.000000000000057
 21
-162.41364583137835
 31
0.0
  0
LINE
  8
0
  6
CONTINUOUS
 62
               3
  5
426
 10
66.599999999999966
 20
-165.01364583137848
 30
0.0
 11
135.00000000000017
 21
-165.01364583137871
 31
0.0
  0
LINE
  8
0
  6
CONTINUOUS
 62
               3
  5
427
 10
66.599999999999966
 20
-163.41364583137846
 30
0.0
 11
135.00000000000017
 21
-163.4136458313788
 31
0.0
  0
LINE
  8
0
  6
CONTINUOUS
 62
               3
  5
428
 10
49.999999999999716
 20
-107.26364583137871
 30
0.0
 11
62.999999999999829
 21
-107.26364583137871
 31
0.0
  0
LINE
  8
0
  6
CONTINUOUS
 62
               3
  5
429
 10
49.999999999999716
 20
-107.26364583137871
 30
0.0
 11
49.999999999999716
 21
-108.86364583137851
 31
0.0
  0
LINE
  8
0
  6
CONTINUOUS
 62
               3
  5
42A
 10
49.99999999999801
 20
-225.46364583137864
 30
0.0
 11
62.999999999999261
 21
-225.46364583137864
 31
0.0
  0
ARC
  8
0
  6
CONTINUOUS
 62
               3
  5
42B
 10
62.99999999999784
 20
-222.86364583137885
 30
0.0
 40
1.0000000000000004
 50
269.99999999999983
 51
359.99999999996339
  0
ARC
  8
0
  6
CONTINUOUS
 62
               3
  5
42C
 10
59.99999999999801
 20
-219.86364583137885
 30
0.0
 40
4.0
 50
269.99999999999829
 51
359.99999999996419
  0
LINE
  8
0
  6
CONTINUOUS
 62
               3
  5
42D
 10
49.99999999999801
 20
-225.46364583137864
 30
0.0
 11
49.99999999999801
 21
-223.86364583137896
 31
0.0
  0
LINE
  8
0
  6
CONTINUOUS
 62
               3
  5
42E
 10
63.999999999997783
 20
-222.86364583137885
 30
0.0
 11
64.000000000000625
 21
-167.61364583137839
 31
0.0
  0
LINE
  8
0
  6
CONTINUOUS
 62
               3
  5
42F
 10
66.599999999999966
 20
-166.61364583137839
 30
0.0
 11
135.00000000000017
 21
-166.61364583137873
 31
0.0
  0
LINE
  8
0
  6
CONTINUOUS
 62
               3
  5
430
 10
60.999999999999943
 20
-133.86364583137794
 30
0.0
 11
60.999999999998806
 21
-198.86364583137862
 31
0.0
  0
LINE
  8
0
  6
CONTINUOUS
 62
               3
  5
431
 10
135.00000000000017
 20
-163.4136458313788
 30
0.0
 11
135.00000000000017
 21
-165.01364583137871
 31
0.0
  0
LINE
  8
0
  6
CONTINUOUS
 62
               3
  5
432
 10
135.00000000000017
 20
-166.61364583137873
 30
0.0
 11
135.00000000000017
 21
-165.01364583137871
 31
0.0
  0
LINE
  8
0
  6
CONTINUOUS
 62
               3
  5
433
 10
71.250000000000284
 20
-161.91364583137846
 30
0.0
 11
78.750000000000284
 21
-161.91364583137846
 31
0.0
  0
LINE
  8
0
  6
CONTINUOUS
 62
               3
  5
434
 10
71.250000000000284
 20
-168.11364583137851
 30
0.0
 11
78.750000000000284
 21
-168.11364583137862
 31
0.0
  0
LINE
  8
0
  6
CONTINUOUS
 62
               3
  5
435
 10
71.250000000000284
 20
-161.91364583137846
 30
0.0
 11
71.250000000000284
 21
-163.41364583137846
 31
0.0
  0
LINE
  8
0
  6
CONTINUOUS
 62
               3
  5
436
 10
71.250000000000284
 20
-166.61364583137839
 30
0.0
 11
71.250000000000284
 21
-168.11364583137851
 31
0.0
  0
LINE
  8
0
  6
CONTINUOUS
 62
               3
  5
437
 10
78.750000000000284
 20
-161.91364583137846
 30
0.0
 11
78.750000000000284
 21
-163.41364583137846
 31
0.0
  0
LINE
  8
0
  6
CONTINUOUS
 62
               3
  5
438
 10
78.750000000000284
 20
-166.61364583137873
 30
0.0
 11
78.750000000000284
 21
-168.11364583137862
 31
0.0
  0
ARC
  8
0
  6
CONTINUOUS
 62
               3
  5
439
 10
62.999999999999829
 20
-109.86364583137862
 30
0.0
 40
2.6000000000000001
 50
0.0
 51
89.999999999982734
  0
ARC
  8
0
  6
CONTINUOUS
 62
               3
  5
43A
 10
66.599999999999966
 20
-162.41364583137835
 30
0.0
 40
2.6000000000000001
 50
179.99999999996515
 51
269.99999999994805
  0
ARC
  8
0
  6
CONTINUOUS
 62
               3
  5
43B
 10
66.599999999999966
 20
-162.41364583137835
 30
0.0
 40
1.0
 50
179.99999999996541
 51
269.9999999999481
  0
ARC
  8
0
  6
CONTINUOUS
 62
               3
  5
43C
 10
66.599999999999966
 20
-167.61364583137851
 30
0.0
 40
2.6000000000000001
 50
89.999999999981952
 51
179.99999999996453
  0
ARC
  8
0
  6
CONTINUOUS
 62
               3
  5
43D
 10
66.599999999999966
 20
-167.61364583137851
 30
0.0
 40
1.0
 50
89.999999999981881
 51
179.99999999996541
  0
LINE
  8
0
  6
CONTINUOUS
 62
               3
  5
43E
 10
65.59999999999917
 20
-222.86364583137896
 30
0.0
 11
65.599999999999739
 21
-167.61364583137851
 31
0.0
  0
ARC
  8
0
  6
CONTINUOUS
 62
               3
  5
43F
 10
62.999999999999261
 20
-222.86364583137896
 30
0.0
 40
2.6000000000000001
 50
269.99999999994787
 51
359.99999999993031
  0
LINE
  8
0
  6
CONTINUOUS
 62
               3
  5
440
 10
284.00000000000045
 20
-225.36521808592613
 30
0.0
 11
316.00000000000102
 21
-225.36521808592568
 31
0.0
  0
LINE
  8
0
  6
CONTINUOUS
 62
               3
  5
441
 10
284.00000000000045
 20
-166.51521808592736
 30
0.0
 11
316.00000000000102
 21
-166.51521808592736
 31
0.0
  0
LINE
  8
0
  6
CONTINUOUS
 62
               3
  5
442
 10
247.5000000000008
 20
-238.76521808592634
 30
0.0
 11
352.50000000000165
 21
-238.76521808592531
 31
0.0
  0
LINE
  8
0
  6
CONTINUOUS
 62
               3
  5
443
 10
250.50000000000091
 20
-238.76521808592634
 30
0.0
 11
250.50000000000091
 21
-223.76521808592724
 31
0.0
  0
LINE
  8
0
  6
CONTINUOUS
 62
               3
  5
444
 10
349.49999999999926
 20
-238.76521808592622
 30
0.0
 11
349.49999999999926
 21
-223.76521808592724
 31
0.0
  0
ARC
  8
0
  6
CONTINUOUS
 62
               3
  5
445
 10
240.00000000000193
 20
-219.7652180859273
 30
0.0
 40
4.0
 50
179.99999999993119
 51
269.99999999989723
  0
LINE
  8
0
  6
CONTINUOUS
 62
               3
  5
446
 10
236.00000000000193
 20
-219.7652180859273
 30
0.0
 11
236.00000000000193
 21
-198.76521808592707
 31
0.0
  0
LINE
  8
0
  6
CONTINUOUS
 62
               3
  5
447
 10
284.00000000000045
 20
-198.76521808592622
 30
0.0
 11
236.00000000000216
 21
-198.76521808592707
 31
0.0
  0
LINE
  8
0
  6
CONTINUOUS
 62
               3
  5
448
 10
284.00000000000045
 20
-223.76521808592611
 30
0.0
 11
239.99999999999841
 21
-223.7652180859273
 31
0.0
  0
LINE
  8
0
  6
CONTINUOUS
 62
               3
  5
449
 10
315.99999999999937
 20
-198.76521808592622
 30
0.0
 11
363.99999999999773
 21
-198.76521808592707
 31
0.0
  0
LINE
  8
0
  6
CONTINUOUS
 62
               3
  5
44A
 10
315.99999999999937
 20
-223.76521808592611
 30
0.0
 11
360.00000000000148
 21
-223.7652180859273
 31
0.0
  0
ARC
  8
0
  6
CONTINUOUS
 62
               3
  5
44B
 10
359.99999999999795
 20
-219.7652180859273
 30
0.0
 40
4.0
 50
269.99999999999858
 51
359.99999999996419
  0
LINE
  8
0
  6
CONTINUOUS
 62
               3
  5
44C
 10
363.99999999999795
 20
-219.7652180859273
 30
0.0
 11
363.99999999999773
 21
-198.76521808592707
 31
0.0
  0
LINE
  8
0
  6
CONTINUOUS
 62
               3
  5
44D
 10
300.0
 20
-108.86364583137751
 30
0.0
 11
353.5247045634116
 21
-108.86364583137748
 31
0.0
  0
LINE
  8
0
  6
CONTINUOUS
 62
               3
  5
44E
 10
300.0
 20
-108.86364583137751
 30
0.0
 11
246.4752954365884
 21
-108.86364583137748
 31
0.0
  0
ARC
  8
0
  6
CONTINUOUS
 62
               3
  5
44F
 10
239.99999999999977
 20
-112.76521808592702
 30
0.0
 40
4.0
 50
89.999999999965198
 51
179.99999999993079
  0
LINE
  8
0
  6
CONTINUOUS
 62
               3
  5
450
 10
235.99999999999977
 20
-112.76521808592463
 30
0.0
 11
235.99999999999955
 21
-133.76521808592634
 31
0.0
  0
LINE
  8
0
  6
CONTINUOUS
 62
               3
  5
451
 10
284.00000000000045
 20
-108.76521808592616
 30
0.0
 11
239.99999999999977
 21
-108.76521808592702
 31
0.0
  0
LINE
  8
0
  6
CONTINUOUS
 62
               3
  5
452
 10
235.99999999999955
 20
-133.76521808592634
 30
0.0
 11
284.00000000000045
 21
-133.76521808592599
 31
0.0
  0
LINE
  8
0
  6
CONTINUOUS
 62
               3
  5
453
 10
316.00000000000102
 20
-108.76521808592594
 30
0.0
 11
359.99999999999955
 21
-108.76521808592605
 31
0.0
  0
LINE
  8
0
  6
CONTINUOUS
 62
               3
  5
454
 10
363.99999999999966
 20
-133.76521808592537
 30
0.0
 11
316.00000000000102
 21
-133.76521808592577
 31
0.0
  0
ARC
  8
0
  6
CONTINUOUS
 62
               3
  5
455
 10
359.99999999999955
 20
-112.7652180859269
 30
0.0
 40
4.0
 50
0.0000000000346044
 51
90.000000000000611
  0
LINE
  8
0
  6
CONTINUOUS
 62
               3
  5
456
 10
363.99999999999966
 20
-112.7652180859269
 30
0.0
 11
363.99999999999966
 21
-133.76521808592537
 31
0.0
  0
LINE
  8
0
  6
CONTINUOUS
 62
               3
  5
457
 10
284.00000000000045
 20
-164.91521808592734
 30
0.0
 11
316.00000000000102
 21
-164.91521808592734
 31
0.0
  0
LINE
  8
0
  6
CONTINUOUS
 62
               3
  5
458
 10
284.00000000000045
 20
-163.31521808592731
 30
0.0
 11
316.00000000000102
 21
-163.31521808592731
 31
0.0
  0
LINE
  8
0
  6
CONTINUOUS
 62
               3
  5
459
 10
238.99999999999955
 20
-133.76521808592634
 30
0.0
 11
239.00000000000068
 21
-198.76521808592702
 31
0.0
  0
LINE
  8
0
  6
CONTINUOUS
 62
               3
  5
45A
 10
360.99999999999977
 20
-133.76521808592622
 30
0.0
 11
360.99999999999875
 21
-198.7652180859269
 31
0.0
  0
LINE
  8
0
  6
CONTINUOUS
 62
               3
  5
45B
 10
283.99999999999977
 20
-107.16521808592597
 30
0.0
 11
315.99999999999989
 21
-107.16521808592597
 31
0.0
  0
LINE
  8
0
  6
CONTINUOUS
 62
               3
  5
45C
 10
284.00000000000045
 20
-107.16521808592597
 30
0.0
 11
284.00000000000045
 21
-225.36521808592613
 31
0.0
  0
LINE
  8
0
  6
CONTINUOUS
 62
               3
  5
45D
 10
316.00000000000102
 20
-225.36521808592568
 30
0.0
 11
316.00000000000057
 21
-107.16521808592597
 31
0.0
  0
LINE
  8
0
  6
DASHED2
 62
               3
  5
45E
 10
-126.76000000000056
 20
-163.41364583137857
 30
0.0
 11
-103.24000000000024
 21
-163.41364583137857
 31
0.0
  0
LINE
  8
0
  6
DASHED2
 62
               3
  5
45F
 10
-103.24000000000166
 20
-166.61364583137885
 30
0.0
 11
-126.76000000000198
 21
-166.61364583137885
 31
0.0
  0
LINE
  8
0
  6
DASHED2
 62
               3
  5
460
 10
126.76000000000033
 20
-163.41364583137835
 30
0.0
 11
103.24000000000001
 21
-163.41364583137835
 31
0.0
  0
LINE
  8
0
  6
DASHED2
 62
               3
  5
461
 10
103.24000000000143
 20
-166.61364583137873
 30
0.0
 11
126.76000000000175
 21
-166.61364583137873
 31
0.0
  0
ENDSEC
  0
EOF
