  0
SECTION
  2
HEADER
  9
$ACADVER
  1
AC1009
  9
$INSBASE
 10
0.0
 20
0.0
 30
0.0
  9
$EXTMIN
 10
-710.84000000000026
 20
-455.94285483860381
 30
0.0
  9
$EXTMAX
 10
710.84000000000015
 20
601.71774580592239
 30
0.0
  9
$LIMMIN
 10
-755.26750000000027
 20
-488.99474860874523
  9
$LIMMAX
 10
755.26750000000015
 20
634.76963957606381
  9
$ORTHOMODE
 70
               0
  9
$REGENMODE
 70
               1
  9
$FILLMODE
 70
               1
  9
$QTEXTMODE
 70
               0
  9
$MIRRTEXT
 70
               1
  9
$DRAGMODE
 70
               2
  9
$LTSCALE
 40
1.0
  9
$OSMODE
 70
               0
  9
$ATTMODE
 70
               1
  9
$TEXTSIZE
 40
0.2
  9
$TRACEWID
 40
0.05
  9
$TEXTSTYLE
  7
STANDARD
  9
$CLAYER
  8
0
  9
$CELTYPE
  6
CONTINUOUS
  9
$CECOLOR
 62
             256
  9
$DIMSCALE
 40
1.0
  9
$DIMASZ
 40
0.18
  9
$DIMEXO
 40
0.0625
  9
$DIMDLI
 40
0.38
  9
$DIMRND
 40
0.0
  9
$DIMDLE
 40
0.0
  9
$DIMEXE
 40
0.18
  9
$DIMTP
 40
0.0
  9
$DIMTM
 40
0.0
  9
$DIMTXT
 40
0.18
  9
$DIMCEN
 40
0.09
  9
$DIMTSZ
 40
0.0
  9
$DIMTOL
 70
               0
  9
$DIMLIM
 70
               0
  9
$DIMTIH
 70
               1
  9
$DIMTOH
 70
               1
  9
$DIMSE1
 70
               0
  9
$DIMSE2
 70
               0
  9
$DIMTAD
 70
               0
  9
$DIMZIN
 70
               0
  9
$DIMBLK
  1

  9
$DIMASO
 70
               1
  9
$DIMSHO
 70
               1
  9
$DIMPOST
  1

  9
$DIMAPOST
  1

  9
$DIMALT
 70
               0
  9
$DIMALTD
 70
               2
  9
$DIMALTF
 40
25.399999999999999
  9
$DIMLFAC
 40
1.0
  9
$DIMTOFL
 70
               0
  9
$DIMTVP
 40
0.0
  9
$DIMTIX
 70
               0
  9
$DIMSOXD
 70
               0
  9
$DIMSAH
 70
               0
  9
$DIMBLK1
  1

  9
$DIMBLK2
  1

  9
$DIMSTYLE
  2
STANDARD
  9
$DIMCLRD
 70
               0
  9
$DIMCLRE
 70
               0
  9
$DIMCLRT
 70
               0
  9
$DIMTFAC
 40
1.0
  9
$DIMGAP
 40
0.09
  9
$LUNITS
 70
               2
  9
$LUPREC
 70
               4
  9
$AXISMODE
 70
               0
  9
$AXISUNIT
 10
0.0
 20
0.0
  9
$SKETCHINC
 40
0.1
  9
$FILLETRAD
 40
0.0
  9
$AUNITS
 70
               0
  9
$AUPREC
 70
               0
  9
$MENU
  1
acad
  9
$ELEVATION
 40
0.0
  9
$PELEVATION
 40
0.0
  9
$THICKNESS
 40
0.0
  9
$LIMCHECK
 70
               0
  9
$BLIPMODE
 70
               1
  9
$CHAMFERA
 40
0.0
  9
$CHAMFERB
 40
0.0
  9
$SKPOLY
 70
               0
  9
$TDCREATE
 40
0.000000000
  9
$TDUPDATE
 40
0.000000000
  9
$TDINDWG
 40
0.0000000000
  9
$TDUSRTIMER
 40
0.0000000000
  9
$USRTIMER
 70
               1
  9
$ANGBASE
 50
0.0
  9
$ANGDIR
 70
               0
  9
$PDMODE
 70
               0
  9
$PDSIZE
 40
1.0
  9
$PLINEWID
 40
0.0
  9
$COORDS
 70
               1
  9
$SPLFRAME
 70
               0
  9
$SPLINETYPE
 70
               6
  9
$SPLINESEGS
 70
               8
  9
$ATTDIA
 70
               0
  9
$ATTREQ
 70
               1
  9
$HANDLING
 70
               1
  9
$HANDSEED
  5
31C
  9
$SURFTAB1
 70
               6
  9
$SURFTAB2
 70
               6
  9
$SURFTYPE
 70
               6
  9
$SURFU
 70
               6
  9
$SURFV
 70
               6
  9
$UCSNAME
  2

  9
$UCSORG
 10
0.0
 20
0.0
 30
0.0
  9
$UCSXDIR
 10
1.0
 20
0.0
 30
0.0
  9
$UCSYDIR
 10
0.0
 20
1.0
 30
0.0
  9
$PUCSNAME
  2

  9
$PUCSORG
 10
0.0
 20
0.0
 30
0.0
  9
$PUCSXDIR
 10
1.0
 20
0.0
 30
0.0
  9
$PUCSYDIR
 10
0.0
 20
1.0
 30
0.0
  9
$USERI1
 70
               0
  9
$USERI2
 70
               0
  9
$USERI3
 70
               0
  9
$USERI4
 70
               0
  9
$USERI5
 70
               0
  9
$USERR1
 40
0.0
  9
$USERR2
 40
0.0
  9
$USERR3
 40
0.0
  9
$USERR4
 40
0.0
  9
$USERR5
 40
0.0
  9
$WORLDVIEW
 70
               1
  9
$SHADEDGE
 70
               3
  9
$SHADEDIF
 70
              70
  9
$TILEMODE
 70
               1
  9
$MAXACTVP
 70
              16
  9
$PINSBASE
 10
0.0
 20
0.0
 30
0.0
  9
$PLIMCHECK
 70
               0
  9
$PEXTMIN
 10
1.0000000000000000E+20
 20
1.0000000000000000E+20
 30
1.0000000000000000E+20
  9
$PEXTMAX
 10
-1.0000000000000000E+20
 20
-1.0000000000000000E+20
 30
-1.0000000000000000E+20
  9
$PLIMMIN
 10
0.0
 20
0.0
  9
$PLIMMAX
 10
12.0
 20
9.0
  9
$UNITMODE
 70
               0
  9
$VISRETAIN
 70
               0
  9
$PLINEGEN
 70
               1
  9
$PSLTSCALE
 70
               0
  9
$TREEDEPTH
 70
            3020
  9
$DWGCODEPAGE
  3
dos932
  0
ENDSEC
  0
SECTION
  2
TABLES
  0
TABLE
  2
VPORT
 70
               1
  0
VPORT
  2
*ACTIVE
 70
               0
 10
0.0
 20
0.0
 11
1.0
 21
1.0
 12
-0.0000000000000568
 22
72.887445483659292
 13
0.0
 23
0.0
 14
1.0
 24
1.0
 15
0.0
 25
0.0
 16
0.0
 26
0.0
 36
1.0
 17
0.0
 27
0.0
 37
0.0
 40
1123.7643881848089
 41
1.3441741132586815
 42
50.0
 43
0.0
 44
0.0
 50
0.0
 51
0.0
 71
               0
 72
             100
 73
               1
 74
               1
 75
               0
 76
               0
 77
               0
 78
               0
  0
ENDTAB
  0
TABLE
  2
LTYPE
 70
              26
  0
LTYPE
  2
CONTINUOUS
 70
               0
  3
Solid line
 72
              65
 73
               0
 40
0.0
  0
LTYPE
  2
HIDDENX2
 70
               0
  3
CADPAC FUSION LINETYPE
 72
              65
 73
               2
 40
80.0
 49
60.0
 49
-20.0
  0
LTYPE
  2
HIDDEN
 70
               0
  3
CADPAC FUSION LINETYPE
 72
              65
 73
               2
 40
60.0
 49
40.0
 49
-20.0
  0
LTYPE
  2
HIDDEN2
 70
               0
  3
CADPAC FUSION LINETYPE
 72
              65
 73
               2
 40
50.0
 49
30.0
 49
-20.0
  0
LTYPE
  2
DASHED
 70
               0
  3
CADPAC FUSION LINETYPE
 72
              65
 73
               2
 40
60.0
 49
40.0
 49
-20.0
  0
LTYPE
  2
DASHED2
 70
               0
  3
CADPAC FUSION LINETYPE
 72
              65
 73
               2
 40
45.0
 49
30.0
 49
-15.0
  0
LTYPE
  2
DASHEDX2
 70
               0
  3
CADPAC FUSION LINETYPE
 72
              65
 73
               2
 40
90.0
 49
60.0
 49
-30.0
  0
LTYPE
  2
DOTX2
 70
               0
  3
CADPAC FUSION LINETYPE
 72
              65
 73
               2
 40
25.0
 49
0.0
 49
-25.0
  0
LTYPE
  2
DOT
 70
               0
  3
CADPAC FUSION LINETYPE
 72
              65
 73
               2
 40
20.0
 49
0.0
 49
-20.0
  0
LTYPE
  2
DOTS
 70
               0
  3
CADPAC FUSION LINETYPE
 72
              65
 73
               2
 40
20.0
 49
0.0
 49
-20.0
  0
LTYPE
  2
DOT2
 70
               0
  3
CADPAC FUSION LINETYPE
 72
              65
 73
               2
 40
15.0
 49
0.0
 49
-15.0
  0
LTYPE
  2
CENTERX2
 70
               0
  3
CADPAC FUSION LINETYPE
 72
              65
 73
               4
 40
120.0
 49
50.0
 49
-25.0
 49
20.0
 49
-25.0
  0
LTYPE
  2
CENTER
 70
               0
  3
CADPAC FUSION LINETYPE
 72
              65
 73
               4
 40
92.0
 49
40.0
 49
-20.0
 49
12.0
 49
-20.0
  0
LTYPE
  2
CENTER2
 70
               0
  3
CADPAC FUSION LINETYPE
 72
              65
 73
               4
 40
64.0
 49
30.0
 49
-15.0
 49
4.0
 49
-15.0
  0
LTYPE
  2
DASHDOTX2
 70
               0
  3
CADPAC FUSION LINETYPE
 72
              65
 73
               4
 40
100.0
 49
50.0
 49
-25.0
 49
0.0
 49
-25.0
  0
LTYPE
  2
DASHDOT
 70
               0
  3
CADPAC FUSION LINETYPE
 72
              65
 73
               4
 40
80.0
 49
40.0
 49
-20.0
 49
0.0
 49
-20.0
  0
LTYPE
  2
DASHDOT2
 70
               0
  3
CADPAC FUSION LINETYPE
 72
              65
 73
               4
 40
60.0
 49
30.0
 49
-15.0
 49
0.0
 49
-15.0
  0
LTYPE
  2
DIVIDEX2
 70
               0
  3
CADPAC FUSION LINETYPE
 72
              65
 73
               6
 40
125.0
 49
50.0
 49
-25.0
 49
0.0
 49
-25.0
 49
0.0
 49
-25.0
  0
LTYPE
  2
DIVIDE
 70
               0
  3
CADPAC FUSION LINETYPE
 72
              65
 73
               6
 40
100.0
 49
40.0
 49
-20.0
 49
0.0
 49
-20.0
 49
0.0
 49
-20.0
  0
LTYPE
  2
DIVIDE2
 70
               0
  3
CADPAC FUSION LINETYPE
 72
              65
 73
               6
 40
75.0
 49
30.0
 49
-15.0
 49
0.0
 49
-15.0
 49
0.0
 49
-15.0
  0
LTYPE
  2
BORDERX2
 70
               0
  3
CADPAC FUSION LINETYPE
 72
              65
 73
               6
 40
175.0
 49
50.0
 49
-25.0
 49
50.0
 49
-25.0
 49
0.0
 49
-25.0
  0
LTYPE
  2
BORDER
 70
               0
  3
CADPAC FUSION LINETYPE
 72
              65
 73
               6
 40
140.0
 49
40.0
 49
-20.0
 49
40.0
 49
-20.0
 49
0.0
 49
-20.0
  0
LTYPE
  2
BORDER2
 70
               0
  3
CADPAC FUSION LINETYPE
 72
              65
 73
               6
 40
105.0
 49
30.0
 49
-15.0
 49
30.0
 49
-15.0
 49
0.0
 49
-15.0
  0
LTYPE
  2
PHANTOMX2
 70
               0
  3
CADPAC FUSION LINETYPE
 72
              65
 73
               6
 40
150.0
 49
50.0
 49
-20.0
 49
20.0
 49
-20.0
 49
20.0
 49
-20.0
  0
LTYPE
  2
PHANTOM
 70
               0
  3
CADPAC FUSION LINETYPE
 72
              65
 73
               6
 40
124.0
 49
40.0
 49
-20.0
 49
12.0
 49
-20.0
 49
12.0
 49
-20.0
  0
LTYPE
  2
PHANTOM2
 70
               0
  3
CADPAC FUSION LINETYPE
 72
              65
 73
               6
 40
106.0
 49
30.0
 49
-20.0
 49
8.0
 49
-20.0
 49
8.0
 49
-20.0
  0
ENDTAB
  0
TABLE
  2
LAYER
 70
             256
  0
LAYER
  2
0
 70
               0
 62
               7
  6
CONTINUOUS
  0
LAYER
  2
LAYER001
 70
               0
 62
               7
  6
CONTINUOUS
  0
LAYER
  2
LAYER002
 70
               0
 62
               7
  6
CONTINUOUS
  0
LAYER
  2
LAYER003
 70
               0
 62
               7
  6
CONTINUOUS
  0
LAYER
  2
LAYER004
 70
               0
 62
               7
  6
CONTINUOUS
  0
LAYER
  2
LAYER005
 70
               0
 62
               7
  6
CONTINUOUS
  0
LAYER
  2
LAYER006
 70
               0
 62
               7
  6
CONTINUOUS
  0
LAYER
  2
LAYER007
 70
               0
 62
               7
  6
CONTINUOUS
  0
LAYER
  2
LAYER008
 70
               0
 62
               7
  6
CONTINUOUS
  0
LAYER
  2
LAYER009
 70
               0
 62
               7
  6
CONTINUOUS
  0
LAYER
  2
LAYER010
 70
               0
 62
               7
  6
CONTINUOUS
  0
LAYER
  2
LAYER011
 70
               0
 62
               7
  6
CONTINUOUS
  0
LAYER
  2
LAYER012
 70
               0
 62
               7
  6
CONTINUOUS
  0
LAYER
  2
LAYER013
 70
               0
 62
               7
  6
CONTINUOUS
  0
LAYER
  2
LAYER014
 70
               0
 62
               7
  6
CONTINUOUS
  0
LAYER
  2
LAYER015
 70
               0
 62
               7
  6
CONTINUOUS
  0
LAYER
  2
LAYER016
 70
               0
 62
               7
  6
CONTINUOUS
  0
LAYER
  2
LAYER017
 70
               0
 62
               7
  6
CONTINUOUS
  0
LAYER
  2
LAYER018
 70
               0
 62
               7
  6
CONTINUOUS
  0
LAYER
  2
LAYER019
 70
               0
 62
               7
  6
CONTINUOUS
  0
LAYER
  2
LAYER020
 70
               0
 62
               7
  6
CONTINUOUS
  0
LAYER
  2
LAYER021
 70
               0
 62
               7
  6
CONTINUOUS
  0
LAYER
  2
LAYER022
 70
               0
 62
               7
  6
CONTINUOUS
  0
LAYER
  2
LAYER023
 70
               0
 62
               7
  6
CONTINUOUS
  0
LAYER
  2
LAYER024
 70
               0
 62
               7
  6
CONTINUOUS
  0
LAYER
  2
LAYER025
 70
               0
 62
               7
  6
CONTINUOUS
  0
LAYER
  2
LAYER026
 70
               0
 62
               7
  6
CONTINUOUS
  0
LAYER
  2
LAYER027
 70
               0
 62
               7
  6
CONTINUOUS
  0
LAYER
  2
LAYER028
 70
               0
 62
               7
  6
CONTINUOUS
  0
LAYER
  2
LAYER029
 70
               0
 62
               7
  6
CONTINUOUS
  0
LAYER
  2
LAYER030
 70
               0
 62
               7
  6
CONTINUOUS
  0
LAYER
  2
LAYER031
 70
               0
 62
               7
  6
CONTINUOUS
  0
LAYER
  2
LAYER032
 70
               0
 62
               7
  6
CONTINUOUS
  0
LAYER
  2
LAYER033
 70
               0
 62
               7
  6
CONTINUOUS
  0
LAYER
  2
LAYER034
 70
               0
 62
               7
  6
CONTINUOUS
  0
LAYER
  2
LAYER035
 70
               0
 62
               7
  6
CONTINUOUS
  0
LAYER
  2
LAYER036
 70
               0
 62
               7
  6
CONTINUOUS
  0
LAYER
  2
LAYER037
 70
               0
 62
               7
  6
CONTINUOUS
  0
LAYER
  2
LAYER038
 70
               0
 62
               7
  6
CONTINUOUS
  0
LAYER
  2
LAYER039
 70
               0
 62
               7
  6
CONTINUOUS
  0
LAYER
  2
LAYER040
 70
               0
 62
               7
  6
CONTINUOUS
  0
LAYER
  2
LAYER041
 70
               0
 62
               7
  6
CONTINUOUS
  0
LAYER
  2
LAYER042
 70
               0
 62
               7
  6
CONTINUOUS
  0
LAYER
  2
LAYER043
 70
               0
 62
               7
  6
CONTINUOUS
  0
LAYER
  2
LAYER044
 70
               0
 62
               7
  6
CONTINUOUS
  0
LAYER
  2
LAYER045
 70
               0
 62
               7
  6
CONTINUOUS
  0
LAYER
  2
LAYER046
 70
               0
 62
               7
  6
CONTINUOUS
  0
LAYER
  2
LAYER047
 70
               0
 62
               7
  6
CONTINUOUS
  0
LAYER
  2
LAYER048
 70
               0
 62
               7
  6
CONTINUOUS
  0
LAYER
  2
LAYER049
 70
               0
 62
               7
  6
CONTINUOUS
  0
LAYER
  2
LAYER050
 70
               0
 62
               7
  6
CONTINUOUS
  0
LAYER
  2
LAYER051
 70
               0
 62
               7
  6
CONTINUOUS
  0
LAYER
  2
LAYER052
 70
               0
 62
               7
  6
CONTINUOUS
  0
LAYER
  2
LAYER053
 70
               0
 62
               7
  6
CONTINUOUS
  0
LAYER
  2
LAYER054
 70
               0
 62
               7
  6
CONTINUOUS
  0
LAYER
  2
LAYER055
 70
               0
 62
               7
  6
CONTINUOUS
  0
LAYER
  2
LAYER056
 70
               0
 62
               7
  6
CONTINUOUS
  0
LAYER
  2
LAYER057
 70
               0
 62
               7
  6
CONTINUOUS
  0
LAYER
  2
LAYER058
 70
               0
 62
               7
  6
CONTINUOUS
  0
LAYER
  2
LAYER059
 70
               0
 62
               7
  6
CONTINUOUS
  0
LAYER
  2
LAYER060
 70
               0
 62
               7
  6
CONTINUOUS
  0
LAYER
  2
LAYER061
 70
               0
 62
               7
  6
CONTINUOUS
  0
LAYER
  2
LAYER062
 70
               0
 62
               7
  6
CONTINUOUS
  0
LAYER
  2
LAYER063
 70
               0
 62
               7
  6
CONTINUOUS
  0
LAYER
  2
LAYER064
 70
               0
 62
               7
  6
CONTINUOUS
  0
LAYER
  2
LAYER065
 70
               0
 62
               7
  6
CONTINUOUS
  0
LAYER
  2
LAYER066
 70
               0
 62
               7
  6
CONTINUOUS
  0
LAYER
  2
LAYER067
 70
               0
 62
               7
  6
CONTINUOUS
  0
LAYER
  2
LAYER068
 70
               0
 62
               7
  6
CONTINUOUS
  0
LAYER
  2
LAYER069
 70
               0
 62
               7
  6
CONTINUOUS
  0
LAYER
  2
LAYER070
 70
               0
 62
               7
  6
CONTINUOUS
  0
LAYER
  2
LAYER071
 70
               0
 62
               7
  6
CONTINUOUS
  0
LAYER
  2
LAYER072
 70
               0
 62
               7
  6
CONTINUOUS
  0
LAYER
  2
LAYER073
 70
               0
 62
               7
  6
CONTINUOUS
  0
LAYER
  2
LAYER074
 70
               0
 62
               7
  6
CONTINUOUS
  0
LAYER
  2
LAYER075
 70
               0
 62
               7
  6
CONTINUOUS
  0
LAYER
  2
LAYER076
 70
               0
 62
               7
  6
CONTINUOUS
  0
LAYER
  2
LAYER077
 70
               0
 62
               7
  6
CONTINUOUS
  0
LAYER
  2
LAYER078
 70
               0
 62
               7
  6
CONTINUOUS
  0
LAYER
  2
LAYER079
 70
               0
 62
               7
  6
CONTINUOUS
  0
LAYER
  2
LAYER080
 70
               0
 62
               7
  6
CONTINUOUS
  0
LAYER
  2
LAYER081
 70
               0
 62
               7
  6
CONTINUOUS
  0
LAYER
  2
LAYER082
 70
               0
 62
               7
  6
CONTINUOUS
  0
LAYER
  2
LAYER083
 70
               0
 62
               7
  6
CONTINUOUS
  0
LAYER
  2
LAYER084
 70
               0
 62
               7
  6
CONTINUOUS
  0
LAYER
  2
LAYER085
 70
               0
 62
               7
  6
CONTINUOUS
  0
LAYER
  2
LAYER086
 70
               0
 62
               7
  6
CONTINUOUS
  0
LAYER
  2
LAYER087
 70
               0
 62
               7
  6
CONTINUOUS
  0
LAYER
  2
LAYER088
 70
               0
 62
               7
  6
CONTINUOUS
  0
LAYER
  2
LAYER089
 70
               0
 62
               7
  6
CONTINUOUS
  0
LAYER
  2
LAYER090
 70
               0
 62
               7
  6
CONTINUOUS
  0
LAYER
  2
LAYER091
 70
               0
 62
               7
  6
CONTINUOUS
  0
LAYER
  2
LAYER092
 70
               0
 62
               7
  6
CONTINUOUS
  0
LAYER
  2
LAYER093
 70
               0
 62
               7
  6
CONTINUOUS
  0
LAYER
  2
LAYER094
 70
               0
 62
               7
  6
CONTINUOUS
  0
LAYER
  2
LAYER095
 70
               0
 62
               7
  6
CONTINUOUS
  0
LAYER
  2
LAYER096
 70
               0
 62
               7
  6
CONTINUOUS
  0
LAYER
  2
LAYER097
 70
               0
 62
               7
  6
CONTINUOUS
  0
LAYER
  2
LAYER098
 70
               0
 62
               7
  6
CONTINUOUS
  0
LAYER
  2
LAYER099
 70
               0
 62
               7
  6
CONTINUOUS
  0
LAYER
  2
LAYER100
 70
               0
 62
               7
  6
CONTINUOUS
  0
LAYER
  2
LAYER101
 70
               0
 62
               7
  6
CONTINUOUS
  0
LAYER
  2
LAYER102
 70
               0
 62
               7
  6
CONTINUOUS
  0
LAYER
  2
LAYER103
 70
               0
 62
               7
  6
CONTINUOUS
  0
LAYER
  2
LAYER104
 70
               0
 62
               7
  6
CONTINUOUS
  0
LAYER
  2
LAYER105
 70
               0
 62
               7
  6
CONTINUOUS
  0
LAYER
  2
LAYER106
 70
               0
 62
               7
  6
CONTINUOUS
  0
LAYER
  2
LAYER107
 70
               0
 62
               7
  6
CONTINUOUS
  0
LAYER
  2
LAYER108
 70
               0
 62
               7
  6
CONTINUOUS
  0
LAYER
  2
LAYER109
 70
               0
 62
               7
  6
CONTINUOUS
  0
LAYER
  2
LAYER110
 70
               0
 62
               7
  6
CONTINUOUS
  0
LAYER
  2
LAYER111
 70
               0
 62
               7
  6
CONTINUOUS
  0
LAYER
  2
LAYER112
 70
               0
 62
               7
  6
CONTINUOUS
  0
LAYER
  2
LAYER113
 70
               0
 62
               7
  6
CONTINUOUS
  0
LAYER
  2
LAYER114
 70
               0
 62
               7
  6
CONTINUOUS
  0
LAYER
  2
LAYER115
 70
               0
 62
               7
  6
CONTINUOUS
  0
LAYER
  2
LAYER116
 70
               0
 62
               7
  6
CONTINUOUS
  0
LAYER
  2
LAYER117
 70
               0
 62
               7
  6
CONTINUOUS
  0
LAYER
  2
LAYER118
 70
               0
 62
               7
  6
CONTINUOUS
  0
LAYER
  2
LAYER119
 70
               0
 62
               7
  6
CONTINUOUS
  0
LAYER
  2
LAYER120
 70
               0
 62
               7
  6
CONTINUOUS
  0
LAYER
  2
LAYER121
 70
               0
 62
               7
  6
CONTINUOUS
  0
LAYER
  2
LAYER122
 70
               0
 62
               7
  6
CONTINUOUS
  0
LAYER
  2
LAYER123
 70
               0
 62
               7
  6
CONTINUOUS
  0
LAYER
  2
LAYER124
 70
               0
 62
               7
  6
CONTINUOUS
  0
LAYER
  2
LAYER125
 70
               0
 62
               7
  6
CONTINUOUS
  0
LAYER
  2
LAYER126
 70
               0
 62
               7
  6
CONTINUOUS
  0
LAYER
  2
LAYER127
 70
               0
 62
               7
  6
CONTINUOUS
  0
LAYER
  2
LAYER128
 70
               0
 62
               7
  6
CONTINUOUS
  0
LAYER
  2
LAYER129
 70
               0
 62
               7
  6
CONTINUOUS
  0
LAYER
  2
LAYER130
 70
               0
 62
               7
  6
CONTINUOUS
  0
LAYER
  2
LAYER131
 70
               0
 62
               7
  6
CONTINUOUS
  0
LAYER
  2
LAYER132
 70
               0
 62
               7
  6
CONTINUOUS
  0
LAYER
  2
LAYER133
 70
               0
 62
               7
  6
CONTINUOUS
  0
LAYER
  2
LAYER134
 70
               0
 62
               7
  6
CONTINUOUS
  0
LAYER
  2
LAYER135
 70
               0
 62
               7
  6
CONTINUOUS
  0
LAYER
  2
LAYER136
 70
               0
 62
               7
  6
CONTINUOUS
  0
LAYER
  2
LAYER137
 70
               0
 62
               7
  6
CONTINUOUS
  0
LAYER
  2
LAYER138
 70
               0
 62
               7
  6
CONTINUOUS
  0
LAYER
  2
LAYER139
 70
               0
 62
               7
  6
CONTINUOUS
  0
LAYER
  2
LAYER140
 70
               0
 62
               7
  6
CONTINUOUS
  0
LAYER
  2
LAYER141
 70
               0
 62
               7
  6
CONTINUOUS
  0
LAYER
  2
LAYER142
 70
               0
 62
               7
  6
CONTINUOUS
  0
LAYER
  2
LAYER143
 70
               0
 62
               7
  6
CONTINUOUS
  0
LAYER
  2
LAYER144
 70
               0
 62
               7
  6
CONTINUOUS
  0
LAYER
  2
LAYER145
 70
               0
 62
               7
  6
CONTINUOUS
  0
LAYER
  2
LAYER146
 70
               0
 62
               7
  6
CONTINUOUS
  0
LAYER
  2
LAYER147
 70
               0
 62
               7
  6
CONTINUOUS
  0
LAYER
  2
LAYER148
 70
               0
 62
               7
  6
CONTINUOUS
  0
LAYER
  2
LAYER149
 70
               0
 62
               7
  6
CONTINUOUS
  0
LAYER
  2
LAYER150
 70
               0
 62
               7
  6
CONTINUOUS
  0
LAYER
  2
LAYER151
 70
               0
 62
               7
  6
CONTINUOUS
  0
LAYER
  2
LAYER152
 70
               0
 62
               7
  6
CONTINUOUS
  0
LAYER
  2
LAYER153
 70
               0
 62
               7
  6
CONTINUOUS
  0
LAYER
  2
LAYER154
 70
               0
 62
               7
  6
CONTINUOUS
  0
LAYER
  2
LAYER155
 70
               0
 62
               7
  6
CONTINUOUS
  0
LAYER
  2
LAYER156
 70
               0
 62
               7
  6
CONTINUOUS
  0
LAYER
  2
LAYER157
 70
               0
 62
               7
  6
CONTINUOUS
  0
LAYER
  2
LAYER158
 70
               0
 62
               7
  6
CONTINUOUS
  0
LAYER
  2
LAYER159
 70
               0
 62
               7
  6
CONTINUOUS
  0
LAYER
  2
LAYER160
 70
               0
 62
               7
  6
CONTINUOUS
  0
LAYER
  2
LAYER161
 70
               0
 62
               7
  6
CONTINUOUS
  0
LAYER
  2
LAYER162
 70
               0
 62
               7
  6
CONTINUOUS
  0
LAYER
  2
LAYER163
 70
               0
 62
               7
  6
CONTINUOUS
  0
LAYER
  2
LAYER164
 70
               0
 62
               7
  6
CONTINUOUS
  0
LAYER
  2
LAYER165
 70
               0
 62
               7
  6
CONTINUOUS
  0
LAYER
  2
LAYER166
 70
               0
 62
               7
  6
CONTINUOUS
  0
LAYER
  2
LAYER167
 70
               0
 62
               7
  6
CONTINUOUS
  0
LAYER
  2
LAYER168
 70
               0
 62
               7
  6
CONTINUOUS
  0
LAYER
  2
LAYER169
 70
               0
 62
               7
  6
CONTINUOUS
  0
LAYER
  2
LAYER170
 70
               0
 62
               7
  6
CONTINUOUS
  0
LAYER
  2
LAYER171
 70
               0
 62
               7
  6
CONTINUOUS
  0
LAYER
  2
LAYER172
 70
               0
 62
               7
  6
CONTINUOUS
  0
LAYER
  2
LAYER173
 70
               0
 62
               7
  6
CONTINUOUS
  0
LAYER
  2
LAYER174
 70
               0
 62
               7
  6
CONTINUOUS
  0
LAYER
  2
LAYER175
 70
               0
 62
               7
  6
CONTINUOUS
  0
LAYER
  2
LAYER176
 70
               0
 62
               7
  6
CONTINUOUS
  0
LAYER
  2
LAYER177
 70
               0
 62
               7
  6
CONTINUOUS
  0
LAYER
  2
LAYER178
 70
               0
 62
               7
  6
CONTINUOUS
  0
LAYER
  2
LAYER179
 70
               0
 62
               7
  6
CONTINUOUS
  0
LAYER
  2
LAYER180
 70
               0
 62
               7
  6
CONTINUOUS
  0
LAYER
  2
LAYER181
 70
               0
 62
               7
  6
CONTINUOUS
  0
LAYER
  2
LAYER182
 70
               0
 62
               7
  6
CONTINUOUS
  0
LAYER
  2
LAYER183
 70
               0
 62
               7
  6
CONTINUOUS
  0
LAYER
  2
LAYER184
 70
               0
 62
               7
  6
CONTINUOUS
  0
LAYER
  2
LAYER185
 70
               0
 62
               7
  6
CONTINUOUS
  0
LAYER
  2
LAYER186
 70
               0
 62
               7
  6
CONTINUOUS
  0
LAYER
  2
LAYER187
 70
               0
 62
               7
  6
CONTINUOUS
  0
LAYER
  2
LAYER188
 70
               0
 62
               7
  6
CONTINUOUS
  0
LAYER
  2
LAYER189
 70
               0
 62
               7
  6
CONTINUOUS
  0
LAYER
  2
LAYER190
 70
               0
 62
               7
  6
CONTINUOUS
  0
LAYER
  2
LAYER191
 70
               0
 62
               7
  6
CONTINUOUS
  0
LAYER
  2
LAYER192
 70
               0
 62
               7
  6
CONTINUOUS
  0
LAYER
  2
LAYER193
 70
               0
 62
               7
  6
CONTINUOUS
  0
LAYER
  2
LAYER194
 70
               0
 62
               7
  6
CONTINUOUS
  0
LAYER
  2
LAYER195
 70
               0
 62
               7
  6
CONTINUOUS
  0
LAYER
  2
LAYER196
 70
               0
 62
               7
  6
CONTINUOUS
  0
LAYER
  2
LAYER197
 70
               0
 62
               7
  6
CONTINUOUS
  0
LAYER
  2
LAYER198
 70
               0
 62
               7
  6
CONTINUOUS
  0
LAYER
  2
LAYER199
 70
               0
 62
               7
  6
CONTINUOUS
  0
LAYER
  2
LAYER200
 70
               0
 62
               7
  6
CONTINUOUS
  0
LAYER
  2
LAYER201
 70
               0
 62
               7
  6
CONTINUOUS
  0
LAYER
  2
LAYER202
 70
               0
 62
               7
  6
CONTINUOUS
  0
LAYER
  2
LAYER203
 70
               0
 62
               7
  6
CONTINUOUS
  0
LAYER
  2
LAYER204
 70
               0
 62
               7
  6
CONTINUOUS
  0
LAYER
  2
LAYER205
 70
               0
 62
               7
  6
CONTINUOUS
  0
LAYER
  2
LAYER206
 70
               0
 62
               7
  6
CONTINUOUS
  0
LAYER
  2
LAYER207
 70
               0
 62
               7
  6
CONTINUOUS
  0
LAYER
  2
LAYER208
 70
               0
 62
               7
  6
CONTINUOUS
  0
LAYER
  2
LAYER209
 70
               0
 62
               7
  6
CONTINUOUS
  0
LAYER
  2
LAYER210
 70
               0
 62
               7
  6
CONTINUOUS
  0
LAYER
  2
LAYER211
 70
               0
 62
               7
  6
CONTINUOUS
  0
LAYER
  2
LAYER212
 70
               0
 62
               7
  6
CONTINUOUS
  0
LAYER
  2
LAYER213
 70
               0
 62
               7
  6
CONTINUOUS
  0
LAYER
  2
LAYER214
 70
               0
 62
               7
  6
CONTINUOUS
  0
LAYER
  2
LAYER215
 70
               0
 62
               7
  6
CONTINUOUS
  0
LAYER
  2
LAYER216
 70
               0
 62
               7
  6
CONTINUOUS
  0
LAYER
  2
LAYER217
 70
               0
 62
               7
  6
CONTINUOUS
  0
LAYER
  2
LAYER218
 70
               0
 62
               7
  6
CONTINUOUS
  0
LAYER
  2
LAYER219
 70
               0
 62
               7
  6
CONTINUOUS
  0
LAYER
  2
LAYER220
 70
               0
 62
               7
  6
CONTINUOUS
  0
LAYER
  2
LAYER221
 70
               0
 62
               7
  6
CONTINUOUS
  0
LAYER
  2
LAYER222
 70
               0
 62
               7
  6
CONTINUOUS
  0
LAYER
  2
LAYER223
 70
               0
 62
               7
  6
CONTINUOUS
  0
LAYER
  2
LAYER224
 70
               0
 62
               7
  6
CONTINUOUS
  0
LAYER
  2
LAYER225
 70
               0
 62
               7
  6
CONTINUOUS
  0
LAYER
  2
LAYER226
 70
               0
 62
               7
  6
CONTINUOUS
  0
LAYER
  2
LAYER227
 70
               0
 62
               7
  6
CONTINUOUS
  0
LAYER
  2
LAYER228
 70
               0
 62
               7
  6
CONTINUOUS
  0
LAYER
  2
LAYER229
 70
               0
 62
               7
  6
CONTINUOUS
  0
LAYER
  2
LAYER230
 70
               0
 62
               7
  6
CONTINUOUS
  0
LAYER
  2
LAYER231
 70
               0
 62
               7
  6
CONTINUOUS
  0
LAYER
  2
LAYER232
 70
               0
 62
               7
  6
CONTINUOUS
  0
LAYER
  2
LAYER233
 70
               0
 62
               7
  6
CONTINUOUS
  0
LAYER
  2
LAYER234
 70
               0
 62
               7
  6
CONTINUOUS
  0
LAYER
  2
LAYER235
 70
               0
 62
               7
  6
CONTINUOUS
  0
LAYER
  2
LAYER236
 70
               0
 62
               7
  6
CONTINUOUS
  0
LAYER
  2
LAYER237
 70
               0
 62
               7
  6
CONTINUOUS
  0
LAYER
  2
LAYER238
 70
               0
 62
               7
  6
CONTINUOUS
  0
LAYER
  2
LAYER239
 70
               0
 62
               7
  6
CONTINUOUS
  0
LAYER
  2
LAYER240
 70
               0
 62
               7
  6
CONTINUOUS
  0
LAYER
  2
LAYER241
 70
               0
 62
               7
  6
CONTINUOUS
  0
LAYER
  2
LAYER242
 70
               0
 62
               7
  6
CONTINUOUS
  0
LAYER
  2
LAYER243
 70
               0
 62
               7
  6
CONTINUOUS
  0
LAYER
  2
LAYER244
 70
               0
 62
               7
  6
CONTINUOUS
  0
LAYER
  2
LAYER245
 70
               0
 62
               7
  6
CONTINUOUS
  0
LAYER
  2
LAYER246
 70
               0
 62
               7
  6
CONTINUOUS
  0
LAYER
  2
LAYER247
 70
               0
 62
               7
  6
CONTINUOUS
  0
LAYER
  2
LAYER248
 70
               0
 62
               7
  6
CONTINUOUS
  0
LAYER
  2
LAYER249
 70
               0
 62
               7
  6
CONTINUOUS
  0
LAYER
  2
LAYER250
 70
               0
 62
               7
  6
CONTINUOUS
  0
LAYER
  2
LAYER251
 70
               0
 62
               7
  6
CONTINUOUS
  0
LAYER
  2
LAYER252
 70
               0
 62
               7
  6
CONTINUOUS
  0
LAYER
  2
LAYER253
 70
               0
 62
               7
  6
CONTINUOUS
  0
LAYER
  2
LAYER254
 70
               0
 62
               7
  6
CONTINUOUS
  0
LAYER
  2
LAYER255
 70
               0
 62
               7
  6
CONTINUOUS
  0
ENDTAB
  0
TABLE
  2
STYLE
 70
               1
  0
STYLE
  2
STANDARD
 70
               0
 40
0.0
 41
1.0
 50
0.0
 71
               0
 42
0.0
  3
txt
  4

  0
ENDTAB
  0
TABLE
  2
VIEW
 70
               0
  0
VIEW
  2
QQQQ
 70
               0
 40
1123.7643881848089
 10
-0.0000000000000568
 20
72.887445483659292
 41
1510.5350000000003
 11
0.0
 21
0.0
 31
1.0
 12
100.0
 22
100.0
 32
0.0
 42
50.0
 43
0.0
 44
0.0
 50
0.0
 71
               0
  0
ENDTAB
  0
TABLE
  2
UCS
 70
               0
  0
ENDTAB
  0
TABLE
  2
APPID
 70
               1
  0
APPID
  2
ACAD
 70
               0
  0
ENDTAB
  0
TABLE
  2
DIMSTYLE
 70
               1
  0
DIMSTYLE
  2
STANDARD
 70
               0
  3

  4

  5

  6

  7

 40
1.0
 41
0.18
 42
0.0625
 43
0.38
 44
0.18
 45
0.0
 46
0.0
 47
0.0
 48
0.0
140
0.18
141
0.09
142
0.0
143
25.399999999999999
144
1.0
145
0.0
146
1.0
147
0.09
 71
               0
 72
               0
 73
               1
 74
               1
 75
               0
 76
               0
 77
               0
 78
               0
170
               0
171
               2
172
               0
173
               0
174
               0
175
               0
176
               0
177
               0
178
               0
  0
ENDTAB
  0
ENDSEC
  0
SECTION
  2
BLOCKS
  0
BLOCK
  8
0
  5
139
  2
GROUP_1
 70
               0
 10
0.0
 20
0.0
 30
0.0
  3
GROUP_1
  0
LINE
  8
0
  6
CONTINUOUS
 62
               4
  5
13A
 10
-608.9729633743483
 20
11.750000000000028
 30
0.0
 11
-516.5
 21
104.22296337434821
 31
0.0
  0
LINE
  8
0
  6
CONTINUOUS
 62
               4
  5
13B
 10
-678.57710787831695
 20
12.856533596617311
 30
0.0
 11
-529.68364147493412
 21
161.75000000000003
 31
0.0
  0
LINE
  8
0
  6
CONTINUOUS
 62
               4
  5
13C
 10
-683.50000000000023
 20
78.644319575519972
 30
0.0
 11
-600.39431957552006
 21
161.75000000000003
 31
0.0
  0
LINE
  8
0
  6
CONTINUOUS
 62
               4
  5
13D
 10
-680.5
 20
152.35499767610591
 30
0.0
 11
-671.10499767610611
 21
161.75000000000003
 31
0.0
  0
LINE
  8
0
  6
CONTINUOUS
 62
               4
  5
13E
 10
-538.26228527376225
 20
11.750000000000028
 30
0.0
 11
-518.89546864821398
 21
31.116816625548296
 31
0.0
  0
ENDBLK
  8
0
  5
13F
  0
BLOCK
  8
0
  5
140
  2
GROUP_2
 70
               0
 10
0.0
 20
0.0
 30
0.0
  3
GROUP_2
  0
LINE
  8
0
  6
CONTINUOUS
 62
               4
  5
141
 10
-8.9729633743483088
 20
11.750000000000028
 30
0.0
 11
83.500000000000014
 21
104.22296337434821
 31
0.0
  0
LINE
  8
0
  6
CONTINUOUS
 62
               4
  5
142
 10
-78.577107878316852
 20
12.856533596617311
 30
0.0
 11
70.316358525065894
 21
161.75000000000003
 31
0.0
  0
LINE
  8
0
  6
CONTINUOUS
 62
               4
  5
143
 10
-83.500000000000156
 20
78.644319575519972
 30
0.0
 11
-0.3943195755200417
 21
161.75000000000003
 31
0.0
  0
LINE
  8
0
  6
CONTINUOUS
 62
               4
  5
144
 10
-80.499999999999972
 20
152.35499767610591
 30
0.0
 11
-71.104997676106052
 21
161.75000000000003
 31
0.0
  0
LINE
  8
0
  6
CONTINUOUS
 62
               4
  5
145
 10
61.737714726237769
 20
11.750000000000028
 30
0.0
 11
81.104531351786093
 21
31.116816625548296
 31
0.0
  0
ENDBLK
  8
0
  5
146
  0
BLOCK
  8
0
  5
147
  2
GROUP_3
 70
               0
 10
0.0
 20
0.0
 30
0.0
  3
GROUP_3
  0
LINE
  8
0
  6
CONTINUOUS
 62
               4
  5
148
 10
591.0270366256517
 20
11.750000000000028
 30
0.0
 11
683.5
 21
104.22296337434821
 31
0.0
  0
LINE
  8
0
  6
CONTINUOUS
 62
               4
  5
149
 10
521.42289212168305
 20
12.856533596617311
 30
0.0
 11
670.31635852506588
 21
161.75000000000003
 31
0.0
  0
LINE
  8
0
  6
CONTINUOUS
 62
               4
  5
14A
 10
516.49999999999977
 20
78.644319575519972
 30
0.0
 11
599.60568042447994
 21
161.75000000000003
 31
0.0
  0
LINE
  8
0
  6
CONTINUOUS
 62
               4
  5
14B
 10
519.5
 20
152.35499767610591
 30
0.0
 11
528.89500232389389
 21
161.75000000000003
 31
0.0
  0
LINE
  8
0
  6
CONTINUOUS
 62
               4
  5
14C
 10
661.73771472623775
 20
11.750000000000028
 30
0.0
 11
681.10453135178602
 21
31.116816625548296
 31
0.0
  0
ENDBLK
  8
0
  5
14D
  0
ENDSEC
  0
SECTION
  2
ENTITIES
  0
LINE
  8
0
  6
DASHDOT
 62
               4
  5
14E
 10
-0.0000000000000693
 20
246.75000000000003
 30
0.0
 11
0.0000000000001243
 21
-435.60322790313217
 31
0.0
  0
LINE
  8
0
  6
DASHDOT
 62
               4
  5
14F
 10
-0.0000000000000409
 20
581.37811887045075
 30
0.0
 11
-0.0000000000000409
 21
364.37811887045086
 31
0.0
  0
LINE
  8
0
  6
DASHDOT
 62
               4
  5
150
 10
-108.50000000000004
 20
472.87811887045075
 30
0.0
 11
108.49999999999993
 21
472.87811887045075
 31
0.0
  0
LINE
  8
0
  6
DASHDOT
 62
               4
  5
151
 10
-600.00000000000011
 20
246.75000000000003
 30
0.0
 11
-600.00000000000011
 21
-435.60322790313217
 31
0.0
  0
LINE
  8
0
  6
DASHDOT
 62
               4
  5
152
 10
599.99999999999989
 20
246.75000000000003
 30
0.0
 11
599.99999999999989
 21
-435.60322790313217
 31
0.0
  0
LINE
  8
0
  6
DASHDOT
 62
               4
  5
153
 10
-125.00000000000064
 20
-105.75989800199451
 30
0.0
 11
-125.00000000000064
 21
-270.13825962148496
 31
0.0
  0
LINE
  8
0
  6
DASHDOT
 62
               4
  5
154
 10
124.99999999999935
 20
-105.75989800199451
 30
0.0
 11
124.99999999999935
 21
-270.13825962148496
 31
0.0
  0
CIRCLE
  8
0
  6
CONTINUOUS
 62
               4
  5
155
 10
-0.0000000000000409
 20
472.87811887045075
 30
0.0
 40
75.0
  0
CIRCLE
  8
0
  6
CONTINUOUS
 62
               4
  5
156
 10
-0.0000000000000409
 20
472.87811887045075
 30
0.0
 40
52.5
  0
LINE
  8
0
  6
CONTINUOUS
 62
               4
  5
157
 10
-47.668123520861101
 20
450.87811887045029
 30
0.0
 11
47.668123520859879
 21
450.87811887045029
 31
0.0
  0
ARC
  8
0
  6
CONTINUOUS
 62
               4
  5
158
 10
12.503611649381087
 20
481.58451649806977
 30
0.0
 40
54.763804151667173
 50
141.3859176368376
 51
145.15009542095353
  0
ARC
  8
0
  6
CONTINUOUS
 62
               4
  5
159
 10
-0.0000000000000409
 20
472.87811887045075
 30
0.0
 40
51.5
 50
334.71098847345695
 51
410.9593273636396
  0
ARC
  8
0
  6
CONTINUOUS
 62
               4
  5
15A
 10
-0.0000000000000409
 20
472.87811887045075
 30
0.0
 40
51.5
 50
129.04067263635963
 51
205.28901152654183
  0
ARC
  8
0
  6
CONTINUOUS
 62
               4
  5
15B
 10
-0.0000000000000409
 20
472.87811887045075
 30
0.0
 40
77.5
 50
104.95524831664311
 51
216.11235728205406
  0
ARC
  8
0
  6
CONTINUOUS
 62
               4
  5
15C
 10
-0.0000000000000409
 20
472.87811887045075
 30
0.0
 40
77.5
 50
14.955248316643299
 51
104.95524831664308
  0
ARC
  8
0
  6
CONTINUOUS
 62
               4
  5
15D
 10
-0.0000000000000409
 20
472.87811887045075
 30
0.0
 40
77.5
 50
284.95524831664267
 51
374.9552483166425
  0
LINE
  8
0
  6
CONTINUOUS
 62
               4
  5
15E
 10
-32.438403166617647
 20
512.87811887045052
 30
0.0
 11
34.003676271838899
 21
512.87811887045052
 31
0.0
  0
ARC
  8
0
  6
CONTINUOUS
 62
               4
  5
15F
 10
-0.0000000000000409
 20
472.87811887045075
 30
0.0
 40
77.5
 50
216.11235728205409
 51
284.95524831664267
  0
ARC
  8
0
  6
CONTINUOUS
 62
               4
  5
160
 10
-878.9292288491248
 20
-87.42239841146224
 30
0.0
 40
359.11818398045398
 50
13.306177675730206
 51
28.552443501618434
  0
ARC
  8
0
  6
CONTINUOUS
 62
               4
  5
161
 10
-600.33118646999424
 20
20.824277491106983
 30
0.0
 40
73.327111796148202
 50
342.62945642130711
 51
419.8368916056188
  0
LINE
  8
0
  6
CONTINUOUS
 62
               4
  5
162
 10
-75.000000000000071
 20
218.25000000000014
 30
0.0
 11
74.999999999999929
 21
218.25000000000014
 31
0.0
  0
ARC
  8
0
  6
CONTINUOUS
 62
               4
  5
163
 10
-76.999999999999957
 20
196.66742430504476
 30
0.0
 40
4.9999999999999991
 50
0.0
 51
66.421821521798009
  0
LINE
  8
0
  6
CONTINUOUS
 62
               4
  5
164
 10
-75.000000000000071
 20
201.25000000000082
 30
0.0
 11
74.999999999999929
 21
201.25000000000082
 31
0.0
  0
LINE
  8
0
  6
CONTINUOUS
 62
               4
  5
165
 10
-58.000000000000185
 20
-114.75000000000009
 30
0.0
 11
-75.000000000000071
 21
34.250000000000369
 31
0.0
  0
LINE
  8
0
  6
CONTINUOUS
 62
               4
  5
166
 10
-75.000000000000071
 20
111.25000000000014
 30
0.0
 11
-75.000000000000071
 21
34.250000000000369
 31
0.0
  0
LINE
  8
0
  6
CONTINUOUS
 62
               4
  5
167
 10
-71.999999999999957
 20
121.78565375285294
 30
0.0
 11
71.999999999999815
 21
121.78565375285294
 31
0.0
  0
ARC
  8
0
  6
CONTINUOUS
 62
               4
  5
168
 10
76.999999999999815
 20
196.66742430504476
 30
0.0
 40
4.9999999999999991
 50
113.57817847820161
 51
179.9999999999996
  0
LINE
  8
0
  6
CONTINUOUS
 62
               4
  5
169
 10
-75.000000000000071
 20
34.250000000000369
 30
0.0
 11
-46.368107792056961
 21
34.250000000000369
 31
0.0
  0
LINE
  8
0
  6
CONTINUOUS
 62
               4
  5
16A
 10
-1.9728332801509634
 20
34.250000000000369
 30
0.0
 11
74.999999999999957
 21
34.250000000000369
 31
0.0
  0
ARC
  8
0
  6
CONTINUOUS
 62
               4
  5
16B
 10
-55.000000000000071
 20
111.25000000000014
 30
0.0
 40
19.999999999999996
 50
148.21166938294786
 51
179.9999999999996
  0
LINE
  8
0
  6
CONTINUOUS
 62
               4
  5
16C
 10
58.000000000000043
 20
-114.75000000000009
 30
0.0
 11
74.999999999999957
 21
34.250000000000369
 31
0.0
  0
LINE
  8
0
  6
CONTINUOUS
 62
               4
  5
16D
 10
74.999999999999929
 20
111.25000000000014
 30
0.0
 11
74.999999999999957
 21
34.250000000000369
 31
0.0
  0
ARC
  8
0
  6
CONTINUOUS
 62
               4
  5
16E
 10
54.999999999999929
 20
111.25000000000014
 30
0.0
 40
19.999999999999996
 50
0.000000000000007
 51
31.788330617051756
  0
LINE
  8
0
  6
CONTINUOUS
 62
               4
  5
16F
 10
-75.000000000000071
 20
218.25000000000014
 30
0.0
 11
-75.000000000000071
 21
201.25000000000048
 31
0.0
  0
LINE
  8
0
  6
CONTINUOUS
 62
               4
  5
170
 10
74.999999999999929
 20
201.25000000000048
 30
0.0
 11
74.999999999999929
 21
218.25000000000014
 31
0.0
  0
ARC
  8
0
  6
CONTINUOUS
 62
               4
  5
171
 10
585.02192705347215
 20
29.95275034641864
 30
0.0
 40
59.149634972654262
 50
186.49999999999955
 51
236.78754046668743
  0
ARC
  8
0
  6
CONTINUOUS
 62
               4
  5
172
 10
605.92691953069379
 20
41.801767445170327
 30
0.0
 40
81.261593956721953
 50
186.49999999999955
 51
229.00792456454158
  0
ARC
  8
0
  6
CONTINUOUS
 62
               4
  5
173
 10
460.68129117650466
 20
-42.535751379524271
 30
0.0
 40
204.24864340422488
 50
353.49999999999915
 51
373.43680216747674
  0
ARC
  8
0
  6
CONTINUOUS
 62
               4
  5
174
 10
498.37230094456567
 20
-40.251334310116562
 30
0.0
 40
167.18634723772169
 50
351.25933879893398
 51
375.67746336854231
  0
LINE
  8
0
  6
CONTINUOUS
 62
               4
  5
175
 10
-80.499999999999972
 20
161.75000000000003
 30
0.0
 11
80.499999999999815
 21
161.75000000000003
 31
0.0
  0
LINE
  8
0
  6
CONTINUOUS
 62
               4
  5
176
 10
-78.424788131364309
 20
11.750000000000028
 30
0.0
 11
78.436559992414331
 21
11.750000000000028
 31
0.0
  0
LINE
  8
0
  6
CONTINUOUS
 62
               4
  5
177
 10
58.141132586505861
 20
-19.381485459082427
 30
0.0
 11
-65.512000000000583
 21
84.375812488170382
 31
0.0
  0
ARC
  8
0
  6
CONTINUOUS
 62
               4
  5
178
 10
-914.27232010053967
 20
-1060.1826046387782
 30
0.0
 40
1424.9238755783815
 50
50.189956146266432
 51
53.440796050731763
  0
ARC
  8
0
  6
CONTINUOUS
 62
               4
  5
179
 10
63.579388837032894
 20
105.1756825119635
 30
0.0
 40
130.75634311527989
 50
189.15312334030369
 51
212.76918311275256
  0
ARC
  8
0
  6
CONTINUOUS
 62
               4
  5
17A
 10
61.364025499551005
 20
115.30970326320382
 30
0.0
 40
134.72974192119386
 50
216.90649751133719
 51
268.62928723410664
  0
ARC
  8
0
  6
CONTINUOUS
 62
               4
  5
17B
 10
-733.63034809850842
 20
-843.84364731389155
 30
0.0
 40
1143.0835201141012
 50
46.158732653425403
 51
50.202696616656226
  0
LINE
  8
0
  6
CONTINUOUS
 62
               4
  5
17C
 10
-71.999999999999957
 20
121.78565375285294
 30
0.0
 11
-71.999999999999957
 21
161.75000000000003
 31
0.0
  0
LINE
  8
0
  6
CONTINUOUS
 62
               4
  5
17D
 10
-71.999999999999957
 20
196.66742430504476
 30
0.0
 11
-71.999999999999957
 21
161.75000000000003
 31
0.0
  0
LINE
  8
0
  6
CONTINUOUS
 62
               4
  5
17E
 10
71.999999999999815
 20
161.75000000000003
 30
0.0
 11
71.999999999999815
 21
196.66742430504476
 31
0.0
  0
LINE
  8
0
  6
CONTINUOUS
 62
               4
  5
17F
 10
71.999999999999815
 20
121.78565375285294
 30
0.0
 11
71.999999999999815
 21
161.75000000000003
 31
0.0
  0
LINE
  8
0
  6
CONTINUOUS
 62
               4
  5
180
 10
-91.000000000000583
 20
-232.49522178732227
 30
0.0
 11
-91.000000000000583
 21
-222.62093558026649
 31
0.0
  0
LINE
  8
0
  6
CONTINUOUS
 62
               4
  5
181
 10
90.999999999999176
 20
-232.49522178732227
 30
0.0
 11
90.999999999999176
 21
-222.62093558026649
 31
0.0
  0
LINE
  8
0
  6
CONTINUOUS
 62
               4
  5
182
 10
-65.500000000001606
 20
-331.74999999999864
 30
0.0
 11
65.500000000000313
 21
-331.74999999999864
 31
0.0
  0
LINE
  8
0
  6
CONTINUOUS
 62
               4
  5
183
 10
-675.00000000000011
 20
218.25000000000014
 30
0.0
 11
-525.00000000000011
 21
218.25000000000014
 31
0.0
  0
ARC
  8
0
  6
CONTINUOUS
 62
               4
  5
184
 10
-677.0
 20
196.66742430504476
 30
0.0
 40
4.9999999999999991
 50
0.0
 51
66.421821521798009
  0
LINE
  8
0
  6
CONTINUOUS
 62
               4
  5
185
 10
-675.00000000000011
 20
201.25000000000082
 30
0.0
 11
-525.00000000000011
 21
201.25000000000082
 31
0.0
  0
LINE
  8
0
  6
CONTINUOUS
 62
               4
  5
186
 10
-675.00000000000011
 20
111.25000000000014
 30
0.0
 11
-675.00000000000011
 21
34.250000000000369
 31
0.0
  0
LINE
  8
0
  6
CONTINUOUS
 62
               4
  5
187
 10
-672.0
 20
121.78565375285294
 30
0.0
 11
-528.00000000000023
 21
121.78565375285294
 31
0.0
  0
ARC
  8
0
  6
CONTINUOUS
 62
               4
  5
188
 10
-523.00000000000023
 20
196.66742430504476
 30
0.0
 40
4.9999999999999991
 50
113.57817847820161
 51
179.9999999999996
  0
ARC
  8
0
  6
CONTINUOUS
 62
               4
  5
189
 10
-655.00000000000011
 20
111.25000000000014
 30
0.0
 40
19.999999999999996
 50
148.21166938294786
 51
179.9999999999996
  0
LINE
  8
0
  6
CONTINUOUS
 62
               4
  5
18A
 10
-525.00000000000011
 20
111.25000000000014
 30
0.0
 11
-525.0
 21
34.250000000000369
 31
0.0
  0
ARC
  8
0
  6
CONTINUOUS
 62
               4
  5
18B
 10
-545.00000000000011
 20
111.25000000000014
 30
0.0
 40
19.999999999999996
 50
0.000000000000007
 51
31.788330617051756
  0
LINE
  8
0
  6
CONTINUOUS
 62
               4
  5
18C
 10
-675.00000000000011
 20
218.25000000000014
 30
0.0
 11
-675.00000000000011
 21
201.25000000000048
 31
0.0
  0
LINE
  8
0
  6
CONTINUOUS
 62
               4
  5
18D
 10
-525.00000000000011
 20
201.25000000000048
 30
0.0
 11
-525.00000000000011
 21
218.25000000000014
 31
0.0
  0
LINE
  8
0
  6
CONTINUOUS
 62
               4
  5
18E
 10
-680.5
 20
161.75000000000003
 30
0.0
 11
-519.50000000000023
 21
161.75000000000003
 31
0.0
  0
LINE
  8
0
  6
CONTINUOUS
 62
               4
  5
18F
 10
-672.0
 20
121.78565375285294
 30
0.0
 11
-672.0
 21
161.75000000000003
 31
0.0
  0
LINE
  8
0
  6
CONTINUOUS
 62
               4
  5
190
 10
-672.0
 20
196.66742430504476
 30
0.0
 11
-672.0
 21
161.75000000000003
 31
0.0
  0
LINE
  8
0
  6
CONTINUOUS
 62
               4
  5
191
 10
-528.00000000000023
 20
161.75000000000003
 30
0.0
 11
-528.00000000000023
 21
196.66742430504476
 31
0.0
  0
LINE
  8
0
  6
CONTINUOUS
 62
               4
  5
192
 10
-528.00000000000023
 20
121.78565375285294
 30
0.0
 11
-528.00000000000023
 21
161.75000000000003
 31
0.0
  0
LINE
  8
0
  6
CONTINUOUS
 62
               4
  5
193
 10
524.99999999999989
 20
218.25000000000014
 30
0.0
 11
674.99999999999989
 21
218.25000000000014
 31
0.0
  0
ARC
  8
0
  6
CONTINUOUS
 62
               4
  5
194
 10
523.0
 20
196.66742430504476
 30
0.0
 40
4.9999999999999991
 50
0.0
 51
66.421821521798009
  0
LINE
  8
0
  6
CONTINUOUS
 62
               4
  5
195
 10
524.99999999999989
 20
201.25000000000082
 30
0.0
 11
674.99999999999989
 21
201.25000000000082
 31
0.0
  0
LINE
  8
0
  6
CONTINUOUS
 62
               4
  5
196
 10
524.99999999999989
 20
111.25000000000014
 30
0.0
 11
524.99999999999989
 21
34.250000000000369
 31
0.0
  0
LINE
  8
0
  6
CONTINUOUS
 62
               4
  5
197
 10
528.0
 20
121.78565375285294
 30
0.0
 11
671.99999999999977
 21
121.78565375285294
 31
0.0
  0
ARC
  8
0
  6
CONTINUOUS
 62
               4
  5
198
 10
676.99999999999977
 20
196.66742430504476
 30
0.0
 40
4.9999999999999991
 50
113.57817847820161
 51
179.9999999999996
  0
LINE
  8
0
  6
CONTINUOUS
 62
               4
  5
199
 10
524.99999999999989
 20
34.250000000000369
 30
0.0
 11
675.0
 21
34.250000000000369
 31
0.0
  0
ARC
  8
0
  6
CONTINUOUS
 62
               4
  5
19A
 10
544.99999999999989
 20
111.25000000000014
 30
0.0
 40
19.999999999999996
 50
148.21166938294786
 51
179.9999999999996
  0
LINE
  8
0
  6
CONTINUOUS
 62
               4
  5
19B
 10
674.99999999999989
 20
111.25000000000014
 30
0.0
 11
675.0
 21
34.250000000000369
 31
0.0
  0
ARC
  8
0
  6
CONTINUOUS
 62
               4
  5
19C
 10
654.99999999999989
 20
111.25000000000014
 30
0.0
 40
19.999999999999996
 50
0.000000000000007
 51
31.788330617051756
  0
LINE
  8
0
  6
CONTINUOUS
 62
               4
  5
19D
 10
524.99999999999989
 20
218.25000000000014
 30
0.0
 11
524.99999999999989
 21
201.25000000000048
 31
0.0
  0
LINE
  8
0
  6
CONTINUOUS
 62
               4
  5
19E
 10
674.99999999999989
 20
201.25000000000048
 30
0.0
 11
674.99999999999989
 21
218.25000000000014
 31
0.0
  0
LINE
  8
0
  6
CONTINUOUS
 62
               4
  5
19F
 10
519.5
 20
161.75000000000003
 30
0.0
 11
680.49999999999977
 21
161.75000000000003
 31
0.0
  0
LINE
  8
0
  6
CONTINUOUS
 62
               4
  5
1A0
 10
528.0
 20
121.78565375285294
 30
0.0
 11
528.0
 21
161.75000000000003
 31
0.0
  0
LINE
  8
0
  6
CONTINUOUS
 62
               4
  5
1A1
 10
528.0
 20
196.66742430504476
 30
0.0
 11
528.0
 21
161.75000000000003
 31
0.0
  0
LINE
  8
0
  6
CONTINUOUS
 62
               4
  5
1A2
 10
671.99999999999977
 20
161.75000000000003
 30
0.0
 11
671.99999999999977
 21
196.66742430504476
 31
0.0
  0
LINE
  8
0
  6
CONTINUOUS
 62
               4
  5
1A3
 10
671.99999999999977
 20
121.78565375285294
 30
0.0
 11
671.99999999999977
 21
161.75000000000003
 31
0.0
  0
LINE
  8
0
  6
CONTINUOUS
 62
               4
  5
1A4
 10
-658.00000000000023
 20
-114.75000000000009
 30
0.0
 11
-675.00000000000011
 21
34.250000000000369
 31
0.0
  0
LINE
  8
0
  6
CONTINUOUS
 62
               4
  5
1A5
 10
-675.00000000000011
 20
34.250000000000369
 30
0.0
 11
-541.05100000000004
 21
34.250000000000369
 31
0.0
  0
LINE
  8
0
  6
CONTINUOUS
 62
               4
  5
1A6
 10
-542.0
 20
-114.75000000000009
 30
0.0
 11
-525.0
 21
34.250000000000369
 31
0.0
  0
LINE
  8
0
  6
CONTINUOUS
 62
               4
  5
1A7
 10
-678.42478813136427
 20
11.750000000000028
 30
0.0
 11
-521.56344000758565
 21
11.750000000000028
 31
0.0
  0
LINE
  8
0
  6
CONTINUOUS
 62
               4
  5
1A8
 10
541.99999999999977
 20
-114.75000000000009
 30
0.0
 11
524.99999999999989
 21
34.250000000000369
 31
0.0
  0
LINE
  8
0
  6
CONTINUOUS
 62
               4
  5
1A9
 10
658.0
 20
-114.75000000000009
 30
0.0
 11
675.0
 21
34.250000000000369
 31
0.0
  0
LINE
  8
0
  6
CONTINUOUS
 62
               4
  5
1AA
 10
521.57521186863573
 20
11.750000000000028
 30
0.0
 11
678.43655999241435
 21
11.750000000000028
 31
0.0
  0
LINE
  8
0
  6
CONTINUOUS
 62
               4
  5
1AB
 10
-665.50000000000114
 20
-331.67443853032671
 30
0.0
 11
-534.49999999999909
 21
-331.67443853032671
 31
0.0
  0
LINE
  8
0
  6
CONTINUOUS
 62
               4
  5
1AC
 10
534.49999999999886
 20
-331.67443853032671
 30
0.0
 11
665.5000000000008
 21
-331.67443853032671
 31
0.0
  0
CIRCLE
  8
0
  6
CONTINUOUS
 62
               4
  5
1AD
 10
-0.0000000000000409
 20
472.87811887045075
 30
0.0
 40
59.0
  0
LINE
  8
0
  6
DASHED2
 62
               4
  5
1AE
 10
-56.999999999999957
 20
153.25000000000014
 30
0.0
 11
56.999999999999815
 21
153.25000000000014
 31
0.0
  0
LINE
  8
0
  6
DASHED2
 62
               4
  5
1AF
 10
56.999999999999815
 20
-126.74999999999986
 30
0.0
 11
56.999999999999815
 21
-226.74999999999986
 31
0.0
  0
LINE
  8
0
  6
DASHED2
 62
               4
  5
1B0
 10
-57.132845554131038
 20
-126.74999999999986
 30
0.0
 11
-57.132845554131038
 21
-226.84842774545106
 31
0.0
  0
LINE
  8
0
  6
DASHED2
 62
               4
  5
1B1
 10
-57.132845554131038
 20
-126.74999999999986
 30
0.0
 11
56.999999999999815
 21
-126.74999999999986
 31
0.0
  0
LINE
  8
0
  6
DASHED2
 62
               4
  5
1B2
 10
56.999999999999815
 20
-126.74999999999986
 30
0.0
 11
58.000000000000043
 21
-125.74999999999963
 31
0.0
  0
LINE
  8
0
  6
DASHED2
 62
               4
  5
1B3
 10
-57.132845554131038
 20
-126.74999999999986
 30
0.0
 11
-58.000000000000185
 21
-125.88284555413068
 31
0.0
  0
LINE
  8
0
  6
DASHED2
 62
               4
  5
1B4
 10
58.000000000000043
 20
-125.74999999999963
 30
0.0
 11
58.000000000000043
 21
-114.75000000000009
 31
0.0
  0
LINE
  8
0
  6
DASHED2
 62
               4
  5
1B5
 10
-58.000000000000185
 20
-125.88284555413068
 30
0.0
 11
-58.000000000000185
 21
-114.75000000000014
 31
0.0
  0
LINE
  8
0
  6
DASHED2
 62
               4
  5
1B6
 10
-57.500000000003055
 20
-241.75000000000099
 30
0.0
 11
-57.500000000003055
 21
-306.74999999999875
 31
0.0
  0
LINE
  8
0
  6
DASHED2
 62
               4
  5
1B7
 10
-0.0000000000000711
 20
-226.74999999999986
 30
0.0
 11
-57.000000000000242
 21
-226.74999999999986
 31
0.0
  0
LINE
  8
0
  6
DASHED2
 62
               4
  5
1B8
 10
-57.500000000003055
 20
-241.75000000000099
 30
0.0
 11
-0.0000000000012079
 21
-241.74999999999986
 31
0.0
  0
LINE
  8
0
  6
DASHED2
 62
               4
  5
1B9
 10
-0.0000000000000711
 20
-226.74999999999986
 30
0.0
 11
56.999999999999815
 21
-226.74999999999986
 31
0.0
  0
LINE
  8
0
  6
DASHED2
 62
               4
  5
1BA
 10
57.500000000001634
 20
-241.75000000000099
 30
0.0
 11
-0.0000000000000711
 21
-241.74999999999986
 31
0.0
  0
LINE
  8
0
  6
DASHED2
 62
               4
  5
1BB
 10
57.500000000001634
 20
-241.75000000000099
 30
0.0
 11
57.500000000001634
 21
-306.74999999999875
 31
0.0
  0
LINE
  8
0
  6
DASHED2
 62
               4
  5
1BC
 10
-136.76000000000079
 20
-226.7499999999994
 30
0.0
 11
-136.76000000000079
 21
-218.22387150069218
 31
0.0
  0
LINE
  8
0
  6
DASHED2
 62
               4
  5
1BD
 10
-130.87102725426638
 20
-218.22387150069218
 30
0.0
 11
-130.87102725426638
 21
-226.7499999999994
 31
0.0
  0
LINE
  8
0
  6
DASHED2
 62
               4
  5
1BE
 10
-133.81551362713344
 20
-217.14999999999927
 30
0.0
 11
-116.18448637286754
 21
-217.14999999999927
 31
0.0
  0
LINE
  8
0
  6
DASHED2
 62
               4
  5
1BF
 10
-113.24000000000048
 20
-226.7499999999994
 30
0.0
 11
-113.24000000000048
 21
-218.22387150069218
 31
0.0
  0
LINE
  8
0
  6
DASHED2
 62
               4
  5
1C0
 10
-119.12897274573517
 20
-226.7499999999994
 30
0.0
 11
-119.12897274573517
 21
-218.22387150069218
 31
0.0
  0
ARC
  8
0
  6
DASHED2
 62
               4
  5
1C1
 10
-133.81551362713344
 20
-221.72373158411526
 30
0.0
 40
4.5737315841157447
 50
49.925579661612304
 51
130.07442033835341
  0
ARC
  8
0
  6
DASHED2
 62
               4
  5
1C2
 10
-116.18448637286754
 20
-221.72373158411526
 30
0.0
 40
4.5737315841157686
 50
49.925579661612304
 51
130.07442033835341
  0
ARC
  8
0
  6
DASHED2
 62
               4
  5
1C3
 10
-125.00000000000064
 20
-233.73585826951975
 30
0.0
 40
16.58585826952007
 50
69.269184858547646
 51
110.73081514141818
  0
LINE
  8
0
  6
DASHED2
 62
               4
  5
1C4
 10
-136.76000000000221
 20
-228.74999999999974
 30
0.0
 11
-136.76000000000221
 21
-237.27612849930696
 31
0.0
  0
LINE
  8
0
  6
DASHED2
 62
               4
  5
1C5
 10
-130.8710272542678
 20
-237.27612849930696
 30
0.0
 11
-130.8710272542678
 21
-228.74999999999974
 31
0.0
  0
LINE
  8
0
  6
DASHED2
 62
               4
  5
1C6
 10
-133.81551362713486
 20
-238.34999999999954
 30
0.0
 11
-116.18448637286924
 21
-238.34999999999954
 31
0.0
  0
LINE
  8
0
  6
DASHED2
 62
               4
  5
1C7
 10
-113.2400000000019
 20
-228.74999999999974
 30
0.0
 11
-113.2400000000019
 21
-237.27612849930696
 31
0.0
  0
LINE
  8
0
  6
DASHED2
 62
               4
  5
1C8
 10
-119.12897274573631
 20
-228.74999999999974
 30
0.0
 11
-119.12897274573631
 21
-237.27612849930696
 31
0.0
  0
ARC
  8
0
  6
DASHED2
 62
               4
  5
1C9
 10
-133.81551362713486
 20
-233.77626841588412
 30
0.0
 40
4.5737315841157447
 50
229.92557966157796
 51
310.07442033831961
  0
ARC
  8
0
  6
DASHED2
 62
               4
  5
1CA
 10
-116.18448637286924
 20
-233.77626841588412
 30
0.0
 40
4.5737315841157686
 50
229.92557966157852
 51
310.07442033831961
  0
ARC
  8
0
  6
DASHED2
 62
               4
  5
1CB
 10
-125.00000000000206
 20
-221.76414173047962
 30
0.0
 40
16.58585826952007
 50
249.26918485851303
 51
290.73081514138352
  0
LINE
  8
0
  6
DASHED2
 62
               4
  5
1CC
 10
-131.00000000000057
 20
-238.34999999999954
 30
0.0
 11
-131.00000000000057
 21
-248.86936624232416
 31
0.0
  0
LINE
  8
0
  6
DASHED2
 62
               4
  5
1CD
 10
-119.0000000000007
 20
-238.34999999999954
 30
0.0
 11
-119.0000000000007
 21
-248.86936624232416
 31
0.0
  0
LINE
  8
0
  6
DASHED2
 62
               4
  5
1CE
 10
-129.80000000000081
 20
-250.06936624232455
 30
0.0
 11
-120.20000000000074
 21
-250.06936624232455
 31
0.0
  0
LINE
  8
0
  6
DASHED2
 62
               4
  5
1CF
 10
-131.00000000000057
 20
-248.86936624232416
 30
0.0
 11
-129.80000000000081
 21
-250.06936624232455
 31
0.0
  0
LINE
  8
0
  6
DASHED2
 62
               4
  5
1D0
 10
-119.0000000000007
 20
-248.86936624232416
 30
0.0
 11
-120.20000000000074
 21
-250.06936624232455
 31
0.0
  0
LINE
  8
0
  6
DASHED2
 62
               4
  5
1D1
 10
-136.76000000000079
 20
-226.7499999999994
 30
0.0
 11
-113.24000000000048
 21
-226.7499999999994
 31
0.0
  0
LINE
  8
0
  6
DASHED2
 62
               4
  5
1D2
 10
-113.2400000000019
 20
-228.74999999999974
 30
0.0
 11
-136.76000000000221
 21
-228.74999999999974
 31
0.0
  0
LINE
  8
0
  6
DASHED2
 62
               4
  5
1D3
 10
-131.00000000000057
 20
-111.6864205240706
 30
0.0
 11
-131.00000000000057
 21
-217.14999999999927
 31
0.0
  0
LINE
  8
0
  6
DASHED2
 62
               4
  5
1D4
 10
-119.0000000000007
 20
-111.6864205240706
 30
0.0
 11
-119.0000000000007
 21
-217.14999999999927
 31
0.0
  0
LINE
  8
0
  6
DASHED2
 62
               4
  5
1D5
 10
-119.0000000000007
 20
-111.6864205240706
 30
0.0
 11
-131.00000000000057
 21
-111.6864205240706
 31
0.0
  0
LINE
  8
0
  6
DASHED2
 62
               4
  5
1D6
 10
136.75999999999951
 20
-226.7499999999994
 30
0.0
 11
136.75999999999951
 21
-218.22387150069218
 31
0.0
  0
LINE
  8
0
  6
DASHED2
 62
               4
  5
1D7
 10
130.8710272542651
 20
-218.22387150069218
 30
0.0
 11
130.8710272542651
 21
-226.7499999999994
 31
0.0
  0
LINE
  8
0
  6
DASHED2
 62
               4
  5
1D8
 10
133.81551362713216
 20
-217.14999999999927
 30
0.0
 11
116.18448637286625
 21
-217.14999999999927
 31
0.0
  0
LINE
  8
0
  6
DASHED2
 62
               4
  5
1D9
 10
113.23999999999918
 20
-226.7499999999994
 30
0.0
 11
113.23999999999918
 21
-218.22387150069218
 31
0.0
  0
LINE
  8
0
  6
DASHED2
 62
               4
  5
1DA
 10
119.12897274573388
 20
-226.7499999999994
 30
0.0
 11
119.12897274573388
 21
-218.22387150069218
 31
0.0
  0
ARC
  8
0
  6
DASHED2
 62
               4
  5
1DB
 10
133.81551362713216
 20
-221.72373158411526
 30
0.0
 40
4.5737315841157447
 50
49.925579661646204
 51
130.07442033838728
  0
ARC
  8
0
  6
DASHED2
 62
               4
  5
1DC
 10
116.18448637286625
 20
-221.72373158411526
 30
0.0
 40
4.5737315841157686
 50
49.925579661646204
 51
130.07442033838728
  0
ARC
  8
0
  6
DASHED2
 62
               4
  5
1DD
 10
124.99999999999935
 20
-233.73585826951975
 30
0.0
 40
16.58585826952007
 50
69.269184858581426
 51
110.73081514145197
  0
LINE
  8
0
  6
DASHED2
 62
               4
  5
1DE
 10
136.76000000000093
 20
-228.74999999999974
 30
0.0
 11
136.76000000000093
 21
-237.27612849930696
 31
0.0
  0
LINE
  8
0
  6
DASHED2
 62
               4
  5
1DF
 10
130.87102725426652
 20
-237.27612849930696
 30
0.0
 11
130.87102725426652
 21
-228.74999999999974
 31
0.0
  0
LINE
  8
0
  6
DASHED2
 62
               4
  5
1E0
 10
133.81551362713358
 20
-238.34999999999954
 30
0.0
 11
116.18448637286795
 21
-238.34999999999954
 31
0.0
  0
LINE
  8
0
  6
DASHED2
 62
               4
  5
1E1
 10
113.24000000000061
 20
-228.74999999999974
 30
0.0
 11
113.24000000000061
 21
-237.27612849930696
 31
0.0
  0
LINE
  8
0
  6
DASHED2
 62
               4
  5
1E2
 10
119.12897274573501
 20
-228.74999999999974
 30
0.0
 11
119.12897274573501
 21
-237.27612849930696
 31
0.0
  0
ARC
  8
0
  6
DASHED2
 62
               4
  5
1E3
 10
133.81551362713358
 20
-233.77626841588412
 30
0.0
 40
4.5737315841157447
 50
229.92557966167917
 51
310.07442033842085
  0
ARC
  8
0
  6
DASHED2
 62
               4
  5
1E4
 10
116.18448637286795
 20
-233.77626841588412
 30
0.0
 40
4.5737315841157686
 50
229.92557966167917
 51
310.07442033842028
  0
ARC
  8
0
  6
DASHED2
 62
               4
  5
1E5
 10
125.00000000000077
 20
-221.76414173047962
 30
0.0
 40
16.58585826952007
 50
249.26918485861526
 51
290.73081514148578
  0
LINE
  8
0
  6
DASHED2
 62
               4
  5
1E6
 10
130.99999999999929
 20
-238.34999999999954
 30
0.0
 11
130.99999999999929
 21
-248.86936624232416
 31
0.0
  0
LINE
  8
0
  6
DASHED2
 62
               4
  5
1E7
 10
118.9999999999994
 20
-238.34999999999954
 30
0.0
 11
118.9999999999994
 21
-248.86936624232416
 31
0.0
  0
LINE
  8
0
  6
DASHED2
 62
               4
  5
1E8
 10
129.79999999999953
 20
-250.06936624232455
 30
0.0
 11
120.19999999999945
 21
-250.06936624232455
 31
0.0
  0
LINE
  8
0
  6
DASHED2
 62
               4
  5
1E9
 10
130.99999999999929
 20
-248.86936624232416
 30
0.0
 11
129.79999999999953
 21
-250.06936624232455
 31
0.0
  0
LINE
  8
0
  6
DASHED2
 62
               4
  5
1EA
 10
118.9999999999994
 20
-248.86936624232416
 30
0.0
 11
120.19999999999945
 21
-250.06936624232455
 31
0.0
  0
LINE
  8
0
  6
DASHED2
 62
               4
  5
1EB
 10
136.75999999999951
 20
-226.7499999999994
 30
0.0
 11
113.23999999999918
 21
-226.7499999999994
 31
0.0
  0
LINE
  8
0
  6
DASHED2
 62
               4
  5
1EC
 10
113.24000000000061
 20
-228.74999999999974
 30
0.0
 11
136.76000000000093
 21
-228.74999999999974
 31
0.0
  0
LINE
  8
0
  6
DASHED2
 62
               4
  5
1ED
 10
130.99999999999929
 20
-111.6864205240706
 30
0.0
 11
130.99999999999929
 21
-217.14999999999927
 31
0.0
  0
LINE
  8
0
  6
DASHED2
 62
               4
  5
1EE
 10
118.9999999999994
 20
-111.6864205240706
 30
0.0
 11
118.9999999999994
 21
-217.14999999999927
 31
0.0
  0
LINE
  8
0
  6
DASHED2
 62
               4
  5
1EF
 10
118.9999999999994
 20
-111.6864205240706
 30
0.0
 11
130.99999999999929
 21
-111.6864205240706
 31
0.0
  0
LINE
  8
0
  6
DASHED2
 62
               4
  5
1F0
 10
-657.0
 20
153.25000000000014
 30
0.0
 11
-543.00000000000023
 21
153.25000000000014
 31
0.0
  0
LINE
  8
0
  6
DASHED2
 62
               4
  5
1F1
 10
543.0
 20
153.25000000000014
 30
0.0
 11
656.99999999999977
 21
153.25000000000014
 31
0.0
  0
LINE
  8
0
  6
DASHED2
 62
               4
  5
1F2
 10
-657.13284555413099
 20
-126.74999999999986
 30
0.0
 11
-543.00000000000023
 21
-126.74999999999986
 31
0.0
  0
LINE
  8
0
  6
DASHED2
 62
               4
  5
1F3
 10
-543.00000000000023
 20
-126.74999999999986
 30
0.0
 11
-542.0
 21
-125.74999999999963
 31
0.0
  0
LINE
  8
0
  6
DASHED2
 62
               4
  5
1F4
 10
-657.13284555413099
 20
-126.74999999999986
 30
0.0
 11
-658.00000000000023
 21
-125.88284555413068
 31
0.0
  0
LINE
  8
0
  6
DASHED2
 62
               4
  5
1F5
 10
-542.0
 20
-125.74999999999963
 30
0.0
 11
-542.0
 21
-114.75000000000009
 31
0.0
  0
LINE
  8
0
  6
DASHED2
 62
               4
  5
1F6
 10
-658.00000000000023
 20
-125.88284555413068
 30
0.0
 11
-658.00000000000023
 21
-114.75000000000014
 31
0.0
  0
LINE
  8
0
  6
DASHED2
 62
               4
  5
1F7
 10
542.86715444586901
 20
-126.74999999999986
 30
0.0
 11
656.99999999999977
 21
-126.74999999999986
 31
0.0
  0
LINE
  8
0
  6
DASHED2
 62
               4
  5
1F8
 10
656.99999999999977
 20
-126.74999999999986
 30
0.0
 11
658.0
 21
-125.74999999999963
 31
0.0
  0
LINE
  8
0
  6
DASHED2
 62
               4
  5
1F9
 10
542.86715444586901
 20
-126.74999999999986
 30
0.0
 11
541.99999999999977
 21
-125.88284555413068
 31
0.0
  0
LINE
  8
0
  6
DASHED2
 62
               4
  5
1FA
 10
658.0
 20
-125.74999999999963
 30
0.0
 11
658.0
 21
-114.75000000000009
 31
0.0
  0
LINE
  8
0
  6
DASHED2
 62
               4
  5
1FB
 10
541.99999999999977
 20
-125.88284555413068
 30
0.0
 11
541.99999999999977
 21
-114.75000000000014
 31
0.0
  0
LINE
  8
0
  6
DASHED2
 62
               4
  5
1FC
 10
-657.5000000000025
 20
-241.67443853032901
 30
0.0
 11
-657.5000000000025
 21
-306.67443853032671
 31
0.0
  0
LINE
  8
0
  6
DASHED2
 62
               4
  5
1FD
 10
-599.99999999999955
 20
-226.67443853032788
 30
0.0
 11
-656.99999999999977
 21
-226.67443853032788
 31
0.0
  0
LINE
  8
0
  6
DASHED2
 62
               4
  5
1FE
 10
-657.5000000000025
 20
-241.67443853032901
 30
0.0
 11
-600.00000000000068
 21
-241.67443853032788
 31
0.0
  0
LINE
  8
0
  6
DASHED2
 62
               4
  5
1FF
 10
-599.99999999999955
 20
-226.67443853032788
 30
0.0
 11
-542.99999999999966
 21
-226.67443853032788
 31
0.0
  0
LINE
  8
0
  6
DASHED2
 62
               4
  5
200
 10
-542.49999999999784
 20
-241.67443853032901
 30
0.0
 11
-599.99999999999955
 21
-241.67443853032788
 31
0.0
  0
LINE
  8
0
  6
DASHED2
 62
               4
  5
201
 10
-542.49999999999784
 20
-241.67443853032901
 30
0.0
 11
-542.49999999999784
 21
-306.67443853032671
 31
0.0
  0
LINE
  8
0
  6
DASHED2
 62
               4
  5
202
 10
-611.76000000000033
 20
-226.67443853032788
 30
0.0
 11
-611.76000000000033
 21
-218.14831003102066
 31
0.0
  0
LINE
  8
0
  6
DASHED2
 62
               4
  5
203
 10
-605.87102725426587
 20
-218.14831003102066
 30
0.0
 11
-605.87102725426587
 21
-226.67443853032788
 31
0.0
  0
LINE
  8
0
  6
DASHED2
 62
               4
  5
204
 10
-608.81551362713299
 20
-217.07443853032774
 30
0.0
 11
-591.18448637286701
 21
-217.07443853032774
 31
0.0
  0
LINE
  8
0
  6
DASHED2
 62
               4
  5
205
 10
-588.24000000000001
 20
-226.67443853032788
 30
0.0
 11
-588.24000000000001
 21
-218.14831003102066
 31
0.0
  0
LINE
  8
0
  6
DASHED2
 62
               4
  5
206
 10
-594.1289727457347
 20
-226.67443853032788
 30
0.0
 11
-594.1289727457347
 21
-218.14831003102066
 31
0.0
  0
ARC
  8
0
  6
DASHED2
 62
               4
  5
207
 10
-608.81551362713299
 20
-221.64817011444373
 30
0.0
 40
4.5737315841157447
 50
49.925579661612304
 51
130.07442033835341
  0
ARC
  8
0
  6
DASHED2
 62
               4
  5
208
 10
-591.18448637286701
 20
-221.64817011444373
 30
0.0
 40
4.5737315841157686
 50
49.925579661612304
 51
130.07442033835341
  0
ARC
  8
0
  6
DASHED2
 62
               4
  5
209
 10
-600.00000000000011
 20
-233.66029679984823
 30
0.0
 40
16.58585826952007
 50
69.269184858547646
 51
110.73081514141818
  0
LINE
  8
0
  6
DASHED2
 62
               4
  5
20A
 10
-611.7600000000017
 20
-228.67443853032822
 30
0.0
 11
-611.7600000000017
 21
-237.20056702963544
 31
0.0
  0
LINE
  8
0
  6
DASHED2
 62
               4
  5
20B
 10
-605.87102725426735
 20
-237.20056702963544
 30
0.0
 11
-605.87102725426735
 21
-228.67443853032822
 31
0.0
  0
LINE
  8
0
  6
DASHED2
 62
               4
  5
20C
 10
-608.81551362713435
 20
-238.27443853032801
 30
0.0
 11
-591.18448637286872
 21
-238.27443853032801
 31
0.0
  0
LINE
  8
0
  6
DASHED2
 62
               4
  5
20D
 10
-588.24000000000137
 20
-228.67443853032822
 30
0.0
 11
-588.24000000000137
 21
-237.20056702963544
 31
0.0
  0
LINE
  8
0
  6
DASHED2
 62
               4
  5
20E
 10
-594.12897274573584
 20
-228.67443853032822
 30
0.0
 11
-594.12897274573584
 21
-237.20056702963544
 31
0.0
  0
ARC
  8
0
  6
DASHED2
 62
               4
  5
20F
 10
-608.81551362713435
 20
-233.70070694621259
 30
0.0
 40
4.5737315841157447
 50
229.92557966157796
 51
310.07442033831961
  0
ARC
  8
0
  6
DASHED2
 62
               4
  5
210
 10
-591.18448637286872
 20
-233.70070694621259
 30
0.0
 40
4.5737315841157686
 50
229.92557966157852
 51
310.07442033831961
  0
ARC
  8
0
  6
DASHED2
 62
               4
  5
211
 10
-600.00000000000159
 20
-221.6885802608081
 30
0.0
 40
16.58585826952007
 50
249.26918485851303
 51
290.73081514138352
  0
LINE
  8
0
  6
DASHED2
 62
               4
  5
212
 10
-606.00000000000011
 20
-238.27443853032801
 30
0.0
 11
-606.00000000000011
 21
-248.79380477265263
 31
0.0
  0
LINE
  8
0
  6
DASHED2
 62
               4
  5
213
 10
-594.00000000000023
 20
-238.27443853032801
 30
0.0
 11
-594.00000000000023
 21
-248.79380477265263
 31
0.0
  0
LINE
  8
0
  6
DASHED2
 62
               4
  5
214
 10
-604.8000000000003
 20
-249.99380477265302
 30
0.0
 11
-595.20000000000027
 21
-249.99380477265302
 31
0.0
  0
LINE
  8
0
  6
DASHED2
 62
               4
  5
215
 10
-606.00000000000011
 20
-248.79380477265263
 30
0.0
 11
-604.8000000000003
 21
-249.99380477265302
 31
0.0
  0
LINE
  8
0
  6
DASHED2
 62
               4
  5
216
 10
-594.00000000000023
 20
-248.79380477265263
 30
0.0
 11
-595.20000000000027
 21
-249.99380477265302
 31
0.0
  0
LINE
  8
0
  6
DASHED2
 62
               4
  5
217
 10
-611.76000000000033
 20
-226.67443853032788
 30
0.0
 11
-588.24000000000001
 21
-226.67443853032788
 31
0.0
  0
LINE
  8
0
  6
DASHED2
 62
               4
  5
218
 10
-588.24000000000137
 20
-228.67443853032822
 30
0.0
 11
-611.7600000000017
 21
-228.67443853032822
 31
0.0
  0
LINE
  8
0
  6
DASHED2
 62
               4
  5
219
 10
-606.00000000000011
 20
-111.61085905439907
 30
0.0
 11
-606.00000000000011
 21
-217.07443853032774
 31
0.0
  0
LINE
  8
0
  6
DASHED2
 62
               4
  5
21A
 10
-594.00000000000023
 20
-111.61085905439907
 30
0.0
 11
-594.00000000000023
 21
-217.07443853032774
 31
0.0
  0
LINE
  8
0
  6
DASHED2
 62
               4
  5
21B
 10
-594.00000000000023
 20
-111.61085905439907
 30
0.0
 11
-606.00000000000011
 21
-111.61085905439907
 31
0.0
  0
LINE
  8
0
  6
DASHED2
 62
               4
  5
21C
 10
-656.99999999999909
 20
-126.74999999999986
 30
0.0
 11
-656.99999999999909
 21
-226.67443853032788
 31
0.0
  0
LINE
  8
0
  6
DASHED2
 62
               4
  5
21D
 10
-543.00000000000023
 20
-126.74999999999986
 30
0.0
 11
-543.0
 21
-226.67443853032788
 31
0.0
  0
LINE
  8
0
  6
DASHED2
 62
               4
  5
21E
 10
542.4999999999975
 20
-241.67443853032901
 30
0.0
 11
542.4999999999975
 21
-306.67443853032671
 31
0.0
  0
LINE
  8
0
  6
DASHED2
 62
               4
  5
21F
 10
600.00000000000045
 20
-226.67443853032788
 30
0.0
 11
543.00000000000023
 21
-226.67443853032788
 31
0.0
  0
LINE
  8
0
  6
DASHED2
 62
               4
  5
220
 10
542.4999999999975
 20
-241.67443853032901
 30
0.0
 11
599.99999999999932
 21
-241.67443853032788
 31
0.0
  0
LINE
  8
0
  6
DASHED2
 62
               4
  5
221
 10
600.00000000000045
 20
-226.67443853032788
 30
0.0
 11
657.00000000000023
 21
-226.67443853032788
 31
0.0
  0
LINE
  8
0
  6
DASHED2
 62
               4
  5
222
 10
657.50000000000205
 20
-241.67443853032901
 30
0.0
 11
600.00000000000045
 21
-241.67443853032788
 31
0.0
  0
LINE
  8
0
  6
DASHED2
 62
               4
  5
223
 10
657.50000000000205
 20
-241.67443853032901
 30
0.0
 11
657.50000000000205
 21
-306.67443853032671
 31
0.0
  0
LINE
  8
0
  6
DASHED2
 62
               4
  5
224
 10
588.23999999999955
 20
-226.67443853032788
 30
0.0
 11
588.23999999999955
 21
-218.14831003102066
 31
0.0
  0
LINE
  8
0
  6
DASHED2
 62
               4
  5
225
 10
594.12897274573402
 20
-218.14831003102066
 30
0.0
 11
594.12897274573402
 21
-226.67443853032788
 31
0.0
  0
LINE
  8
0
  6
DASHED2
 62
               4
  5
226
 10
591.18448637286701
 20
-217.07443853032774
 30
0.0
 11
608.81551362713299
 21
-217.07443853032774
 31
0.0
  0
LINE
  8
0
  6
DASHED2
 62
               4
  5
227
 10
611.75999999999999
 20
-226.67443853032788
 30
0.0
 11
611.75999999999999
 21
-218.14831003102066
 31
0.0
  0
LINE
  8
0
  6
DASHED2
 62
               4
  5
228
 10
605.8710272542653
 20
-226.67443853032788
 30
0.0
 11
605.8710272542653
 21
-218.14831003102066
 31
0.0
  0
ARC
  8
0
  6
DASHED2
 62
               4
  5
229
 10
591.18448637286701
 20
-221.64817011444373
 30
0.0
 40
4.5737315841157447
 50
49.925579661612304
 51
130.07442033835341
  0
ARC
  8
0
  6
DASHED2
 62
               4
  5
22A
 10
608.81551362713299
 20
-221.64817011444373
 30
0.0
 40
4.5737315841157686
 50
49.925579661612304
 51
130.07442033835341
  0
ARC
  8
0
  6
DASHED2
 62
               4
  5
22B
 10
599.99999999999977
 20
-233.66029679984823
 30
0.0
 40
16.58585826952007
 50
69.269184858547646
 51
110.73081514141818
  0
LINE
  8
0
  6
DASHED2
 62
               4
  5
22C
 10
588.23999999999819
 20
-228.67443853032822
 30
0.0
 11
588.23999999999819
 21
-237.20056702963544
 31
0.0
  0
LINE
  8
0
  6
DASHED2
 62
               4
  5
22D
 10
594.12897274573265
 20
-237.20056702963544
 30
0.0
 11
594.12897274573265
 21
-228.67443853032822
 31
0.0
  0
LINE
  8
0
  6
DASHED2
 62
               4
  5
22E
 10
591.18448637286565
 20
-238.27443853032801
 30
0.0
 11
608.81551362713117
 21
-238.27443853032801
 31
0.0
  0
LINE
  8
0
  6
DASHED2
 62
               4
  5
22F
 10
611.75999999999863
 20
-228.67443853032822
 30
0.0
 11
611.75999999999863
 21
-237.20056702963544
 31
0.0
  0
LINE
  8
0
  6
DASHED2
 62
               4
  5
230
 10
605.87102725426416
 20
-228.67443853032822
 30
0.0
 11
605.87102725426416
 21
-237.20056702963544
 31
0.0
  0
ARC
  8
0
  6
DASHED2
 62
               4
  5
231
 10
591.18448637286565
 20
-233.70070694621259
 30
0.0
 40
4.5737315841157447
 50
229.92557966157796
 51
310.07442033831961
  0
ARC
  8
0
  6
DASHED2
 62
               4
  5
232
 10
608.81551362713117
 20
-233.70070694621259
 30
0.0
 40
4.5737315841157686
 50
229.92557966157852
 51
310.07442033831961
  0
ARC
  8
0
  6
DASHED2
 62
               4
  5
233
 10
599.99999999999841
 20
-221.6885802608081
 30
0.0
 40
16.58585826952007
 50
249.26918485851303
 51
290.73081514138352
  0
LINE
  8
0
  6
DASHED2
 62
               4
  5
234
 10
593.99999999999977
 20
-238.27443853032801
 30
0.0
 11
593.99999999999977
 21
-248.79380477265263
 31
0.0
  0
LINE
  8
0
  6
DASHED2
 62
               4
  5
235
 10
605.99999999999977
 20
-238.27443853032801
 30
0.0
 11
605.99999999999977
 21
-248.79380477265263
 31
0.0
  0
LINE
  8
0
  6
DASHED2
 62
               4
  5
236
 10
595.19999999999959
 20
-249.99380477265302
 30
0.0
 11
604.79999999999973
 21
-249.99380477265302
 31
0.0
  0
LINE
  8
0
  6
DASHED2
 62
               4
  5
237
 10
593.99999999999977
 20
-248.79380477265263
 30
0.0
 11
595.19999999999959
 21
-249.99380477265302
 31
0.0
  0
LINE
  8
0
  6
DASHED2
 62
               4
  5
238
 10
605.99999999999977
 20
-248.79380477265263
 30
0.0
 11
604.79999999999973
 21
-249.99380477265302
 31
0.0
  0
LINE
  8
0
  6
DASHED2
 62
               4
  5
239
 10
588.23999999999955
 20
-226.67443853032788
 30
0.0
 11
611.75999999999999
 21
-226.67443853032788
 31
0.0
  0
LINE
  8
0
  6
DASHED2
 62
               4
  5
23A
 10
611.75999999999863
 20
-228.67443853032822
 30
0.0
 11
588.23999999999819
 21
-228.67443853032822
 31
0.0
  0
LINE
  8
0
  6
DASHED2
 62
               4
  5
23B
 10
593.99999999999977
 20
-111.61085905439907
 30
0.0
 11
593.99999999999977
 21
-217.07443853032774
 31
0.0
  0
LINE
  8
0
  6
DASHED2
 62
               4
  5
23C
 10
605.99999999999977
 20
-111.61085905439907
 30
0.0
 11
605.99999999999977
 21
-217.07443853032774
 31
0.0
  0
LINE
  8
0
  6
DASHED2
 62
               4
  5
23D
 10
605.99999999999977
 20
-111.61085905439907
 30
0.0
 11
593.99999999999977
 21
-111.61085905439907
 31
0.0
  0
LINE
  8
0
  6
DASHED2
 62
               4
  5
23E
 10
543.0000000000008
 20
-126.74999999999986
 30
0.0
 11
543.0000000000008
 21
-226.67443853032788
 31
0.0
  0
LINE
  8
0
  6
DASHED2
 62
               4
  5
23F
 10
656.99999999999977
 20
-126.74999999999986
 30
0.0
 11
657.0
 21
-226.67443853032788
 31
0.0
  0
ARC
  8
0
  6
DIVIDE
 62
               4
  5
240
 10
-28.500000000000583
 20
-473.68298130416838
 30
0.0
 40
55.0
 50
58.789629707489617
 51
121.21037029250985
  0
ARC
  8
0
  6
DIVIDE
 62
               4
  5
241
 10
-28.500000000000583
 20
-379.6032279031308
 30
0.0
 40
55.0
 50
238.78962970748935
 51
301.21037029250937
  0
ARC
  8
0
  6
DIVIDE
 62
               4
  5
242
 10
-32.500000000000639
 20
-449.1456020394462
 30
0.0
 40
65.0
 50
59.999999999999723
 51
119.99999999999987
  0
ARC
  8
0
  6
DIVIDE
 62
               4
  5
243
 10
28.499999999999446
 20
-379.60322790313103
 30
0.0
 40
55.0
 50
238.78962970748941
 51
301.21037029250959
  0
ARC
  8
0
  6
DIVIDE
 62
               4
  5
244
 10
32.499999999999361
 20
-336.56229954746914
 30
0.0
 40
65.0
 50
239.99999999999966
 51
299.99999999999932
  0
LINE
  8
0
  6
DIVIDE
 62
               4
  5
245
 10
-57.000000000000526
 20
-388.93970531827767
 30
0.0
 11
-57.000000000000526
 21
-426.64310460364959
 31
0.0
  0
LINE
  8
0
  6
DIVIDE
 62
               4
  5
246
 10
56.999999999999531
 20
-396.76819626863767
 30
0.0
 11
56.999999999999531
 21
-426.64310460364959
 31
0.0
  0
ARC
  8
0
  6
DIVIDE
 62
               4
  5
247
 10
-32.500000000000639
 20
-336.56229954746937
 30
0.0
 40
65.0
 50
239.99999999999929
 51
247.85677929855132
  0
LINE
  8
0
  6
DIVIDE
 62
               4
  5
248
 10
64.999999999999346
 20
-306.74999999999875
 30
0.0
 11
64.999999999999346
 21
-392.85395079345767
 31
0.0
  0
LINE
  8
0
  6
DIVIDE
 62
               4
  5
249
 10
-65.000000000000639
 20
-306.74999999999875
 30
0.0
 11
-65.000000000000639
 21
-392.85395079345767
 31
0.0
  0
ARC
  8
0
  6
DIVIDE
 62
               4
  5
24A
 10
-628.5
 20
-473.60741983449645
 30
0.0
 40
55.0
 50
58.789629707489617
 51
121.21037029250985
  0
ARC
  8
0
  6
DIVIDE
 62
               4
  5
24B
 10
-628.5
 20
-379.52766643345888
 30
0.0
 40
55.0
 50
238.78962970748935
 51
301.21037029250937
  0
ARC
  8
0
  6
DIVIDE
 62
               4
  5
24C
 10
-632.50000000000011
 20
-449.07004056977428
 30
0.0
 40
65.0
 50
59.999999999999723
 51
119.99999999999987
  0
ARC
  8
0
  6
DIVIDE
 62
               4
  5
24D
 10
-571.5
 20
-379.5276664334591
 30
0.0
 40
55.0
 50
238.78962970748941
 51
301.21037029250959
  0
ARC
  8
0
  6
DIVIDE
 62
               4
  5
24E
 10
-567.50000000000011
 20
-336.48673807779721
 30
0.0
 40
65.0
 50
239.99999999999966
 51
299.99999999999932
  0
LINE
  8
0
  6
DIVIDE
 62
               4
  5
24F
 10
-657.0
 20
-388.86414384860575
 30
0.0
 11
-657.0
 21
-426.56754313397767
 31
0.0
  0
LINE
  8
0
  6
DIVIDE
 62
               4
  5
250
 10
-543.0
 20
-396.69263479896574
 30
0.0
 11
-543.0
 21
-426.56754313397767
 31
0.0
  0
ARC
  8
0
  6
DIVIDE
 62
               4
  5
251
 10
-632.50000000000011
 20
-336.48673807779744
 30
0.0
 40
65.0
 50
239.99999999999929
 51
247.85677929855132
  0
LINE
  8
0
  6
DIVIDE
 62
               4
  5
252
 10
-535.00000000000011
 20
-306.67443853032671
 30
0.0
 11
-535.00000000000011
 21
-392.77838932378575
 31
0.0
  0
LINE
  8
0
  6
DIVIDE
 62
               4
  5
253
 10
-665.00000000000011
 20
-306.67443853032671
 30
0.0
 11
-665.00000000000011
 21
-392.77838932378575
 31
0.0
  0
ARC
  8
0
  6
DIVIDE
 62
               4
  5
254
 10
571.49999999999989
 20
-473.60741983449645
 30
0.0
 40
55.0
 50
58.789629707489617
 51
121.21037029250985
  0
ARC
  8
0
  6
DIVIDE
 62
               4
  5
255
 10
571.49999999999989
 20
-379.52766643345888
 30
0.0
 40
55.0
 50
238.78962970748935
 51
301.21037029250937
  0
ARC
  8
0
  6
DIVIDE
 62
               4
  5
256
 10
567.49999999999977
 20
-449.07004056977428
 30
0.0
 40
65.0
 50
59.999999999999723
 51
119.99999999999987
  0
ARC
  8
0
  6
DIVIDE
 62
               4
  5
257
 10
628.5
 20
-379.5276664334591
 30
0.0
 40
55.0
 50
238.78962970748941
 51
301.21037029250959
  0
ARC
  8
0
  6
DIVIDE
 62
               4
  5
258
 10
632.49999999999977
 20
-336.48673807779721
 30
0.0
 40
65.0
 50
239.99999999999966
 51
299.99999999999932
  0
LINE
  8
0
  6
DIVIDE
 62
               4
  5
259
 10
543.0
 20
-388.86414384860575
 30
0.0
 11
543.0
 21
-426.56754313397767
 31
0.0
  0
LINE
  8
0
  6
DIVIDE
 62
               4
  5
25A
 10
657.0
 20
-396.69263479896574
 30
0.0
 11
657.0
 21
-426.56754313397767
 31
0.0
  0
ARC
  8
0
  6
DIVIDE
 62
               4
  5
25B
 10
567.49999999999977
 20
-336.48673807779744
 30
0.0
 40
65.0
 50
239.99999999999929
 51
247.85677929855132
  0
LINE
  8
0
  6
DIVIDE
 62
               4
  5
25C
 10
664.99999999999977
 20
-306.67443853032671
 30
0.0
 11
664.99999999999977
 21
-392.77838932378575
 31
0.0
  0
LINE
  8
0
  6
DIVIDE
 62
               4
  5
25D
 10
534.99999999999977
 20
-306.67443853032671
 30
0.0
 11
534.99999999999977
 21
-392.77838932378575
 31
0.0
  0
LINE
  8
0
  6
CONTINUOUS
 62
               3
  5
25E
 10
83.499999999999929
 20
226.74999999999991
 30
0.0
 11
-83.500000000000085
 21
226.74999999999991
 31
0.0
  0
LINE
  8
0
  6
CONTINUOUS
 62
               3
  5
25F
 10
83.499999999999929
 20
226.74999999999991
 30
0.0
 11
83.499999999999929
 21
201.25000000000082
 31
0.0
  0
LINE
  8
0
  6
CONTINUOUS
 62
               3
  5
260
 10
80.499999999999815
 20
121.78565375285294
 30
0.0
 11
80.499999999999815
 21
196.66742430504488
 31
0.0
  0
ARC
  8
0
  6
CONTINUOUS
 62
               3
  5
261
 10
85.499999999999815
 20
196.66742430504488
 30
0.0
 40
4.9999999999999991
 50
113.57817847820161
 51
179.9999999999996
  0
LINE
  8
0
  6
CONTINUOUS
 62
               3
  5
262
 10
83.500000000000099
 20
33.766668518930402
 30
0.0
 11
83.499999999999645
 21
111.25000000000048
 31
0.0
  0
ARC
  8
0
  6
CONTINUOUS
 62
               3
  5
263
 10
63.499999999999659
 20
111.25000000000048
 30
0.0
 40
19.999999999999996
 50
0.000000000000007
 51
31.788330617051756
  0
LINE
  8
0
  6
CONTINUOUS
 62
               3
  5
264
 10
-83.500000000000085
 20
226.74999999999991
 30
0.0
 11
-83.500000000000085
 21
201.25000000000082
 31
0.0
  0
ARC
  8
0
  6
CONTINUOUS
 62
               3
  5
265
 10
-85.499999999999972
 20
196.66742430504488
 30
0.0
 40
4.9999999999999991
 50
0.000000000000007
 51
66.421821521798009
  0
LINE
  8
0
  6
CONTINUOUS
 62
               3
  5
266
 10
-80.499999999999972
 20
121.78565375285294
 30
0.0
 11
-80.499999999999972
 21
196.66742430504488
 31
0.0
  0
ARC
  8
0
  6
CONTINUOUS
 62
               3
  5
267
 10
-63.499999999999801
 20
111.25000000000048
 30
0.0
 40
19.999999999999996
 50
148.21166938294783
 51
179.9999999999996
  0
LINE
  8
0
  6
CONTINUOUS
 62
               3
  5
268
 10
-83.500000000000227
 20
33.766668518930402
 30
0.0
 11
-83.499999999999801
 21
111.25000000000048
 31
0.0
  0
LINE
  8
0
  6
CONTINUOUS
 62
               3
  5
269
 10
-66.500000000000185
 20
-110.82262459453216
 30
0.0
 11
-66.500000000000185
 21
-146.74999999999986
 31
0.0
  0
LINE
  8
0
  6
CONTINUOUS
 62
               3
  5
26A
 10
66.500000000000028
 20
-110.82262459453227
 30
0.0
 11
66.500000000000028
 21
-146.74999999999986
 31
0.0
  0
LINE
  8
0
  6
CONTINUOUS
 62
               3
  5
26B
 10
-66.500000000000185
 20
-110.82262459453227
 30
0.0
 11
66.500000000000028
 21
-110.82262459453227
 31
0.0
  0
LINE
  8
0
  6
CONTINUOUS
 62
               3
  5
26C
 10
-66.500000000000185
 20
-146.74999999999986
 30
0.0
 11
66.500000000000028
 21
-146.74999999999986
 31
0.0
  0
LINE
  8
0
  6
CONTINUOUS
 62
               3
  5
26D
 10
-62.00000000000081
 20
-306.74999999999875
 30
0.0
 11
-62.00000000000081
 21
-291.74999999999966
 31
0.0
  0
LINE
  8
0
  6
CONTINUOUS
 62
               3
  5
26E
 10
-65.000000000000639
 20
-306.74999999999875
 30
0.0
 11
64.999999999999346
 21
-306.74999999999875
 31
0.0
  0
ARC
  8
0
  6
CONTINUOUS
 62
               3
  5
26F
 10
-76.000000000000014
 20
-165.75000000000054
 30
0.0
 40
4.0
 50
89.999999999982236
 51
179.99999999996518
  0
ARC
  8
0
  6
CONTINUOUS
 62
               3
  5
270
 10
-78.999999999999986
 20
-162.75000000000054
 30
0.0
 40
1.0000000000000004
 50
89.999999999981483
 51
179.99999999996524
  0
ARC
  8
0
  6
CONTINUOUS
 62
               3
  5
271
 10
-78.999999999999986
 20
-162.75000000000054
 30
0.0
 40
1.9999999999999996
 50
89.999999999983004
 51
179.99999999996524
  0
LINE
  8
0
  6
CONTINUOUS
 62
               3
  5
272
 10
-81.000000000000014
 20
-162.75000000000054
 30
0.0
 11
-81.000000000000583
 21
-225.7499999999994
 31
0.0
  0
LINE
  8
0
  6
CONTINUOUS
 62
               3
  5
273
 10
-80.000000000000213
 20
-162.75000000000054
 30
0.0
 11
-80.000000000000782
 21
-225.7499999999994
 31
0.0
  0
ARC
  8
0
  6
CONTINUOUS
 62
               3
  5
274
 10
-82.000000000000526
 20
-225.7499999999994
 30
0.0
 40
1.9999999999999996
 50
269.99999999994748
 51
359.99999999993048
  0
ARC
  8
0
  6
CONTINUOUS
 62
               3
  5
275
 10
-82.000000000000526
 20
-225.7499999999994
 30
0.0
 40
1.0000000000000004
 50
269.99999999994748
 51
359.99999999993048
  0
LINE
  8
0
  6
CONTINUOUS
 62
               3
  5
276
 10
-82.000000000000526
 20
-227.7499999999994
 30
0.0
 11
-145.00000000000063
 21
-227.74999999999986
 31
0.0
  0
LINE
  8
0
  6
CONTINUOUS
 62
               3
  5
277
 10
-82.000000000000526
 20
-226.7499999999994
 30
0.0
 11
-145.00000000000063
 21
-226.74999999999986
 31
0.0
  0
LINE
  8
0
  6
CONTINUOUS
 62
               3
  5
278
 10
-65.000000000000213
 20
-160.75000000000054
 30
0.0
 11
-78.999999999999986
 21
-160.75000000000054
 31
0.0
  0
LINE
  8
0
  6
CONTINUOUS
 62
               3
  5
279
 10
-0.0000000000000711
 20
-161.74999999999986
 30
0.0
 11
-78.999999999999986
 21
-161.75000000000054
 31
0.0
  0
LINE
  8
0
  6
CONTINUOUS
 62
               3
  5
27A
 10
-65.000000000000213
 20
-160.75000000000054
 30
0.0
 11
-65.000000000000213
 21
-161.75000000000043
 31
0.0
  0
LINE
  8
0
  6
CONTINUOUS
 62
               3
  5
27B
 10
-64.999999999999645
 20
-292.74999999999943
 30
0.0
 11
-78.999999999999559
 21
-292.74999999999966
 31
0.0
  0
ARC
  8
0
  6
CONTINUOUS
 62
               3
  5
27C
 10
-78.999999999999559
 20
-290.74999999999966
 30
0.0
 40
1.0000000000000004
 50
179.99999999996601
 51
269.99999999994748
  0
ARC
  8
0
  6
CONTINUOUS
 62
               3
  5
27D
 10
-78.999999999999559
 20
-290.74999999999966
 30
0.0
 40
1.9999999999999996
 50
179.99999999996601
 51
269.99999999994901
  0
ARC
  8
0
  6
CONTINUOUS
 62
               3
  5
27E
 10
-75.99999999999973
 20
-287.74999999999966
 30
0.0
 40
4.0
 50
179.99999999996601
 51
269.99999999994901
  0
LINE
  8
0
  6
CONTINUOUS
 62
               3
  5
27F
 10
-64.999999999999645
 20
-292.74999999999943
 30
0.0
 11
-64.999999999999645
 21
-291.74999999999966
 31
0.0
  0
LINE
  8
0
  6
CONTINUOUS
 62
               3
  5
280
 10
-80.99999999999973
 20
-290.74999999999966
 30
0.0
 11
-81.000000000000583
 21
-229.7499999999994
 31
0.0
  0
LINE
  8
0
  6
CONTINUOUS
 62
               3
  5
281
 10
-79.999999999999645
 20
-290.74999999999966
 30
0.0
 11
-80.000000000000639
 21
-229.7499999999994
 31
0.0
  0
LINE
  8
0
  6
CONTINUOUS
 62
               3
  5
282
 10
-0.0000000000006395
 20
-291.74999999999875
 30
0.0
 11
-78.999999999999559
 21
-291.74999999999966
 31
0.0
  0
LINE
  8
0
  6
CONTINUOUS
 62
               3
  5
283
 10
-0.0000000000006395
 20
-269.24999999999875
 30
0.0
 11
-79.999999999999787
 21
-269.24999999999943
 31
0.0
  0
ARC
  8
0
  6
CONTINUOUS
 62
               3
  5
284
 10
-82.000000000000526
 20
-229.7499999999994
 30
0.0
 40
1.9999999999999996
 50
0.000000000001145
 51
89.999999999983004
  0
ARC
  8
0
  6
CONTINUOUS
 62
               3
  5
285
 10
-82.000000000000526
 20
-229.7499999999994
 30
0.0
 40
1.0000000000000004
 50
0.0000000000007633
 51
89.999999999984539
  0
LINE
  8
0
  6
CONTINUOUS
 62
               3
  5
286
 10
-82.000000000000526
 20
-228.7499999999994
 30
0.0
 11
-145.00000000000063
 21
-228.74999999999986
 31
0.0
  0
LINE
  8
0
  6
CONTINUOUS
 62
               3
  5
287
 10
-80.000000000000213
 20
-184.75000000000054
 30
0.0
 11
-0.0000000000000711
 21
-184.75000000000054
 31
0.0
  0
LINE
  8
0
  6
CONTINUOUS
 62
               3
  5
288
 10
-77.000000000000242
 20
-184.75000000000054
 30
0.0
 11
-77.00000000000081
 21
-269.24999999999943
 31
0.0
  0
LINE
  8
0
  6
CONTINUOUS
 62
               3
  5
289
 10
-145.00000000000063
 20
-226.74999999999986
 30
0.0
 11
-145.00000000000063
 21
-227.74999999999986
 31
0.0
  0
LINE
  8
0
  6
CONTINUOUS
 62
               3
  5
28A
 10
-145.00000000000063
 20
-228.74999999999986
 30
0.0
 11
-145.00000000000063
 21
-227.74999999999986
 31
0.0
  0
LINE
  8
0
  6
CONTINUOUS
 62
               3
  5
28B
 10
-87.250000000000583
 20
-225.2499999999994
 30
0.0
 11
-94.750000000000583
 21
-225.2499999999994
 31
0.0
  0
LINE
  8
0
  6
CONTINUOUS
 62
               3
  5
28C
 10
-87.250000000000583
 20
-230.2499999999994
 30
0.0
 11
-94.750000000000583
 21
-230.24999999999963
 31
0.0
  0
LINE
  8
0
  6
CONTINUOUS
 62
               3
  5
28D
 10
-87.250000000000583
 20
-225.2499999999994
 30
0.0
 11
-87.250000000000583
 21
-226.7499999999994
 31
0.0
  0
LINE
  8
0
  6
CONTINUOUS
 62
               3
  5
28E
 10
-87.250000000000583
 20
-228.7499999999994
 30
0.0
 11
-87.250000000000583
 21
-230.2499999999994
 31
0.0
  0
LINE
  8
0
  6
CONTINUOUS
 62
               3
  5
28F
 10
-94.750000000000583
 20
-225.2499999999994
 30
0.0
 11
-94.750000000000583
 21
-226.7499999999994
 31
0.0
  0
LINE
  8
0
  6
CONTINUOUS
 62
               3
  5
290
 10
-94.750000000000583
 20
-228.74999999999963
 30
0.0
 11
-94.750000000000583
 21
-230.24999999999963
 31
0.0
  0
ARC
  8
0
  6
CONTINUOUS
 62
               3
  5
291
 10
75.999999999999744
 20
-165.75000000000054
 30
0.0
 40
4.0
 50
0.0000000000344079
 51
90.000000000017366
  0
ARC
  8
0
  6
CONTINUOUS
 62
               3
  5
292
 10
78.999999999999687
 20
-162.75000000000054
 30
0.0
 40
1.0000000000000004
 50
0.000000000034357
 51
90.000000000018133
  0
ARC
  8
0
  6
CONTINUOUS
 62
               3
  5
293
 10
78.999999999999687
 20
-162.75000000000054
 30
0.0
 40
1.9999999999999996
 50
0.000000000034357
 51
90.000000000016598
  0
LINE
  8
0
  6
CONTINUOUS
 62
               3
  5
294
 10
80.999999999999744
 20
-162.75000000000054
 30
0.0
 11
80.999999999999176
 21
-225.7499999999994
 31
0.0
  0
LINE
  8
0
  6
CONTINUOUS
 62
               3
  5
295
 10
79.999999999999915
 20
-162.75000000000054
 30
0.0
 11
79.999999999999346
 21
-225.7499999999994
 31
0.0
  0
ARC
  8
0
  6
CONTINUOUS
 62
               3
  5
296
 10
81.999999999999233
 20
-225.7499999999994
 30
0.0
 40
1.9999999999999996
 50
180.0000000000683
 51
270.00000000005133
  0
ARC
  8
0
  6
CONTINUOUS
 62
               3
  5
297
 10
81.999999999999233
 20
-225.7499999999994
 30
0.0
 40
1.0000000000000004
 50
180.0000000000683
 51
270.00000000005133
  0
LINE
  8
0
  6
CONTINUOUS
 62
               3
  5
298
 10
81.999999999999233
 20
-227.7499999999994
 30
0.0
 11
144.99999999999935
 21
-227.74999999999986
 31
0.0
  0
LINE
  8
0
  6
CONTINUOUS
 62
               3
  5
299
 10
81.999999999999233
 20
-226.7499999999994
 30
0.0
 11
144.99999999999935
 21
-226.74999999999986
 31
0.0
  0
LINE
  8
0
  6
CONTINUOUS
 62
               3
  5
29A
 10
64.999999999999915
 20
-160.75000000000054
 30
0.0
 11
78.999999999999687
 21
-160.75000000000054
 31
0.0
  0
LINE
  8
0
  6
CONTINUOUS
 62
               3
  5
29B
 10
-0.0000000000000711
 20
-161.74999999999986
 30
0.0
 11
78.999999999999687
 21
-161.75000000000054
 31
0.0
  0
LINE
  8
0
  6
CONTINUOUS
 62
               3
  5
29C
 10
64.999999999999915
 20
-160.75000000000054
 30
0.0
 11
64.999999999999915
 21
-161.75000000000043
 31
0.0
  0
LINE
  8
0
  6
CONTINUOUS
 62
               3
  5
29D
 10
64.999999999998209
 20
-292.74999999999943
 30
0.0
 11
78.999999999998266
 21
-292.74999999999966
 31
0.0
  0
ARC
  8
0
  6
CONTINUOUS
 62
               3
  5
29E
 10
78.999999999998266
 20
-290.74999999999966
 30
0.0
 40
1.0000000000000004
 50
270.00000000005133
 51
360.0000000000328
  0
ARC
  8
0
  6
CONTINUOUS
 62
               3
  5
29F
 10
78.999999999998266
 20
-290.74999999999966
 30
0.0
 40
1.9999999999999996
 50
270.00000000004979
 51
360.0000000000328
  0
ARC
  8
0
  6
CONTINUOUS
 62
               3
  5
2A0
 10
75.999999999998323
 20
-287.74999999999966
 30
0.0
 40
4.0
 50
270.00000000004979
 51
360.0000000000328
  0
LINE
  8
0
  6
CONTINUOUS
 62
               3
  5
2A1
 10
64.999999999998209
 20
-292.74999999999943
 30
0.0
 11
64.999999999998209
 21
-291.74999999999966
 31
0.0
  0
LINE
  8
0
  6
CONTINUOUS
 62
               3
  5
2A2
 10
80.999999999998153
 20
-290.74999999999966
 30
0.0
 11
80.999999999999176
 21
-229.7499999999994
 31
0.0
  0
LINE
  8
0
  6
CONTINUOUS
 62
               3
  5
2A3
 10
79.999999999998209
 20
-290.74999999999966
 30
0.0
 11
79.999999999999233
 21
-229.7499999999994
 31
0.0
  0
LINE
  8
0
  6
CONTINUOUS
 62
               3
  5
2A4
 10
-0.0000000000006395
 20
-291.74999999999875
 30
0.0
 11
78.999999999998266
 21
-291.74999999999966
 31
0.0
  0
LINE
  8
0
  6
CONTINUOUS
 62
               3
  5
2A5
 10
-0.0000000000006395
 20
-269.24999999999875
 30
0.0
 11
79.999999999998494
 21
-269.24999999999943
 31
0.0
  0
ARC
  8
0
  6
CONTINUOUS
 62
               3
  5
2A6
 10
81.999999999999233
 20
-229.7499999999994
 30
0.0
 40
1.9999999999999996
 50
90.000000000016598
 51
179.99999999999847
  0
ARC
  8
0
  6
CONTINUOUS
 62
               3
  5
2A7
 10
81.999999999999233
 20
-229.7499999999994
 30
0.0
 40
1.0000000000000004
 50
90.000000000015078
 51
179.99999999999883
  0
LINE
  8
0
  6
CONTINUOUS
 62
               3
  5
2A8
 10
81.999999999999233
 20
-228.7499999999994
 30
0.0
 11
144.99999999999935
 21
-228.74999999999986
 31
0.0
  0
LINE
  8
0
  6
CONTINUOUS
 62
               3
  5
2A9
 10
79.999999999999915
 20
-184.75000000000054
 30
0.0
 11
-0.0000000000000711
 21
-184.75000000000054
 31
0.0
  0
LINE
  8
0
  6
CONTINUOUS
 62
               3
  5
2AA
 10
76.999999999999801
 20
-184.75000000000054
 30
0.0
 11
76.999999999999233
 21
-269.24999999999943
 31
0.0
  0
LINE
  8
0
  6
CONTINUOUS
 62
               3
  5
2AB
 10
144.99999999999935
 20
-226.74999999999986
 30
0.0
 11
144.99999999999935
 21
-227.74999999999986
 31
0.0
  0
LINE
  8
0
  6
CONTINUOUS
 62
               3
  5
2AC
 10
144.99999999999935
 20
-228.74999999999986
 30
0.0
 11
144.99999999999935
 21
-227.74999999999986
 31
0.0
  0
LINE
  8
0
  6
CONTINUOUS
 62
               3
  5
2AD
 10
87.249999999999176
 20
-225.2499999999994
 30
0.0
 11
94.749999999999176
 21
-225.2499999999994
 31
0.0
  0
LINE
  8
0
  6
CONTINUOUS
 62
               3
  5
2AE
 10
87.249999999999176
 20
-230.2499999999994
 30
0.0
 11
94.749999999999176
 21
-230.24999999999963
 31
0.0
  0
LINE
  8
0
  6
CONTINUOUS
 62
               3
  5
2AF
 10
87.249999999999176
 20
-225.2499999999994
 30
0.0
 11
87.249999999999176
 21
-226.7499999999994
 31
0.0
  0
LINE
  8
0
  6
CONTINUOUS
 62
               3
  5
2B0
 10
87.249999999999176
 20
-228.7499999999994
 30
0.0
 11
87.249999999999176
 21
-230.2499999999994
 31
0.0
  0
LINE
  8
0
  6
CONTINUOUS
 62
               3
  5
2B1
 10
94.749999999999176
 20
-225.2499999999994
 30
0.0
 11
94.749999999999176
 21
-226.7499999999994
 31
0.0
  0
LINE
  8
0
  6
CONTINUOUS
 62
               3
  5
2B2
 10
94.749999999999176
 20
-228.74999999999963
 30
0.0
 11
94.749999999999176
 21
-230.24999999999963
 31
0.0
  0
LINE
  8
0
  6
CONTINUOUS
 62
               3
  5
2B3
 10
61.999999999999247
 20
-306.74999999999875
 30
0.0
 11
61.999999999999247
 21
-291.74999999999966
 31
0.0
  0
LINE
  8
0
  6
CONTINUOUS
 62
               3
  5
2B4
 10
-516.50000000000011
 20
226.74999999999991
 30
0.0
 11
-683.50000000000011
 21
226.74999999999991
 31
0.0
  0
LINE
  8
0
  6
CONTINUOUS
 62
               3
  5
2B5
 10
-516.50000000000011
 20
226.74999999999991
 30
0.0
 11
-516.50000000000011
 21
201.25000000000082
 31
0.0
  0
LINE
  8
0
  6
CONTINUOUS
 62
               3
  5
2B6
 10
-519.50000000000023
 20
121.78565375285294
 30
0.0
 11
-519.50000000000023
 21
196.66742430504488
 31
0.0
  0
ARC
  8
0
  6
CONTINUOUS
 62
               3
  5
2B7
 10
-514.50000000000023
 20
196.66742430504488
 30
0.0
 40
4.9999999999999991
 50
113.57817847820161
 51
179.9999999999996
  0
LINE
  8
0
  6
CONTINUOUS
 62
               3
  5
2B8
 10
-516.49999999999989
 20
33.766668518930402
 30
0.0
 11
-516.50000000000034
 21
111.25000000000048
 31
0.0
  0
ARC
  8
0
  6
CONTINUOUS
 62
               3
  5
2B9
 10
-536.50000000000034
 20
111.25000000000048
 30
0.0
 40
19.999999999999996
 50
0.000000000000007
 51
31.788330617051756
  0
LINE
  8
0
  6
CONTINUOUS
 62
               3
  5
2BA
 10
-683.50000000000011
 20
226.74999999999991
 30
0.0
 11
-683.50000000000011
 21
201.25000000000082
 31
0.0
  0
ARC
  8
0
  6
CONTINUOUS
 62
               3
  5
2BB
 10
-685.5
 20
196.66742430504488
 30
0.0
 40
4.9999999999999991
 50
0.000000000000007
 51
66.421821521798009
  0
LINE
  8
0
  6
CONTINUOUS
 62
               3
  5
2BC
 10
-680.5
 20
121.78565375285294
 30
0.0
 11
-680.5
 21
196.66742430504488
 31
0.0
  0
ARC
  8
0
  6
CONTINUOUS
 62
               3
  5
2BD
 10
-663.49999999999977
 20
111.25000000000048
 30
0.0
 40
19.999999999999996
 50
148.21166938294783
 51
179.9999999999996
  0
LINE
  8
0
  6
CONTINUOUS
 62
               3
  5
2BE
 10
-683.50000000000023
 20
33.766668518930402
 30
0.0
 11
-683.49999999999977
 21
111.25000000000048
 31
0.0
  0
LINE
  8
0
  6
CONTINUOUS
 62
               3
  5
2BF
 10
683.49999999999989
 20
226.74999999999991
 30
0.0
 11
516.49999999999989
 21
226.74999999999991
 31
0.0
  0
LINE
  8
0
  6
CONTINUOUS
 62
               3
  5
2C0
 10
683.49999999999989
 20
226.74999999999991
 30
0.0
 11
683.49999999999989
 21
201.25000000000082
 31
0.0
  0
LINE
  8
0
  6
CONTINUOUS
 62
               3
  5
2C1
 10
680.49999999999977
 20
121.78565375285294
 30
0.0
 11
680.49999999999977
 21
196.66742430504488
 31
0.0
  0
ARC
  8
0
  6
CONTINUOUS
 62
               3
  5
2C2
 10
685.49999999999977
 20
196.66742430504488
 30
0.0
 40
4.9999999999999991
 50
113.57817847820161
 51
179.9999999999996
  0
LINE
  8
0
  6
CONTINUOUS
 62
               3
  5
2C3
 10
683.50000000000011
 20
33.766668518930402
 30
0.0
 11
683.49999999999966
 21
111.25000000000048
 31
0.0
  0
ARC
  8
0
  6
CONTINUOUS
 62
               3
  5
2C4
 10
663.49999999999966
 20
111.25000000000048
 30
0.0
 40
19.999999999999996
 50
0.000000000000007
 51
31.788330617051756
  0
LINE
  8
0
  6
CONTINUOUS
 62
               3
  5
2C5
 10
516.49999999999989
 20
226.74999999999991
 30
0.0
 11
516.49999999999989
 21
201.25000000000082
 31
0.0
  0
ARC
  8
0
  6
CONTINUOUS
 62
               3
  5
2C6
 10
514.5
 20
196.66742430504488
 30
0.0
 40
4.9999999999999991
 50
0.000000000000007
 51
66.421821521798009
  0
LINE
  8
0
  6
CONTINUOUS
 62
               3
  5
2C7
 10
519.5
 20
121.78565375285294
 30
0.0
 11
519.5
 21
196.66742430504488
 31
0.0
  0
ARC
  8
0
  6
CONTINUOUS
 62
               3
  5
2C8
 10
536.50000000000023
 20
111.25000000000048
 30
0.0
 40
19.999999999999996
 50
148.21166938294783
 51
179.9999999999996
  0
LINE
  8
0
  6
CONTINUOUS
 62
               3
  5
2C9
 10
516.49999999999977
 20
33.766668518930402
 30
0.0
 11
516.50000000000023
 21
111.25000000000048
 31
0.0
  0
LINE
  8
0
  6
CONTINUOUS
 62
               3
  5
2CA
 10
-66.500000000000185
 20
-110.82262459453219
 30
0.0
 11
-83.500000000000043
 21
38.177414803411551
 31
0.0
  0
LINE
  8
0
  6
CONTINUOUS
 62
               3
  5
2CB
 10
66.500000000000028
 20
-110.8226245945323
 30
0.0
 11
82.999999999999801
 21
33.795060703471194
 31
0.0
  0
LINE
  8
0
  6
CONTINUOUS
 62
               3
  5
2CC
 10
-666.50000000000023
 20
-110.82262459453216
 30
0.0
 11
-666.50000000000023
 21
-146.74999999999986
 31
0.0
  0
LINE
  8
0
  6
CONTINUOUS
 62
               3
  5
2CD
 10
-533.5
 20
-110.82262459453227
 30
0.0
 11
-533.5
 21
-146.74999999999986
 31
0.0
  0
LINE
  8
0
  6
CONTINUOUS
 62
               3
  5
2CE
 10
-666.50000000000023
 20
-110.82262459453227
 30
0.0
 11
-533.5
 21
-110.82262459453227
 31
0.0
  0
LINE
  8
0
  6
CONTINUOUS
 62
               3
  5
2CF
 10
-666.50000000000023
 20
-146.74999999999986
 30
0.0
 11
-533.5
 21
-146.74999999999986
 31
0.0
  0
LINE
  8
0
  6
CONTINUOUS
 62
               3
  5
2D0
 10
-666.50000000000023
 20
-110.82262459453219
 30
0.0
 11
-683.5
 21
38.177414803411551
 31
0.0
  0
LINE
  8
0
  6
CONTINUOUS
 62
               3
  5
2D1
 10
-533.5
 20
-110.8226245945323
 30
0.0
 11
-517.00000000000023
 21
33.795060703471194
 31
0.0
  0
LINE
  8
0
  6
CONTINUOUS
 62
               3
  5
2D2
 10
533.49999999999977
 20
-110.82262459453216
 30
0.0
 11
533.49999999999977
 21
-146.74999999999986
 31
0.0
  0
LINE
  8
0
  6
CONTINUOUS
 62
               3
  5
2D3
 10
666.5
 20
-110.82262459453227
 30
0.0
 11
666.5
 21
-146.74999999999986
 31
0.0
  0
LINE
  8
0
  6
CONTINUOUS
 62
               3
  5
2D4
 10
533.49999999999977
 20
-110.82262459453227
 30
0.0
 11
666.5
 21
-110.82262459453227
 31
0.0
  0
LINE
  8
0
  6
CONTINUOUS
 62
               3
  5
2D5
 10
533.49999999999977
 20
-146.74999999999986
 30
0.0
 11
666.5
 21
-146.74999999999986
 31
0.0
  0
LINE
  8
0
  6
CONTINUOUS
 62
               3
  5
2D6
 10
533.49999999999977
 20
-110.82262459453219
 30
0.0
 11
516.5
 21
38.177414803411551
 31
0.0
  0
LINE
  8
0
  6
CONTINUOUS
 62
               3
  5
2D7
 10
666.5
 20
-110.8226245945323
 30
0.0
 11
682.99999999999977
 21
33.795060703471194
 31
0.0
  0
LINE
  8
0
  6
CONTINUOUS
 62
               3
  5
2D8
 10
-662.00000000000023
 20
-306.67443853032671
 30
0.0
 11
-662.00000000000023
 21
-291.67443853032762
 31
0.0
  0
LINE
  8
0
  6
CONTINUOUS
 62
               3
  5
2D9
 10
-665.00000000000011
 20
-306.67443853032671
 30
0.0
 11
-535.00000000000011
 21
-306.67443853032671
 31
0.0
  0
ARC
  8
0
  6
CONTINUOUS
 62
               3
  5
2DA
 10
-675.99999999999955
 20
-165.67443853032856
 30
0.0
 40
4.0
 50
89.999999999982236
 51
179.99999999996518
  0
LINE
  8
0
  6
CONTINUOUS
 62
               3
  5
2DB
 10
-679.99999999999955
 20
-165.67443853032617
 30
0.0
 11
-679.99999999999977
 21
-184.67443853032856
 31
0.0
  0
LINE
  8
0
  6
CONTINUOUS
 62
               3
  5
2DC
 10
-615.99999999999955
 20
-161.67443853032799
 30
0.0
 11
-675.99999999999955
 21
-161.67443853032856
 31
0.0
  0
LINE
  8
0
  6
CONTINUOUS
 62
               3
  5
2DD
 10
-615.99999999999955
 20
-292.6744385303266
 30
0.0
 11
-583.99999999999909
 21
-292.67443853032614
 31
0.0
  0
ARC
  8
0
  6
CONTINUOUS
 62
               3
  5
2DE
 10
-675.9999999999992
 20
-287.67443853032762
 30
0.0
 40
4.0
 50
179.99999999996601
 51
269.99999999994901
  0
LINE
  8
0
  6
CONTINUOUS
 62
               3
  5
2DF
 10
-679.99999999999932
 20
-287.67443853032762
 30
0.0
 11
-679.99999999999909
 21
-269.17443853032739
 31
0.0
  0
LINE
  8
0
  6
CONTINUOUS
 62
               3
  5
2E0
 10
-615.99999999999955
 20
-291.67443853032694
 30
0.0
 11
-676.00000000000273
 21
-291.67443853032762
 31
0.0
  0
LINE
  8
0
  6
CONTINUOUS
 62
               3
  5
2E1
 10
-615.99999999999955
 20
-269.17443853032682
 30
0.0
 11
-679.99999999999932
 21
-269.17443853032739
 31
0.0
  0
LINE
  8
0
  6
CONTINUOUS
 62
               3
  5
2E2
 10
-679.99999999999977
 20
-184.67443853032856
 30
0.0
 11
-615.99999999999955
 21
-184.67443853032856
 31
0.0
  0
LINE
  8
0
  6
CONTINUOUS
 62
               3
  5
2E3
 10
-676.99999999999977
 20
-184.67443853032856
 30
0.0
 11
-677.00000000000023
 21
-269.17443853032739
 31
0.0
  0
LINE
  8
0
  6
CONTINUOUS
 62
               3
  5
2E4
 10
-583.99999999999955
 20
-161.67443853032799
 30
0.0
 11
-520.99999999999977
 21
-161.67443853032856
 31
0.0
  0
LINE
  8
0
  6
CONTINUOUS
 62
               3
  5
2E5
 10
-583.99999999999909
 20
-291.67443853032694
 30
0.0
 11
-524.00000000000114
 21
-291.67443853032762
 31
0.0
  0
LINE
  8
0
  6
CONTINUOUS
 62
               3
  5
2E6
 10
-583.99999999999909
 20
-269.17443853032694
 30
0.0
 11
-520.00000000000091
 21
-269.17443853032739
 31
0.0
  0
LINE
  8
0
  6
CONTINUOUS
 62
               3
  5
2E7
 10
-519.99999999999955
 20
-184.67443853032856
 30
0.0
 11
-583.99999999999955
 21
-184.67443853032856
 31
0.0
  0
LINE
  8
0
  6
CONTINUOUS
 62
               3
  5
2E8
 10
-538.00000000000023
 20
-306.67443853032671
 30
0.0
 11
-538.00000000000023
 21
-291.67443853032762
 31
0.0
  0
LINE
  8
0
  6
CONTINUOUS
 62
               3
  5
2E9
 10
-615.99999999999955
 20
-160.67443853032856
 30
0.0
 11
-615.99999999999955
 21
-292.6744385303266
 31
0.0
  0
LINE
  8
0
  6
CONTINUOUS
 62
               3
  5
2EA
 10
-583.99999999999909
 20
-292.67443853032614
 30
0.0
 11
-583.99999999999955
 21
-160.67443853032856
 31
0.0
  0
LINE
  8
0
  6
CONTINUOUS
 62
               3
  5
2EB
 10
-616.00000000000011
 20
-160.67443853032856
 30
0.0
 11
-584.00000000000011
 21
-160.67443853032856
 31
0.0
  0
LINE
  8
0
  6
CONTINUOUS
 62
               3
  5
2EC
 10
-615.99999999999955
 20
-227.67443853032742
 30
0.0
 11
-583.99999999999909
 21
-227.67443853032742
 31
0.0
  0
LINE
  8
0
  6
CONTINUOUS
 62
               3
  5
2ED
 10
-615.99999999999955
 20
-226.67443853032765
 30
0.0
 11
-583.99999999999909
 21
-226.67443853032765
 31
0.0
  0
LINE
  8
0
  6
CONTINUOUS
 62
               3
  5
2EE
 10
-615.99999999999955
 20
-228.67443853032765
 30
0.0
 11
-583.99999999999909
 21
-228.67443853032765
 31
0.0
  0
ARC
  8
0
  6
CONTINUOUS
 62
               3
  5
2EF
 10
-524.00000000000068
 20
-165.67443853032856
 30
0.0
 40
4.0
 50
0.0000000000344079
 51
90.000000000017366
  0
LINE
  8
0
  6
CONTINUOUS
 62
               3
  5
2F0
 10
-520.00000000000068
 20
-165.67443853032617
 30
0.0
 11
-520.00000000000045
 21
-184.67443853032856
 31
0.0
  0
ARC
  8
0
  6
CONTINUOUS
 62
               3
  5
2F1
 10
-524.00000000000102
 20
-287.67443853032762
 30
0.0
 40
4.0
 50
270.00000000004979
 51
360.0000000000328
  0
LINE
  8
0
  6
CONTINUOUS
 62
               3
  5
2F2
 10
-520.00000000000091
 20
-287.67443853032762
 30
0.0
 11
-520.00000000000114
 21
-269.17443853032739
 31
0.0
  0
LINE
  8
0
  6
CONTINUOUS
 62
               3
  5
2F3
 10
-523.00000000000045
 20
-184.67443853032856
 30
0.0
 11
-523.0
 21
-269.17443853032739
 31
0.0
  0
LINE
  8
0
  6
CONTINUOUS
 62
               3
  5
2F4
 10
537.99999999999966
 20
-306.67443853032671
 30
0.0
 11
537.99999999999966
 21
-291.67443853032762
 31
0.0
  0
LINE
  8
0
  6
CONTINUOUS
 62
               3
  5
2F5
 10
534.99999999999977
 20
-306.67443853032671
 30
0.0
 11
664.99999999999977
 21
-306.67443853032671
 31
0.0
  0
ARC
  8
0
  6
CONTINUOUS
 62
               3
  5
2F6
 10
524.00000000000045
 20
-165.67443853032856
 30
0.0
 40
4.0
 50
89.999999999982236
 51
179.99999999996518
  0
LINE
  8
0
  6
CONTINUOUS
 62
               3
  5
2F7
 10
520.00000000000045
 20
-165.67443853032617
 30
0.0
 11
520.00000000000023
 21
-184.67443853032856
 31
0.0
  0
LINE
  8
0
  6
CONTINUOUS
 62
               3
  5
2F8
 10
584.00000000000045
 20
-161.67443853032799
 30
0.0
 11
524.00000000000045
 21
-161.67443853032856
 31
0.0
  0
LINE
  8
0
  6
CONTINUOUS
 62
               3
  5
2F9
 10
584.00000000000045
 20
-292.6744385303266
 30
0.0
 11
616.00000000000091
 21
-292.67443853032614
 31
0.0
  0
ARC
  8
0
  6
CONTINUOUS
 62
               3
  5
2FA
 10
524.00000000000068
 20
-287.67443853032762
 30
0.0
 40
4.0
 50
179.99999999996601
 51
269.99999999994901
  0
LINE
  8
0
  6
CONTINUOUS
 62
               3
  5
2FB
 10
520.00000000000068
 20
-287.67443853032762
 30
0.0
 11
520.0000000000008
 21
-269.17443853032739
 31
0.0
  0
LINE
  8
0
  6
CONTINUOUS
 62
               3
  5
2FC
 10
584.00000000000045
 20
-291.67443853032694
 30
0.0
 11
523.99999999999727
 21
-291.67443853032762
 31
0.0
  0
LINE
  8
0
  6
CONTINUOUS
 62
               3
  5
2FD
 10
584.00000000000045
 20
-269.17443853032682
 30
0.0
 11
520.00000000000068
 21
-269.17443853032739
 31
0.0
  0
LINE
  8
0
  6
CONTINUOUS
 62
               3
  5
2FE
 10
520.00000000000023
 20
-184.67443853032856
 30
0.0
 11
584.00000000000045
 21
-184.67443853032856
 31
0.0
  0
LINE
  8
0
  6
CONTINUOUS
 62
               3
  5
2FF
 10
523.00000000000023
 20
-184.67443853032856
 30
0.0
 11
522.99999999999966
 21
-269.17443853032739
 31
0.0
  0
LINE
  8
0
  6
CONTINUOUS
 62
               3
  5
300
 10
616.00000000000045
 20
-161.67443853032799
 30
0.0
 11
679.00000000000023
 21
-161.67443853032856
 31
0.0
  0
LINE
  8
0
  6
CONTINUOUS
 62
               3
  5
301
 10
616.00000000000091
 20
-291.67443853032694
 30
0.0
 11
675.99999999999886
 21
-291.67443853032762
 31
0.0
  0
LINE
  8
0
  6
CONTINUOUS
 62
               3
  5
302
 10
616.00000000000091
 20
-269.17443853032694
 30
0.0
 11
679.99999999999898
 21
-269.17443853032739
 31
0.0
  0
LINE
  8
0
  6
CONTINUOUS
 62
               3
  5
303
 10
680.00000000000045
 20
-184.67443853032856
 30
0.0
 11
616.00000000000045
 21
-184.67443853032856
 31
0.0
  0
LINE
  8
0
  6
CONTINUOUS
 62
               3
  5
304
 10
661.99999999999977
 20
-306.67443853032671
 30
0.0
 11
661.99999999999977
 21
-291.67443853032762
 31
0.0
  0
LINE
  8
0
  6
CONTINUOUS
 62
               3
  5
305
 10
584.00000000000045
 20
-160.67443853032856
 30
0.0
 11
584.00000000000045
 21
-292.6744385303266
 31
0.0
  0
LINE
  8
0
  6
CONTINUOUS
 62
               3
  5
306
 10
616.00000000000091
 20
-292.67443853032614
 30
0.0
 11
616.00000000000045
 21
-160.67443853032856
 31
0.0
  0
LINE
  8
0
  6
CONTINUOUS
 62
               3
  5
307
 10
583.99999999999977
 20
-160.67443853032856
 30
0.0
 11
615.99999999999977
 21
-160.67443853032856
 31
0.0
  0
LINE
  8
0
  6
CONTINUOUS
 62
               3
  5
308
 10
584.00000000000045
 20
-227.67443853032742
 30
0.0
 11
616.00000000000091
 21
-227.67443853032742
 31
0.0
  0
LINE
  8
0
  6
CONTINUOUS
 62
               3
  5
309
 10
584.00000000000045
 20
-226.67443853032765
 30
0.0
 11
616.00000000000091
 21
-226.67443853032765
 31
0.0
  0
LINE
  8
0
  6
CONTINUOUS
 62
               3
  5
30A
 10
584.00000000000045
 20
-228.67443853032765
 30
0.0
 11
616.00000000000091
 21
-228.67443853032765
 31
0.0
  0
ARC
  8
0
  6
CONTINUOUS
 62
               3
  5
30B
 10
675.9999999999992
 20
-165.67443853032856
 30
0.0
 40
4.0
 50
0.0000000000344079
 51
90.000000000017366
  0
LINE
  8
0
  6
CONTINUOUS
 62
               3
  5
30C
 10
679.9999999999992
 20
-165.67443853032617
 30
0.0
 11
679.99999999999943
 21
-184.67443853032856
 31
0.0
  0
ARC
  8
0
  6
CONTINUOUS
 62
               3
  5
30D
 10
675.99999999999886
 20
-287.67443853032762
 30
0.0
 40
4.0
 50
270.00000000004979
 51
360.0000000000328
  0
LINE
  8
0
  6
CONTINUOUS
 62
               3
  5
30E
 10
679.99999999999898
 20
-287.67443853032762
 30
0.0
 11
679.99999999999886
 21
-269.17443853032739
 31
0.0
  0
LINE
  8
0
  6
CONTINUOUS
 62
               3
  5
30F
 10
676.99999999999943
 20
-184.67443853032856
 30
0.0
 11
677.0
 21
-269.17443853032739
 31
0.0
  0
CIRCLE
  8
0
  6
CONTINUOUS
 62
               3
  5
310
 10
-0.0000000000000409
 20
472.87811887045075
 30
0.0
 40
83.5
  0
INSERT
  8
0
  6
CONTINUOUS
  5
311
  2
GROUP_1
 10
0.0
 20
0.0
 30
0.0
  0
INSERT
  8
0
  6
CONTINUOUS
  5
312
  2
GROUP_2
 10
0.0
 20
0.0
 30
0.0
  0
INSERT
  8
0
  6
CONTINUOUS
  5
313
  2
GROUP_3
 10
0.0
 20
0.0
 30
0.0
  0
LINE
  8
LAYER001
  6
CONTINUOUS
 62
               3
  5
314
 10
-60.269964753301011
 20
-146.74999999999986
 30
0.0
 11
-60.269964753301011
 21
-161.74999999999986
 31
0.0
  0
LINE
  8
LAYER001
  6
CONTINUOUS
 62
               3
  5
315
 10
60.269964753300755
 20
-146.74999999999986
 30
0.0
 11
60.269964753300755
 21
-161.74999999999986
 31
0.0
  0
LINE
  8
LAYER001
  6
CONTINUOUS
 62
               3
  5
316
 10
-539.73003524669934
 20
-146.74999999999986
 30
0.0
 11
-539.73003524669934
 21
-161.74999999999986
 31
0.0
  0
LINE
  8
LAYER001
  6
CONTINUOUS
 62
               3
  5
317
 10
-660.26996475330111
 20
-146.74999999999986
 30
0.0
 11
-660.26996475330111
 21
-161.74999999999986
 31
0.0
  0
LINE
  8
LAYER001
  6
CONTINUOUS
 62
               3
  5
318
 10
660.26996475330066
 20
-146.74999999999986
 30
0.0
 11
660.26996475330066
 21
-161.74999999999986
 31
0.0
  0
LINE
  8
LAYER001
  6
CONTINUOUS
 62
               3
  5
319
 10
539.73003524669889
 20
-146.74999999999986
 30
0.0
 11
539.73003524669889
 21
-161.74999999999986
 31
0.0
  0
ENDSEC
  0
EOF
