  0
SECTION
  2
HEADER
  9
$ACADVER
  1
AC1009
  9
$INSBASE
 10
0.0
 20
0.0
 30
0.0
  9
$EXTMIN
 10
-137.93744078822152
 20
-117.15395722894461
 30
0.0
  9
$EXTMAX
 10
188.10932439701196
 20
178.14177304606599
 30
0.0
  9
$LIMMIN
 10
-148.12640220026006
 20
-126.38194880003869
  9
$LIMMAX
 10
198.2982858090505
 20
187.36976461716009
  9
$ORTHOMODE
 70
               0
  9
$REGENMODE
 70
               1
  9
$FILLMODE
 70
               1
  9
$QTEXTMODE
 70
               0
  9
$MIRRTEXT
 70
               1
  9
$DRAGMODE
 70
               2
  9
$LTSCALE
 40
1.0
  9
$OSMODE
 70
               0
  9
$ATTMODE
 70
               1
  9
$TEXTSIZE
 40
0.2
  9
$TRACEWID
 40
0.05
  9
$TEXTSTYLE
  7
STANDARD
  9
$CLAYER
  8
0
  9
$CELTYPE
  6
CONTINUOUS
  9
$CECOLOR
 62
             256
  9
$DIMSCALE
 40
1.0
  9
$DIMASZ
 40
0.18
  9
$DIMEXO
 40
0.0625
  9
$DIMDLI
 40
0.38
  9
$DIMRND
 40
0.0
  9
$DIMDLE
 40
0.0
  9
$DIMEXE
 40
0.18
  9
$DIMTP
 40
0.0
  9
$DIMTM
 40
0.0
  9
$DIMTXT
 40
0.18
  9
$DIMCEN
 40
0.09
  9
$DIMTSZ
 40
0.0
  9
$DIMTOL
 70
               0
  9
$DIMLIM
 70
               0
  9
$DIMTIH
 70
               1
  9
$DIMTOH
 70
               1
  9
$DIMSE1
 70
               0
  9
$DIMSE2
 70
               0
  9
$DIMTAD
 70
               0
  9
$DIMZIN
 70
               0
  9
$DIMBLK
  1

  9
$DIMASO
 70
               1
  9
$DIMSHO
 70
               1
  9
$DIMPOST
  1

  9
$DIMAPOST
  1

  9
$DIMALT
 70
               0
  9
$DIMALTD
 70
               2
  9
$DIMALTF
 40
25.399999999999999
  9
$DIMLFAC
 40
1.0
  9
$DIMTOFL
 70
               0
  9
$DIMTVP
 40
0.0
  9
$DIMTIX
 70
               0
  9
$DIMSOXD
 70
               0
  9
$DIMSAH
 70
               0
  9
$DIMBLK1
  1

  9
$DIMBLK2
  1

  9
$DIMSTYLE
  2
STANDARD
  9
$DIMCLRD
 70
               0
  9
$DIMCLRE
 70
               0
  9
$DIMCLRT
 70
               0
  9
$DIMTFAC
 40
1.0
  9
$DIMGAP
 40
0.09
  9
$LUNITS
 70
               2
  9
$LUPREC
 70
               4
  9
$AXISMODE
 70
               0
  9
$AXISUNIT
 10
0.0
 20
0.0
  9
$SKETCHINC
 40
0.1
  9
$FILLETRAD
 40
0.0
  9
$AUNITS
 70
               0
  9
$AUPREC
 70
               0
  9
$MENU
  1
acad
  9
$ELEVATION
 40
0.0
  9
$PELEVATION
 40
0.0
  9
$THICKNESS
 40
0.0
  9
$LIMCHECK
 70
               0
  9
$BLIPMODE
 70
               1
  9
$CHAMFERA
 40
0.0
  9
$CHAMFERB
 40
0.0
  9
$SKPOLY
 70
               0
  9
$TDCREATE
 40
0.000000000
  9
$TDUPDATE
 40
0.000000000
  9
$TDINDWG
 40
0.0000000000
  9
$TDUSRTIMER
 40
0.0000000000
  9
$USRTIMER
 70
               1
  9
$ANGBASE
 50
0.0
  9
$ANGDIR
 70
               0
  9
$PDMODE
 70
               0
  9
$PDSIZE
 40
1.0
  9
$PLINEWID
 40
0.0
  9
$COORDS
 70
               1
  9
$SPLFRAME
 70
               0
  9
$SPLINETYPE
 70
               6
  9
$SPLINESEGS
 70
               8
  9
$ATTDIA
 70
               0
  9
$ATTREQ
 70
               1
  9
$HANDLING
 70
               1
  9
$HANDSEED
  5
468
  9
$SURFTAB1
 70
               6
  9
$SURFTAB2
 70
               6
  9
$SURFTYPE
 70
               6
  9
$SURFU
 70
               6
  9
$SURFV
 70
               6
  9
$UCSNAME
  2

  9
$UCSORG
 10
0.0
 20
0.0
 30
0.0
  9
$UCSXDIR
 10
1.0
 20
0.0
 30
0.0
  9
$UCSYDIR
 10
0.0
 20
1.0
 30
0.0
  9
$PUCSNAME
  2

  9
$PUCSORG
 10
0.0
 20
0.0
 30
0.0
  9
$PUCSXDIR
 10
1.0
 20
0.0
 30
0.0
  9
$PUCSYDIR
 10
0.0
 20
1.0
 30
0.0
  9
$USERI1
 70
               0
  9
$USERI2
 70
               0
  9
$USERI3
 70
               0
  9
$USERI4
 70
               0
  9
$USERI5
 70
               0
  9
$USERR1
 40
0.0
  9
$USERR2
 40
0.0
  9
$USERR3
 40
0.0
  9
$USERR4
 40
0.0
  9
$USERR5
 40
0.0
  9
$WORLDVIEW
 70
               1
  9
$SHADEDGE
 70
               3
  9
$SHADEDIF
 70
              70
  9
$TILEMODE
 70
               1
  9
$MAXACTVP
 70
              16
  9
$PINSBASE
 10
0.0
 20
0.0
 30
0.0
  9
$PLIMCHECK
 70
               0
  9
$PEXTMIN
 10
1.0000000000000000E+20
 20
1.0000000000000000E+20
 30
1.0000000000000000E+20
  9
$PEXTMAX
 10
-1.0000000000000000E+20
 20
-1.0000000000000000E+20
 30
-1.0000000000000000E+20
  9
$PLIMMIN
 10
0.0
 20
0.0
  9
$PLIMMAX
 10
12.0
 20
9.0
  9
$UNITMODE
 70
               0
  9
$VISRETAIN
 70
               0
  9
$PLINEGEN
 70
               1
  9
$PSLTSCALE
 70
               0
  9
$TREEDEPTH
 70
            3020
  9
$DWGCODEPAGE
  3
dos932
  0
ENDSEC
  0
SECTION
  2
TABLES
  0
TABLE
  2
VPORT
 70
               1
  0
VPORT
  2
*ACTIVE
 70
               0
 10
0.0
 20
0.0
 11
1.0
 21
1.0
 12
25.085941804395219
 22
30.493907908560701
 13
0.0
 23
0.0
 14
1.0
 24
1.0
 15
0.0
 25
0.0
 16
0.0
 26
0.0
 36
1.0
 17
0.0
 27
0.0
 37
0.0
 40
313.75171341719874
 41
1.1041364021131774
 42
50.0
 43
0.0
 44
0.0
 50
0.0
 51
0.0
 71
               0
 72
             100
 73
               1
 74
               1
 75
               0
 76
               0
 77
               0
 78
               0
  0
ENDTAB
  0
TABLE
  2
LTYPE
 70
              26
  0
LTYPE
  2
CONTINUOUS
 70
               0
  3
Solid line
 72
              65
 73
               0
 40
0.0
  0
LTYPE
  2
HIDDENX2
 70
               0
  3
CADPAC FUSION LINETYPE
 72
              65
 73
               2
 40
23.760000000000002
 49
17.82
 49
-5.9400000000000004
  0
LTYPE
  2
HIDDEN
 70
               0
  3
CADPAC FUSION LINETYPE
 72
              65
 73
               2
 40
17.82
 49
11.880000000000001
 49
-5.9400000000000004
  0
LTYPE
  2
HIDDEN2
 70
               0
  3
CADPAC FUSION LINETYPE
 72
              65
 73
               2
 40
14.850000000000001
 49
8.9100000000000001
 49
-5.9400000000000004
  0
LTYPE
  2
DASHED
 70
               0
  3
CADPAC FUSION LINETYPE
 72
              65
 73
               2
 40
17.82
 49
11.880000000000001
 49
-5.9400000000000004
  0
LTYPE
  2
DASHED2
 70
               0
  3
CADPAC FUSION LINETYPE
 72
              65
 73
               2
 40
13.365
 49
8.9100000000000001
 49
-4.4550000000000001
  0
LTYPE
  2
DASHEDX2
 70
               0
  3
CADPAC FUSION LINETYPE
 72
              65
 73
               2
 40
26.73
 49
17.82
 49
-8.9100000000000001
  0
LTYPE
  2
DOTX2
 70
               0
  3
CADPAC FUSION LINETYPE
 72
              65
 73
               2
 40
7.4250000000000007
 49
0.0
 49
-7.4250000000000007
  0
LTYPE
  2
DOT
 70
               0
  3
CADPAC FUSION LINETYPE
 72
              65
 73
               2
 40
5.9400000000000004
 49
0.0
 49
-5.9400000000000004
  0
LTYPE
  2
DOTS
 70
               0
  3
CADPAC FUSION LINETYPE
 72
              65
 73
               2
 40
5.9400000000000004
 49
0.0
 49
-5.9400000000000004
  0
LTYPE
  2
DOT2
 70
               0
  3
CADPAC FUSION LINETYPE
 72
              65
 73
               2
 40
4.4550000000000001
 49
0.0
 49
-4.4550000000000001
  0
LTYPE
  2
CENTERX2
 70
               0
  3
CADPAC FUSION LINETYPE
 72
              65
 73
               4
 40
35.640000000000001
 49
14.850000000000001
 49
-7.4250000000000007
 49
5.9400000000000004
 49
-7.4250000000000007
  0
LTYPE
  2
CENTER
 70
               0
  3
CADPAC FUSION LINETYPE
 72
              65
 73
               4
 40
27.324000000000002
 49
11.880000000000001
 49
-5.9400000000000004
 49
3.5640000000000001
 49
-5.9400000000000004
  0
LTYPE
  2
CENTER2
 70
               0
  3
CADPAC FUSION LINETYPE
 72
              65
 73
               4
 40
19.008000000000003
 49
8.9100000000000001
 49
-4.4550000000000001
 49
1.1880000000000002
 49
-4.4550000000000001
  0
LTYPE
  2
DASHDOTX2
 70
               0
  3
CADPAC FUSION LINETYPE
 72
              65
 73
               4
 40
29.700000000000003
 49
14.850000000000001
 49
-7.4250000000000007
 49
0.0
 49
-7.4250000000000007
  0
LTYPE
  2
DASHDOT
 70
               0
  3
CADPAC FUSION LINETYPE
 72
              65
 73
               4
 40
23.760000000000002
 49
11.880000000000001
 49
-5.9400000000000004
 49
0.0
 49
-5.9400000000000004
  0
LTYPE
  2
DASHDOT2
 70
               0
  3
CADPAC FUSION LINETYPE
 72
              65
 73
               4
 40
17.82
 49
8.9100000000000001
 49
-4.4550000000000001
 49
0.0
 49
-4.4550000000000001
  0
LTYPE
  2
DIVIDEX2
 70
               0
  3
CADPAC FUSION LINETYPE
 72
              65
 73
               6
 40
37.125
 49
14.850000000000001
 49
-7.4250000000000007
 49
0.0
 49
-7.4250000000000007
 49
0.0
 49
-7.4250000000000007
  0
LTYPE
  2
DIVIDE
 70
               0
  3
CADPAC FUSION LINETYPE
 72
              65
 73
               6
 40
29.700000000000003
 49
11.880000000000001
 49
-5.9400000000000004
 49
0.0
 49
-5.9400000000000004
 49
0.0
 49
-5.9400000000000004
  0
LTYPE
  2
DIVIDE2
 70
               0
  3
CADPAC FUSION LINETYPE
 72
              65
 73
               6
 40
22.274999999999999
 49
8.9100000000000001
 49
-4.4550000000000001
 49
0.0
 49
-4.4550000000000001
 49
0.0
 49
-4.4550000000000001
  0
LTYPE
  2
BORDERX2
 70
               0
  3
CADPAC FUSION LINETYPE
 72
              65
 73
               6
 40
51.975000000000009
 49
14.850000000000001
 49
-7.4250000000000007
 49
14.850000000000001
 49
-7.4250000000000007
 49
0.0
 49
-7.4250000000000007
  0
LTYPE
  2
BORDER
 70
               0
  3
CADPAC FUSION LINETYPE
 72
              65
 73
               6
 40
41.579999999999998
 49
11.880000000000001
 49
-5.9400000000000004
 49
11.880000000000001
 49
-5.9400000000000004
 49
0.0
 49
-5.9400000000000004
  0
LTYPE
  2
BORDER2
 70
               0
  3
CADPAC FUSION LINETYPE
 72
              65
 73
               6
 40
31.185000000000002
 49
8.9100000000000001
 49
-4.4550000000000001
 49
8.9100000000000001
 49
-4.4550000000000001
 49
0.0
 49
-4.4550000000000001
  0
LTYPE
  2
PHANTOMX2
 70
               0
  3
CADPAC FUSION LINETYPE
 72
              65
 73
               6
 40
44.550000000000004
 49
14.850000000000001
 49
-5.9400000000000004
 49
5.9400000000000004
 49
-5.9400000000000004
 49
5.9400000000000004
 49
-5.9400000000000004
  0
LTYPE
  2
PHANTOM
 70
               0
  3
CADPAC FUSION LINETYPE
 72
              65
 73
               6
 40
36.828000000000003
 49
11.880000000000001
 49
-5.9400000000000004
 49
3.5640000000000001
 49
-5.9400000000000004
 49
3.5640000000000001
 49
-5.9400000000000004
  0
LTYPE
  2
PHANTOM2
 70
               0
  3
CADPAC FUSION LINETYPE
 72
              65
 73
               6
 40
31.482000000000006
 49
8.9100000000000001
 49
-5.9400000000000004
 49
2.3760000000000003
 49
-5.9400000000000004
 49
2.3760000000000003
 49
-5.9400000000000004
  0
ENDTAB
  0
TABLE
  2
LAYER
 70
             256
  0
LAYER
  2
0
 70
               0
 62
               7
  6
CONTINUOUS
  0
LAYER
  2
LAYER001
 70
               0
 62
               7
  6
CONTINUOUS
  0
LAYER
  2
LAYER002
 70
               0
 62
               7
  6
CONTINUOUS
  0
LAYER
  2
LAYER003
 70
               0
 62
               7
  6
CONTINUOUS
  0
LAYER
  2
LAYER004
 70
               0
 62
               7
  6
CONTINUOUS
  0
LAYER
  2
LAYER005
 70
               0
 62
               7
  6
CONTINUOUS
  0
LAYER
  2
LAYER006
 70
               0
 62
               7
  6
CONTINUOUS
  0
LAYER
  2
LAYER007
 70
               0
 62
               7
  6
CONTINUOUS
  0
LAYER
  2
LAYER008
 70
               0
 62
               7
  6
CONTINUOUS
  0
LAYER
  2
LAYER009
 70
               0
 62
               7
  6
CONTINUOUS
  0
LAYER
  2
LAYER010
 70
               0
 62
               7
  6
CONTINUOUS
  0
LAYER
  2
LAYER011
 70
               0
 62
               7
  6
CONTINUOUS
  0
LAYER
  2
LAYER012
 70
               0
 62
               7
  6
CONTINUOUS
  0
LAYER
  2
LAYER013
 70
               0
 62
               7
  6
CONTINUOUS
  0
LAYER
  2
LAYER014
 70
               0
 62
               7
  6
CONTINUOUS
  0
LAYER
  2
LAYER015
 70
               0
 62
               7
  6
CONTINUOUS
  0
LAYER
  2
LAYER016
 70
               0
 62
               7
  6
CONTINUOUS
  0
LAYER
  2
LAYER017
 70
               0
 62
               7
  6
CONTINUOUS
  0
LAYER
  2
LAYER018
 70
               0
 62
               7
  6
CONTINUOUS
  0
LAYER
  2
LAYER019
 70
               0
 62
               7
  6
CONTINUOUS
  0
LAYER
  2
LAYER020
 70
               0
 62
               7
  6
CONTINUOUS
  0
LAYER
  2
LAYER021
 70
               0
 62
               7
  6
CONTINUOUS
  0
LAYER
  2
LAYER022
 70
               0
 62
               7
  6
CONTINUOUS
  0
LAYER
  2
LAYER023
 70
               0
 62
               7
  6
CONTINUOUS
  0
LAYER
  2
LAYER024
 70
               0
 62
               7
  6
CONTINUOUS
  0
LAYER
  2
LAYER025
 70
               0
 62
               7
  6
CONTINUOUS
  0
LAYER
  2
LAYER026
 70
               0
 62
               7
  6
CONTINUOUS
  0
LAYER
  2
LAYER027
 70
               0
 62
               7
  6
CONTINUOUS
  0
LAYER
  2
LAYER028
 70
               0
 62
               7
  6
CONTINUOUS
  0
LAYER
  2
LAYER029
 70
               0
 62
               7
  6
CONTINUOUS
  0
LAYER
  2
LAYER030
 70
               0
 62
               7
  6
CONTINUOUS
  0
LAYER
  2
LAYER031
 70
               0
 62
               7
  6
CONTINUOUS
  0
LAYER
  2
LAYER032
 70
               0
 62
               7
  6
CONTINUOUS
  0
LAYER
  2
LAYER033
 70
               0
 62
               7
  6
CONTINUOUS
  0
LAYER
  2
LAYER034
 70
               0
 62
               7
  6
CONTINUOUS
  0
LAYER
  2
LAYER035
 70
               0
 62
               7
  6
CONTINUOUS
  0
LAYER
  2
LAYER036
 70
               0
 62
               7
  6
CONTINUOUS
  0
LAYER
  2
LAYER037
 70
               0
 62
               7
  6
CONTINUOUS
  0
LAYER
  2
LAYER038
 70
               0
 62
               7
  6
CONTINUOUS
  0
LAYER
  2
LAYER039
 70
               0
 62
               7
  6
CONTINUOUS
  0
LAYER
  2
LAYER040
 70
               0
 62
               7
  6
CONTINUOUS
  0
LAYER
  2
LAYER041
 70
               0
 62
               7
  6
CONTINUOUS
  0
LAYER
  2
LAYER042
 70
               0
 62
               7
  6
CONTINUOUS
  0
LAYER
  2
LAYER043
 70
               0
 62
               7
  6
CONTINUOUS
  0
LAYER
  2
LAYER044
 70
               0
 62
               7
  6
CONTINUOUS
  0
LAYER
  2
LAYER045
 70
               0
 62
               7
  6
CONTINUOUS
  0
LAYER
  2
LAYER046
 70
               0
 62
               7
  6
CONTINUOUS
  0
LAYER
  2
LAYER047
 70
               0
 62
               7
  6
CONTINUOUS
  0
LAYER
  2
LAYER048
 70
               0
 62
               7
  6
CONTINUOUS
  0
LAYER
  2
LAYER049
 70
               0
 62
               7
  6
CONTINUOUS
  0
LAYER
  2
LAYER050
 70
               0
 62
               7
  6
CONTINUOUS
  0
LAYER
  2
LAYER051
 70
               0
 62
               7
  6
CONTINUOUS
  0
LAYER
  2
LAYER052
 70
               0
 62
               7
  6
CONTINUOUS
  0
LAYER
  2
LAYER053
 70
               0
 62
               7
  6
CONTINUOUS
  0
LAYER
  2
LAYER054
 70
               0
 62
               7
  6
CONTINUOUS
  0
LAYER
  2
LAYER055
 70
               0
 62
               7
  6
CONTINUOUS
  0
LAYER
  2
LAYER056
 70
               0
 62
               7
  6
CONTINUOUS
  0
LAYER
  2
LAYER057
 70
               0
 62
               7
  6
CONTINUOUS
  0
LAYER
  2
LAYER058
 70
               0
 62
               7
  6
CONTINUOUS
  0
LAYER
  2
LAYER059
 70
               0
 62
               7
  6
CONTINUOUS
  0
LAYER
  2
LAYER060
 70
               0
 62
               7
  6
CONTINUOUS
  0
LAYER
  2
LAYER061
 70
               0
 62
               7
  6
CONTINUOUS
  0
LAYER
  2
LAYER062
 70
               0
 62
               7
  6
CONTINUOUS
  0
LAYER
  2
LAYER063
 70
               0
 62
               7
  6
CONTINUOUS
  0
LAYER
  2
LAYER064
 70
               0
 62
               7
  6
CONTINUOUS
  0
LAYER
  2
LAYER065
 70
               0
 62
               7
  6
CONTINUOUS
  0
LAYER
  2
LAYER066
 70
               0
 62
               7
  6
CONTINUOUS
  0
LAYER
  2
LAYER067
 70
               0
 62
               7
  6
CONTINUOUS
  0
LAYER
  2
LAYER068
 70
               0
 62
               7
  6
CONTINUOUS
  0
LAYER
  2
LAYER069
 70
               0
 62
               7
  6
CONTINUOUS
  0
LAYER
  2
LAYER070
 70
               0
 62
               7
  6
CONTINUOUS
  0
LAYER
  2
LAYER071
 70
               0
 62
               7
  6
CONTINUOUS
  0
LAYER
  2
LAYER072
 70
               0
 62
               7
  6
CONTINUOUS
  0
LAYER
  2
LAYER073
 70
               0
 62
               7
  6
CONTINUOUS
  0
LAYER
  2
LAYER074
 70
               0
 62
               7
  6
CONTINUOUS
  0
LAYER
  2
LAYER075
 70
               0
 62
               7
  6
CONTINUOUS
  0
LAYER
  2
LAYER076
 70
               0
 62
               7
  6
CONTINUOUS
  0
LAYER
  2
LAYER077
 70
               0
 62
               7
  6
CONTINUOUS
  0
LAYER
  2
LAYER078
 70
               0
 62
               7
  6
CONTINUOUS
  0
LAYER
  2
LAYER079
 70
               0
 62
               7
  6
CONTINUOUS
  0
LAYER
  2
LAYER080
 70
               0
 62
               7
  6
CONTINUOUS
  0
LAYER
  2
LAYER081
 70
               0
 62
               7
  6
CONTINUOUS
  0
LAYER
  2
LAYER082
 70
               0
 62
               7
  6
CONTINUOUS
  0
LAYER
  2
LAYER083
 70
               0
 62
               7
  6
CONTINUOUS
  0
LAYER
  2
LAYER084
 70
               0
 62
               7
  6
CONTINUOUS
  0
LAYER
  2
LAYER085
 70
               0
 62
               7
  6
CONTINUOUS
  0
LAYER
  2
LAYER086
 70
               0
 62
               7
  6
CONTINUOUS
  0
LAYER
  2
LAYER087
 70
               0
 62
               7
  6
CONTINUOUS
  0
LAYER
  2
LAYER088
 70
               0
 62
               7
  6
CONTINUOUS
  0
LAYER
  2
LAYER089
 70
               0
 62
               7
  6
CONTINUOUS
  0
LAYER
  2
LAYER090
 70
               0
 62
               7
  6
CONTINUOUS
  0
LAYER
  2
LAYER091
 70
               0
 62
               7
  6
CONTINUOUS
  0
LAYER
  2
LAYER092
 70
               0
 62
               7
  6
CONTINUOUS
  0
LAYER
  2
LAYER093
 70
               0
 62
               7
  6
CONTINUOUS
  0
LAYER
  2
LAYER094
 70
               0
 62
               7
  6
CONTINUOUS
  0
LAYER
  2
LAYER095
 70
               0
 62
               7
  6
CONTINUOUS
  0
LAYER
  2
LAYER096
 70
               0
 62
               7
  6
CONTINUOUS
  0
LAYER
  2
LAYER097
 70
               0
 62
               7
  6
CONTINUOUS
  0
LAYER
  2
LAYER098
 70
               0
 62
               7
  6
CONTINUOUS
  0
LAYER
  2
LAYER099
 70
               0
 62
               7
  6
CONTINUOUS
  0
LAYER
  2
LAYER100
 70
               0
 62
               7
  6
CONTINUOUS
  0
LAYER
  2
LAYER101
 70
               0
 62
               7
  6
CONTINUOUS
  0
LAYER
  2
LAYER102
 70
               0
 62
               7
  6
CONTINUOUS
  0
LAYER
  2
LAYER103
 70
               0
 62
               7
  6
CONTINUOUS
  0
LAYER
  2
LAYER104
 70
               0
 62
               7
  6
CONTINUOUS
  0
LAYER
  2
LAYER105
 70
               0
 62
               7
  6
CONTINUOUS
  0
LAYER
  2
LAYER106
 70
               0
 62
               7
  6
CONTINUOUS
  0
LAYER
  2
LAYER107
 70
               0
 62
               7
  6
CONTINUOUS
  0
LAYER
  2
LAYER108
 70
               0
 62
               7
  6
CONTINUOUS
  0
LAYER
  2
LAYER109
 70
               0
 62
               7
  6
CONTINUOUS
  0
LAYER
  2
LAYER110
 70
               0
 62
               7
  6
CONTINUOUS
  0
LAYER
  2
LAYER111
 70
               0
 62
               7
  6
CONTINUOUS
  0
LAYER
  2
LAYER112
 70
               0
 62
               7
  6
CONTINUOUS
  0
LAYER
  2
LAYER113
 70
               0
 62
               7
  6
CONTINUOUS
  0
LAYER
  2
LAYER114
 70
               0
 62
               7
  6
CONTINUOUS
  0
LAYER
  2
LAYER115
 70
               0
 62
               7
  6
CONTINUOUS
  0
LAYER
  2
LAYER116
 70
               0
 62
               7
  6
CONTINUOUS
  0
LAYER
  2
LAYER117
 70
               0
 62
               7
  6
CONTINUOUS
  0
LAYER
  2
LAYER118
 70
               0
 62
               7
  6
CONTINUOUS
  0
LAYER
  2
LAYER119
 70
               0
 62
               7
  6
CONTINUOUS
  0
LAYER
  2
LAYER120
 70
               0
 62
               7
  6
CONTINUOUS
  0
LAYER
  2
LAYER121
 70
               0
 62
               7
  6
CONTINUOUS
  0
LAYER
  2
LAYER122
 70
               0
 62
               7
  6
CONTINUOUS
  0
LAYER
  2
LAYER123
 70
               0
 62
               7
  6
CONTINUOUS
  0
LAYER
  2
LAYER124
 70
               0
 62
               7
  6
CONTINUOUS
  0
LAYER
  2
LAYER125
 70
               0
 62
               7
  6
CONTINUOUS
  0
LAYER
  2
LAYER126
 70
               0
 62
               7
  6
CONTINUOUS
  0
LAYER
  2
LAYER127
 70
               0
 62
               7
  6
CONTINUOUS
  0
LAYER
  2
LAYER128
 70
               0
 62
               7
  6
CONTINUOUS
  0
LAYER
  2
LAYER129
 70
               0
 62
               7
  6
CONTINUOUS
  0
LAYER
  2
LAYER130
 70
               0
 62
               7
  6
CONTINUOUS
  0
LAYER
  2
LAYER131
 70
               0
 62
               7
  6
CONTINUOUS
  0
LAYER
  2
LAYER132
 70
               0
 62
               7
  6
CONTINUOUS
  0
LAYER
  2
LAYER133
 70
               0
 62
               7
  6
CONTINUOUS
  0
LAYER
  2
LAYER134
 70
               0
 62
               7
  6
CONTINUOUS
  0
LAYER
  2
LAYER135
 70
               0
 62
               7
  6
CONTINUOUS
  0
LAYER
  2
LAYER136
 70
               0
 62
               7
  6
CONTINUOUS
  0
LAYER
  2
LAYER137
 70
               0
 62
               7
  6
CONTINUOUS
  0
LAYER
  2
LAYER138
 70
               0
 62
               7
  6
CONTINUOUS
  0
LAYER
  2
LAYER139
 70
               0
 62
               7
  6
CONTINUOUS
  0
LAYER
  2
LAYER140
 70
               0
 62
               7
  6
CONTINUOUS
  0
LAYER
  2
LAYER141
 70
               0
 62
               7
  6
CONTINUOUS
  0
LAYER
  2
LAYER142
 70
               0
 62
               7
  6
CONTINUOUS
  0
LAYER
  2
LAYER143
 70
               0
 62
               7
  6
CONTINUOUS
  0
LAYER
  2
LAYER144
 70
               0
 62
               7
  6
CONTINUOUS
  0
LAYER
  2
LAYER145
 70
               0
 62
               7
  6
CONTINUOUS
  0
LAYER
  2
LAYER146
 70
               0
 62
               7
  6
CONTINUOUS
  0
LAYER
  2
LAYER147
 70
               0
 62
               7
  6
CONTINUOUS
  0
LAYER
  2
LAYER148
 70
               0
 62
               7
  6
CONTINUOUS
  0
LAYER
  2
LAYER149
 70
               0
 62
               7
  6
CONTINUOUS
  0
LAYER
  2
LAYER150
 70
               0
 62
               7
  6
CONTINUOUS
  0
LAYER
  2
LAYER151
 70
               0
 62
               7
  6
CONTINUOUS
  0
LAYER
  2
LAYER152
 70
               0
 62
               7
  6
CONTINUOUS
  0
LAYER
  2
LAYER153
 70
               0
 62
               7
  6
CONTINUOUS
  0
LAYER
  2
LAYER154
 70
               0
 62
               7
  6
CONTINUOUS
  0
LAYER
  2
LAYER155
 70
               0
 62
               7
  6
CONTINUOUS
  0
LAYER
  2
LAYER156
 70
               0
 62
               7
  6
CONTINUOUS
  0
LAYER
  2
LAYER157
 70
               0
 62
               7
  6
CONTINUOUS
  0
LAYER
  2
LAYER158
 70
               0
 62
               7
  6
CONTINUOUS
  0
LAYER
  2
LAYER159
 70
               0
 62
               7
  6
CONTINUOUS
  0
LAYER
  2
LAYER160
 70
               0
 62
               7
  6
CONTINUOUS
  0
LAYER
  2
LAYER161
 70
               0
 62
               7
  6
CONTINUOUS
  0
LAYER
  2
LAYER162
 70
               0
 62
               7
  6
CONTINUOUS
  0
LAYER
  2
LAYER163
 70
               0
 62
               7
  6
CONTINUOUS
  0
LAYER
  2
LAYER164
 70
               0
 62
               7
  6
CONTINUOUS
  0
LAYER
  2
LAYER165
 70
               0
 62
               7
  6
CONTINUOUS
  0
LAYER
  2
LAYER166
 70
               0
 62
               7
  6
CONTINUOUS
  0
LAYER
  2
LAYER167
 70
               0
 62
               7
  6
CONTINUOUS
  0
LAYER
  2
LAYER168
 70
               0
 62
               7
  6
CONTINUOUS
  0
LAYER
  2
LAYER169
 70
               0
 62
               7
  6
CONTINUOUS
  0
LAYER
  2
LAYER170
 70
               0
 62
               7
  6
CONTINUOUS
  0
LAYER
  2
LAYER171
 70
               0
 62
               7
  6
CONTINUOUS
  0
LAYER
  2
LAYER172
 70
               0
 62
               7
  6
CONTINUOUS
  0
LAYER
  2
LAYER173
 70
               0
 62
               7
  6
CONTINUOUS
  0
LAYER
  2
LAYER174
 70
               0
 62
               7
  6
CONTINUOUS
  0
LAYER
  2
LAYER175
 70
               0
 62
               7
  6
CONTINUOUS
  0
LAYER
  2
LAYER176
 70
               0
 62
               7
  6
CONTINUOUS
  0
LAYER
  2
LAYER177
 70
               0
 62
               7
  6
CONTINUOUS
  0
LAYER
  2
LAYER178
 70
               0
 62
               7
  6
CONTINUOUS
  0
LAYER
  2
LAYER179
 70
               0
 62
               7
  6
CONTINUOUS
  0
LAYER
  2
LAYER180
 70
               0
 62
               7
  6
CONTINUOUS
  0
LAYER
  2
LAYER181
 70
               0
 62
               7
  6
CONTINUOUS
  0
LAYER
  2
LAYER182
 70
               0
 62
               7
  6
CONTINUOUS
  0
LAYER
  2
LAYER183
 70
               0
 62
               7
  6
CONTINUOUS
  0
LAYER
  2
LAYER184
 70
               0
 62
               7
  6
CONTINUOUS
  0
LAYER
  2
LAYER185
 70
               0
 62
               7
  6
CONTINUOUS
  0
LAYER
  2
LAYER186
 70
               0
 62
               7
  6
CONTINUOUS
  0
LAYER
  2
LAYER187
 70
               0
 62
               7
  6
CONTINUOUS
  0
LAYER
  2
LAYER188
 70
               0
 62
               7
  6
CONTINUOUS
  0
LAYER
  2
LAYER189
 70
               0
 62
               7
  6
CONTINUOUS
  0
LAYER
  2
LAYER190
 70
               0
 62
               7
  6
CONTINUOUS
  0
LAYER
  2
LAYER191
 70
               0
 62
               7
  6
CONTINUOUS
  0
LAYER
  2
LAYER192
 70
               0
 62
               7
  6
CONTINUOUS
  0
LAYER
  2
LAYER193
 70
               0
 62
               7
  6
CONTINUOUS
  0
LAYER
  2
LAYER194
 70
               0
 62
               7
  6
CONTINUOUS
  0
LAYER
  2
LAYER195
 70
               0
 62
               7
  6
CONTINUOUS
  0
LAYER
  2
LAYER196
 70
               0
 62
               7
  6
CONTINUOUS
  0
LAYER
  2
LAYER197
 70
               0
 62
               7
  6
CONTINUOUS
  0
LAYER
  2
LAYER198
 70
               0
 62
               7
  6
CONTINUOUS
  0
LAYER
  2
LAYER199
 70
               0
 62
               7
  6
CONTINUOUS
  0
LAYER
  2
LAYER200
 70
               0
 62
               7
  6
CONTINUOUS
  0
LAYER
  2
LAYER201
 70
               0
 62
               7
  6
CONTINUOUS
  0
LAYER
  2
LAYER202
 70
               0
 62
               7
  6
CONTINUOUS
  0
LAYER
  2
LAYER203
 70
               0
 62
               7
  6
CONTINUOUS
  0
LAYER
  2
LAYER204
 70
               0
 62
               7
  6
CONTINUOUS
  0
LAYER
  2
LAYER205
 70
               0
 62
               7
  6
CONTINUOUS
  0
LAYER
  2
LAYER206
 70
               0
 62
               7
  6
CONTINUOUS
  0
LAYER
  2
LAYER207
 70
               0
 62
               7
  6
CONTINUOUS
  0
LAYER
  2
LAYER208
 70
               0
 62
               7
  6
CONTINUOUS
  0
LAYER
  2
LAYER209
 70
               0
 62
               7
  6
CONTINUOUS
  0
LAYER
  2
LAYER210
 70
               0
 62
               7
  6
CONTINUOUS
  0
LAYER
  2
LAYER211
 70
               0
 62
               7
  6
CONTINUOUS
  0
LAYER
  2
LAYER212
 70
               0
 62
               7
  6
CONTINUOUS
  0
LAYER
  2
LAYER213
 70
               0
 62
               7
  6
CONTINUOUS
  0
LAYER
  2
LAYER214
 70
               0
 62
               7
  6
CONTINUOUS
  0
LAYER
  2
LAYER215
 70
               0
 62
               7
  6
CONTINUOUS
  0
LAYER
  2
LAYER216
 70
               0
 62
               7
  6
CONTINUOUS
  0
LAYER
  2
LAYER217
 70
               0
 62
               7
  6
CONTINUOUS
  0
LAYER
  2
LAYER218
 70
               0
 62
               7
  6
CONTINUOUS
  0
LAYER
  2
LAYER219
 70
               0
 62
               7
  6
CONTINUOUS
  0
LAYER
  2
LAYER220
 70
               0
 62
               7
  6
CONTINUOUS
  0
LAYER
  2
LAYER221
 70
               0
 62
               7
  6
CONTINUOUS
  0
LAYER
  2
LAYER222
 70
               0
 62
               7
  6
CONTINUOUS
  0
LAYER
  2
LAYER223
 70
               0
 62
               7
  6
CONTINUOUS
  0
LAYER
  2
LAYER224
 70
               0
 62
               7
  6
CONTINUOUS
  0
LAYER
  2
LAYER225
 70
               0
 62
               7
  6
CONTINUOUS
  0
LAYER
  2
LAYER226
 70
               0
 62
               7
  6
CONTINUOUS
  0
LAYER
  2
LAYER227
 70
               0
 62
               7
  6
CONTINUOUS
  0
LAYER
  2
LAYER228
 70
               0
 62
               7
  6
CONTINUOUS
  0
LAYER
  2
LAYER229
 70
               0
 62
               7
  6
CONTINUOUS
  0
LAYER
  2
LAYER230
 70
               0
 62
               7
  6
CONTINUOUS
  0
LAYER
  2
LAYER231
 70
               0
 62
               7
  6
CONTINUOUS
  0
LAYER
  2
LAYER232
 70
               0
 62
               7
  6
CONTINUOUS
  0
LAYER
  2
LAYER233
 70
               0
 62
               7
  6
CONTINUOUS
  0
LAYER
  2
LAYER234
 70
               0
 62
               7
  6
CONTINUOUS
  0
LAYER
  2
LAYER235
 70
               0
 62
               7
  6
CONTINUOUS
  0
LAYER
  2
LAYER236
 70
               0
 62
               7
  6
CONTINUOUS
  0
LAYER
  2
LAYER237
 70
               0
 62
               7
  6
CONTINUOUS
  0
LAYER
  2
LAYER238
 70
               0
 62
               7
  6
CONTINUOUS
  0
LAYER
  2
LAYER239
 70
               0
 62
               7
  6
CONTINUOUS
  0
LAYER
  2
LAYER240
 70
               0
 62
               7
  6
CONTINUOUS
  0
LAYER
  2
LAYER241
 70
               0
 62
               7
  6
CONTINUOUS
  0
LAYER
  2
LAYER242
 70
               0
 62
               7
  6
CONTINUOUS
  0
LAYER
  2
LAYER243
 70
               0
 62
               7
  6
CONTINUOUS
  0
LAYER
  2
LAYER244
 70
               0
 62
               7
  6
CONTINUOUS
  0
LAYER
  2
LAYER245
 70
               0
 62
               7
  6
CONTINUOUS
  0
LAYER
  2
LAYER246
 70
               0
 62
               7
  6
CONTINUOUS
  0
LAYER
  2
LAYER247
 70
               0
 62
               7
  6
CONTINUOUS
  0
LAYER
  2
LAYER248
 70
               0
 62
               7
  6
CONTINUOUS
  0
LAYER
  2
LAYER249
 70
               0
 62
               7
  6
CONTINUOUS
  0
LAYER
  2
LAYER250
 70
               0
 62
               7
  6
CONTINUOUS
  0
LAYER
  2
LAYER251
 70
               0
 62
               7
  6
CONTINUOUS
  0
LAYER
  2
LAYER252
 70
               0
 62
               7
  6
CONTINUOUS
  0
LAYER
  2
LAYER253
 70
               0
 62
               7
  6
CONTINUOUS
  0
LAYER
  2
LAYER254
 70
               0
 62
               7
  6
CONTINUOUS
  0
LAYER
  2
LAYER255
 70
               0
 62
               7
  6
CONTINUOUS
  0
ENDTAB
  0
TABLE
  2
STYLE
 70
               1
  0
STYLE
  2
STANDARD
 70
               0
 40
0.0
 41
1.0
 50
0.0
 71
               0
 42
0.0
  3
txt
  4

  0
ENDTAB
  0
TABLE
  2
VIEW
 70
               0
  0
VIEW
  2
QQQQ
 70
               0
 40
313.75171341719874
 10
25.085941804395219
 20
30.493907908560701
 41
346.42468800931056
 11
0.0
 21
0.0
 31
1.0
 12
100.0
 22
100.0
 32
0.0
 42
50.0
 43
0.0
 44
0.0
 50
0.0
 71
               0
  0
ENDTAB
  0
TABLE
  2
UCS
 70
               0
  0
ENDTAB
  0
TABLE
  2
APPID
 70
               1
  0
APPID
  2
ACAD
 70
               0
  0
ENDTAB
  0
TABLE
  2
DIMSTYLE
 70
               1
  0
DIMSTYLE
  2
STANDARD
 70
               0
  3

  4

  5

  6

  7

 40
1.0
 41
0.18
 42
0.0625
 43
0.38
 44
0.18
 45
0.0
 46
0.0
 47
0.0
 48
0.0
140
0.18
141
0.09
142
0.0
143
25.399999999999999
144
1.0
145
0.0
146
1.0
147
0.09
 71
               0
 72
               0
 73
               1
 74
               1
 75
               0
 76
               0
 77
               0
 78
               0
170
               0
171
               2
172
               0
173
               0
174
               0
175
               0
176
               0
177
               0
178
               0
  0
ENDTAB
  0
ENDSEC
  0
SECTION
  2
BLOCKS
  0
ENDSEC
  0
SECTION
  2
ENTITIES
  0
LINE
  8
LAYER001
  6
DASHDOT
 62
               4
  5
136
 10
-131.66731068850549
 20
-1.2542751161686165
 30
0.0
 11
88.732682804221625
 21
-1.2542751161686192
 31
0.0
  0
LINE
  8
LAYER001
  6
DASHDOT
 62
               4
  5
137
 10
-21.467313942141942
 20
172.4630090023158
 30
0.0
 11
-21.467313942141942
 21
-111.45427186253218
 31
0.0
  0
LINE
  8
LAYER001
  6
DASHDOT
 62
               4
  5
138
 10
112.83246897576885
 20
-1.2542751161686165
 30
0.0
 11
181.83919429729593
 21
-1.2542751161686199
 31
0.0
  0
LINE
  8
LAYER001
  6
DASHDOT
 62
               4
  5
139
 10
114.83293279104652
 20
102.43031987271607
 30
0.0
 11
179.83873048201775
 21
102.43031987271607
 31
0.0
  0
LINE
  8
LAYER001
  6
DASHED
 62
               4
  5
13A
 10
134.83293279104652
 20
88.698475036177541
 30
0.0
 11
134.83293279104652
 21
-88.474497462277554
 31
0.0
  0
LINE
  8
LAYER001
  6
DASHED
 62
               4
  5
13B
 10
159.83873048201775
 20
88.698475036177541
 30
0.0
 11
159.83873048201775
 21
-88.474497462277554
 31
0.0
  0
LINE
  8
LAYER001
  6
DASHED
 62
               4
  5
13C
 10
134.83293279104652
 20
-88.474497462277554
 30
0.0
 11
139.83583163653313
 21
-88.474497462277554
 31
0.0
  0
LINE
  8
LAYER001
  6
DASHED
 62
               4
  5
13D
 10
154.77979797979796
 20
-88.474497462277554
 30
0.0
 11
159.83873048201775
 21
-88.474497462277554
 31
0.0
  0
LINE
  8
LAYER001
  6
CONTINUOUS
 62
               3
  5
13E
 10
-24.582259606133185
 20
91.427768888688746
 30
0.0
 11
-22.981888553910913
 21
91.427768888688746
 31
0.0
  0
LINE
  8
LAYER001
  6
CONTINUOUS
 62
               3
  5
13F
 10
-19.981192830994118
 20
91.427768888688746
 30
0.0
 11
-18.38082177877185
 21
91.427768888688746
 31
0.0
  0
LINE
  8
LAYER001
  6
CONTINUOUS
 62
               3
  5
140
 10
-28.446110085804769
 20
136.89183813527319
 30
0.0
 11
-32.484046296943433
 21
136.89183813527319
 31
0.0
  0
LINE
  8
LAYER001
  6
CONTINUOUS
 62
               3
  5
141
 10
-28.446110085804769
 20
136.89183813527319
 30
0.0
 11
-28.446110085804769
 21
130.0581835613838
 31
0.0
  0
LINE
  8
LAYER001
  6
CONTINUOUS
 62
               3
  5
142
 10
-14.516880540026541
 20
136.89183813527319
 30
0.0
 11
-10.478944328888502
 21
136.89183813527319
 31
0.0
  0
LINE
  8
LAYER001
  6
CONTINUOUS
 62
               3
  5
143
 10
-14.516880540026541
 20
136.89183813527319
 30
0.0
 11
-14.516880540026541
 21
130.05818356138323
 31
0.0
  0
LINE
  8
LAYER001
  6
CONTINUOUS
 62
               3
  5
144
 10
-22.981888553910913
 20
91.427768888688746
 30
0.0
 11
-22.981888553910913
 21
124.59441536464766
 31
0.0
  0
LINE
  8
LAYER001
  6
CONTINUOUS
 62
               3
  5
145
 10
-31.483462342518123
 20
131.81097690014568
 30
0.0
 11
-24.983056462760914
 21
128.05972674465184
 31
0.0
  0
LINE
  8
LAYER001
  6
CONTINUOUS
 62
               3
  5
146
 10
-32.484046296943433
 20
133.54363259014721
 30
0.0
 11
-32.484046296943433
 21
139.80351321840976
 31
0.0
  0
LINE
  8
LAYER001
  6
CONTINUOUS
 62
               3
  5
147
 10
-31.483814389304293
 20
140.80374512604837
 30
0.0
 11
-11.479176236527007
 21
140.80374512604837
 31
0.0
  0
LINE
  8
LAYER001
  6
CONTINUOUS
 62
               3
  5
148
 10
-10.478944328888502
 20
139.80351321840976
 30
0.0
 11
-10.478944328888502
 21
133.54363259014721
 31
0.0
  0
LINE
  8
LAYER001
  6
CONTINUOUS
 62
               3
  5
149
 10
-11.47952828331319
 20
131.81097690014511
 30
0.0
 11
-17.980024922143468
 21
128.05967436946236
 31
0.0
  0
LINE
  8
LAYER001
  6
CONTINUOUS
 62
               3
  5
14A
 10
-19.981192830994118
 20
124.59436298945815
 30
0.0
 11
-19.981192830994118
 21
91.427768888688746
 31
0.0
  0
LINE
  8
LAYER001
  6
CONTINUOUS
 62
               3
  5
14B
 10
-17.980683636179911
 20
150.99555313618015
 30
0.0
 11
-17.980683636179911
 21
142.40411617827129
 31
0.0
  0
LINE
  8
LAYER001
  6
CONTINUOUS
 62
               3
  5
14C
 10
-24.982306989652052
 20
150.99555313618015
 30
0.0
 11
-24.982306989652052
 21
142.40411617827129
 31
0.0
  0
LINE
  8
LAYER001
  6
CONTINUOUS
 62
               3
  5
14D
 10
-14.579895150207673
 20
142.40411617827067
 30
0.0
 11
-14.579895150207673
 21
151.24561111308984
 31
0.0
  0
LINE
  8
LAYER001
  6
CONTINUOUS
 62
               3
  5
14E
 10
-28.38309547562428
 20
142.40411617827067
 30
0.0
 11
-28.38309547562428
 21
151.24561111308984
 31
0.0
  0
LINE
  8
LAYER001
  6
CONTINUOUS
 62
               3
  5
14F
 10
-27.516869233933036
 20
151.74572706690924
 30
0.0
 11
-15.446121391898878
 21
151.74572706690924
 31
0.0
  0
LINE
  8
LAYER001
  6
CONTINUOUS
 62
               3
  5
150
 10
-14.579895150207673
 20
151.24561111308984
 30
0.0
 11
-15.446121391898878
 21
151.74572706690924
 31
0.0
  0
LINE
  8
LAYER001
  6
CONTINUOUS
 62
               3
  5
151
 10
-28.38309547562428
 20
151.24561111308984
 30
0.0
 11
-27.516869233933036
 21
151.74572706690924
 31
0.0
  0
LINE
  8
LAYER001
  6
CONTINUOUS
 62
               3
  5
152
 10
-11.479176236527007
 20
140.80374512604837
 30
0.0
 11
-31.483814389304293
 21
140.80374512604837
 31
0.0
  0
LINE
  8
LAYER001
  6
CONTINUOUS
 62
               3
  5
153
 10
-11.479176236527007
 20
140.80374512604837
 30
0.0
 11
-11.479176236527007
 21
137.80304940313221
 31
0.0
  0
LINE
  8
LAYER001
  6
CONTINUOUS
 62
               3
  5
154
 10
-31.483814389304293
 20
140.80374512604837
 30
0.0
 11
-31.483814389304293
 21
137.80304940313221
 31
0.0
  0
LINE
  8
LAYER001
  6
CONTINUOUS
 62
               3
  5
155
 10
-11.479176236527007
 20
137.80304940313221
 30
0.0
 11
-31.483814389304293
 21
137.80304940313221
 31
0.0
  0
LINE
  8
LAYER001
  6
CONTINUOUS
 62
               3
  5
156
 10
-16.780450726550232
 20
114.93321871820203
 30
0.0
 11
-18.38082177877185
 21
114.93321871820203
 31
0.0
  0
LINE
  8
LAYER001
  6
CONTINUOUS
 62
               3
  5
157
 10
-24.582259606133185
 20
114.9332187182026
 30
0.0
 11
-26.182630658355443
 21
114.9332187182026
 31
0.0
  0
LINE
  8
LAYER001
  6
CONTINUOUS
 62
               3
  5
158
 10
-26.182630658355443
 20
110.92879286462372
 30
0.0
 11
-24.582259606133185
 21
110.92879286462372
 31
0.0
  0
LINE
  8
LAYER001
  6
CONTINUOUS
 62
               3
  5
159
 10
-18.38082177877185
 20
110.92879286462372
 30
0.0
 11
-16.780450726550232
 21
110.92879286462372
 31
0.0
  0
LINE
  8
LAYER001
  6
CONTINUOUS
 62
               3
  5
15A
 10
159.83873048201775
 20
110.92725738157151
 30
0.0
 11
159.83873048201775
 21
88.698475036177541
 31
0.0
  0
LINE
  8
LAYER001
  6
CONTINUOUS
 62
               3
  5
15B
 10
134.83293279104652
 20
110.93032794899082
 30
0.0
 11
134.83293279104652
 21
88.698475036177541
 31
0.0
  0
LINE
  8
LAYER001
  6
CONTINUOUS
 62
               3
  5
15C
 10
139.83583163653313
 20
86.729133720782812
 30
0.0
 11
154.83583163653313
 21
86.729133720782812
 31
0.0
  0
LINE
  8
LAYER001
  6
CONTINUOUS
 62
               3
  5
15D
 10
139.83583163653313
 20
-88.474497462277554
 30
0.0
 11
154.77979797979796
 21
-88.474497462277554
 31
0.0
  0
LINE
  8
LAYER001
  6
CONTINUOUS
 62
               3
  5
15E
 10
161.83919429729593
 20
-91.475193185194399
 30
0.0
 11
154.83583163653313
 21
-91.475193185194399
 31
0.0
  0
LINE
  8
LAYER001
  6
CONTINUOUS
 62
               3
  5
15F
 10
139.83583163653313
 20
-91.475193185194399
 30
0.0
 11
132.83246897576885
 21
-91.475193185194399
 31
0.0
  0
LINE
  8
LAYER001
  6
CONTINUOUS
 62
               3
  5
160
 10
159.83873048201895
 20
142.40411617827067
 30
0.0
 11
159.83873048201895
 21
108.86947868850569
 31
0.0
  0
LINE
  8
LAYER001
  6
CONTINUOUS
 62
               3
  5
161
 10
134.83293279104731
 20
142.40411617827067
 30
0.0
 11
134.83293279104731
 21
108.87254925592501
 31
0.0
  0
LINE
  8
LAYER001
  6
CONTINUOUS
 62
               3
  5
162
 10
134.83293279104731
 20
142.40411617827067
 30
0.0
 11
159.83873048201895
 21
142.40411617827067
 31
0.0
  0
LINE
  8
LAYER001
  6
CONTINUOUS
 62
               3
  5
163
 10
144.33518129315149
 20
136.99186132603725
 30
0.0
 11
150.3365727389853
 21
136.99186132603725
 31
0.0
  0
LINE
  8
LAYER001
  6
CONTINUOUS
 62
               3
  5
164
 10
134.83293279104731
 20
124.39994184077116
 30
0.0
 11
159.83873048201895
 21
124.39994184077116
 31
0.0
  0
LINE
  8
LAYER001
  6
CONTINUOUS
 62
               3
  5
165
 10
144.33518129315149
 20
131.8316649145282
 30
0.0
 11
144.33518129315149
 21
133.83212872980602
 31
0.0
  0
LINE
  8
LAYER001
  6
CONTINUOUS
 62
               3
  5
166
 10
144.33518129315149
 20
136.99186132603725
 30
0.0
 11
144.33518129315149
 21
131.8316649145282
 31
0.0
  0
LINE
  8
LAYER001
  6
CONTINUOUS
 62
               3
  5
167
 10
148.33610892370808
 20
129.83120109925062
 30
0.0
 11
146.3356451084299
 21
129.83120109925062
 31
0.0
  0
LINE
  8
LAYER001
  6
CONTINUOUS
 62
               3
  5
168
 10
134.83293279104731
 20
132.40179710188232
 30
0.0
 11
144.33518129315149
 21
132.40179710188232
 31
0.0
  0
LINE
  8
LAYER001
  6
CONTINUOUS
 62
               3
  5
169
 10
150.3365727389853
 20
133.83212872980602
 30
0.0
 11
150.3365727389853
 21
131.8316649145282
 31
0.0
  0
LINE
  8
LAYER001
  6
CONTINUOUS
 62
               3
  5
16A
 10
150.3365727389853
 20
136.99186132603725
 30
0.0
 11
150.3365727389853
 21
131.8316649145282
 31
0.0
  0
LINE
  8
LAYER001
  6
CONTINUOUS
 62
               3
  5
16B
 10
150.3365727389853
 20
132.40179710188232
 30
0.0
 11
159.83873048201895
 21
132.40179710188232
 31
0.0
  0
LINE
  8
LAYER001
  6
CONTINUOUS
 62
               3
  5
16C
 10
141.33444019069941
 20
151.01126570747095
 30
0.0
 11
141.33444019069941
 21
142.40411617827067
 31
0.0
  0
LINE
  8
LAYER001
  6
CONTINUOUS
 62
               3
  5
16D
 10
142.60694931843966
 20
151.74572705131462
 30
0.0
 11
141.33339457925484
 21
151.01066220595564
 31
0.0
  0
LINE
  8
LAYER001
  6
CONTINUOUS
 62
               3
  5
16E
 10
153.33722308236599
 20
151.01110418316154
 30
0.0
 11
153.33722308236599
 21
142.40411617827067
 31
0.0
  0
LINE
  8
LAYER001
  6
CONTINUOUS
 62
               3
  5
16F
 10
147.33583163653236
 20
151.01018554764099
 30
0.0
 11
147.33583163653236
 21
142.40411617827067
 31
0.0
  0
LINE
  8
LAYER001
  6
CONTINUOUS
 62
               3
  5
170
 10
153.33722308236599
 20
151.01110418316154
 30
0.0
 11
152.06471395462518
 21
151.74572705131462
 31
0.0
  0
LINE
  8
LAYER001
  6
CONTINUOUS
 62
               3
  5
171
 10
142.60694931843966
 20
151.74572705131462
 30
0.0
 11
152.06471395462518
 21
151.74572705131462
 31
0.0
  0
LINE
  8
LAYER001
  6
CONTINUOUS
 62
               3
  5
172
 10
161.83919429729593
 20
88.698475036177541
 30
0.0
 11
161.83919429729593
 21
-91.475193185194399
 31
0.0
  0
LINE
  8
LAYER001
  6
CONTINUOUS
 62
               3
  5
173
 10
132.83246897576885
 20
88.698475036177541
 30
0.0
 11
132.83246897576885
 21
-91.475193185194399
 31
0.0
  0
LINE
  8
LAYER001
  6
CONTINUOUS
 62
               3
  5
174
 10
-16.780450726549606
 20
87.69263250032769
 30
0.0
 11
-16.780450726550232
 21
114.93321871820203
 31
0.0
  0
LINE
  8
LAYER001
  6
CONTINUOUS
 62
               3
  5
175
 10
-26.182630658355443
 20
87.69048884215843
 30
0.0
 11
-26.182630658355443
 21
114.9332187182026
 31
0.0
  0
LINE
  8
LAYER001
  6
CONTINUOUS
 62
               3
  5
176
 10
-18.38082177877185
 20
124.88317282145775
 30
0.0
 11
-18.38082177877185
 21
87.692660394565877
 31
0.0
  0
LINE
  8
LAYER001
  6
CONTINUOUS
 62
               3
  5
177
 10
-10.929770383237269
 20
130.28049825764242
 30
0.0
 11
-17.430267022068172
 21
126.52919572695984
 31
0.0
  0
LINE
  8
LAYER001
  6
CONTINUOUS
 62
               3
  5
178
 10
-8.8785732766662306
 20
139.30339726459059
 30
0.0
 11
-8.8785732766662306
 21
133.83244242214678
 31
0.0
  0
LINE
  8
LAYER001
  6
CONTINUOUS
 62
               3
  5
179
 10
-30.983698435485039
 20
142.40411617827067
 30
0.0
 11
-11.979292190346271
 21
142.40411617827067
 31
0.0
  0
LINE
  8
LAYER001
  6
CONTINUOUS
 62
               3
  5
17A
 10
-34.084417349165705
 20
133.83244242214741
 30
0.0
 11
-34.084417349165705
 21
139.30339726459059
 31
0.0
  0
LINE
  8
LAYER001
  6
CONTINUOUS
 62
               3
  5
17B
 10
-32.033220242594055
 20
130.28049825764322
 30
0.0
 11
-25.532814362836859
 21
126.52924810214938
 31
0.0
  0
LINE
  8
LAYER001
  6
CONTINUOUS
 62
               3
  5
17C
 10
-24.582259606133185
 20
87.690516855768763
 30
0.0
 11
-24.582259606133185
 21
124.88322519664706
 31
0.0
  0
LINE
  8
LAYER001
  6
CONTINUOUS
 62
               3
  5
17D
 10
-13.016532678568119
 20
136.89183813527319
 30
0.0
 11
-13.016532678568119
 21
130.92400336597728
 31
0.0
  0
LINE
  8
LAYER001
  6
CONTINUOUS
 62
               3
  5
17E
 10
-29.946457947263198
 20
136.89183813527319
 30
0.0
 11
-29.946457947263198
 21
130.92400336597728
 31
0.0
  0
LINE
  8
LAYER001
  6
CONTINUOUS
 62
               3
  5
17F
 10
-32.484046296943433
 20
133.54363259014721
 30
0.0
 11
-32.48293318366369
 21
133.47678288984798
 31
0.0
  0
LINE
  8
LAYER001
  6
CONTINUOUS
 62
               3
  5
180
 10
-32.48293318366369
 20
133.47678288984798
 30
0.0
 11
-32.479611389696949
 21
133.41029706779869
 31
0.0
  0
LINE
  8
LAYER001
  6
CONTINUOUS
 62
               3
  5
181
 10
-32.479611389696949
 20
133.41029706779869
 30
0.0
 11
-32.474107233851903
 21
133.34422069881956
 31
0.0
  0
LINE
  8
LAYER001
  6
CONTINUOUS
 62
               3
  5
182
 10
-32.474107233851903
 20
133.34422069881956
 30
0.0
 11
-32.46644703493731
 21
133.27859935773043
 31
0.0
  0
LINE
  8
LAYER001
  6
CONTINUOUS
 62
               3
  5
183
 10
-32.46644703493731
 20
133.27859935773043
 30
0.0
 11
-32.456657111761871
 21
133.21347861935163
 31
0.0
  0
LINE
  8
LAYER001
  6
CONTINUOUS
 62
               3
  5
184
 10
-32.456657111761871
 20
133.21347861935163
 30
0.0
 11
-32.444763783134341
 21
133.14890405850309
 31
0.0
  0
LINE
  8
LAYER001
  6
CONTINUOUS
 62
               3
  5
185
 10
-32.444763783134341
 20
133.14890405850309
 30
0.0
 11
-32.430793367863437
 21
133.08492125000495
 31
0.0
  0
LINE
  8
LAYER001
  6
CONTINUOUS
 62
               3
  5
186
 10
-32.430793367863437
 20
133.08492125000495
 30
0.0
 11
-32.414772184757879
 21
133.02157576867725
 31
0.0
  0
LINE
  8
LAYER001
  6
CONTINUOUS
 62
               3
  5
187
 10
-32.414772184757879
 20
133.02157576867725
 30
0.0
 11
-32.39672655262639
 21
132.95891318934014
 31
0.0
  0
LINE
  8
LAYER001
  6
CONTINUOUS
 62
               3
  5
188
 10
-32.39672655262639
 20
132.95891318934014
 30
0.0
 11
-32.376682790277734
 21
132.89697908681359
 31
0.0
  0
LINE
  8
LAYER001
  6
CONTINUOUS
 62
               3
  5
189
 10
-32.376682790277734
 20
132.89697908681359
 30
0.0
 11
-32.354667216520554
 21
132.83581903591767
 31
0.0
  0
LINE
  8
LAYER001
  6
CONTINUOUS
 62
               3
  5
18A
 10
-32.354667216520554
 20
132.83581903591767
 30
0.0
 11
-32.330706150163664
 21
132.77547861147249
 31
0.0
  0
LINE
  8
LAYER001
  6
CONTINUOUS
 62
               3
  5
18B
 10
-32.330706150163664
 20
132.77547861147249
 30
0.0
 11
-32.304825910015758
 21
132.71600338829828
 31
0.0
  0
LINE
  8
LAYER001
  6
CONTINUOUS
 62
               3
  5
18C
 10
-32.304825910015758
 20
132.71600338829828
 30
0.0
 11
-32.277052814885565
 21
132.65743894121479
 31
0.0
  0
LINE
  8
LAYER001
  6
CONTINUOUS
 62
               3
  5
18D
 10
-32.277052814885565
 20
132.65743894121479
 30
0.0
 11
-32.247413183581791
 21
132.59983084504242
 31
0.0
  0
LINE
  8
LAYER001
  6
CONTINUOUS
 62
               3
  5
18E
 10
-32.247413183581791
 20
132.59983084504242
 30
0.0
 11
-32.215933334913181
 21
132.54322467460108
 31
0.0
  0
LINE
  8
LAYER001
  6
CONTINUOUS
 62
               3
  5
18F
 10
-32.215933334913181
 20
132.54322467460108
 30
0.0
 11
-32.182639587688456
 21
132.48766600471083
 31
0.0
  0
LINE
  8
LAYER001
  6
CONTINUOUS
 62
               3
  5
190
 10
-32.182639587688456
 20
132.48766600471083
 30
0.0
 11
-32.147558260716352
 21
132.4332004101918
 31
0.0
  0
LINE
  8
LAYER001
  6
CONTINUOUS
 62
               3
  5
191
 10
-32.147558260716352
 20
132.4332004101918
 30
0.0
 11
-32.110715672805583
 21
132.37987346586411
 31
0.0
  0
LINE
  8
LAYER001
  6
CONTINUOUS
 62
               3
  5
192
 10
-32.110715672805583
 20
132.37987346586411
 30
0.0
 11
-32.072138142764878
 21
132.32773074654773
 31
0.0
  0
LINE
  8
LAYER001
  6
CONTINUOUS
 62
               3
  5
193
 10
-32.072138142764878
 20
132.32773074654773
 30
0.0
 11
-32.031851989402981
 21
132.27681782706281
 31
0.0
  0
LINE
  8
LAYER001
  6
CONTINUOUS
 62
               3
  5
194
 10
-32.031851989402981
 20
132.27681782706281
 30
0.0
 11
-31.989883531528591
 21
132.2271802822294
 31
0.0
  0
LINE
  8
LAYER001
  6
CONTINUOUS
 62
               3
  5
195
 10
-31.989883531528591
 20
132.2271802822294
 30
0.0
 11
-31.94625908795043
 21
132.17886368686757
 31
0.0
  0
LINE
  8
LAYER001
  6
CONTINUOUS
 62
               3
  5
196
 10
-31.94625908795043
 20
132.17886368686757
 30
0.0
 11
-31.901004977477271
 21
132.1319136157974
 31
0.0
  0
LINE
  8
LAYER001
  6
CONTINUOUS
 62
               3
  5
197
 10
-31.901004977477271
 20
132.1319136157974
 30
0.0
 11
-31.854147518917806
 21
132.08637564383898
 31
0.0
  0
LINE
  8
LAYER001
  6
CONTINUOUS
 62
               3
  5
198
 10
-31.854147518917806
 20
132.08637564383898
 30
0.0
 11
-31.805713031080764
 21
132.04229534581239
 31
0.0
  0
LINE
  8
LAYER001
  6
CONTINUOUS
 62
               3
  5
199
 10
-31.805713031080764
 20
132.04229534581239
 30
0.0
 11
-31.755727832774873
 21
131.99971829653762
 31
0.0
  0
LINE
  8
LAYER001
  6
CONTINUOUS
 62
               3
  5
19A
 10
-31.755727832774873
 20
131.99971829653762
 30
0.0
 11
-31.704218242808849
 21
131.9586900708349
 31
0.0
  0
LINE
  8
LAYER001
  6
CONTINUOUS
 62
               3
  5
19B
 10
-31.704218242808849
 20
131.9586900708349
 30
0.0
 11
-31.651210579991456
 21
131.91925624352425
 31
0.0
  0
LINE
  8
LAYER001
  6
CONTINUOUS
 62
               3
  5
19C
 10
-31.651210579991456
 20
131.91925624352425
 30
0.0
 11
-31.596731163131366
 21
131.88146238942562
 31
0.0
  0
LINE
  8
LAYER001
  6
CONTINUOUS
 62
               3
  5
19D
 10
-31.596731163131366
 20
131.88146238942562
 30
0.0
 11
-31.54080631103735
 21
131.84535408335921
 31
0.0
  0
LINE
  8
LAYER001
  6
CONTINUOUS
 62
               3
  5
19E
 10
-31.54080631103735
 20
131.84535408335921
 30
0.0
 11
-31.483462342518123
 21
131.81097690014511
 31
0.0
  0
LINE
  8
LAYER001
  6
CONTINUOUS
 62
               3
  5
19F
 10
-11.47952828331319
 20
131.81097690014511
 30
0.0
 11
-11.422184314793959
 21
131.84535408335921
 31
0.0
  0
LINE
  8
LAYER001
  6
CONTINUOUS
 62
               3
  5
1A0
 10
-11.422184314793959
 20
131.84535408335921
 30
0.0
 11
-11.366259462699919
 21
131.88146238942562
 31
0.0
  0
LINE
  8
LAYER001
  6
CONTINUOUS
 62
               3
  5
1A1
 10
-11.366259462699919
 20
131.88146238942562
 30
0.0
 11
-11.311780045839885
 21
131.91925624352419
 31
0.0
  0
LINE
  8
LAYER001
  6
CONTINUOUS
 62
               3
  5
1A2
 10
-11.311780045839885
 20
131.91925624352419
 30
0.0
 11
-11.258772383022464
 21
131.95869007083485
 31
0.0
  0
LINE
  8
LAYER001
  6
CONTINUOUS
 62
               3
  5
1A3
 10
-11.258772383022464
 20
131.95869007083485
 30
0.0
 11
-11.207262793056501
 21
131.99971829653757
 31
0.0
  0
LINE
  8
LAYER001
  6
CONTINUOUS
 62
               3
  5
1A4
 10
-11.207262793056501
 20
131.99971829653757
 30
0.0
 11
-11.157277594750592
 21
132.04229534581233
 31
0.0
  0
LINE
  8
LAYER001
  6
CONTINUOUS
 62
               3
  5
1A5
 10
-11.157277594750592
 20
132.04229534581233
 30
0.0
 11
-11.108843106913593
 21
132.08637564383898
 31
0.0
  0
LINE
  8
LAYER001
  6
CONTINUOUS
 62
               3
  5
1A6
 10
-11.108843106913593
 20
132.08637564383898
 30
0.0
 11
-11.061985648354099
 21
132.13191361579729
 31
0.0
  0
LINE
  8
LAYER001
  6
CONTINUOUS
 62
               3
  5
1A7
 10
-11.061985648354099
 20
132.13191361579729
 30
0.0
 11
-11.016731537880993
 21
132.17886368686746
 31
0.0
  0
LINE
  8
LAYER001
  6
CONTINUOUS
 62
               3
  5
1A8
 10
-11.016731537880993
 20
132.17886368686746
 30
0.0
 11
-10.973107094302868
 21
132.22718028222928
 31
0.0
  0
LINE
  8
LAYER001
  6
CONTINUOUS
 62
               3
  5
1A9
 10
-10.973107094302868
 20
132.22718028222928
 30
0.0
 11
-10.931138636428493
 21
132.2768178270627
 31
0.0
  0
LINE
  8
LAYER001
  6
CONTINUOUS
 62
               3
  5
1AA
 10
-10.931138636428493
 20
132.2768178270627
 30
0.0
 11
-10.890852483066631
 21
132.32773074654762
 31
0.0
  0
LINE
  8
LAYER001
  6
CONTINUOUS
 62
               3
  5
1AB
 10
-10.890852483066631
 20
132.32773074654762
 30
0.0
 11
-10.852274953025972
 21
132.37987346586394
 31
0.0
  0
LINE
  8
LAYER001
  6
CONTINUOUS
 62
               3
  5
1AC
 10
-10.852274953025972
 20
132.37987346586394
 30
0.0
 11
-10.815432365115218
 21
132.43320041019163
 31
0.0
  0
LINE
  8
LAYER001
  6
CONTINUOUS
 62
               3
  5
1AD
 10
-10.815432365115218
 20
132.43320041019163
 30
0.0
 11
-10.780351038143166
 21
132.48766600471066
 31
0.0
  0
LINE
  8
LAYER001
  6
CONTINUOUS
 62
               3
  5
1AE
 10
-10.780351038143166
 20
132.48766600471066
 30
0.0
 11
-10.747057290918448
 21
132.54322467460079
 31
0.0
  0
LINE
  8
LAYER001
  6
CONTINUOUS
 62
               3
  5
1AF
 10
-10.747057290918448
 20
132.54322467460079
 30
0.0
 11
-10.715577442249877
 21
132.59983084504219
 31
0.0
  0
LINE
  8
LAYER001
  6
CONTINUOUS
 62
               3
  5
1B0
 10
-10.715577442249877
 20
132.59983084504219
 30
0.0
 11
-10.685937810946115
 21
132.65743894121462
 31
0.0
  0
LINE
  8
LAYER001
  6
CONTINUOUS
 62
               3
  5
1B1
 10
-10.685937810946115
 20
132.65743894121462
 30
0.0
 11
-10.658164715815953
 21
132.71600338829799
 31
0.0
  0
LINE
  8
LAYER001
  6
CONTINUOUS
 62
               3
  5
1B2
 10
-10.658164715815953
 20
132.71600338829799
 30
0.0
 11
-10.632284475668072
 21
132.77547861147227
 31
0.0
  0
LINE
  8
LAYER001
  6
CONTINUOUS
 62
               3
  5
1B3
 10
-10.632284475668072
 20
132.77547861147227
 30
0.0
 11
-10.608323409311215
 21
132.83581903591744
 31
0.0
  0
LINE
  8
LAYER001
  6
CONTINUOUS
 62
               3
  5
1B4
 10
-10.608323409311215
 20
132.83581903591744
 30
0.0
 11
-10.586307835554059
 21
132.8969790868133
 31
0.0
  0
LINE
  8
LAYER001
  6
CONTINUOUS
 62
               3
  5
1B5
 10
-10.586307835554059
 20
132.8969790868133
 30
0.0
 11
-10.566264073205407
 21
132.95891318933991
 31
0.0
  0
LINE
  8
LAYER001
  6
CONTINUOUS
 62
               3
  5
1B6
 10
-10.566264073205407
 20
132.95891318933991
 30
0.0
 11
-10.548218441073956
 21
133.02157576867702
 31
0.0
  0
LINE
  8
LAYER001
  6
CONTINUOUS
 62
               3
  5
1B7
 10
-10.548218441073956
 20
133.02157576867702
 30
0.0
 11
-10.532197257968427
 21
133.08492125000478
 31
0.0
  0
LINE
  8
LAYER001
  6
CONTINUOUS
 62
               3
  5
1B8
 10
-10.532197257968427
 20
133.08492125000478
 30
0.0
 11
-10.51822684269753
 21
133.14890405850292
 31
0.0
  0
LINE
  8
LAYER001
  6
CONTINUOUS
 62
               3
  5
1B9
 10
-10.51822684269753
 20
133.14890405850292
 30
0.0
 11
-10.506333514070025
 21
133.21347861935141
 31
0.0
  0
LINE
  8
LAYER001
  6
CONTINUOUS
 62
               3
  5
1BA
 10
-10.506333514070025
 20
133.21347861935141
 30
0.0
 11
-10.496543590894628
 21
133.27859935773031
 31
0.0
  0
LINE
  8
LAYER001
  6
CONTINUOUS
 62
               3
  5
1BB
 10
-10.496543590894628
 20
133.27859935773031
 30
0.0
 11
-10.488883391980018
 21
133.34422069881938
 31
0.0
  0
LINE
  8
LAYER001
  6
CONTINUOUS
 62
               3
  5
1BC
 10
-10.488883391980018
 20
133.34422069881938
 30
0.0
 11
-10.483379236134994
 21
133.41029706779858
 31
0.0
  0
LINE
  8
LAYER001
  6
CONTINUOUS
 62
               3
  5
1BD
 10
-10.483379236134994
 20
133.41029706779858
 30
0.0
 11
-10.480057442168231
 21
133.47678288984793
 31
0.0
  0
LINE
  8
LAYER001
  6
CONTINUOUS
 62
               3
  5
1BE
 10
-10.480057442168231
 20
133.47678288984793
 30
0.0
 11
-10.478944328888502
 21
133.54363259014721
 31
0.0
  0
LINE
  8
LAYER001
  6
CONTINUOUS
 62
               3
  5
1BF
 10
-22.981888553910913
 20
124.59441536464766
 30
0.0
 11
-22.984114780470399
 21
124.7281147652462
 31
0.0
  0
LINE
  8
LAYER001
  6
CONTINUOUS
 62
               3
  5
1C0
 10
-22.984114780470399
 20
124.7281147652462
 30
0.0
 11
-22.990758368403888
 21
124.86108640934475
 31
0.0
  0
LINE
  8
LAYER001
  6
CONTINUOUS
 62
               3
  5
1C1
 10
-22.990758368403888
 20
124.86108640934475
 30
0.0
 11
-23.001766680093944
 21
124.99323914730323
 31
0.0
  0
LINE
  8
LAYER001
  6
CONTINUOUS
 62
               3
  5
1C2
 10
-23.001766680093944
 20
124.99323914730323
 30
0.0
 11
-23.017087077923136
 21
125.12448182948125
 31
0.0
  0
LINE
  8
LAYER001
  6
CONTINUOUS
 62
               3
  5
1C3
 10
-23.017087077923136
 20
125.12448182948125
 30
0.0
 11
-23.036666924273959
 21
125.25472330623896
 31
0.0
  0
LINE
  8
LAYER001
  6
CONTINUOUS
 62
               3
  5
1C4
 10
-23.036666924273959
 20
125.25472330623896
 30
0.0
 11
-23.060453581528968
 21
125.38387242793593
 31
0.0
  0
LINE
  8
LAYER001
  6
CONTINUOUS
 62
               3
  5
1C5
 10
-23.060453581528968
 20
125.38387242793593
 30
0.0
 11
-23.088394412070762
 21
125.51183804493223
 31
0.0
  0
LINE
  8
LAYER001
  6
CONTINUOUS
 62
               3
  5
1C6
 10
-23.088394412070762
 20
125.51183804493223
 30
0.0
 11
-23.120436778281849
 21
125.63852900758764
 31
0.0
  0
LINE
  8
LAYER001
  6
CONTINUOUS
 62
               3
  5
1C7
 10
-23.120436778281849
 20
125.63852900758764
 30
0.0
 11
-23.156528042544743
 21
125.76385416626201
 31
0.0
  0
LINE
  8
LAYER001
  6
CONTINUOUS
 62
               3
  5
1C8
 10
-23.156528042544743
 20
125.76385416626201
 30
0.0
 11
-23.196615567242056
 21
125.88772237131514
 31
0.0
  0
LINE
  8
LAYER001
  6
CONTINUOUS
 62
               3
  5
1C9
 10
-23.196615567242056
 20
125.88772237131514
 30
0.0
 11
-23.240646714756309
 21
126.01004247310686
 31
0.0
  0
LINE
  8
LAYER001
  6
CONTINUOUS
 62
               3
  5
1CA
 10
-23.240646714756309
 20
126.01004247310686
 30
0.0
 11
-23.288568847470053
 21
126.1307233219971
 31
0.0
  0
LINE
  8
LAYER001
  6
CONTINUOUS
 62
               3
  5
1CB
 10
-23.288568847470053
 20
126.1307233219971
 30
0.0
 11
-23.340329327765843
 21
126.2496737683457
 31
0.0
  0
LINE
  8
LAYER001
  6
CONTINUOUS
 62
               3
  5
1CC
 10
-23.340329327765843
 20
126.2496737683457
 30
0.0
 11
-23.395875518026195
 21
126.36680266251253
 31
0.0
  0
LINE
  8
LAYER001
  6
CONTINUOUS
 62
               3
  5
1CD
 10
-23.395875518026195
 20
126.36680266251253
 30
0.0
 11
-23.455154780633691
 21
126.48201885485727
 31
0.0
  0
LINE
  8
LAYER001
  6
CONTINUOUS
 62
               3
  5
1CE
 10
-23.455154780633691
 20
126.48201885485727
 30
0.0
 11
-23.518114477970855
 21
126.59523119573998
 31
0.0
  0
LINE
  8
LAYER001
  6
CONTINUOUS
 62
               3
  5
1CF
 10
-23.518114477970855
 20
126.59523119573998
 30
0.0
 11
-23.58470197242027
 21
126.70634853552039
 31
0.0
  0
LINE
  8
LAYER001
  6
CONTINUOUS
 62
               3
  5
1D0
 10
-23.58470197242027
 20
126.70634853552039
 30
0.0
 11
-23.654864626364457
 21
126.81527972455839
 31
0.0
  0
LINE
  8
LAYER001
  6
CONTINUOUS
 62
               3
  5
1D1
 10
-23.654864626364457
 20
126.81527972455839
 30
0.0
 11
-23.728549802185931
 21
126.92193361321384
 31
0.0
  0
LINE
  8
LAYER001
  6
CONTINUOUS
 62
               3
  5
1D2
 10
-23.728549802185931
 20
126.92193361321384
 30
0.0
 11
-23.805704862267312
 21
127.02621905184654
 31
0.0
  0
LINE
  8
LAYER001
  6
CONTINUOUS
 62
               3
  5
1D3
 10
-23.805704862267312
 20
127.02621905184654
 30
0.0
 11
-23.886277168991093
 21
127.12804489081645
 31
0.0
  0
LINE
  8
LAYER001
  6
CONTINUOUS
 62
               3
  5
1D4
 10
-23.886277168991093
 20
127.12804489081645
 30
0.0
 11
-23.970214084739844
 21
127.22731998048323
 31
0.0
  0
LINE
  8
LAYER001
  6
CONTINUOUS
 62
               3
  5
1D5
 10
-23.970214084739844
 20
127.22731998048323
 30
0.0
 11
-24.057462971896094
 21
127.32395317120688
 31
0.0
  0
LINE
  8
LAYER001
  6
CONTINUOUS
 62
               3
  5
1D6
 10
-24.057462971896094
 20
127.32395317120688
 30
0.0
 11
-24.147971192842419
 21
127.41785331334722
 31
0.0
  0
LINE
  8
LAYER001
  6
CONTINUOUS
 62
               3
  5
1D7
 10
-24.147971192842419
 20
127.41785331334722
 30
0.0
 11
-24.24168610996135
 21
127.50892925726404
 31
0.0
  0
LINE
  8
LAYER001
  6
CONTINUOUS
 62
               3
  5
1D8
 10
-24.24168610996135
 20
127.50892925726404
 30
0.0
 11
-24.338555085635463
 21
127.59708985331727
 31
0.0
  0
LINE
  8
LAYER001
  6
CONTINUOUS
 62
               3
  5
1D9
 10
-24.338555085635463
 20
127.59708985331727
 30
0.0
 11
-24.438525482247215
 21
127.6822439518667
 31
0.0
  0
LINE
  8
LAYER001
  6
CONTINUOUS
 62
               3
  5
1DA
 10
-24.438525482247215
 20
127.6822439518667
 30
0.0
 11
-24.541544662179255
 21
127.76430040327216
 31
0.0
  0
LINE
  8
LAYER001
  6
CONTINUOUS
 62
               3
  5
1DB
 10
-24.541544662179255
 20
127.76430040327216
 30
0.0
 11
-24.647559987814134
 21
127.84316805789356
 31
0.0
  0
LINE
  8
LAYER001
  6
CONTINUOUS
 62
               3
  5
1DC
 10
-24.647559987814134
 20
127.84316805789356
 30
0.0
 11
-24.756518821534307
 21
127.91875576609075
 31
0.0
  0
LINE
  8
LAYER001
  6
CONTINUOUS
 62
               3
  5
1DD
 10
-24.756518821534307
 20
127.91875576609075
 30
0.0
 11
-24.868368525722396
 21
127.9909723782236
 31
0.0
  0
LINE
  8
LAYER001
  6
CONTINUOUS
 62
               3
  5
1DE
 10
-24.868368525722396
 20
127.9909723782236
 30
0.0
 11
-24.983056462760914
 21
128.05972674465184
 31
0.0
  0
LINE
  8
LAYER001
  6
CONTINUOUS
 62
               3
  5
1DF
 10
-17.980024922143468
 20
128.05967436946315
 30
0.0
 11
-18.094712859182067
 21
127.99092000303492
 31
0.0
  0
LINE
  8
LAYER001
  6
CONTINUOUS
 62
               3
  5
1E0
 10
-18.094712859182067
 20
127.99092000303492
 30
0.0
 11
-18.206562563370181
 21
127.91870339090207
 31
0.0
  0
LINE
  8
LAYER001
  6
CONTINUOUS
 62
               3
  5
1E1
 10
-18.206562563370181
 20
127.91870339090207
 30
0.0
 11
-18.315521397090443
 21
127.84311568270488
 31
0.0
  0
LINE
  8
LAYER001
  6
CONTINUOUS
 62
               3
  5
1E2
 10
-18.315521397090443
 20
127.84311568270488
 30
0.0
 11
-18.421536722725318
 21
127.76424802808344
 31
0.0
  0
LINE
  8
LAYER001
  6
CONTINUOUS
 62
               3
  5
1E3
 10
-18.421536722725318
 20
127.76424802808344
 30
0.0
 11
-18.524555902657415
 21
127.68219157667798
 31
0.0
  0
LINE
  8
LAYER001
  6
CONTINUOUS
 62
               3
  5
1E4
 10
-18.524555902657415
 20
127.68219157667798
 30
0.0
 11
-18.624526299269228
 21
127.59703747812853
 31
0.0
  0
LINE
  8
LAYER001
  6
CONTINUOUS
 62
               3
  5
1E5
 10
-18.624526299269228
 20
127.59703747812853
 30
0.0
 11
-18.72139527494334
 21
127.50887688207524
 31
0.0
  0
LINE
  8
LAYER001
  6
CONTINUOUS
 62
               3
  5
1E6
 10
-18.72139527494334
 20
127.50887688207524
 30
0.0
 11
-18.815110192062328
 21
127.41780093815836
 31
0.0
  0
LINE
  8
LAYER001
  6
CONTINUOUS
 62
               3
  5
1E7
 10
-18.815110192062328
 20
127.41780093815836
 30
0.0
 11
-18.905618413008682
 21
127.32390079601808
 31
0.0
  0
LINE
  8
LAYER001
  6
CONTINUOUS
 62
               3
  5
1E8
 10
-18.905618413008682
 20
127.32390079601808
 30
0.0
 11
-18.992867300164963
 21
127.2272676052944
 31
0.0
  0
LINE
  8
LAYER001
  6
CONTINUOUS
 62
               3
  5
1E9
 10
-18.992867300164963
 20
127.2272676052944
 30
0.0
 11
-19.076804215913743
 21
127.12799251562754
 31
0.0
  0
LINE
  8
LAYER001
  6
CONTINUOUS
 62
               3
  5
1EA
 10
-19.076804215913743
 20
127.12799251562754
 30
0.0
 11
-19.157376522637573
 21
127.02616667665768
 31
0.0
  0
LINE
  8
LAYER001
  6
CONTINUOUS
 62
               3
  5
1EB
 10
-19.157376522637573
 20
127.02616667665768
 30
0.0
 11
-19.234531582718954
 21
126.92188123802492
 31
0.0
  0
LINE
  8
LAYER001
  6
CONTINUOUS
 62
               3
  5
1EC
 10
-19.234531582718954
 20
126.92188123802492
 30
0.0
 11
-19.30821675854046
 21
126.81522734936945
 31
0.0
  0
LINE
  8
LAYER001
  6
CONTINUOUS
 62
               3
  5
1ED
 10
-19.30821675854046
 20
126.81522734936945
 30
0.0
 11
-19.378379412484644
 21
126.70629616033136
 31
0.0
  0
LINE
  8
LAYER001
  6
CONTINUOUS
 62
               3
  5
1EE
 10
-19.378379412484644
 20
126.70629616033136
 30
0.0
 11
-19.444966906934059
 21
126.59517882055096
 31
0.0
  0
LINE
  8
LAYER001
  6
CONTINUOUS
 62
               3
  5
1EF
 10
-19.444966906934059
 20
126.59517882055096
 30
0.0
 11
-19.507926604271283
 21
126.48196647966819
 31
0.0
  0
LINE
  8
LAYER001
  6
CONTINUOUS
 62
               3
  5
1F0
 10
-19.507926604271283
 20
126.48196647966819
 30
0.0
 11
-19.56720586687878
 21
126.36675028732333
 31
0.0
  0
LINE
  8
LAYER001
  6
CONTINUOUS
 62
               3
  5
1F1
 10
-19.56720586687878
 20
126.36675028732333
 30
0.0
 11
-19.622752057139135
 21
126.24962139315656
 31
0.0
  0
LINE
  8
LAYER001
  6
CONTINUOUS
 62
               3
  5
1F2
 10
-19.622752057139135
 20
126.24962139315656
 30
0.0
 11
-19.67451253743495
 21
126.1306709468079
 31
0.0
  0
LINE
  8
LAYER001
  6
CONTINUOUS
 62
               3
  5
1F3
 10
-19.67451253743495
 20
126.1306709468079
 30
0.0
 11
-19.722434670148665
 21
126.00999009791769
 31
0.0
  0
LINE
  8
LAYER001
  6
CONTINUOUS
 62
               3
  5
1F4
 10
-19.722434670148665
 20
126.00999009791769
 30
0.0
 11
-19.766465817662944
 21
125.88766999612588
 31
0.0
  0
LINE
  8
LAYER001
  6
CONTINUOUS
 62
               3
  5
1F5
 10
-19.766465817662944
 20
125.88766999612588
 30
0.0
 11
-19.806553342360257
 21
125.76380179107272
 31
0.0
  0
LINE
  8
LAYER001
  6
CONTINUOUS
 62
               3
  5
1F6
 10
-19.806553342360257
 20
125.76380179107272
 30
0.0
 11
-19.842644606623182
 21
125.63847663239835
 31
0.0
  0
LINE
  8
LAYER001
  6
CONTINUOUS
 62
               3
  5
1F7
 10
-19.842644606623182
 20
125.63847663239835
 30
0.0
 11
-19.874686972834265
 21
125.51178566974292
 31
0.0
  0
LINE
  8
LAYER001
  6
CONTINUOUS
 62
               3
  5
1F8
 10
-19.874686972834265
 20
125.51178566974292
 30
0.0
 11
-19.902627803376038
 21
125.38382005274661
 31
0.0
  0
LINE
  8
LAYER001
  6
CONTINUOUS
 62
               3
  5
1F9
 10
-19.902627803376038
 20
125.38382005274661
 30
0.0
 11
-19.926414460631072
 21
125.2546709310495
 31
0.0
  0
LINE
  8
LAYER001
  6
CONTINUOUS
 62
               3
  5
1FA
 10
-19.926414460631072
 20
125.2546709310495
 30
0.0
 11
-19.945994306981895
 21
125.12442945429186
 31
0.0
  0
LINE
  8
LAYER001
  6
CONTINUOUS
 62
               3
  5
1FB
 10
-19.945994306981895
 20
125.12442945429186
 30
0.0
 11
-19.961314704811059
 21
124.99318677211369
 31
0.0
  0
LINE
  8
LAYER001
  6
CONTINUOUS
 62
               3
  5
1FC
 10
-19.961314704811059
 20
124.99318677211369
 30
0.0
 11
-19.972323016501139
 21
124.86103403415527
 31
0.0
  0
LINE
  8
LAYER001
  6
CONTINUOUS
 62
               3
  5
1FD
 10
-19.972323016501139
 20
124.86103403415527
 30
0.0
 11
-19.978966604434632
 21
124.72806239005672
 31
0.0
  0
LINE
  8
LAYER001
  6
CONTINUOUS
 62
               3
  5
1FE
 10
-19.978966604434632
 20
124.72806239005672
 30
0.0
 11
-19.981192830994118
 21
124.59436298945815
 31
0.0
  0
LINE
  8
LAYER001
  6
CONTINUOUS
 62
               3
  5
1FF
 10
-31.483814389304293
 20
140.80374512604837
 30
0.0
 11
-31.535286190603991
 21
140.80244363049684
 31
0.0
  0
LINE
  8
LAYER001
  6
CONTINUOUS
 62
               3
  5
200
 10
-31.535286190603991
 20
140.80244363049684
 30
0.0
 11
-31.586082291464351
 21
140.79858104146547
 31
0.0
  0
LINE
  8
LAYER001
  6
CONTINUOUS
 62
               3
  5
201
 10
-31.586082291464351
 20
140.79858104146547
 30
0.0
 11
-31.636139845450693
 21
140.79222020538884
 31
0.0
  0
LINE
  8
LAYER001
  6
CONTINUOUS
 62
               3
  5
202
 10
-31.636139845450693
 20
140.79222020538884
 30
0.0
 11
-31.68539600612835
 21
140.7834239687017
 31
0.0
  0
LINE
  8
LAYER001
  6
CONTINUOUS
 62
               3
  5
203
 10
-31.68539600612835
 20
140.7834239687017
 30
0.0
 11
-31.733787927062558
 21
140.7722551778387
 31
0.0
  0
LINE
  8
LAYER001
  6
CONTINUOUS
 62
               3
  5
204
 10
-31.733787927062558
 20
140.7722551778387
 30
0.0
 11
-31.781252761818727
 21
140.75877667923456
 31
0.0
  0
LINE
  8
LAYER001
  6
CONTINUOUS
 62
               3
  5
205
 10
-31.781252761818727
 20
140.75877667923456
 30
0.0
 11
-31.827727663962122
 21
140.74305131932394
 31
0.0
  0
LINE
  8
LAYER001
  6
CONTINUOUS
 62
               3
  5
206
 10
-31.827727663962122
 20
140.74305131932394
 30
0.0
 11
-31.873149787058061
 21
140.72514194454152
 31
0.0
  0
LINE
  8
LAYER001
  6
CONTINUOUS
 62
               3
  5
207
 10
-31.873149787058061
 20
140.72514194454152
 30
0.0
 11
-31.917456284671857
 21
140.70511140132209
 31
0.0
  0
LINE
  8
LAYER001
  6
CONTINUOUS
 62
               3
  5
208
 10
-31.917456284671857
 20
140.70511140132209
 30
0.0
 11
-31.960584310368858
 21
140.68302253610011
 31
0.0
  0
LINE
  8
LAYER001
  6
CONTINUOUS
 62
               3
  5
209
 10
-31.960584310368858
 20
140.68302253610011
 30
0.0
 11
-32.002471017714321
 21
140.65893819531053
 31
0.0
  0
LINE
  8
LAYER001
  6
CONTINUOUS
 62
               3
  5
20A
 10
-32.002471017714321
 20
140.65893819531053
 30
0.0
 11
-32.043053560273627
 21
140.63292122538783
 31
0.0
  0
LINE
  8
LAYER001
  6
CONTINUOUS
 62
               3
  5
20B
 10
-32.043053560273627
 20
140.63292122538783
 30
0.0
 11
-32.082269091612027
 21
140.60503447276679
 31
0.0
  0
LINE
  8
LAYER001
  6
CONTINUOUS
 62
               3
  5
20C
 10
-32.082269091612027
 20
140.60503447276679
 30
0.0
 11
-32.120054765294867
 21
140.57534078388207
 31
0.0
  0
LINE
  8
LAYER001
  6
CONTINUOUS
 62
               3
  5
20D
 10
-32.120054765294867
 20
140.57534078388207
 30
0.0
 11
-32.156347734887454
 21
140.54390300516835
 31
0.0
  0
LINE
  8
LAYER001
  6
CONTINUOUS
 62
               3
  5
20E
 10
-32.156347734887454
 20
140.54390300516835
 30
0.0
 11
-32.191085153955122
 21
140.51078398306038
 31
0.0
  0
LINE
  8
LAYER001
  6
CONTINUOUS
 62
               3
  5
20F
 10
-32.191085153955122
 20
140.51078398306038
 30
0.0
 11
-32.224204176063161
 21
140.47604656399272
 31
0.0
  0
LINE
  8
LAYER001
  6
CONTINUOUS
 62
               3
  5
210
 10
-32.224204176063161
 20
140.47604656399272
 30
0.0
 11
-32.255641954776884
 21
140.43975359440017
 31
0.0
  0
LINE
  8
LAYER001
  6
CONTINUOUS
 62
               3
  5
211
 10
-32.255641954776884
 20
140.43975359440017
 30
0.0
 11
-32.285335643661632
 21
140.40196792071734
 31
0.0
  0
LINE
  8
LAYER001
  6
CONTINUOUS
 62
               3
  5
212
 10
-32.285335643661632
 20
140.40196792071734
 30
0.0
 11
-32.313222396282718
 21
140.36275238937898
 31
0.0
  0
LINE
  8
LAYER001
  6
CONTINUOUS
 62
               3
  5
213
 10
-32.313222396282718
 20
140.36275238937898
 30
0.0
 11
-32.339239366205412
 21
140.32216984681963
 31
0.0
  0
LINE
  8
LAYER001
  6
CONTINUOUS
 62
               3
  5
214
 10
-32.339239366205412
 20
140.32216984681963
 30
0.0
 11
-32.363323706995082
 21
140.28028313947422
 31
0.0
  0
LINE
  8
LAYER001
  6
CONTINUOUS
 62
               3
  5
215
 10
-32.363323706995082
 20
140.28028313947422
 30
0.0
 11
-32.385412572217028
 21
140.23715511377725
 31
0.0
  0
LINE
  8
LAYER001
  6
CONTINUOUS
 62
               3
  5
216
 10
-32.385412572217028
 20
140.23715511377725
 30
0.0
 11
-32.40544311543654
 21
140.19284861616347
 31
0.0
  0
LINE
  8
LAYER001
  6
CONTINUOUS
 62
               3
  5
217
 10
-32.40544311543654
 20
140.19284861616347
 30
0.0
 11
-32.423352490218946
 21
140.14742649306757
 31
0.0
  0
LINE
  8
LAYER001
  6
CONTINUOUS
 62
               3
  5
218
 10
-32.423352490218946
 20
140.14742649306757
 30
0.0
 11
-32.439077850129571
 21
140.10095159092418
 31
0.0
  0
LINE
  8
LAYER001
  6
CONTINUOUS
 62
               3
  5
219
 10
-32.439077850129571
 20
140.10095159092418
 30
0.0
 11
-32.452556348733737
 21
140.05348675616804
 31
0.0
  0
LINE
  8
LAYER001
  6
CONTINUOUS
 62
               3
  5
21A
 10
-32.452556348733737
 20
140.05348675616804
 30
0.0
 11
-32.46372513959674
 21
140.00509483523379
 31
0.0
  0
LINE
  8
LAYER001
  6
CONTINUOUS
 62
               3
  5
21B
 10
-32.46372513959674
 20
140.00509483523379
 30
0.0
 11
-32.472521376283886
 21
139.95583867455619
 31
0.0
  0
LINE
  8
LAYER001
  6
CONTINUOUS
 62
               3
  5
21C
 10
-32.472521376283886
 20
139.95583867455619
 30
0.0
 11
-32.478882212360517
 21
139.90578112056986
 31
0.0
  0
LINE
  8
LAYER001
  6
CONTINUOUS
 62
               3
  5
21D
 10
-32.478882212360517
 20
139.90578112056986
 30
0.0
 11
-32.482744801391938
 21
139.85498501970949
 31
0.0
  0
LINE
  8
LAYER001
  6
CONTINUOUS
 62
               3
  5
21E
 10
-32.482744801391938
 20
139.85498501970949
 30
0.0
 11
-32.484046296943433
 21
139.80351321840976
 31
0.0
  0
LINE
  8
LAYER001
  6
CONTINUOUS
 62
               3
  5
21F
 10
-10.478944328888502
 20
139.80351321840976
 30
0.0
 11
-10.480245824440001
 21
139.85498501970955
 31
0.0
  0
LINE
  8
LAYER001
  6
CONTINUOUS
 62
               3
  5
220
 10
-10.480245824440001
 20
139.85498501970955
 30
0.0
 11
-10.484108413471425
 21
139.90578112056986
 31
0.0
  0
LINE
  8
LAYER001
  6
CONTINUOUS
 62
               3
  5
221
 10
-10.484108413471425
 20
139.90578112056986
 30
0.0
 11
-10.49046924954807
 21
139.95583867455619
 31
0.0
  0
LINE
  8
LAYER001
  6
CONTINUOUS
 62
               3
  5
222
 10
-10.49046924954807
 20
139.95583867455619
 30
0.0
 11
-10.499265486235231
 21
140.00509483523379
 31
0.0
  0
LINE
  8
LAYER001
  6
CONTINUOUS
 62
               3
  5
223
 10
-10.499265486235231
 20
140.00509483523379
 30
0.0
 11
-10.510434277098174
 21
140.05348675616804
 31
0.0
  0
LINE
  8
LAYER001
  6
CONTINUOUS
 62
               3
  5
224
 10
-10.510434277098174
 20
140.05348675616804
 30
0.0
 11
-10.523912775702339
 21
140.10095159092418
 31
0.0
  0
LINE
  8
LAYER001
  6
CONTINUOUS
 62
               3
  5
225
 10
-10.523912775702339
 20
140.10095159092418
 30
0.0
 11
-10.539638135612964
 21
140.14742649306757
 31
0.0
  0
LINE
  8
LAYER001
  6
CONTINUOUS
 62
               3
  5
226
 10
-10.539638135612964
 20
140.14742649306757
 30
0.0
 11
-10.55754751039537
 21
140.19284861616347
 31
0.0
  0
LINE
  8
LAYER001
  6
CONTINUOUS
 62
               3
  5
227
 10
-10.55754751039537
 20
140.19284861616347
 30
0.0
 11
-10.577578053614914
 21
140.23715511377719
 31
0.0
  0
LINE
  8
LAYER001
  6
CONTINUOUS
 62
               3
  5
228
 10
-10.577578053614914
 20
140.23715511377719
 30
0.0
 11
-10.5996669188368
 21
140.28028313947416
 31
0.0
  0
LINE
  8
LAYER001
  6
CONTINUOUS
 62
               3
  5
229
 10
-10.5996669188368
 20
140.28028313947416
 30
0.0
 11
-10.623751259626498
 21
140.32216984681963
 31
0.0
  0
LINE
  8
LAYER001
  6
CONTINUOUS
 62
               3
  5
22A
 10
-10.623751259626498
 20
140.32216984681963
 30
0.0
 11
-10.649768229549188
 21
140.36275238937898
 31
0.0
  0
LINE
  8
LAYER001
  6
CONTINUOUS
 62
               3
  5
22B
 10
-10.649768229549188
 20
140.36275238937898
 30
0.0
 11
-10.677654982170253
 21
140.40196792071734
 31
0.0
  0
LINE
  8
LAYER001
  6
CONTINUOUS
 62
               3
  5
22C
 10
-10.677654982170253
 20
140.40196792071734
 30
0.0
 11
-10.707348671055012
 21
140.43975359440017
 31
0.0
  0
LINE
  8
LAYER001
  6
CONTINUOUS
 62
               3
  5
22D
 10
-10.707348671055012
 20
140.43975359440017
 30
0.0
 11
-10.738786449768735
 21
140.47604656399267
 31
0.0
  0
LINE
  8
LAYER001
  6
CONTINUOUS
 62
               3
  5
22E
 10
-10.738786449768735
 20
140.47604656399267
 30
0.0
 11
-10.77190547187675
 21
140.51078398306032
 31
0.0
  0
LINE
  8
LAYER001
  6
CONTINUOUS
 62
               3
  5
22F
 10
-10.77190547187675
 20
140.51078398306032
 30
0.0
 11
-10.806642890944371
 21
140.54390300516835
 31
0.0
  0
LINE
  8
LAYER001
  6
CONTINUOUS
 62
               3
  5
230
 10
-10.806642890944371
 20
140.54390300516835
 30
0.0
 11
-10.842935860536958
 21
140.57534078388207
 31
0.0
  0
LINE
  8
LAYER001
  6
CONTINUOUS
 62
               3
  5
231
 10
-10.842935860536958
 20
140.57534078388207
 30
0.0
 11
-10.880721534219774
 21
140.60503447276679
 31
0.0
  0
LINE
  8
LAYER001
  6
CONTINUOUS
 62
               3
  5
232
 10
-10.880721534219774
 20
140.60503447276679
 30
0.0
 11
-10.919937065558173
 21
140.63292122538783
 31
0.0
  0
LINE
  8
LAYER001
  6
CONTINUOUS
 62
               3
  5
233
 10
-10.919937065558173
 20
140.63292122538783
 30
0.0
 11
-10.960519608117419
 21
140.65893819531053
 31
0.0
  0
LINE
  8
LAYER001
  6
CONTINUOUS
 62
               3
  5
234
 10
-10.960519608117419
 20
140.65893819531053
 30
0.0
 11
-11.002406315462867
 21
140.68302253610011
 31
0.0
  0
LINE
  8
LAYER001
  6
CONTINUOUS
 62
               3
  5
235
 10
-11.002406315462867
 20
140.68302253610011
 30
0.0
 11
-11.045534341159843
 21
140.70511140132209
 31
0.0
  0
LINE
  8
LAYER001
  6
CONTINUOUS
 62
               3
  5
236
 10
-11.045534341159843
 20
140.70511140132209
 30
0.0
 11
-11.089840838773608
 21
140.72514194454152
 31
0.0
  0
LINE
  8
LAYER001
  6
CONTINUOUS
 62
               3
  5
237
 10
-11.089840838773608
 20
140.72514194454152
 30
0.0
 11
-11.135262961869518
 21
140.74305131932394
 31
0.0
  0
LINE
  8
LAYER001
  6
CONTINUOUS
 62
               3
  5
238
 10
-11.135262961869518
 20
140.74305131932394
 30
0.0
 11
-11.181737864012867
 21
140.75877667923456
 31
0.0
  0
LINE
  8
LAYER001
  6
CONTINUOUS
 62
               3
  5
239
 10
-11.181737864012867
 20
140.75877667923456
 30
0.0
 11
-11.229202698768979
 21
140.7722551778387
 31
0.0
  0
LINE
  8
LAYER001
  6
CONTINUOUS
 62
               3
  5
23A
 10
-11.229202698768979
 20
140.7722551778387
 30
0.0
 11
-11.27759461970318
 21
140.7834239687017
 31
0.0
  0
LINE
  8
LAYER001
  6
CONTINUOUS
 62
               3
  5
23B
 10
-11.27759461970318
 20
140.7834239687017
 30
0.0
 11
-11.326850780380759
 21
140.79222020538879
 31
0.0
  0
LINE
  8
LAYER001
  6
CONTINUOUS
 62
               3
  5
23C
 10
-11.326850780380759
 20
140.79222020538879
 30
0.0
 11
-11.376908334367048
 21
140.79858104146547
 31
0.0
  0
LINE
  8
LAYER001
  6
CONTINUOUS
 62
               3
  5
23D
 10
-11.376908334367048
 20
140.79858104146547
 30
0.0
 11
-11.427704435227366
 21
140.80244363049684
 31
0.0
  0
LINE
  8
LAYER001
  6
CONTINUOUS
 62
               3
  5
23E
 10
-11.427704435227366
 20
140.80244363049684
 30
0.0
 11
-11.479176236527007
 21
140.80374512604837
 31
0.0
  0
LINE
  8
LAYER001
  6
CONTINUOUS
 62
               3
  5
23F
 10
-24.982306989652052
 20
150.99555313618015
 30
0.0
 11
-25.076386865196881
 21
151.09282954912686
 31
0.0
  0
LINE
  8
LAYER001
  6
CONTINUOUS
 62
               3
  5
240
 10
-25.076386865196881
 20
151.09282954912686
 30
0.0
 11
-25.174745863552644
 21
151.18341340909308
 31
0.0
  0
LINE
  8
LAYER001
  6
CONTINUOUS
 62
               3
  5
241
 10
-25.174745863552644
 20
151.18341340909308
 30
0.0
 11
-25.277078940707057
 21
151.26729080069316
 31
0.0
  0
LINE
  8
LAYER001
  6
CONTINUOUS
 62
               3
  5
242
 10
-25.277078940707057
 20
151.26729080069316
 30
0.0
 11
-25.383081052647597
 21
151.34444780854176
 31
0.0
  0
LINE
  8
LAYER001
  6
CONTINUOUS
 62
               3
  5
243
 10
-25.383081052647597
 20
151.34444780854176
 30
0.0
 11
-25.492447155361795
 21
151.41487051725329
 31
0.0
  0
LINE
  8
LAYER001
  6
CONTINUOUS
 62
               3
  5
244
 10
-25.492447155361795
 20
151.41487051725329
 30
0.0
 11
-25.604872204837172
 21
151.47854501144229
 31
0.0
  0
LINE
  8
LAYER001
  6
CONTINUOUS
 62
               3
  5
245
 10
-25.604872204837172
 20
151.47854501144229
 30
0.0
 11
-25.720051157061285
 21
151.53545737572321
 31
0.0
  0
LINE
  8
LAYER001
  6
CONTINUOUS
 62
               3
  5
246
 10
-25.720051157061285
 20
151.53545737572321
 30
0.0
 11
-25.837678968021663
 21
151.58559369471064
 31
0.0
  0
LINE
  8
LAYER001
  6
CONTINUOUS
 62
               3
  5
247
 10
-25.837678968021663
 20
151.58559369471064
 30
0.0
 11
-25.957450593705879
 21
151.62894005301899
 31
0.0
  0
LINE
  8
LAYER001
  6
CONTINUOUS
 62
               3
  5
248
 10
-25.957450593705879
 20
151.62894005301899
 30
0.0
 11
-26.079060990101439
 21
151.66548253526287
 31
0.0
  0
LINE
  8
LAYER001
  6
CONTINUOUS
 62
               3
  5
249
 10
-26.079060990101439
 20
151.66548253526287
 30
0.0
 11
-26.20220511319588
 21
151.69520722605657
 31
0.0
  0
LINE
  8
LAYER001
  6
CONTINUOUS
 62
               3
  5
24A
 10
-26.20220511319588
 20
151.69520722605657
 30
0.0
 11
-26.326577918976774
 21
151.71810021001485
 31
0.0
  0
LINE
  8
LAYER001
  6
CONTINUOUS
 62
               3
  5
24B
 10
-26.326577918976774
 20
151.71810021001485
 30
0.0
 11
-26.451874363431628
 21
151.73414757175203
 31
0.0
  0
LINE
  8
LAYER001
  6
CONTINUOUS
 62
               3
  5
24C
 10
-26.451874363431628
 20
151.73414757175203
 30
0.0
 11
-26.577789402547978
 21
151.74333539588278
 31
0.0
  0
LINE
  8
LAYER001
  6
CONTINUOUS
 62
               3
  5
24D
 10
-26.577789402547978
 20
151.74333539588278
 30
0.0
 11
-26.704017992313396
 21
151.74564976702135
 31
0.0
  0
LINE
  8
LAYER001
  6
CONTINUOUS
 62
               3
  5
24E
 10
-26.704017992313396
 20
151.74564976702135
 30
0.0
 11
-26.830255088715418
 21
151.74107676978244
 31
0.0
  0
LINE
  8
LAYER001
  6
CONTINUOUS
 62
               3
  5
24F
 10
-26.830255088715418
 20
151.74107676978244
 30
0.0
 11
-26.956195647741545
 21
151.72960248878056
 31
0.0
  0
LINE
  8
LAYER001
  6
CONTINUOUS
 62
               3
  5
250
 10
-26.956195647741545
 20
151.72960248878056
 30
0.0
 11
-27.081534625379348
 21
151.71121300863004
 31
0.0
  0
LINE
  8
LAYER001
  6
CONTINUOUS
 62
               3
  5
251
 10
-27.081534625379348
 20
151.71121300863004
 30
0.0
 11
-27.205966977616349
 21
151.68589441394559
 31
0.0
  0
LINE
  8
LAYER001
  6
CONTINUOUS
 62
               3
  5
252
 10
-27.205966977616349
 20
151.68589441394559
 30
0.0
 11
-27.329187660440105
 21
151.65363278934149
 31
0.0
  0
LINE
  8
LAYER001
  6
CONTINUOUS
 62
               3
  5
253
 10
-27.329187660440105
 20
151.65363278934149
 30
0.0
 11
-27.450891629838139
 21
151.61441421943243
 31
0.0
  0
LINE
  8
LAYER001
  6
CONTINUOUS
 62
               3
  5
254
 10
-27.450891629838139
 20
151.61441421943243
 30
0.0
 11
-27.570773841797987
 21
151.56822478883277
 31
0.0
  0
LINE
  8
LAYER001
  6
CONTINUOUS
 62
               3
  5
255
 10
-27.570773841797987
 20
151.56822478883277
 30
0.0
 11
-27.688529252307198
 21
151.51505058215724
 31
0.0
  0
LINE
  8
LAYER001
  6
CONTINUOUS
 62
               3
  5
256
 10
-27.688529252307198
 20
151.51505058215724
 30
0.0
 11
-27.803852817353331
 21
151.45487768402003
 31
0.0
  0
LINE
  8
LAYER001
  6
CONTINUOUS
 62
               3
  5
257
 10
-27.803852817353331
 20
151.45487768402003
 30
0.0
 11
-27.916439492923899
 21
151.38769217903587
 31
0.0
  0
LINE
  8
LAYER001
  6
CONTINUOUS
 62
               3
  5
258
 10
-27.916439492923899
 20
151.38769217903587
 30
0.0
 11
-28.02598423500644
 21
151.31348015181911
 31
0.0
  0
LINE
  8
LAYER001
  6
CONTINUOUS
 62
               3
  5
259
 10
-28.02598423500644
 20
151.31348015181911
 30
0.0
 11
-28.132181999588511
 21
151.2322276869844
 31
0.0
  0
LINE
  8
LAYER001
  6
CONTINUOUS
 62
               3
  5
25A
 10
-28.132181999588511
 20
151.2322276869844
 30
0.0
 11
-28.23472774265764
 21
151.14392086914609
 31
0.0
  0
LINE
  8
LAYER001
  6
CONTINUOUS
 62
               3
  5
25B
 10
-28.23472774265764
 20
151.14392086914609
 30
0.0
 11
-28.240257091326818
 21
151.13885745418756
 31
0.0
  0
LINE
  8
LAYER001
  6
CONTINUOUS
 62
               3
  5
25C
 10
-28.240257091326818
 20
151.13885745418756
 30
0.0
 11
-28.245769731145714
 21
151.13377623447087
 31
0.0
  0
LINE
  8
LAYER001
  6
CONTINUOUS
 62
               3
  5
25D
 10
-28.245769731145714
 20
151.13377623447087
 30
0.0
 11
-28.251265619963959
 21
151.12867725214679
 31
0.0
  0
LINE
  8
LAYER001
  6
CONTINUOUS
 62
               3
  5
25E
 10
-28.251265619963959
 20
151.12867725214679
 30
0.0
 11
-28.256744715631356
 21
151.12356054936535
 31
0.0
  0
LINE
  8
LAYER001
  6
CONTINUOUS
 62
               3
  5
25F
 10
-28.256744715631356
 20
151.12356054936535
 30
0.0
 11
-28.262206975997536
 21
151.11842616827701
 31
0.0
  0
LINE
  8
LAYER001
  6
CONTINUOUS
 62
               3
  5
260
 10
-28.262206975997536
 20
151.11842616827701
 30
0.0
 11
-28.267652358912237
 21
151.11327415103193
 31
0.0
  0
LINE
  8
LAYER001
  6
CONTINUOUS
 62
               3
  5
261
 10
-28.267652358912237
 20
151.11327415103193
 30
0.0
 11
-28.273080822225168
 21
151.1081045397803
 31
0.0
  0
LINE
  8
LAYER001
  6
CONTINUOUS
 62
               3
  5
262
 10
-28.273080822225168
 20
151.1081045397803
 30
0.0
 11
-28.27849232378604
 21
151.10291737667271
 31
0.0
  0
LINE
  8
LAYER001
  6
CONTINUOUS
 62
               3
  5
263
 10
-28.27849232378604
 20
151.10291737667271
 30
0.0
 11
-28.28388682144454
 21
151.09771270385926
 31
0.0
  0
LINE
  8
LAYER001
  6
CONTINUOUS
 62
               3
  5
264
 10
-28.28388682144454
 20
151.09771270385926
 30
0.0
 11
-28.289264273050428
 21
151.0924905634902
 31
0.0
  0
LINE
  8
LAYER001
  6
CONTINUOUS
 62
               3
  5
265
 10
-28.289264273050428
 20
151.0924905634902
 30
0.0
 11
-28.294624636453385
 21
151.0872509977159
 31
0.0
  0
LINE
  8
LAYER001
  6
CONTINUOUS
 62
               3
  5
266
 10
-28.294624636453385
 20
151.0872509977159
 30
0.0
 11
-28.299967869503121
 21
151.0819940486866
 31
0.0
  0
LINE
  8
LAYER001
  6
CONTINUOUS
 62
               3
  5
267
 10
-28.299967869503121
 20
151.0819940486866
 30
0.0
 11
-28.305293930049345
 21
151.07671975855271
 31
0.0
  0
LINE
  8
LAYER001
  6
CONTINUOUS
 62
               3
  5
268
 10
-28.305293930049345
 20
151.07671975855271
 30
0.0
 11
-28.310602775941746
 21
151.07142816946441
 31
0.0
  0
LINE
  8
LAYER001
  6
CONTINUOUS
 62
               3
  5
269
 10
-28.310602775941746
 20
151.07142816946441
 30
0.0
 11
-28.315894365030104
 21
151.066119323572
 31
0.0
  0
LINE
  8
LAYER001
  6
CONTINUOUS
 62
               3
  5
26A
 10
-28.315894365030104
 20
151.066119323572
 30
0.0
 11
-28.321168655164008
 21
151.06079326302572
 31
0.0
  0
LINE
  8
LAYER001
  6
CONTINUOUS
 62
               3
  5
26B
 10
-28.321168655164008
 20
151.06079326302572
 30
0.0
 11
-28.326425604193275
 21
151.05545002997604
 31
0.0
  0
LINE
  8
LAYER001
  6
CONTINUOUS
 62
               3
  5
26C
 10
-28.326425604193275
 20
151.05545002997604
 30
0.0
 11
-28.331665169967579
 21
151.05008966657309
 31
0.0
  0
LINE
  8
LAYER001
  6
CONTINUOUS
 62
               3
  5
26D
 10
-28.331665169967579
 20
151.05008966657309
 30
0.0
 11
-28.336887310336621
 21
151.04471221496718
 31
0.0
  0
LINE
  8
LAYER001
  6
CONTINUOUS
 62
               3
  5
26E
 10
-28.336887310336621
 20
151.04471221496718
 30
0.0
 11
-28.342091983150127
 21
151.03931771730865
 31
0.0
  0
LINE
  8
LAYER001
  6
CONTINUOUS
 62
               3
  5
26F
 10
-28.342091983150127
 20
151.03931771730865
 30
0.0
 11
-28.347279146257783
 21
151.03390621574775
 31
0.0
  0
LINE
  8
LAYER001
  6
CONTINUOUS
 62
               3
  5
270
 10
-28.347279146257783
 20
151.03390621574775
 30
0.0
 11
-28.352448757509322
 21
151.02847775243487
 31
0.0
  0
LINE
  8
LAYER001
  6
CONTINUOUS
 62
               3
  5
271
 10
-28.352448757509322
 20
151.02847775243487
 30
0.0
 11
-28.357600774754452
 21
151.02303236952017
 31
0.0
  0
LINE
  8
LAYER001
  6
CONTINUOUS
 62
               3
  5
272
 10
-28.357600774754452
 20
151.02303236952017
 30
0.0
 11
-28.362735155842856
 21
151.01757010915392
 31
0.0
  0
LINE
  8
LAYER001
  6
CONTINUOUS
 62
               3
  5
273
 10
-28.362735155842856
 20
151.01757010915392
 30
0.0
 11
-28.367851858624256
 21
151.01209101348658
 31
0.0
  0
LINE
  8
LAYER001
  6
CONTINUOUS
 62
               3
  5
274
 10
-28.367851858624256
 20
151.01209101348658
 30
0.0
 11
-28.372950840948384
 21
151.00659512466825
 31
0.0
  0
LINE
  8
LAYER001
  6
CONTINUOUS
 62
               3
  5
275
 10
-28.372950840948384
 20
151.00659512466825
 30
0.0
 11
-28.378032060664943
 21
151.00108248484938
 31
0.0
  0
LINE
  8
LAYER001
  6
CONTINUOUS
 62
               3
  5
276
 10
-28.378032060664943
 20
151.00108248484938
 30
0.0
 11
-28.383095475623627
 21
150.99555313618015
 31
0.0
  0
LINE
  8
LAYER001
  6
CONTINUOUS
 62
               3
  5
277
 10
-17.980683636179911
 20
150.99555313618015
 30
0.0
 11
-18.190359674348468
 21
151.08639451060438
 31
0.0
  0
LINE
  8
LAYER001
  6
CONTINUOUS
 62
               3
  5
278
 10
-18.190359674348468
 20
151.08639451060438
 30
0.0
 11
-18.401801781864254
 21
151.17137515119475
 31
0.0
  0
LINE
  8
LAYER001
  6
CONTINUOUS
 62
               3
  5
279
 10
-18.401801781864254
 20
151.17137515119475
 30
0.0
 11
-18.614892220770834
 21
151.2504950579513
 31
0.0
  0
LINE
  8
LAYER001
  6
CONTINUOUS
 62
               3
  5
27A
 10
-18.614892220770834
 20
151.2504950579513
 30
0.0
 11
-18.829513253111667
 21
151.32375423087407
 31
0.0
  0
LINE
  8
LAYER001
  6
CONTINUOUS
 62
               3
  5
27B
 10
-18.829513253111667
 20
151.32375423087407
 30
0.0
 11
-19.045547140930299
 21
151.39115266996296
 31
0.0
  0
LINE
  8
LAYER001
  6
CONTINUOUS
 62
               3
  5
27C
 10
-19.045547140930299
 20
151.39115266996296
 30
0.0
 11
-19.262876146270244
 21
151.45269037521814
 31
0.0
  0
LINE
  8
LAYER001
  6
CONTINUOUS
 62
               3
  5
27D
 10
-19.262876146270244
 20
151.45269037521814
 30
0.0
 11
-19.481382531175012
 21
151.50836734663935
 31
0.0
  0
LINE
  8
LAYER001
  6
CONTINUOUS
 62
               3
  5
27E
 10
-19.481382531175012
 20
151.50836734663935
 30
0.0
 11
-19.700948557688125
 21
151.55818358422681
 31
0.0
  0
LINE
  8
LAYER001
  6
CONTINUOUS
 62
               3
  5
27F
 10
-19.700948557688125
 20
151.55818358422681
 30
0.0
 11
-19.921456487853121
 21
151.60213908798048
 31
0.0
  0
LINE
  8
LAYER001
  6
CONTINUOUS
 62
               3
  5
280
 10
-19.921456487853121
 20
151.60213908798048
 30
0.0
 11
-20.142788583713486
 21
151.64023385790034
 31
0.0
  0
LINE
  8
LAYER001
  6
CONTINUOUS
 62
               3
  5
281
 10
-20.142788583713486
 20
151.64023385790034
 30
0.0
 11
-20.364827107312735
 21
151.67246789398635
 31
0.0
  0
LINE
  8
LAYER001
  6
CONTINUOUS
 62
               3
  5
282
 10
-20.364827107312735
 20
151.67246789398635
 30
0.0
 11
-20.587454320694413
 21
151.69884119623848
 31
0.0
  0
LINE
  8
LAYER001
  6
CONTINUOUS
 62
               3
  5
283
 10
-20.587454320694413
 20
151.69884119623848
 30
0.0
 11
-20.810552485902029
 21
151.71935376465689
 31
0.0
  0
LINE
  8
LAYER001
  6
CONTINUOUS
 62
               3
  5
284
 10
-20.810552485902029
 20
151.71935376465689
 30
0.0
 11
-21.034003864979077
 21
151.73400559924144
 31
0.0
  0
LINE
  8
LAYER001
  6
CONTINUOUS
 62
               3
  5
285
 10
-21.034003864979077
 20
151.73400559924144
 30
0.0
 11
-21.257690719969098
 21
151.7427966999922
 31
0.0
  0
LINE
  8
LAYER001
  6
CONTINUOUS
 62
               3
  5
286
 10
-21.257690719969098
 20
151.7427966999922
 30
0.0
 11
-21.481495312915598
 21
151.74572706690907
 31
0.0
  0
LINE
  8
LAYER001
  6
CONTINUOUS
 62
               3
  5
287
 10
-21.481495312915598
 20
151.74572706690907
 30
0.0
 11
-21.705299905862077
 21
151.7427966999922
 31
0.0
  0
LINE
  8
LAYER001
  6
CONTINUOUS
 62
               3
  5
288
 10
-21.705299905862077
 20
151.7427966999922
 30
0.0
 11
-21.928986760852091
 21
151.73400559924139
 31
0.0
  0
LINE
  8
LAYER001
  6
CONTINUOUS
 62
               3
  5
289
 10
-21.928986760852091
 20
151.73400559924139
 30
0.0
 11
-22.152438139929139
 21
151.71935376465689
 31
0.0
  0
LINE
  8
LAYER001
  6
CONTINUOUS
 62
               3
  5
28A
 10
-22.152438139929139
 20
151.71935376465689
 30
0.0
 11
-22.375536305136734
 21
151.69884119623853
 31
0.0
  0
LINE
  8
LAYER001
  6
CONTINUOUS
 62
               3
  5
28B
 10
-22.375536305136734
 20
151.69884119623853
 30
0.0
 11
-22.598163518518376
 21
151.67246789398629
 31
0.0
  0
LINE
  8
LAYER001
  6
CONTINUOUS
 62
               3
  5
28C
 10
-22.598163518518376
 20
151.67246789398629
 30
0.0
 11
-22.820202042117629
 21
151.64023385790028
 31
0.0
  0
LINE
  8
LAYER001
  6
CONTINUOUS
 62
               3
  5
28D
 10
-22.820202042117629
 20
151.64023385790028
 30
0.0
 11
-23.041534137977969
 21
151.60213908798053
 31
0.0
  0
LINE
  8
LAYER001
  6
CONTINUOUS
 62
               3
  5
28E
 10
-23.041534137977969
 20
151.60213908798053
 30
0.0
 11
-23.262042068142904
 21
151.55818358422681
 31
0.0
  0
LINE
  8
LAYER001
  6
CONTINUOUS
 62
               3
  5
28F
 10
-23.262042068142904
 20
151.55818358422681
 30
0.0
 11
-23.481608094655989
 21
151.50836734663935
 31
0.0
  0
LINE
  8
LAYER001
  6
CONTINUOUS
 62
               3
  5
290
 10
-23.481608094655989
 20
151.50836734663935
 30
0.0
 11
-23.700114479560732
 21
151.45269037521808
 31
0.0
  0
LINE
  8
LAYER001
  6
CONTINUOUS
 62
               3
  5
291
 10
-23.700114479560732
 20
151.45269037521808
 30
0.0
 11
-23.917443484900645
 21
151.39115266996296
 31
0.0
  0
LINE
  8
LAYER001
  6
CONTINUOUS
 62
               3
  5
292
 10
-23.917443484900645
 20
151.39115266996296
 30
0.0
 11
-24.13347737271922
 21
151.32375423087407
 31
0.0
  0
LINE
  8
LAYER001
  6
CONTINUOUS
 62
               3
  5
293
 10
-24.13347737271922
 20
151.32375423087407
 30
0.0
 11
-24.34809840506
 21
151.2504950579513
 31
0.0
  0
LINE
  8
LAYER001
  6
CONTINUOUS
 62
               3
  5
294
 10
-24.34809840506
 20
151.2504950579513
 30
0.0
 11
-24.561188843966519
 21
151.1713751511947
 31
0.0
  0
LINE
  8
LAYER001
  6
CONTINUOUS
 62
               3
  5
295
 10
-24.561188843966519
 20
151.1713751511947
 30
0.0
 11
-24.772630951482249
 21
151.08639451060432
 31
0.0
  0
LINE
  8
LAYER001
  6
CONTINUOUS
 62
               3
  5
296
 10
-24.772630951482249
 20
151.08639451060432
 30
0.0
 11
-24.982306989650745
 21
150.99555313618015
 31
0.0
  0
LINE
  8
LAYER001
  6
CONTINUOUS
 62
               3
  5
297
 10
-14.579895150207673
 20
150.99555313617958
 30
0.0
 11
-14.673975025752469
 21
151.09282954912629
 31
0.0
  0
LINE
  8
LAYER001
  6
CONTINUOUS
 62
               3
  5
298
 10
-14.673975025752469
 20
151.09282954912629
 30
0.0
 11
-14.772334024108265
 21
151.18341340909251
 31
0.0
  0
LINE
  8
LAYER001
  6
CONTINUOUS
 62
               3
  5
299
 10
-14.772334024108265
 20
151.18341340909251
 30
0.0
 11
-14.874667101262702
 21
151.26729080069265
 31
0.0
  0
LINE
  8
LAYER001
  6
CONTINUOUS
 62
               3
  5
29A
 10
-14.874667101262702
 20
151.26729080069265
 30
0.0
 11
-14.980669213203214
 21
151.34444780854119
 31
0.0
  0
LINE
  8
LAYER001
  6
CONTINUOUS
 62
               3
  5
29B
 10
-14.980669213203214
 20
151.34444780854119
 30
0.0
 11
-15.090035315917415
 21
151.41487051725272
 31
0.0
  0
LINE
  8
LAYER001
  6
CONTINUOUS
 62
               3
  5
29C
 10
-15.090035315917415
 20
151.41487051725272
 30
0.0
 11
-15.202460365392788
 21
151.47854501144189
 31
0.0
  0
LINE
  8
LAYER001
  6
CONTINUOUS
 62
               3
  5
29D
 10
-15.202460365392788
 20
151.47854501144189
 30
0.0
 11
-15.317639317616869
 21
151.5354573757227
 31
0.0
  0
LINE
  8
LAYER001
  6
CONTINUOUS
 62
               3
  5
29E
 10
-15.317639317616869
 20
151.5354573757227
 30
0.0
 11
-15.435267128577284
 21
151.58559369471018
 31
0.0
  0
LINE
  8
LAYER001
  6
CONTINUOUS
 62
               3
  5
29F
 10
-15.435267128577284
 20
151.58559369471018
 30
0.0
 11
-15.55503875426151
 21
151.6289400530186
 31
0.0
  0
LINE
  8
LAYER001
  6
CONTINUOUS
 62
               3
  5
2A0
 10
-15.55503875426151
 20
151.6289400530186
 30
0.0
 11
-15.676649150657056
 21
151.66548253526253
 31
0.0
  0
LINE
  8
LAYER001
  6
CONTINUOUS
 62
               3
  5
2A1
 10
-15.676649150657056
 20
151.66548253526253
 30
0.0
 11
-15.799793273751511
 21
151.69520722605628
 31
0.0
  0
LINE
  8
LAYER001
  6
CONTINUOUS
 62
               3
  5
2A2
 10
-15.799793273751511
 20
151.69520722605628
 30
0.0
 11
-15.924166079532394
 21
151.71810021001463
 31
0.0
  0
LINE
  8
LAYER001
  6
CONTINUOUS
 62
               3
  5
2A3
 10
-15.924166079532394
 20
151.71810021001463
 30
0.0
 11
-16.049462523987259
 21
151.73414757175186
 31
0.0
  0
LINE
  8
LAYER001
  6
CONTINUOUS
 62
               3
  5
2A4
 10
-16.049462523987259
 20
151.73414757175186
 30
0.0
 11
-16.175377563103595
 21
151.74333539588255
 31
0.0
  0
LINE
  8
LAYER001
  6
CONTINUOUS
 62
               3
  5
2A5
 10
-16.175377563103595
 20
151.74333539588255
 30
0.0
 11
-16.301606152869045
 21
151.74564976702123
 31
0.0
  0
LINE
  8
LAYER001
  6
CONTINUOUS
 62
               3
  5
2A6
 10
-16.301606152869045
 20
151.74564976702123
 30
0.0
 11
-16.427843249271039
 21
151.74107676978238
 31
0.0
  0
LINE
  8
LAYER001
  6
CONTINUOUS
 62
               3
  5
2A7
 10
-16.427843249271039
 20
151.74107676978238
 30
0.0
 11
-16.553783808297165
 21
151.7296024887805
 31
0.0
  0
LINE
  8
LAYER001
  6
CONTINUOUS
 62
               3
  5
2A8
 10
-16.553783808297165
 20
151.7296024887805
 30
0.0
 11
-16.679122785934965
 21
151.7112130086301
 31
0.0
  0
LINE
  8
LAYER001
  6
CONTINUOUS
 62
               3
  5
2A9
 10
-16.679122785934965
 20
151.7112130086301
 30
0.0
 11
-16.803555138171969
 21
151.68589441394565
 31
0.0
  0
LINE
  8
LAYER001
  6
CONTINUOUS
 62
               3
  5
2AA
 10
-16.803555138171969
 20
151.68589441394565
 30
0.0
 11
-16.926775820995722
 21
151.65363278934166
 31
0.0
  0
LINE
  8
LAYER001
  6
CONTINUOUS
 62
               3
  5
2AB
 10
-16.926775820995722
 20
151.65363278934166
 30
0.0
 11
-17.048479790393756
 21
151.61441421943266
 31
0.0
  0
LINE
  8
LAYER001
  6
CONTINUOUS
 62
               3
  5
2AC
 10
-17.048479790393756
 20
151.61441421943266
 30
0.0
 11
-17.168362002353636
 21
151.56822478883311
 31
0.0
  0
LINE
  8
LAYER001
  6
CONTINUOUS
 62
               3
  5
2AD
 10
-17.168362002353636
 20
151.56822478883311
 30
0.0
 11
-17.286117412862819
 21
151.51505058215758
 31
0.0
  0
LINE
  8
LAYER001
  6
CONTINUOUS
 62
               3
  5
2AE
 10
-17.286117412862819
 20
151.51505058215758
 30
0.0
 11
-17.401440977908976
 21
151.45487768402049
 31
0.0
  0
LINE
  8
LAYER001
  6
CONTINUOUS
 62
               3
  5
2AF
 10
-17.401440977908976
 20
151.45487768402049
 30
0.0
 11
-17.514027653479534
 21
151.38769217903638
 31
0.0
  0
LINE
  8
LAYER001
  6
CONTINUOUS
 62
               3
  5
2B0
 10
-17.514027653479534
 20
151.38769217903638
 30
0.0
 11
-17.623572395562089
 21
151.31348015181973
 31
0.0
  0
LINE
  8
LAYER001
  6
CONTINUOUS
 62
               3
  5
2B1
 10
-17.623572395562089
 20
151.31348015181973
 30
0.0
 11
-17.729770160144145
 21
151.23222768698503
 31
0.0
  0
LINE
  8
LAYER001
  6
CONTINUOUS
 62
               3
  5
2B2
 10
-17.729770160144145
 20
151.23222768698503
 30
0.0
 11
-17.832315903213271
 21
151.14392086914688
 31
0.0
  0
LINE
  8
LAYER001
  6
CONTINUOUS
 62
               3
  5
2B3
 10
-17.832315903213271
 20
151.14392086914688
 30
0.0
 11
-17.837845251882438
 21
151.1388574541883
 31
0.0
  0
LINE
  8
LAYER001
  6
CONTINUOUS
 62
               3
  5
2B4
 10
-17.837845251882438
 20
151.1388574541883
 30
0.0
 11
-17.843357891701345
 21
151.13377623447167
 31
0.0
  0
LINE
  8
LAYER001
  6
CONTINUOUS
 62
               3
  5
2B5
 10
-17.843357891701345
 20
151.13377623447167
 30
0.0
 11
-17.848853780519637
 21
151.12867725214758
 31
0.0
  0
LINE
  8
LAYER001
  6
CONTINUOUS
 62
               3
  5
2B6
 10
-17.848853780519637
 20
151.12867725214758
 30
0.0
 11
-17.854332876187033
 21
151.12356054936603
 31
0.0
  0
LINE
  8
LAYER001
  6
CONTINUOUS
 62
               3
  5
2B7
 10
-17.854332876187033
 20
151.12356054936603
 30
0.0
 11
-17.85979513655321
 21
151.11842616827775
 31
0.0
  0
LINE
  8
LAYER001
  6
CONTINUOUS
 62
               3
  5
2B8
 10
-17.85979513655321
 20
151.11842616827775
 30
0.0
 11
-17.865240519467971
 21
151.11327415103256
 31
0.0
  0
LINE
  8
LAYER001
  6
CONTINUOUS
 62
               3
  5
2B9
 10
-17.865240519467971
 20
151.11327415103256
 30
0.0
 11
-17.870668982780902
 21
151.10810453978104
 31
0.0
  0
LINE
  8
LAYER001
  6
CONTINUOUS
 62
               3
  5
2BA
 10
-17.870668982780902
 20
151.10810453978104
 30
0.0
 11
-17.876080484341813
 21
151.10291737667339
 31
0.0
  0
LINE
  8
LAYER001
  6
CONTINUOUS
 62
               3
  5
2BB
 10
-17.876080484341813
 20
151.10291737667339
 30
0.0
 11
-17.881474982000341
 21
151.09771270385994
 31
0.0
  0
LINE
  8
LAYER001
  6
CONTINUOUS
 62
               3
  5
2BC
 10
-17.881474982000341
 20
151.09771270385994
 30
0.0
 11
-17.886852433606272
 21
151.09249056349083
 31
0.0
  0
LINE
  8
LAYER001
  6
CONTINUOUS
 62
               3
  5
2BD
 10
-17.886852433606272
 20
151.09249056349083
 30
0.0
 11
-17.892212797009243
 21
151.08725099771652
 31
0.0
  0
LINE
  8
LAYER001
  6
CONTINUOUS
 62
               3
  5
2BE
 10
-17.892212797009243
 20
151.08725099771652
 30
0.0
 11
-17.897556030059036
 21
151.08199404868722
 31
0.0
  0
LINE
  8
LAYER001
  6
CONTINUOUS
 62
               3
  5
2BF
 10
-17.897556030059036
 20
151.08199404868722
 30
0.0
 11
-17.902882090605264
 21
151.07671975855322
 31
0.0
  0
LINE
  8
LAYER001
  6
CONTINUOUS
 62
               3
  5
2C0
 10
-17.902882090605264
 20
151.07671975855322
 30
0.0
 11
-17.908190936497736
 21
151.07142816946492
 31
0.0
  0
LINE
  8
LAYER001
  6
CONTINUOUS
 62
               3
  5
2C1
 10
-17.908190936497736
 20
151.07142816946492
 30
0.0
 11
-17.91348252558609
 21
151.06611932357251
 31
0.0
  0
LINE
  8
LAYER001
  6
CONTINUOUS
 62
               3
  5
2C2
 10
-17.91348252558609
 20
151.06611932357251
 30
0.0
 11
-17.918756815720055
 21
151.06079326302628
 31
0.0
  0
LINE
  8
LAYER001
  6
CONTINUOUS
 62
               3
  5
2C3
 10
-17.918756815720055
 20
151.06079326302628
 30
0.0
 11
-17.924013764749322
 21
151.0554500299765
 31
0.0
  0
LINE
  8
LAYER001
  6
CONTINUOUS
 62
               3
  5
2C4
 10
-17.924013764749322
 20
151.0554500299765
 30
0.0
 11
-17.929253330523679
 21
151.05008966657354
 31
0.0
  0
LINE
  8
LAYER001
  6
CONTINUOUS
 62
               3
  5
2C5
 10
-17.929253330523679
 20
151.05008966657354
 30
0.0
 11
-17.934475470892764
 21
151.04471221496757
 31
0.0
  0
LINE
  8
LAYER001
  6
CONTINUOUS
 62
               3
  5
2C6
 10
-17.934475470892764
 20
151.04471221496757
 30
0.0
 11
-17.939680143706269
 21
151.03931771730905
 31
0.0
  0
LINE
  8
LAYER001
  6
CONTINUOUS
 62
               3
  5
2C7
 10
-17.939680143706269
 20
151.03931771730905
 30
0.0
 11
-17.944867306813983
 21
151.03390621574809
 31
0.0
  0
LINE
  8
LAYER001
  6
CONTINUOUS
 62
               3
  5
2C8
 10
-17.944867306813983
 20
151.03390621574809
 30
0.0
 11
-17.950036918065511
 21
151.02847775243515
 31
0.0
  0
LINE
  8
LAYER001
  6
CONTINUOUS
 62
               3
  5
2C9
 10
-17.950036918065511
 20
151.02847775243515
 30
0.0
 11
-17.955188935310666
 21
151.02303236952039
 31
0.0
  0
LINE
  8
LAYER001
  6
CONTINUOUS
 62
               3
  5
2CA
 10
-17.955188935310666
 20
151.02303236952039
 30
0.0
 11
-17.960323316399116
 21
151.01757010915415
 31
0.0
  0
LINE
  8
LAYER001
  6
CONTINUOUS
 62
               3
  5
2CB
 10
-17.960323316399116
 20
151.01757010915415
 30
0.0
 11
-17.96544001918053
 21
151.0120910134867
 31
0.0
  0
LINE
  8
LAYER001
  6
CONTINUOUS
 62
               3
  5
2CC
 10
-17.96544001918053
 20
151.0120910134867
 30
0.0
 11
-17.970539001504687
 21
151.00659512466837
 31
0.0
  0
LINE
  8
LAYER001
  6
CONTINUOUS
 62
               3
  5
2CD
 10
-17.970539001504687
 20
151.00659512466837
 30
0.0
 11
-17.975620221221231
 21
151.00108248484943
 31
0.0
  0
LINE
  8
LAYER001
  6
CONTINUOUS
 62
               3
  5
2CE
 10
-17.975620221221231
 20
151.00108248484943
 30
0.0
 11
-17.980683636179911
 21
150.99555313618015
 31
0.0
  0
LINE
  8
LAYER001
  6
CONTINUOUS
 62
               3
  5
2CF
 10
159.83873048201775
 20
110.92725738157151
 30
0.0
 11
159.13008375816651
 21
111.41230480116221
 31
0.0
  0
LINE
  8
LAYER001
  6
CONTINUOUS
 62
               3
  5
2D0
 10
159.13008375816651
 20
111.41230480116221
 30
0.0
 11
158.40734055348275
 21
111.86606251151119
 31
0.0
  0
LINE
  8
LAYER001
  6
CONTINUOUS
 62
               3
  5
2D1
 10
158.40734055348275
 20
111.86606251151119
 30
0.0
 11
157.67144050527298
 21
112.28853045492497
 31
0.0
  0
LINE
  8
LAYER001
  6
CONTINUOUS
 62
               3
  5
2D2
 10
157.67144050527298
 20
112.28853045492497
 30
0.0
 11
156.92332325084368
 21
112.67970857370997
 31
0.0
  0
LINE
  8
LAYER001
  6
CONTINUOUS
 62
               3
  5
2D3
 10
156.92332325084368
 20
112.67970857370997
 30
0.0
 11
156.16392842750145
 21
113.03959681017267
 31
0.0
  0
LINE
  8
LAYER001
  6
CONTINUOUS
 62
               3
  5
2D4
 10
156.16392842750145
 20
113.03959681017267
 30
0.0
 11
155.39419567255266
 21
113.36819510661951
 31
0.0
  0
LINE
  8
LAYER001
  6
CONTINUOUS
 62
               3
  5
2D5
 10
155.39419567255266
 20
113.36819510661951
 30
0.0
 11
154.61506462330385
 21
113.66550340535693
 31
0.0
  0
LINE
  8
LAYER001
  6
CONTINUOUS
 62
               3
  5
2D6
 10
154.61506462330385
 20
113.66550340535693
 30
0.0
 11
153.82747491706164
 21
113.93152164869142
 31
0.0
  0
LINE
  8
LAYER001
  6
CONTINUOUS
 62
               3
  5
2D7
 10
153.82747491706164
 20
113.93152164869142
 30
0.0
 11
153.03236619113227
 21
114.16624977892948
 31
0.0
  0
LINE
  8
LAYER001
  6
CONTINUOUS
 62
               3
  5
2D8
 10
153.03236619113227
 20
114.16624977892948
 30
0.0
 11
152.23067808282241
 21
114.36968773837742
 31
0.0
  0
LINE
  8
LAYER001
  6
CONTINUOUS
 62
               3
  5
2D9
 10
152.23067808282241
 20
114.36968773837742
 30
0.0
 11
151.4233502294386
 21
114.54183546934183
 31
0.0
  0
LINE
  8
LAYER001
  6
CONTINUOUS
 62
               3
  5
2DA
 10
151.4233502294386
 20
114.54183546934183
 30
0.0
 11
150.61132226828727
 21
114.68269291412912
 31
0.0
  0
LINE
  8
LAYER001
  6
CONTINUOUS
 62
               3
  5
2DB
 10
150.61132226828727
 20
114.68269291412912
 30
0.0
 11
149.79553383667491
 21
114.79226001504571
 31
0.0
  0
LINE
  8
LAYER001
  6
CONTINUOUS
 62
               3
  5
2DC
 10
149.79553383667491
 20
114.79226001504571
 30
0.0
 11
148.97692457190794
 21
114.87053671439813
 31
0.0
  0
LINE
  8
LAYER001
  6
CONTINUOUS
 62
               3
  5
2DD
 10
148.97692457190794
 20
114.87053671439813
 30
0.0
 11
148.15643411129304
 21
114.91752295449274
 31
0.0
  0
LINE
  8
LAYER001
  6
CONTINUOUS
 62
               3
  5
2DE
 10
148.15643411129304
 20
114.91752295449274
 30
0.0
 11
147.33500209213651
 21
114.93321867763618
 31
0.0
  0
LINE
  8
LAYER001
  6
CONTINUOUS
 62
               3
  5
2DF
 10
147.33500209213651
 20
114.93321867763618
 30
0.0
 11
146.51356815174501
 21
114.91762382613473
 31
0.0
  0
LINE
  8
LAYER001
  6
CONTINUOUS
 62
               3
  5
2E0
 10
146.51356815174501
 20
114.91762382613473
 30
0.0
 11
145.69307192742491
 21
114.87073834229486
 31
0.0
  0
LINE
  8
LAYER001
  6
CONTINUOUS
 62
               3
  5
2E1
 10
145.69307192742491
 20
114.87073834229486
 30
0.0
 11
144.87445305648288
 21
114.79256216842319
 31
0.0
  0
LINE
  8
LAYER001
  6
CONTINUOUS
 62
               3
  5
2E2
 10
144.87445305648288
 20
114.79256216842319
 30
0.0
 11
144.05865117622523
 21
114.68309524682599
 31
0.0
  0
LINE
  8
LAYER001
  6
CONTINUOUS
 62
               3
  5
2E3
 10
144.05865117622523
 20
114.68309524682599
 30
0.0
 11
143.2466059239585
 21
114.54233751980971
 31
0.0
  0
LINE
  8
LAYER001
  6
CONTINUOUS
 62
               3
  5
2E4
 10
143.2466059239585
 20
114.54233751980971
 30
0.0
 11
142.4392569369893
 21
114.37028892968095
 31
0.0
  0
LINE
  8
LAYER001
  6
CONTINUOUS
 62
               3
  5
2E5
 10
142.4392569369893
 20
114.37028892968095
 30
0.0
 11
141.63754385262405
 21
114.16694941874616
 31
0.0
  0
LINE
  8
LAYER001
  6
CONTINUOUS
 62
               3
  5
2E6
 10
141.63754385262405
 20
114.16694941874616
 30
0.0
 11
140.84240630816913
 21
113.93231892931161
 31
0.0
  0
LINE
  8
LAYER001
  6
CONTINUOUS
 62
               3
  5
2E7
 10
140.84240630816913
 20
113.93231892931161
 30
0.0
 11
140.05478394093126
 21
113.66639740368393
 31
0.0
  0
LINE
  8
LAYER001
  6
CONTINUOUS
 62
               3
  5
2E8
 10
140.05478394093126
 20
113.66639740368393
 30
0.0
 11
139.27561638821675
 21
113.36918478416956
 31
0.0
  0
LINE
  8
LAYER001
  6
CONTINUOUS
 62
               3
  5
2E9
 10
139.27561638821675
 20
113.36918478416956
 30
0.0
 11
138.5058432873322
 21
113.04068101307496
 31
0.0
  0
LINE
  8
LAYER001
  6
CONTINUOUS
 62
               3
  5
2EA
 10
138.5058432873322
 20
113.04068101307496
 30
0.0
 11
137.74640427558415
 21
112.68088603270647
 31
0.0
  0
LINE
  8
LAYER001
  6
CONTINUOUS
 62
               3
  5
2EB
 10
137.74640427558415
 20
112.68088603270647
 30
0.0
 11
136.99823899027894
 21
112.28979978537072
 31
0.0
  0
LINE
  8
LAYER001
  6
CONTINUOUS
 62
               3
  5
2EC
 10
136.99823899027894
 20
112.28979978537072
 30
0.0
 11
136.26228706872325
 21
111.86742221337397
 31
0.0
  0
LINE
  8
LAYER001
  6
CONTINUOUS
 62
               3
  5
2ED
 10
136.26228706872325
 20
111.86742221337397
 30
0.0
 11
135.53948814822343
 21
111.41375325902285
 31
0.0
  0
LINE
  8
LAYER001
  6
CONTINUOUS
 62
               3
  5
2EE
 10
135.53948814822343
 20
111.41375325902285
 30
0.0
 11
134.83078186608603
 21
110.92879286462372
 31
0.0
  0
LINE
  8
LAYER001
  6
CONTINUOUS
 62
               3
  5
2EF
 10
148.3361087988543
 20
129.8312013491211
 30
0.0
 11
148.43903070632263
 21
129.8338535512431
 31
0.0
  0
LINE
  8
LAYER001
  6
CONTINUOUS
 62
               3
  5
2F0
 10
148.43903070632263
 20
129.8338535512431
 30
0.0
 11
148.54060083662336
 21
129.84162298944565
 31
0.0
  0
LINE
  8
LAYER001
  6
CONTINUOUS
 62
               3
  5
2F1
 10
148.54060083662336
 20
129.84162298944565
 30
0.0
 11
148.64069367445944
 21
129.85438414843182
 31
0.0
  0
LINE
  8
LAYER001
  6
CONTINUOUS
 62
               3
  5
2F2
 10
148.64069367445944
 20
129.85438414843182
 30
0.0
 11
148.7391837045339
 21
129.87201151290435
 31
0.0
  0
LINE
  8
LAYER001
  6
CONTINUOUS
 62
               3
  5
2F3
 10
148.7391837045339
 20
129.87201151290435
 30
0.0
 11
148.83594541154952
 21
129.89437956756618
 31
0.0
  0
LINE
  8
LAYER001
  6
CONTINUOUS
 62
               3
  5
2F4
 10
148.83594541154952
 20
129.89437956756618
 30
0.0
 11
148.93085328020902
 21
129.92136279712028
 31
0.0
  0
LINE
  8
LAYER001
  6
CONTINUOUS
 62
               3
  5
2F5
 10
148.93085328020902
 20
129.92136279712028
 30
0.0
 11
149.02378179521565
 21
129.95283568626942
 31
0.0
  0
LINE
  8
LAYER001
  6
CONTINUOUS
 62
               3
  5
2F6
 10
149.02378179521565
 20
129.95283568626942
 30
0.0
 11
149.11460544127209
 21
129.98867271971662
 31
0.0
  0
LINE
  8
LAYER001
  6
CONTINUOUS
 62
               3
  5
2F7
 10
149.11460544127209
 20
129.98867271971662
 30
0.0
 11
149.20319870308128
 21
130.02874838216474
 31
0.0
  0
LINE
  8
LAYER001
  6
CONTINUOUS
 62
               3
  5
2F8
 10
149.20319870308128
 20
130.02874838216474
 30
0.0
 11
149.28943606534614
 21
130.07293715831662
 31
0.0
  0
LINE
  8
LAYER001
  6
CONTINUOUS
 62
               3
  5
2F9
 10
149.28943606534614
 20
130.07293715831662
 30
0.0
 11
149.37319201276955
 21
130.12111353287523
 31
0.0
  0
LINE
  8
LAYER001
  6
CONTINUOUS
 62
               3
  5
2FA
 10
149.37319201276955
 20
130.12111353287523
 30
0.0
 11
149.45434103005437
 21
130.17315199054337
 31
0.0
  0
LINE
  8
LAYER001
  6
CONTINUOUS
 62
               3
  5
2FB
 10
149.45434103005437
 20
130.17315199054337
 30
0.0
 11
149.5327576019036
 21
130.22892701602404
 31
0.0
  0
LINE
  8
LAYER001
  6
CONTINUOUS
 62
               3
  5
2FC
 10
149.5327576019036
 20
130.22892701602404
 30
0.0
 11
149.60831621302003
 21
130.28831309402011
 31
0.0
  0
LINE
  8
LAYER001
  6
CONTINUOUS
 62
               3
  5
2FD
 10
149.60831621302003
 20
130.28831309402011
 30
0.0
 11
149.68089134810651
 21
130.35118470923445
 31
0.0
  0
LINE
  8
LAYER001
  6
CONTINUOUS
 62
               3
  5
2FE
 10
149.68089134810651
 20
130.35118470923445
 30
0.0
 11
149.75035749186611
 21
130.41741634636992
 31
0.0
  0
LINE
  8
LAYER001
  6
CONTINUOUS
 62
               3
  5
2FF
 10
149.75035749186611
 20
130.41741634636992
 30
0.0
 11
149.81658912900167
 21
130.48688249012952
 31
0.0
  0
LINE
  8
LAYER001
  6
CONTINUOUS
 62
               3
  5
300
 10
149.81658912900167
 20
130.48688249012952
 30
0.0
 11
149.87946074421598
 21
130.55945762521608
 31
0.0
  0
LINE
  8
LAYER001
  6
CONTINUOUS
 62
               3
  5
301
 10
149.87946074421598
 20
130.55945762521608
 30
0.0
 11
149.9388468222121
 21
130.63501623633249
 31
0.0
  0
LINE
  8
LAYER001
  6
CONTINUOUS
 62
               3
  5
302
 10
149.9388468222121
 20
130.63501623633249
 30
0.0
 11
149.99462184769277
 21
130.71343280818166
 31
0.0
  0
LINE
  8
LAYER001
  6
CONTINUOUS
 62
               3
  5
303
 10
149.99462184769277
 20
130.71343280818166
 30
0.0
 11
150.04666030536094
 21
130.79458182546648
 31
0.0
  0
LINE
  8
LAYER001
  6
CONTINUOUS
 62
               3
  5
304
 10
150.04666030536094
 20
130.79458182546648
 30
0.0
 11
150.09483667991958
 21
130.87833777288986
 31
0.0
  0
LINE
  8
LAYER001
  6
CONTINUOUS
 62
               3
  5
305
 10
150.09483667991958
 20
130.87833777288986
 30
0.0
 11
150.13902545607152
 21
130.96457513515466
 31
0.0
  0
LINE
  8
LAYER001
  6
CONTINUOUS
 62
               3
  5
306
 10
150.13902545607152
 20
130.96457513515466
 30
0.0
 11
150.17910111851961
 21
131.05316839696386
 31
0.0
  0
LINE
  8
LAYER001
  6
CONTINUOUS
 62
               3
  5
307
 10
150.17910111851961
 20
131.05316839696386
 30
0.0
 11
150.21493815196681
 21
131.14399204302029
 31
0.0
  0
LINE
  8
LAYER001
  6
CONTINUOUS
 62
               3
  5
308
 10
150.21493815196681
 20
131.14399204302029
 30
0.0
 11
150.24641104111606
 21
131.23692055802687
 31
0.0
  0
LINE
  8
LAYER001
  6
CONTINUOUS
 62
               3
  5
309
 10
150.24641104111606
 20
131.23692055802687
 30
0.0
 11
150.27339427067022
 21
131.33182842668646
 31
0.0
  0
LINE
  8
LAYER001
  6
CONTINUOUS
 62
               3
  5
30A
 10
150.27339427067022
 20
131.33182842668646
 30
0.0
 11
150.29576232533219
 21
131.42859013370199
 31
0.0
  0
LINE
  8
LAYER001
  6
CONTINUOUS
 62
               3
  5
30B
 10
150.29576232533219
 20
131.42859013370199
 30
0.0
 11
150.31338968980475
 21
131.52708016377633
 31
0.0
  0
LINE
  8
LAYER001
  6
CONTINUOUS
 62
               3
  5
30C
 10
150.31338968980475
 20
131.52708016377633
 30
0.0
 11
150.32615084879097
 21
131.62717300161242
 31
0.0
  0
LINE
  8
LAYER001
  6
CONTINUOUS
 62
               3
  5
30D
 10
150.32615084879097
 20
131.62717300161242
 30
0.0
 11
150.33392028699365
 21
131.72874313191312
 31
0.0
  0
LINE
  8
LAYER001
  6
CONTINUOUS
 62
               3
  5
30E
 10
150.33392028699365
 20
131.72874313191312
 30
0.0
 11
150.33657248911578
 21
131.83166503938136
 31
0.0
  0
LINE
  8
LAYER001
  6
CONTINUOUS
 62
               3
  5
30F
 10
144.33518154302334
 20
131.83166503938074
 30
0.0
 11
144.3378337451453
 21
131.72874313191255
 31
0.0
  0
LINE
  8
LAYER001
  6
CONTINUOUS
 62
               3
  5
310
 10
144.3378337451453
 20
131.72874313191255
 30
0.0
 11
144.34560318334792
 21
131.62717300161191
 31
0.0
  0
LINE
  8
LAYER001
  6
CONTINUOUS
 62
               3
  5
311
 10
144.34560318334792
 20
131.62717300161191
 30
0.0
 11
144.35836434233403
 21
131.52708016377571
 31
0.0
  0
LINE
  8
LAYER001
  6
CONTINUOUS
 62
               3
  5
312
 10
144.35836434233403
 20
131.52708016377571
 30
0.0
 11
144.37599170680647
 21
131.42859013370136
 31
0.0
  0
LINE
  8
LAYER001
  6
CONTINUOUS
 62
               3
  5
313
 10
144.37599170680647
 20
131.42859013370136
 30
0.0
 11
144.39835976146844
 21
131.33182842668583
 31
0.0
  0
LINE
  8
LAYER001
  6
CONTINUOUS
 62
               3
  5
314
 10
144.39835976146844
 20
131.33182842668583
 30
0.0
 11
144.42534299102249
 21
131.2369205580263
 31
0.0
  0
LINE
  8
LAYER001
  6
CONTINUOUS
 62
               3
  5
315
 10
144.42534299102249
 20
131.2369205580263
 30
0.0
 11
144.45681588017169
 21
131.14399204301972
 31
0.0
  0
LINE
  8
LAYER001
  6
CONTINUOUS
 62
               3
  5
316
 10
144.45681588017169
 20
131.14399204301972
 30
0.0
 11
144.49265291361883
 21
131.05316839696334
 31
0.0
  0
LINE
  8
LAYER001
  6
CONTINUOUS
 62
               3
  5
317
 10
144.49265291361883
 20
131.05316839696334
 30
0.0
 11
144.53272857606686
 21
130.96457513515415
 31
0.0
  0
LINE
  8
LAYER001
  6
CONTINUOUS
 62
               3
  5
318
 10
144.53272857606686
 20
130.96457513515415
 30
0.0
 11
144.57691735221874
 21
130.87833777288935
 31
0.0
  0
LINE
  8
LAYER001
  6
CONTINUOUS
 62
               3
  5
319
 10
144.57691735221874
 20
130.87833777288935
 30
0.0
 11
144.62509372677732
 21
130.79458182546603
 31
0.0
  0
LINE
  8
LAYER001
  6
CONTINUOUS
 62
               3
  5
31A
 10
144.62509372677732
 20
130.79458182546603
 30
0.0
 11
144.67713218444544
 21
130.71343280818121
 31
0.0
  0
LINE
  8
LAYER001
  6
CONTINUOUS
 62
               3
  5
31B
 10
144.67713218444544
 20
130.71343280818121
 30
0.0
 11
144.73290720992611
 21
130.63501623633209
 31
0.0
  0
LINE
  8
LAYER001
  6
CONTINUOUS
 62
               3
  5
31C
 10
144.73290720992611
 20
130.63501623633209
 30
0.0
 11
144.79229328792218
 21
130.55945762521569
 31
0.0
  0
LINE
  8
LAYER001
  6
CONTINUOUS
 62
               3
  5
31D
 10
144.79229328792218
 20
130.55945762521569
 30
0.0
 11
144.85516490313648
 21
130.48688249012918
 31
0.0
  0
LINE
  8
LAYER001
  6
CONTINUOUS
 62
               3
  5
31E
 10
144.85516490313648
 20
130.48688249012918
 30
0.0
 11
144.92139654027199
 21
130.41741634636963
 31
0.0
  0
LINE
  8
LAYER001
  6
CONTINUOUS
 62
               3
  5
31F
 10
144.92139654027199
 20
130.41741634636963
 30
0.0
 11
144.99086268403153
 21
130.35118470923416
 31
0.0
  0
LINE
  8
LAYER001
  6
CONTINUOUS
 62
               3
  5
320
 10
144.99086268403153
 20
130.35118470923416
 30
0.0
 11
145.06343781911801
 21
130.28831309401983
 31
0.0
  0
LINE
  8
LAYER001
  6
CONTINUOUS
 62
               3
  5
321
 10
145.06343781911801
 20
130.28831309401983
 30
0.0
 11
145.13899643023444
 21
130.22892701602382
 31
0.0
  0
LINE
  8
LAYER001
  6
CONTINUOUS
 62
               3
  5
322
 10
145.13899643023444
 20
130.22892701602382
 30
0.0
 11
145.21741300208362
 21
130.1731519905432
 31
0.0
  0
LINE
  8
LAYER001
  6
CONTINUOUS
 62
               3
  5
323
 10
145.21741300208362
 20
130.1731519905432
 30
0.0
 11
145.29856201936843
 21
130.121113532875
 31
0.0
  0
LINE
  8
LAYER001
  6
CONTINUOUS
 62
               3
  5
324
 10
145.29856201936843
 20
130.121113532875
 30
0.0
 11
145.38231796679185
 21
130.07293715831645
 31
0.0
  0
LINE
  8
LAYER001
  6
CONTINUOUS
 62
               3
  5
325
 10
145.38231796679185
 20
130.07293715831645
 30
0.0
 11
145.4685553290567
 21
130.02874838216462
 31
0.0
  0
LINE
  8
LAYER001
  6
CONTINUOUS
 62
               3
  5
326
 10
145.4685553290567
 20
130.02874838216462
 30
0.0
 11
145.55714859086589
 21
129.98867271971656
 31
0.0
  0
LINE
  8
LAYER001
  6
CONTINUOUS
 62
               3
  5
327
 10
145.55714859086589
 20
129.98867271971656
 30
0.0
 11
145.64797223692233
 21
129.95283568626937
 31
0.0
  0
LINE
  8
LAYER001
  6
CONTINUOUS
 62
               3
  5
328
 10
145.64797223692233
 20
129.95283568626937
 30
0.0
 11
145.7409007519289
 21
129.92136279712022
 31
0.0
  0
LINE
  8
LAYER001
  6
CONTINUOUS
 62
               3
  5
329
 10
145.7409007519289
 20
129.92136279712022
 30
0.0
 11
145.83580862058847
 21
129.89437956756618
 31
0.0
  0
LINE
  8
LAYER001
  6
CONTINUOUS
 62
               3
  5
32A
 10
145.83580862058847
 20
129.89437956756618
 30
0.0
 11
145.93257032760408
 21
129.87201151290429
 31
0.0
  0
LINE
  8
LAYER001
  6
CONTINUOUS
 62
               3
  5
32B
 10
145.93257032760408
 20
129.87201151290429
 30
0.0
 11
146.03106035767848
 21
129.85438414843176
 31
0.0
  0
LINE
  8
LAYER001
  6
CONTINUOUS
 62
               3
  5
32C
 10
146.03106035767848
 20
129.85438414843176
 30
0.0
 11
146.13115319551457
 21
129.84162298944565
 31
0.0
  0
LINE
  8
LAYER001
  6
CONTINUOUS
 62
               3
  5
32D
 10
146.13115319551457
 20
129.84162298944565
 30
0.0
 11
146.2327233258153
 21
129.8338535512431
 31
0.0
  0
LINE
  8
LAYER001
  6
CONTINUOUS
 62
               3
  5
32E
 10
146.2327233258153
 20
129.8338535512431
 30
0.0
 11
146.33564523328363
 21
129.8312013491211
 31
0.0
  0
LINE
  8
LAYER001
  6
CONTINUOUS
 62
               3
  5
32F
 10
147.33480344879825
 20
151.00965193934496
 30
0.0
 11
147.15751953285104
 21
151.0987986986967
 31
0.0
  0
LINE
  8
LAYER001
  6
CONTINUOUS
 62
               3
  5
330
 10
147.15751953285104
 20
151.0987986986967
 30
0.0
 11
146.97825172463871
 21
151.18219631358173
 31
0.0
  0
LINE
  8
LAYER001
  6
CONTINUOUS
 62
               3
  5
331
 10
146.97825172463871
 20
151.18219631358173
 30
0.0
 11
146.79713221912175
 21
151.25984476174671
 31
0.0
  0
LINE
  8
LAYER001
  6
CONTINUOUS
 62
               3
  5
332
 10
146.79713221912175
 20
151.25984476174671
 30
0.0
 11
146.61429321126087
 21
151.33174402093809
 31
0.0
  0
LINE
  8
LAYER001
  6
CONTINUOUS
 62
               3
  5
333
 10
146.61429321126087
 20
151.33174402093809
 30
0.0
 11
146.42986689601639
 21
151.39789406890247
 31
0.0
  0
LINE
  8
LAYER001
  6
CONTINUOUS
 62
               3
  5
334
 10
146.42986689601639
 20
151.39789406890247
 30
0.0
 11
146.24398546834897
 21
151.45829488338643
 31
0.0
  0
LINE
  8
LAYER001
  6
CONTINUOUS
 62
               3
  5
335
 10
146.24398546834897
 20
151.45829488338643
 30
0.0
 11
146.05678112321914
 21
151.5129464421363
 31
0.0
  0
LINE
  8
LAYER001
  6
CONTINUOUS
 62
               3
  5
336
 10
146.05678112321914
 20
151.5129464421363
 30
0.0
 11
145.86838605558739
 21
151.56184872289882
 31
0.0
  0
LINE
  8
LAYER001
  6
CONTINUOUS
 62
               3
  5
337
 10
145.86838605558739
 20
151.56184872289882
 30
0.0
 11
145.67893246041433
 21
151.60500170342036
 31
0.0
  0
LINE
  8
LAYER001
  6
CONTINUOUS
 62
               3
  5
338
 10
145.67893246041433
 20
151.60500170342036
 30
0.0
 11
145.48855253266038
 21
151.64240536144771
 31
0.0
  0
LINE
  8
LAYER001
  6
CONTINUOUS
 62
               3
  5
339
 10
145.48855253266038
 20
151.64240536144771
 30
0.0
 11
145.29737846728619
 21
151.67405967472703
 31
0.0
  0
LINE
  8
LAYER001
  6
CONTINUOUS
 62
               3
  5
33A
 10
145.29737846728619
 20
151.67405967472703
 30
0.0
 11
145.10554245925226
 21
151.69996462100517
 31
0.0
  0
LINE
  8
LAYER001
  6
CONTINUOUS
 62
               3
  5
33B
 10
145.10554245925226
 20
151.69996462100517
 30
0.0
 11
144.91317670351918
 21
151.72012017802857
 31
0.0
  0
LINE
  8
LAYER001
  6
CONTINUOUS
 62
               3
  5
33C
 10
144.91317670351918
 20
151.72012017802857
 30
0.0
 11
144.72041339504733
 21
151.73452632354363
 31
0.0
  0
LINE
  8
LAYER001
  6
CONTINUOUS
 62
               3
  5
33D
 10
144.72041339504733
 20
151.73452632354363
 30
0.0
 11
144.52738472879736
 21
151.74318303529708
 31
0.0
  0
LINE
  8
LAYER001
  6
CONTINUOUS
 62
               3
  5
33E
 10
144.52738472879736
 20
151.74318303529708
 30
0.0
 11
144.33422289972981
 21
151.74609029103527
 31
0.0
  0
LINE
  8
LAYER001
  6
CONTINUOUS
 62
               3
  5
33F
 10
144.33422289972981
 20
151.74609029103527
 30
0.0
 11
144.14106010280528
 21
151.74324806850493
 31
0.0
  0
LINE
  8
LAYER001
  6
CONTINUOUS
 62
               3
  5
340
 10
144.14106010280528
 20
151.74324806850493
 30
0.0
 11
143.94802853298415
 21
151.73465634545246
 31
0.0
  0
LINE
  8
LAYER001
  6
CONTINUOUS
 62
               3
  5
341
 10
143.94802853298415
 20
151.73465634545246
 30
0.0
 11
143.75526038522707
 21
151.72031509962432
 31
0.0
  0
LINE
  8
LAYER001
  6
CONTINUOUS
 62
               3
  5
342
 10
143.75526038522707
 20
151.72031509962432
 30
0.0
 11
143.56288785449448
 21
151.7002243087673
 31
0.0
  0
LINE
  8
LAYER001
  6
CONTINUOUS
 62
               3
  5
343
 10
143.56288785449448
 20
151.7002243087673
 30
0.0
 11
143.37104313574707
 21
151.67438395062766
 31
0.0
  0
LINE
  8
LAYER001
  6
CONTINUOUS
 62
               3
  5
344
 10
143.37104313574707
 20
151.67438395062766
 30
0.0
 11
143.17985842394529
 21
151.64279400295212
 31
0.0
  0
LINE
  8
LAYER001
  6
CONTINUOUS
 62
               3
  5
345
 10
143.17985842394529
 20
151.64279400295212
 30
0.0
 11
142.98946591404962
 21
151.60545444348713
 31
0.0
  0
LINE
  8
LAYER001
  6
CONTINUOUS
 62
               3
  5
346
 10
142.98946591404962
 20
151.60545444348713
 30
0.0
 11
142.79999780102065
 21
151.56236524997925
 31
0.0
  0
LINE
  8
LAYER001
  6
CONTINUOUS
 62
               3
  5
347
 10
142.79999780102065
 20
151.56236524997925
 30
0.0
 11
142.61158627981888
 21
151.51352640017495
 31
0.0
  0
LINE
  8
LAYER001
  6
CONTINUOUS
 62
               3
  5
348
 10
142.61158627981888
 20
151.51352640017495
 30
0.0
 11
142.42436354540501
 21
151.45893787182089
 31
0.0
  0
LINE
  8
LAYER001
  6
CONTINUOUS
 62
               3
  5
349
 10
142.42436354540501
 20
151.45893787182089
 30
0.0
 11
142.23846179273937
 21
151.3985996426635
 31
0.0
  0
LINE
  8
LAYER001
  6
CONTINUOUS
 62
               3
  5
34A
 10
142.23846179273937
 20
151.3985996426635
 30
0.0
 11
142.05401321678261
 21
151.33251169044939
 31
0.0
  0
LINE
  8
LAYER001
  6
CONTINUOUS
 62
               3
  5
34B
 10
142.05401321678261
 20
151.33251169044939
 30
0.0
 11
141.87115001249526
 21
151.26067399292489
 31
0.0
  0
LINE
  8
LAYER001
  6
CONTINUOUS
 62
               3
  5
34C
 10
141.87115001249526
 20
151.26067399292489
 30
0.0
 11
141.69000437483777
 21
151.18308652783682
 31
0.0
  0
LINE
  8
LAYER001
  6
CONTINUOUS
 62
               3
  5
34D
 10
141.69000437483777
 20
151.18308652783682
 30
0.0
 11
141.51070849877084
 21
151.09974927293152
 31
0.0
  0
LINE
  8
LAYER001
  6
CONTINUOUS
 62
               3
  5
34E
 10
141.51070849877084
 20
151.09974927293152
 30
0.0
 11
141.33339457925484
 21
151.01066220595564
 31
0.0
  0
LINE
  8
LAYER001
  6
CONTINUOUS
 62
               3
  5
34F
 10
153.3361774709208
 20
151.01170781740041
 30
0.0
 11
153.15882365239668
 21
151.10065720692754
 31
0.0
  0
LINE
  8
LAYER001
  6
CONTINUOUS
 62
               3
  5
350
 10
153.15882365239668
 20
151.10065720692754
 30
0.0
 11
152.97949361712455
 21
151.18386329225217
 31
0.0
  0
LINE
  8
LAYER001
  6
CONTINUOUS
 62
               3
  5
351
 10
152.97949361712455
 20
151.18386329225217
 30
0.0
 11
152.79831924509813
 21
151.26132611891771
 31
0.0
  0
LINE
  8
LAYER001
  6
CONTINUOUS
 62
               3
  5
352
 10
152.79831924509813
 20
151.26132611891771
 30
0.0
 11
152.61543241631102
 21
151.33304573246753
 31
0.0
  0
LINE
  8
LAYER001
  6
CONTINUOUS
 62
               3
  5
353
 10
152.61543241631102
 20
151.33304573246753
 30
0.0
 11
152.43096501075701
 21
151.39902217844522
 31
0.0
  0
LINE
  8
LAYER001
  6
CONTINUOUS
 62
               3
  5
354
 10
152.43096501075701
 20
151.39902217844522
 30
0.0
 11
152.24504890842951
 21
151.459255502394
 31
0.0
  0
LINE
  8
LAYER001
  6
CONTINUOUS
 62
               3
  5
355
 10
152.24504890842951
 20
151.459255502394
 30
0.0
 11
152.05781598932242
 21
151.51374574985746
 31
0.0
  0
LINE
  8
LAYER001
  6
CONTINUOUS
 62
               3
  5
356
 10
152.05781598932242
 20
151.51374574985746
 30
0.0
 11
151.8693981334294
 21
151.56249296637912
 31
0.0
  0
LINE
  8
LAYER001
  6
CONTINUOUS
 62
               3
  5
357
 10
151.8693981334294
 20
151.56249296637912
 30
0.0
 11
151.67992722074405
 21
151.6054971975023
 31
0.0
  0
LINE
  8
LAYER001
  6
CONTINUOUS
 62
               3
  5
358
 10
151.67992722074405
 20
151.6054971975023
 30
0.0
 11
151.48953513126008
 21
151.6427584887704
 31
0.0
  0
LINE
  8
LAYER001
  6
CONTINUOUS
 62
               3
  5
359
 10
151.48953513126008
 20
151.6427584887704
 30
0.0
 11
151.29835374497111
 21
151.67427688572704
 31
0.0
  0
LINE
  8
LAYER001
  6
CONTINUOUS
 62
               3
  5
35A
 10
151.29835374497111
 20
151.67427688572704
 30
0.0
 11
151.1065149418709
 21
151.70005243391554
 31
0.0
  0
LINE
  8
LAYER001
  6
CONTINUOUS
 62
               3
  5
35B
 10
151.1065149418709
 20
151.70005243391554
 30
0.0
 11
150.914150601953
 21
151.72008517887934
 31
0.0
  0
LINE
  8
LAYER001
  6
CONTINUOUS
 62
               3
  5
35C
 10
150.914150601953
 20
151.72008517887934
 30
0.0
 11
150.72139260521112
 21
151.73437516616193
 31
0.0
  0
LINE
  8
LAYER001
  6
CONTINUOUS
 62
               3
  5
35D
 10
150.72139260521112
 20
151.73437516616193
 30
0.0
 11
150.52837283163899
 21
151.74292244130669
 31
0.0
  0
LINE
  8
LAYER001
  6
CONTINUOUS
 62
               3
  5
35E
 10
150.52837283163899
 20
151.74292244130669
 30
0.0
 11
150.33522316123032
 21
151.74572704985721
 31
0.0
  0
LINE
  8
LAYER001
  6
CONTINUOUS
 62
               3
  5
35F
 10
150.33522316123032
 20
151.74572704985721
 30
0.0
 11
150.14207547397859
 21
151.74278903735672
 31
0.0
  0
LINE
  8
LAYER001
  6
CONTINUOUS
 62
               3
  5
360
 10
150.14207547397859
 20
151.74278903735672
 30
0.0
 11
149.94906164987759
 21
151.73410844934887
 31
0.0
  0
LINE
  8
LAYER001
  6
CONTINUOUS
 62
               3
  5
361
 10
149.94906164987759
 20
151.73410844934887
 30
0.0
 11
149.75631356892103
 21
151.71968533137698
 31
0.0
  0
LINE
  8
LAYER001
  6
CONTINUOUS
 62
               3
  5
362
 10
149.75631356892103
 20
151.71968533137698
 30
0.0
 11
149.56396311110251
 21
151.69951972898448
 31
0.0
  0
LINE
  8
LAYER001
  6
CONTINUOUS
 62
               3
  5
363
 10
149.56396311110251
 20
151.69951972898448
 30
0.0
 11
149.3721421564158
 21
151.6736116877149
 31
0.0
  0
LINE
  8
LAYER001
  6
CONTINUOUS
 62
               3
  5
364
 10
149.3721421564158
 20
151.6736116877149
 30
0.0
 11
149.18098258485446
 21
151.64196125311162
 31
0.0
  0
LINE
  8
LAYER001
  6
CONTINUOUS
 62
               3
  5
365
 10
149.18098258485446
 20
151.64196125311162
 30
0.0
 11
148.9906162764122
 21
151.60456847071811
 31
0.0
  0
LINE
  8
LAYER001
  6
CONTINUOUS
 62
               3
  5
366
 10
148.9906162764122
 20
151.60456847071811
 30
0.0
 11
148.80117511108267
 21
151.56143338607791
 31
0.0
  0
LINE
  8
LAYER001
  6
CONTINUOUS
 62
               3
  5
367
 10
148.80117511108267
 20
151.56143338607791
 30
0.0
 11
148.61279096885954
 21
151.51255604473425
 31
0.0
  0
LINE
  8
LAYER001
  6
CONTINUOUS
 62
               3
  5
368
 10
148.61279096885954
 20
151.51255604473425
 30
0.0
 11
148.42559572973659
 21
151.45793649223074
 31
0.0
  0
LINE
  8
LAYER001
  6
CONTINUOUS
 62
               3
  5
369
 10
148.42559572973659
 20
151.45793649223074
 30
0.0
 11
148.23972127370735
 21
151.39757477411078
 31
0.0
  0
LINE
  8
LAYER001
  6
CONTINUOUS
 62
               3
  5
36A
 10
148.23972127370735
 20
151.39757477411078
 30
0.0
 11
148.0552994807656
 21
151.33147093591776
 31
0.0
  0
LINE
  8
LAYER001
  6
CONTINUOUS
 62
               3
  5
36B
 10
148.0552994807656
 20
151.33147093591776
 30
0.0
 11
147.87246223090489
 21
151.25962502319521
 31
0.0
  0
LINE
  8
LAYER001
  6
CONTINUOUS
 62
               3
  5
36C
 10
147.87246223090489
 20
151.25962502319521
 30
0.0
 11
147.69134140411893
 21
151.1820370814865
 31
0.0
  0
LINE
  8
LAYER001
  6
CONTINUOUS
 62
               3
  5
36D
 10
147.69134140411893
 20
151.1820370814865
 30
0.0
 11
147.5120688804015
 21
151.09870715633514
 31
0.0
  0
LINE
  8
LAYER001
  6
CONTINUOUS
 62
               3
  5
36E
 10
147.5120688804015
 20
151.09870715633514
 30
0.0
 11
147.33477653974614
 21
151.00963529328456
 31
0.0
  0
LINE
  8
LAYER001
  6
CONTINUOUS
 62
               3
  5
36F
 10
-17.430267022068172
 20
126.52919572696047
 30
0.0
 11
-17.484743792161456
 21
126.49653740290699
 31
0.0
  0
LINE
  8
LAYER001
  6
CONTINUOUS
 62
               3
  5
370
 10
-17.484743792161456
 20
126.49653740290699
 30
0.0
 11
-17.537872401650741
 21
126.46223451214402
 31
0.0
  0
LINE
  8
LAYER001
  6
CONTINUOUS
 62
               3
  5
371
 10
-17.537872401650741
 20
126.46223451214402
 30
0.0
 11
-17.589627847667835
 21
126.42633035075022
 31
0.0
  0
LINE
  8
LAYER001
  6
CONTINUOUS
 62
               3
  5
372
 10
-17.589627847667835
 20
126.42633035075022
 30
0.0
 11
-17.639985127344346
 21
126.38886821480503
 31
0.0
  0
LINE
  8
LAYER001
  6
CONTINUOUS
 62
               3
  5
373
 10
-17.639985127344346
 20
126.38886821480503
 30
0.0
 11
-17.688919237812048
 21
126.34989140038738
 31
0.0
  0
LINE
  8
LAYER001
  6
CONTINUOUS
 62
               3
  5
374
 10
-17.688919237812048
 20
126.34989140038738
 30
0.0
 11
-17.736405176202631
 21
126.30944320357636
 31
0.0
  0
LINE
  8
LAYER001
  6
CONTINUOUS
 62
               3
  5
375
 10
-17.736405176202631
 20
126.30944320357636
 30
0.0
 11
-17.782417939647843
 21
126.26756692045112
 31
0.0
  0
LINE
  8
LAYER001
  6
CONTINUOUS
 62
               3
  5
376
 10
-17.782417939647843
 20
126.26756692045112
 30
0.0
 11
-17.826932525279322
 21
126.22430584709068
 31
0.0
  0
LINE
  8
LAYER001
  6
CONTINUOUS
 62
               3
  5
377
 10
-17.826932525279322
 20
126.22430584709068
 30
0.0
 11
-17.869923930228815
 21
126.17970327957394
 31
0.0
  0
LINE
  8
LAYER001
  6
CONTINUOUS
 62
               3
  5
378
 10
-17.869923930228815
 20
126.17970327957394
 30
0.0
 11
-17.911367151628038
 21
126.13380251398019
 31
0.0
  0
LINE
  8
LAYER001
  6
CONTINUOUS
 62
               3
  5
379
 10
-17.911367151628038
 20
126.13380251398019
 30
0.0
 11
-17.951237186608687
 21
126.08664684638839
 31
0.0
  0
LINE
  8
LAYER001
  6
CONTINUOUS
 62
               3
  5
37A
 10
-17.951237186608687
 20
126.08664684638839
 30
0.0
 11
-17.989509032302479
 21
126.03827957287771
 31
0.0
  0
LINE
  8
LAYER001
  6
CONTINUOUS
 62
               3
  5
37B
 10
-17.989509032302479
 20
126.03827957287771
 30
0.0
 11
-18.026157685841135
 21
125.98874398952717
 31
0.0
  0
LINE
  8
LAYER001
  6
CONTINUOUS
 62
               3
  5
37C
 10
-18.026157685841135
 20
125.98874398952717
 30
0.0
 11
-18.061158144356344
 21
125.93808339241579
 31
0.0
  0
LINE
  8
LAYER001
  6
CONTINUOUS
 62
               3
  5
37D
 10
-18.061158144356344
 20
125.93808339241579
 30
0.0
 11
-18.094485404979828
 21
125.88634107762283
 31
0.0
  0
LINE
  8
LAYER001
  6
CONTINUOUS
 62
               3
  5
37E
 10
-18.094485404979828
 20
125.88634107762283
 30
0.0
 11
-18.126114464843308
 21
125.83356034122704
 31
0.0
  0
LINE
  8
LAYER001
  6
CONTINUOUS
 62
               3
  5
37F
 10
-18.126114464843308
 20
125.83356034122704
 30
0.0
 11
-18.15602032107844
 21
125.77978447930781
 31
0.0
  0
LINE
  8
LAYER001
  6
CONTINUOUS
 62
               3
  5
380
 10
-18.15602032107844
 20
125.77978447930781
 30
0.0
 11
-18.184177970817039
 21
125.72505678794397
 31
0.0
  0
LINE
  8
LAYER001
  6
CONTINUOUS
 62
               3
  5
381
 10
-18.184177970817039
 20
125.72505678794397
 30
0.0
 11
-18.210562411190701
 21
125.66942056321477
 31
0.0
  0
LINE
  8
LAYER001
  6
CONTINUOUS
 62
               3
  5
382
 10
-18.210562411190701
 20
125.66942056321477
 30
0.0
 11
-18.235148639331211
 21
125.6129191011992
 31
0.0
  0
LINE
  8
LAYER001
  6
CONTINUOUS
 62
               3
  5
383
 10
-18.235148639331211
 20
125.6129191011992
 30
0.0
 11
-18.257911652370225
 21
125.55559569797632
 31
0.0
  0
LINE
  8
LAYER001
  6
CONTINUOUS
 62
               3
  5
384
 10
-18.257911652370225
 20
125.55559569797632
 30
0.0
 11
-18.278826447439496
 21
125.49749364962523
 31
0.0
  0
LINE
  8
LAYER001
  6
CONTINUOUS
 62
               3
  5
385
 10
-18.278826447439496
 20
125.49749364962523
 30
0.0
 11
-18.297868021670741
 21
125.43865625222503
 31
0.0
  0
LINE
  8
LAYER001
  6
CONTINUOUS
 62
               3
  5
386
 10
-18.297868021670741
 20
125.43865625222503
 30
0.0
 11
-18.31501137219562
 21
125.37912680185471
 31
0.0
  0
LINE
  8
LAYER001
  6
CONTINUOUS
 62
               3
  5
387
 10
-18.31501137219562
 20
125.37912680185471
 30
0.0
 11
-18.330231496145917
 21
125.31894859459339
 31
0.0
  0
LINE
  8
LAYER001
  6
CONTINUOUS
 62
               3
  5
388
 10
-18.330231496145917
 20
125.31894859459339
 30
0.0
 11
-18.343503390653233
 21
125.25816492652018
 31
0.0
  0
LINE
  8
LAYER001
  6
CONTINUOUS
 62
               3
  5
389
 10
-18.343503390653233
 20
125.25816492652018
 30
0.0
 11
-18.354802052849376
 21
125.19681909371411
 31
0.0
  0
LINE
  8
LAYER001
  6
CONTINUOUS
 62
               3
  5
38A
 10
-18.354802052849376
 20
125.19681909371411
 30
0.0
 11
-18.364102479866034
 21
125.1349543922542
 31
0.0
  0
LINE
  8
LAYER001
  6
CONTINUOUS
 62
               3
  5
38B
 10
-18.364102479866034
 20
125.1349543922542
 30
0.0
 11
-18.371379668834898
 21
125.0726141182196
 31
0.0
  0
LINE
  8
LAYER001
  6
CONTINUOUS
 62
               3
  5
38C
 10
-18.371379668834898
 20
125.0726141182196
 30
0.0
 11
-18.376608616887662
 21
125.00984156768939
 31
0.0
  0
LINE
  8
LAYER001
  6
CONTINUOUS
 62
               3
  5
38D
 10
-18.376608616887662
 20
125.00984156768939
 30
0.0
 11
-18.379764321156099
 21
124.94668003674261
 31
0.0
  0
LINE
  8
LAYER001
  6
CONTINUOUS
 62
               3
  5
38E
 10
-18.379764321156099
 20
124.94668003674261
 30
0.0
 11
-18.38082177877185
 21
124.88317282145832
 31
0.0
  0
LINE
  8
LAYER001
  6
CONTINUOUS
 62
               3
  5
38F
 10
-10.929770383237269
 20
130.28049825764242
 30
0.0
 11
-10.812215247772777
 21
130.3509714832314
 31
0.0
  0
LINE
  8
LAYER001
  6
CONTINUOUS
 62
               3
  5
390
 10
-10.812215247772777
 20
130.3509714832314
 30
0.0
 11
-10.697569300979993
 21
130.42499351066752
 31
0.0
  0
LINE
  8
LAYER001
  6
CONTINUOUS
 62
               3
  5
391
 10
-10.697569300979993
 20
130.42499351066752
 30
0.0
 11
-10.585886496416826
 21
130.50247091156976
 31
0.0
  0
LINE
  8
LAYER001
  6
CONTINUOUS
 62
               3
  5
392
 10
-10.585886496416826
 20
130.50247091156976
 30
0.0
 11
-10.477220787641123
 21
130.58331025755669
 31
0.0
  0
LINE
  8
LAYER001
  6
CONTINUOUS
 62
               3
  5
393
 10
-10.477220787641123
 20
130.58331025755669
 30
0.0
 11
-10.37162612821076
 21
130.66741812024742
 31
0.0
  0
LINE
  8
LAYER001
  6
CONTINUOUS
 62
               3
  5
394
 10
-10.37162612821076
 20
130.66741812024742
 30
0.0
 11
-10.269156471683708
 21
130.75470107126063
 31
0.0
  0
LINE
  8
LAYER001
  6
CONTINUOUS
 62
               3
  5
395
 10
-10.269156471683708
 20
130.75470107126063
 30
0.0
 11
-10.169865771617758
 21
130.84506568221516
 31
0.0
  0
LINE
  8
LAYER001
  6
CONTINUOUS
 62
               3
  5
396
 10
-10.169865771617758
 20
130.84506568221516
 30
0.0
 11
-10.073807981570869
 21
130.93841852473
 31
0.0
  0
LINE
  8
LAYER001
  6
CONTINUOUS
 62
               3
  5
397
 10
-10.073807981570869
 20
130.93841852473
 30
0.0
 11
-9.9810370551008667
 21
131.03466617042378
 31
0.0
  0
LINE
  8
LAYER001
  6
CONTINUOUS
 62
               3
  5
398
 10
-9.9810370551008667
 20
131.03466617042378
 30
0.0
 11
-9.8916069457656874
 21
131.13371519091558
 31
0.0
  0
LINE
  8
LAYER001
  6
CONTINUOUS
 62
               3
  5
399
 10
-9.8916069457656874
 20
131.13371519091558
 30
0.0
 11
-9.8055716071232659
 21
131.23547215782412
 31
0.0
  0
LINE
  8
LAYER001
  6
CONTINUOUS
 62
               3
  5
39A
 10
-9.8055716071232659
 20
131.23547215782412
 30
0.0
 11
-9.7229849927313943
 21
131.33984364276816
 31
0.0
  0
LINE
  8
LAYER001
  6
CONTINUOUS
 62
               3
  5
39B
 10
-9.7229849927313943
 20
131.33984364276816
 30
0.0
 11
-9.6439010561479819
 21
131.44673621736672
 31
0.0
  0
LINE
  8
LAYER001
  6
CONTINUOUS
 62
               3
  5
39C
 10
-9.6439010561479819
 20
131.44673621736672
 30
0.0
 11
-9.5683737509309879
 21
131.5560564532386
 31
0.0
  0
LINE
  8
LAYER001
  6
CONTINUOUS
 62
               3
  5
39D
 10
-9.5683737509309879
 20
131.5560564532386
 30
0.0
 11
-9.4964570306381795
 21
131.66771092200253
 31
0.0
  0
LINE
  8
LAYER001
  6
CONTINUOUS
 62
               3
  5
39E
 10
-9.4964570306381795
 20
131.66771092200253
 30
0.0
 11
-9.4282048488275798
 21
131.78160619527745
 31
0.0
  0
LINE
  8
LAYER001
  6
CONTINUOUS
 62
               3
  5
39F
 10
-9.4282048488275798
 20
131.78160619527745
 30
0.0
 11
-9.363671159056981
 21
131.89764884468224
 31
0.0
  0
LINE
  8
LAYER001
  6
CONTINUOUS
 62
               3
  5
3A0
 10
-9.363671159056981
 20
131.89764884468224
 30
0.0
 11
-9.3029099148843173
 21
132.01574544183569
 31
0.0
  0
LINE
  8
LAYER001
  6
CONTINUOUS
 62
               3
  5
3A1
 10
-9.3029099148843173
 20
132.01574544183569
 30
0.0
 11
-9.2459750698674661
 21
132.13580255835657
 31
0.0
  0
LINE
  8
LAYER001
  6
CONTINUOUS
 62
               3
  5
3A2
 10
-9.2459750698674661
 20
132.13580255835657
 30
0.0
 11
-9.1929205775643084
 21
132.25772676586394
 31
0.0
  0
LINE
  8
LAYER001
  6
CONTINUOUS
 62
               3
  5
3A3
 10
-9.1929205775643084
 20
132.25772676586394
 30
0.0
 11
-9.143800391532718
 21
132.3814246359764
 31
0.0
  0
LINE
  8
LAYER001
  6
CONTINUOUS
 62
               3
  5
3A4
 10
-9.143800391532718
 20
132.3814246359764
 30
0.0
 11
-9.0986684653306114
 21
132.50680274031299
 31
0.0
  0
LINE
  8
LAYER001
  6
CONTINUOUS
 62
               3
  5
3A5
 10
-9.0986684653306114
 20
132.50680274031299
 30
0.0
 11
-9.0575787525158873
 21
132.63376765049239
 31
0.0
  0
LINE
  8
LAYER001
  6
CONTINUOUS
 62
               3
  5
3A6
 10
-9.0575787525158873
 20
132.63376765049239
 30
0.0
 11
-9.0205852066463983
 21
132.76222593813358
 31
0.0
  0
LINE
  8
LAYER001
  6
CONTINUOUS
 62
               3
  5
3A7
 10
-9.0205852066463983
 20
132.76222593813358
 30
0.0
 11
-8.9877417812800502
 21
132.89208417485528
 31
0.0
  0
LINE
  8
LAYER001
  6
CONTINUOUS
 62
               3
  5
3A8
 10
-8.9877417812800502
 20
132.89208417485528
 30
0.0
 11
-8.9591024299747275
 21
133.02324893227646
 31
0.0
  0
LINE
  8
LAYER001
  6
CONTINUOUS
 62
               3
  5
3A9
 10
-8.9591024299747275
 20
133.02324893227646
 30
0.0
 11
-8.9347211062883289
 21
133.1556267820159
 31
0.0
  0
LINE
  8
LAYER001
  6
CONTINUOUS
 62
               3
  5
3AA
 10
-8.9347211062883289
 20
133.1556267820159
 30
0.0
 11
-8.9146517637787639
 21
133.28912429569249
 31
0.0
  0
LINE
  8
LAYER001
  6
CONTINUOUS
 62
               3
  5
3AB
 10
-8.9146517637787639
 20
133.28912429569249
 30
0.0
 11
-8.8989483560038565
 21
133.42364804492505
 31
0.0
  0
LINE
  8
LAYER001
  6
CONTINUOUS
 62
               3
  5
3AC
 10
-8.8989483560038565
 20
133.42364804492505
 30
0.0
 11
-8.8876648365215409
 21
133.55910460133236
 31
0.0
  0
LINE
  8
LAYER001
  6
CONTINUOUS
 62
               3
  5
3AD
 10
-8.8876648365215409
 20
133.55910460133236
 30
0.0
 11
-8.8808551588897267
 21
133.6954005365333
 31
0.0
  0
LINE
  8
LAYER001
  6
CONTINUOUS
 62
               3
  5
3AE
 10
-8.8808551588897267
 20
133.6954005365333
 30
0.0
 11
-8.8785732766662306
 21
133.83244242214678
 31
0.0
  0
LINE
  8
LAYER001
  6
CONTINUOUS
 62
               3
  5
3AF
 10
-8.8785732766662306
 20
139.30339726459059
 30
0.0
 11
-8.8826079128759012
 21
139.46295984861959
 31
0.0
  0
LINE
  8
LAYER001
  6
CONTINUOUS
 62
               3
  5
3B0
 10
-8.8826079128759012
 20
139.46295984861959
 30
0.0
 11
-8.8945819388732694
 21
139.62042776128661
 31
0.0
  0
LINE
  8
LAYER001
  6
CONTINUOUS
 62
               3
  5
3B1
 10
-8.8945819388732694
 20
139.62042776128661
 30
0.0
 11
-8.9143005307108467
 21
139.77560617864424
 31
0.0
  0
LINE
  8
LAYER001
  6
CONTINUOUS
 62
               3
  5
3B2
 10
-8.9143005307108467
 20
139.77560617864424
 30
0.0
 11
-8.9415688644410061
 21
139.92830027674481
 31
0.0
  0
LINE
  8
LAYER001
  6
CONTINUOUS
 62
               3
  5
3B3
 10
-8.9415688644410061
 20
139.92830027674481
 30
0.0
 11
-8.976192116116259
 21
140.07831523164089
 31
0.0
  0
LINE
  8
LAYER001
  6
CONTINUOUS
 62
               3
  5
3B4
 10
-8.976192116116259
 20
140.07831523164089
 30
0.0
 11
-9.0179754617891739
 21
140.22545621938488
 31
0.0
  0
LINE
  8
LAYER001
  6
CONTINUOUS
 62
               3
  5
3B5
 10
-9.0179754617891739
 20
140.22545621938488
 30
0.0
 11
-9.0667240775120632
 21
140.36952841602931
 31
0.0
  0
LINE
  8
LAYER001
  6
CONTINUOUS
 62
               3
  5
3B6
 10
-9.0667240775120632
 20
140.36952841602931
 30
0.0
 11
-9.1222431393375558
 21
140.51033699762664
 31
0.0
  0
LINE
  8
LAYER001
  6
CONTINUOUS
 62
               3
  5
3B7
 10
-9.1222431393375558
 20
140.51033699762664
 30
0.0
 11
-9.1843378233180459
 21
140.64768714022938
 31
0.0
  0
LINE
  8
LAYER001
  6
CONTINUOUS
 62
               3
  5
3B8
 10
-9.1843378233180459
 20
140.64768714022938
 30
0.0
 11
-9.2528133055060167
 21
140.78138401989003
 31
0.0
  0
LINE
  8
LAYER001
  6
CONTINUOUS
 62
               3
  5
3B9
 10
-9.2528133055060167
 20
140.78138401989003
 30
0.0
 11
-9.3274747619539546
 21
140.91123281266098
 31
0.0
  0
LINE
  8
LAYER001
  6
CONTINUOUS
 62
               3
  5
3BA
 10
-9.3274747619539546
 20
140.91123281266098
 30
0.0
 11
-9.4081273687143181
 21
141.03703869459468
 31
0.0
  0
LINE
  8
LAYER001
  6
CONTINUOUS
 62
               3
  5
3BB
 10
-9.4081273687143181
 20
141.03703869459468
 30
0.0
 11
-9.4945763018396399
 21
141.15860684174365
 31
0.0
  0
LINE
  8
LAYER001
  6
CONTINUOUS
 62
               3
  5
3BC
 10
-9.4945763018396399
 20
141.15860684174365
 30
0.0
 11
-9.5866267373823213
 21
141.27574243016045
 31
0.0
  0
LINE
  8
LAYER001
  6
CONTINUOUS
 62
               3
  5
3BD
 10
-9.5866267373823213
 20
141.27574243016045
 30
0.0
 11
-9.6840838513948775
 21
141.38825063589749
 31
0.0
  0
LINE
  8
LAYER001
  6
CONTINUOUS
 62
               3
  5
3BE
 10
-9.6840838513948775
 20
141.38825063589749
 30
0.0
 11
-9.7867528199297631
 21
141.49593663500715
 31
0.0
  0
LINE
  8
LAYER001
  6
CONTINUOUS
 62
               3
  5
3BF
 10
-9.7867528199297631
 20
141.49593663500715
 30
0.0
 11
-9.8944388190394577
 21
141.59860560354204
 31
0.0
  0
LINE
  8
LAYER001
  6
CONTINUOUS
 62
               3
  5
3C0
 10
-9.8944388190394577
 20
141.59860560354204
 30
0.0
 11
-10.006947024776448
 21
141.69606271755458
 31
0.0
  0
LINE
  8
LAYER001
  6
CONTINUOUS
 62
               3
  5
3C1
 10
-10.006947024776448
 20
141.69606271755458
 30
0.0
 11
-10.124082613193217
 21
141.78811315309727
 31
0.0
  0
LINE
  8
LAYER001
  6
CONTINUOUS
 62
               3
  5
3C2
 10
-10.124082613193217
 20
141.78811315309727
 30
0.0
 11
-10.245650760342251
 21
141.8745620862226
 31
0.0
  0
LINE
  8
LAYER001
  6
CONTINUOUS
 62
               3
  5
3C3
 10
-10.245650760342251
 20
141.8745620862226
 30
0.0
 11
-10.371456642275973
 21
141.95521469298296
 31
0.0
  0
LINE
  8
LAYER001
  6
CONTINUOUS
 62
               3
  5
3C4
 10
-10.371456642275973
 20
141.95521469298296
 30
0.0
 11
-10.501305435046895
 21
142.02987614943086
 31
0.0
  0
LINE
  8
LAYER001
  6
CONTINUOUS
 62
               3
  5
3C5
 10
-10.501305435046895
 20
142.02987614943086
 30
0.0
 11
-10.635002314707474
 21
142.09835163161884
 31
0.0
  0
LINE
  8
LAYER001
  6
CONTINUOUS
 62
               3
  5
3C6
 10
-10.635002314707474
 20
142.09835163161884
 30
0.0
 11
-10.772352457310223
 21
142.16044631559933
 31
0.0
  0
LINE
  8
LAYER001
  6
CONTINUOUS
 62
               3
  5
3C7
 10
-10.772352457310223
 20
142.16044631559933
 30
0.0
 11
-10.913161038907568
 21
142.21596537742479
 31
0.0
  0
LINE
  8
LAYER001
  6
CONTINUOUS
 62
               3
  5
3C8
 10
-10.913161038907568
 20
142.21596537742479
 30
0.0
 11
-11.057233235551987
 21
142.26471399314772
 31
0.0
  0
LINE
  8
LAYER001
  6
CONTINUOUS
 62
               3
  5
3C9
 10
-11.057233235551987
 20
142.26471399314772
 30
0.0
 11
-11.204374223296032
 21
142.30649733882058
 31
0.0
  0
LINE
  8
LAYER001
  6
CONTINUOUS
 62
               3
  5
3CA
 10
-11.204374223296032
 20
142.30649733882058
 30
0.0
 11
-11.35438917819209
 21
142.3411205904959
 31
0.0
  0
LINE
  8
LAYER001
  6
CONTINUOUS
 62
               3
  5
3CB
 10
-11.35438917819209
 20
142.3411205904959
 30
0.0
 11
-11.507083276292654
 21
142.36838892422605
 31
0.0
  0
LINE
  8
LAYER001
  6
CONTINUOUS
 62
               3
  5
3CC
 10
-11.507083276292654
 20
142.36838892422605
 30
0.0
 11
-11.66226169365023
 21
142.38810751606363
 31
0.0
  0
LINE
  8
LAYER001
  6
CONTINUOUS
 62
               3
  5
3CD
 10
-11.66226169365023
 20
142.38810751606363
 30
0.0
 11
-11.819729606317303
 21
142.40008154206103
 31
0.0
  0
LINE
  8
LAYER001
  6
CONTINUOUS
 62
               3
  5
3CE
 10
-11.819729606317303
 20
142.40008154206103
 30
0.0
 11
-11.979292190346271
 21
142.40411617827067
 31
0.0
  0
LINE
  8
LAYER001
  6
CONTINUOUS
 62
               3
  5
3CF
 10
-30.983698435485039
 20
142.40411617827067
 30
0.0
 11
-31.143261019514036
 21
142.40008154206103
 31
0.0
  0
LINE
  8
LAYER001
  6
CONTINUOUS
 62
               3
  5
3D0
 10
-31.143261019514036
 20
142.40008154206103
 30
0.0
 11
-31.30072893218108
 21
142.38810751606357
 31
0.0
  0
LINE
  8
LAYER001
  6
CONTINUOUS
 62
               3
  5
3D1
 10
-31.30072893218108
 20
142.38810751606357
 30
0.0
 11
-31.455907349538663
 21
142.36838892422611
 31
0.0
  0
LINE
  8
LAYER001
  6
CONTINUOUS
 62
               3
  5
3D2
 10
-31.455907349538663
 20
142.36838892422611
 30
0.0
 11
-31.608601447639266
 21
142.3411205904959
 31
0.0
  0
LINE
  8
LAYER001
  6
CONTINUOUS
 62
               3
  5
3D3
 10
-31.608601447639266
 20
142.3411205904959
 30
0.0
 11
-31.758616402535324
 21
142.30649733882058
 31
0.0
  0
LINE
  8
LAYER001
  6
CONTINUOUS
 62
               3
  5
3D4
 10
-31.758616402535324
 20
142.30649733882058
 30
0.0
 11
-31.905757390279355
 21
142.26471399314778
 31
0.0
  0
LINE
  8
LAYER001
  6
CONTINUOUS
 62
               3
  5
3D5
 10
-31.905757390279355
 20
142.26471399314778
 30
0.0
 11
-32.049829586923821
 21
142.21596537742479
 31
0.0
  0
LINE
  8
LAYER001
  6
CONTINUOUS
 62
               3
  5
3D6
 10
-32.049829586923821
 20
142.21596537742479
 30
0.0
 11
-32.19063816852119
 21
142.16044631559939
 31
0.0
  0
LINE
  8
LAYER001
  6
CONTINUOUS
 62
               3
  5
3D7
 10
-32.19063816852119
 20
142.16044631559939
 30
0.0
 11
-32.327988311123953
 21
142.09835163161884
 31
0.0
  0
LINE
  8
LAYER001
  6
CONTINUOUS
 62
               3
  5
3D8
 10
-32.327988311123953
 20
142.09835163161884
 30
0.0
 11
-32.461685190784557
 21
142.02987614943092
 31
0.0
  0
LINE
  8
LAYER001
  6
CONTINUOUS
 62
               3
  5
3D9
 10
-32.461685190784557
 20
142.02987614943092
 30
0.0
 11
-32.5915339835555
 21
141.95521469298291
 31
0.0
  0
LINE
  8
LAYER001
  6
CONTINUOUS
 62
               3
  5
3DA
 10
-32.5915339835555
 20
141.95521469298291
 30
0.0
 11
-32.717339865489265
 21
141.8745620862226
 31
0.0
  0
LINE
  8
LAYER001
  6
CONTINUOUS
 62
               3
  5
3DB
 10
-32.717339865489265
 20
141.8745620862226
 30
0.0
 11
-32.838908012638292
 21
141.78811315309727
 31
0.0
  0
LINE
  8
LAYER001
  6
CONTINUOUS
 62
               3
  5
3DC
 10
-32.838908012638292
 20
141.78811315309727
 30
0.0
 11
-32.956043601055079
 21
141.69606271755464
 31
0.0
  0
LINE
  8
LAYER001
  6
CONTINUOUS
 62
               3
  5
3DD
 10
-32.956043601055079
 20
141.69606271755464
 30
0.0
 11
-33.068551806792108
 21
141.5986056035421
 31
0.0
  0
LINE
  8
LAYER001
  6
CONTINUOUS
 62
               3
  5
3DE
 10
-33.068551806792108
 20
141.5986056035421
 30
0.0
 11
-33.176237805901849
 21
141.49593663500715
 31
0.0
  0
LINE
  8
LAYER001
  6
CONTINUOUS
 62
               3
  5
3DF
 10
-33.176237805901849
 20
141.49593663500715
 30
0.0
 11
-33.278906774436791
 21
141.38825063589738
 31
0.0
  0
LINE
  8
LAYER001
  6
CONTINUOUS
 62
               3
  5
3E0
 10
-33.278906774436791
 20
141.38825063589738
 30
0.0
 11
-33.376363888449362
 21
141.27574243016045
 31
0.0
  0
LINE
  8
LAYER001
  6
CONTINUOUS
 62
               3
  5
3E1
 10
-33.376363888449362
 20
141.27574243016045
 30
0.0
 11
-33.468414323992072
 21
141.15860684174365
 31
0.0
  0
LINE
  8
LAYER001
  6
CONTINUOUS
 62
               3
  5
3E2
 10
-33.468414323992072
 20
141.15860684174365
 30
0.0
 11
-33.554863257117397
 21
141.03703869459468
 31
0.0
  0
LINE
  8
LAYER001
  6
CONTINUOUS
 62
               3
  5
3E3
 10
-33.554863257117397
 20
141.03703869459468
 30
0.0
 11
-33.635515863877814
 21
140.91123281266093
 31
0.0
  0
LINE
  8
LAYER001
  6
CONTINUOUS
 62
               3
  5
3E4
 10
-33.635515863877814
 20
140.91123281266093
 30
0.0
 11
-33.710177320325776
 21
140.78138401989003
 31
0.0
  0
LINE
  8
LAYER001
  6
CONTINUOUS
 62
               3
  5
3E5
 10
-33.710177320325776
 20
140.78138401989003
 30
0.0
 11
-33.778652802513783
 21
140.64768714022938
 31
0.0
  0
LINE
  8
LAYER001
  6
CONTINUOUS
 62
               3
  5
3E6
 10
-33.778652802513783
 20
140.64768714022938
 30
0.0
 11
-33.840747486494301
 21
140.51033699762669
 31
0.0
  0
LINE
  8
LAYER001
  6
CONTINUOUS
 62
               3
  5
3E7
 10
-33.840747486494301
 20
140.51033699762669
 30
0.0
 11
-33.896266548319772
 21
140.36952841602937
 31
0.0
  0
LINE
  8
LAYER001
  6
CONTINUOUS
 62
               3
  5
3E8
 10
-33.896266548319772
 20
140.36952841602937
 30
0.0
 11
-33.945015164042736
 21
140.22545621938488
 31
0.0
  0
LINE
  8
LAYER001
  6
CONTINUOUS
 62
               3
  5
3E9
 10
-33.945015164042736
 20
140.22545621938488
 30
0.0
 11
-33.986798509715619
 21
140.07831523164089
 31
0.0
  0
LINE
  8
LAYER001
  6
CONTINUOUS
 62
               3
  5
3EA
 10
-33.986798509715619
 20
140.07831523164089
 30
0.0
 11
-34.021421761390918
 21
139.92830027674481
 31
0.0
  0
LINE
  8
LAYER001
  6
CONTINUOUS
 62
               3
  5
3EB
 10
-34.021421761390918
 20
139.92830027674481
 30
0.0
 11
-34.048690095121103
 21
139.77560617864424
 31
0.0
  0
LINE
  8
LAYER001
  6
CONTINUOUS
 62
               3
  5
3EC
 10
-34.048690095121103
 20
139.77560617864424
 30
0.0
 11
-34.068408686958641
 21
139.62042776128661
 31
0.0
  0
LINE
  8
LAYER001
  6
CONTINUOUS
 62
               3
  5
3ED
 10
-34.068408686958641
 20
139.62042776128661
 30
0.0
 11
-34.080382712956023
 21
139.46295984861959
 31
0.0
  0
LINE
  8
LAYER001
  6
CONTINUOUS
 62
               3
  5
3EE
 10
-34.080382712956023
 20
139.46295984861959
 30
0.0
 11
-34.084417349165705
 21
139.30339726459059
 31
0.0
  0
LINE
  8
LAYER001
  6
CONTINUOUS
 62
               3
  5
3EF
 10
-34.084417349165705
 20
133.83244242214741
 30
0.0
 11
-34.08213546694224
 21
133.69540053653392
 31
0.0
  0
LINE
  8
LAYER001
  6
CONTINUOUS
 62
               3
  5
3F0
 10
-34.08213546694224
 20
133.69540053653392
 30
0.0
 11
-34.075325789310384
 21
133.55910460133288
 31
0.0
  0
LINE
  8
LAYER001
  6
CONTINUOUS
 62
               3
  5
3F1
 10
-34.075325789310384
 20
133.55910460133288
 30
0.0
 11
-34.064042269828064
 21
133.4236480449255
 31
0.0
  0
LINE
  8
LAYER001
  6
CONTINUOUS
 62
               3
  5
3F2
 10
-34.064042269828064
 20
133.4236480449255
 30
0.0
 11
-34.048338862053171
 21
133.28912429569294
 31
0.0
  0
LINE
  8
LAYER001
  6
CONTINUOUS
 62
               3
  5
3F3
 10
-34.048338862053171
 20
133.28912429569294
 30
0.0
 11
-34.028269519543556
 21
133.1556267820163
 31
0.0
  0
LINE
  8
LAYER001
  6
CONTINUOUS
 62
               3
  5
3F4
 10
-34.028269519543556
 20
133.1556267820163
 30
0.0
 11
-34.003888195857144
 21
133.0232489322768
 31
0.0
  0
LINE
  8
LAYER001
  6
CONTINUOUS
 62
               3
  5
3F5
 10
-34.003888195857144
 20
133.0232489322768
 30
0.0
 11
-33.9752488445518
 21
132.89208417485563
 31
0.0
  0
LINE
  8
LAYER001
  6
CONTINUOUS
 62
               3
  5
3F6
 10
-33.9752488445518
 20
132.89208417485563
 30
0.0
 11
-33.942405419185455
 21
132.76222593813381
 31
0.0
  0
LINE
  8
LAYER001
  6
CONTINUOUS
 62
               3
  5
3F7
 10
-33.942405419185455
 20
132.76222593813381
 30
0.0
 11
-33.905411873315941
 21
132.63376765049262
 31
0.0
  0
LINE
  8
LAYER001
  6
CONTINUOUS
 62
               3
  5
3F8
 10
-33.905411873315941
 20
132.63376765049262
 30
0.0
 11
-33.864322160501189
 21
132.50680274031322
 31
0.0
  0
LINE
  8
LAYER001
  6
CONTINUOUS
 62
               3
  5
3F9
 10
-33.864322160501189
 20
132.50680274031322
 30
0.0
 11
-33.819190234299064
 21
132.38142463597663
 31
0.0
  0
LINE
  8
LAYER001
  6
CONTINUOUS
 62
               3
  5
3FA
 10
-33.819190234299064
 20
132.38142463597663
 30
0.0
 11
-33.770070048267435
 21
132.25772676586405
 31
0.0
  0
LINE
  8
LAYER001
  6
CONTINUOUS
 62
               3
  5
3FB
 10
-33.770070048267435
 20
132.25772676586405
 30
0.0
 11
-33.717015555964245
 21
132.1358025583568
 31
0.0
  0
LINE
  8
LAYER001
  6
CONTINUOUS
 62
               3
  5
3FC
 10
-33.717015555964245
 20
132.1358025583568
 30
0.0
 11
-33.660080710947355
 21
132.01574544183586
 31
0.0
  0
LINE
  8
LAYER001
  6
CONTINUOUS
 62
               3
  5
3FD
 10
-33.660080710947355
 20
132.01574544183586
 30
0.0
 11
-33.599319466774674
 21
131.89764884468241
 31
0.0
  0
LINE
  8
LAYER001
  6
CONTINUOUS
 62
               3
  5
3FE
 10
-33.599319466774674
 20
131.89764884468241
 30
0.0
 11
-33.534785777004046
 21
131.78160619527767
 31
0.0
  0
LINE
  8
LAYER001
  6
CONTINUOUS
 62
               3
  5
3FF
 10
-33.534785777004046
 20
131.78160619527767
 30
0.0
 11
-33.46653359519339
 21
131.66771092200275
 31
0.0
  0
LINE
  8
LAYER001
  6
CONTINUOUS
 62
               3
  5
400
 10
-33.46653359519339
 20
131.66771092200275
 30
0.0
 11
-33.394616874900592
 21
131.55605645323877
 31
0.0
  0
LINE
  8
LAYER001
  6
CONTINUOUS
 62
               3
  5
401
 10
-33.394616874900592
 20
131.55605645323877
 30
0.0
 11
-33.319089569683534
 21
131.44673621736695
 31
0.0
  0
LINE
  8
LAYER001
  6
CONTINUOUS
 62
               3
  5
402
 10
-33.319089569683534
 20
131.44673621736695
 30
0.0
 11
-33.240005633100118
 21
131.33984364276844
 31
0.0
  0
LINE
  8
LAYER001
  6
CONTINUOUS
 62
               3
  5
403
 10
-33.240005633100118
 20
131.33984364276844
 30
0.0
 11
-33.157419018708218
 21
131.23547215782435
 31
0.0
  0
LINE
  8
LAYER001
  6
CONTINUOUS
 62
               3
  5
404
 10
-33.157419018708218
 20
131.23547215782435
 30
0.0
 11
-33.071383680065736
 21
131.13371519091581
 31
0.0
  0
LINE
  8
LAYER001
  6
CONTINUOUS
 62
               3
  5
405
 10
-33.071383680065736
 20
131.13371519091581
 30
0.0
 11
-32.98195357073056
 21
131.03466617042412
 31
0.0
  0
LINE
  8
LAYER001
  6
CONTINUOUS
 62
               3
  5
406
 10
-32.98195357073056
 20
131.03466617042412
 30
0.0
 11
-32.889182644260558
 21
130.93841852473034
 31
0.0
  0
LINE
  8
LAYER001
  6
CONTINUOUS
 62
               3
  5
407
 10
-32.889182644260558
 20
130.93841852473034
 30
0.0
 11
-32.793124854213644
 21
130.84506568221556
 31
0.0
  0
LINE
  8
LAYER001
  6
CONTINUOUS
 62
               3
  5
408
 10
-32.793124854213644
 20
130.84506568221556
 30
0.0
 11
-32.693834154147687
 21
130.75470107126102
 31
0.0
  0
LINE
  8
LAYER001
  6
CONTINUOUS
 62
               3
  5
409
 10
-32.693834154147687
 20
130.75470107126102
 30
0.0
 11
-32.591364497620582
 21
130.66741812024787
 31
0.0
  0
LINE
  8
LAYER001
  6
CONTINUOUS
 62
               3
  5
40A
 10
-32.591364497620582
 20
130.66741812024787
 30
0.0
 11
-32.485769838190251
 21
130.58331025755726
 31
0.0
  0
LINE
  8
LAYER001
  6
CONTINUOUS
 62
               3
  5
40B
 10
-32.485769838190251
 20
130.58331025755726
 30
0.0
 11
-32.377104129414533
 21
130.50247091157033
 31
0.0
  0
LINE
  8
LAYER001
  6
CONTINUOUS
 62
               3
  5
40C
 10
-32.377104129414533
 20
130.50247091157033
 30
0.0
 11
-32.265421324851332
 21
130.42499351066826
 31
0.0
  0
LINE
  8
LAYER001
  6
CONTINUOUS
 62
               3
  5
40D
 10
-32.265421324851332
 20
130.42499351066826
 30
0.0
 11
-32.150775378058533
 21
130.35097148323214
 31
0.0
  0
LINE
  8
LAYER001
  6
CONTINUOUS
 62
               3
  5
40E
 10
-32.150775378058533
 20
130.35097148323214
 30
0.0
 11
-32.033220242594055
 21
130.28049825764322
 31
0.0
  0
LINE
  8
LAYER001
  6
CONTINUOUS
 62
               3
  5
40F
 10
-24.582259606133185
 20
124.88322519664706
 30
0.0
 11
-24.583317063748957
 21
124.94673241193141
 31
0.0
  0
LINE
  8
LAYER001
  6
CONTINUOUS
 62
               3
  5
410
 10
-24.583317063748957
 20
124.94673241193141
 30
0.0
 11
-24.586472768017344
 21
125.00989394287819
 31
0.0
  0
LINE
  8
LAYER001
  6
CONTINUOUS
 62
               3
  5
411
 10
-24.586472768017344
 20
125.00989394287819
 30
0.0
 11
-24.591701716070162
 21
125.07266649340852
 31
0.0
  0
LINE
  8
LAYER001
  6
CONTINUOUS
 62
               3
  5
412
 10
-24.591701716070162
 20
125.07266649340852
 30
0.0
 11
-24.598978905038997
 21
125.13500676744306
 31
0.0
  0
LINE
  8
LAYER001
  6
CONTINUOUS
 62
               3
  5
413
 10
-24.598978905038997
 20
125.13500676744306
 30
0.0
 11
-24.608279332055652
 21
125.19687146890305
 31
0.0
  0
LINE
  8
LAYER001
  6
CONTINUOUS
 62
               3
  5
414
 10
-24.608279332055652
 20
125.19687146890305
 30
0.0
 11
-24.61957799425177
 21
125.25821730170907
 31
0.0
  0
LINE
  8
LAYER001
  6
CONTINUOUS
 62
               3
  5
415
 10
-24.61957799425177
 20
125.25821730170907
 30
0.0
 11
-24.632849888759139
 21
125.31900096978234
 31
0.0
  0
LINE
  8
LAYER001
  6
CONTINUOUS
 62
               3
  5
416
 10
-24.632849888759139
 20
125.31900096978234
 30
0.0
 11
-24.648070012709411
 21
125.37917917704374
 31
0.0
  0
LINE
  8
LAYER001
  6
CONTINUOUS
 62
               3
  5
417
 10
-24.648070012709411
 20
125.37917917704374
 30
0.0
 11
-24.665213363234294
 21
125.43870862741397
 31
0.0
  0
LINE
  8
LAYER001
  6
CONTINUOUS
 62
               3
  5
418
 10
-24.665213363234294
 20
125.43870862741397
 30
0.0
 11
-24.684254937465539
 21
125.49754602481426
 31
0.0
  0
LINE
  8
LAYER001
  6
CONTINUOUS
 62
               3
  5
419
 10
-24.684254937465539
 20
125.49754602481426
 30
0.0
 11
-24.705169732534806
 21
125.55564807316529
 31
0.0
  0
LINE
  8
LAYER001
  6
CONTINUOUS
 62
               3
  5
41A
 10
-24.705169732534806
 20
125.55564807316529
 30
0.0
 11
-24.727932745573824
 21
125.61297147638825
 31
0.0
  0
LINE
  8
LAYER001
  6
CONTINUOUS
 62
               3
  5
41B
 10
-24.727932745573824
 20
125.61297147638825
 30
0.0
 11
-24.752518973714331
 21
125.66947293840386
 31
0.0
  0
LINE
  8
LAYER001
  6
CONTINUOUS
 62
               3
  5
41C
 10
-24.752518973714331
 20
125.66947293840386
 30
0.0
 11
-24.77890341408802
 21
125.725109163133
 31
0.0
  0
LINE
  8
LAYER001
  6
CONTINUOUS
 62
               3
  5
41D
 10
-24.77890341408802
 20
125.725109163133
 30
0.0
 11
-24.807061063826588
 21
125.77983685449684
 31
0.0
  0
LINE
  8
LAYER001
  6
CONTINUOUS
 62
               3
  5
41E
 10
-24.807061063826588
 20
125.77983685449684
 30
0.0
 11
-24.836966920061727
 21
125.8336127164161
 31
0.0
  0
LINE
  8
LAYER001
  6
CONTINUOUS
 62
               3
  5
41F
 10
-24.836966920061727
 20
125.8336127164161
 30
0.0
 11
-24.868595979925203
 21
125.88639345281183
 31
0.0
  0
LINE
  8
LAYER001
  6
CONTINUOUS
 62
               3
  5
420
 10
-24.868595979925203
 20
125.88639345281183
 30
0.0
 11
-24.901923240548683
 21
125.93813576760488
 31
0.0
  0
LINE
  8
LAYER001
  6
CONTINUOUS
 62
               3
  5
421
 10
-24.901923240548683
 20
125.93813576760488
 30
0.0
 11
-24.936923699063897
 21
125.98879636471619
 31
0.0
  0
LINE
  8
LAYER001
  6
CONTINUOUS
 62
               3
  5
422
 10
-24.936923699063897
 20
125.98879636471619
 30
0.0
 11
-24.973572352602552
 21
126.03833194806674
 31
0.0
  0
LINE
  8
LAYER001
  6
CONTINUOUS
 62
               3
  5
423
 10
-24.973572352602552
 20
126.03833194806674
 30
0.0
 11
-25.011844198296345
 21
126.08669922157742
 31
0.0
  0
LINE
  8
LAYER001
  6
CONTINUOUS
 62
               3
  5
424
 10
-25.011844198296345
 20
126.08669922157742
 30
0.0
 11
-25.051714233276989
 21
126.13385488916913
 31
0.0
  0
LINE
  8
LAYER001
  6
CONTINUOUS
 62
               3
  5
425
 10
-25.051714233276989
 20
126.13385488916913
 30
0.0
 11
-25.093157454676216
 21
126.17975565476291
 31
0.0
  0
LINE
  8
LAYER001
  6
CONTINUOUS
 62
               3
  5
426
 10
-25.093157454676216
 20
126.17975565476291
 30
0.0
 11
-25.136148859625706
 21
126.22435822227956
 31
0.0
  0
LINE
  8
LAYER001
  6
CONTINUOUS
 62
               3
  5
427
 10
-25.136148859625706
 20
126.22435822227956
 30
0.0
 11
-25.180663445257188
 21
126.26761929564006
 31
0.0
  0
LINE
  8
LAYER001
  6
CONTINUOUS
 62
               3
  5
428
 10
-25.180663445257188
 20
126.26761929564006
 30
0.0
 11
-25.226676208702372
 21
126.30949557876534
 31
0.0
  0
LINE
  8
LAYER001
  6
CONTINUOUS
 62
               3
  5
429
 10
-25.226676208702372
 20
126.30949557876534
 30
0.0
 11
-25.274162147092959
 21
126.34994377557635
 31
0.0
  0
LINE
  8
LAYER001
  6
CONTINUOUS
 62
               3
  5
42A
 10
-25.274162147092959
 20
126.34994377557635
 30
0.0
 11
-25.323096257560657
 21
126.388920589994
 31
0.0
  0
LINE
  8
LAYER001
  6
CONTINUOUS
 62
               3
  5
42B
 10
-25.323096257560657
 20
126.388920589994
 30
0.0
 11
-25.373453537237197
 21
126.42638272593913
 31
0.0
  0
LINE
  8
LAYER001
  6
CONTINUOUS
 62
               3
  5
42C
 10
-25.373453537237197
 20
126.42638272593913
 30
0.0
 11
-25.425208983254258
 21
126.46228688733279
 31
0.0
  0
LINE
  8
LAYER001
  6
CONTINUOUS
 62
               3
  5
42D
 10
-25.425208983254258
 20
126.46228688733279
 30
0.0
 11
-25.478337592743578
 21
126.49658977809591
 31
0.0
  0
LINE
  8
LAYER001
  6
CONTINUOUS
 62
               3
  5
42E
 10
-25.478337592743578
 20
126.49658977809591
 30
0.0
 11
-25.532814362836859
 21
126.52924810214938
 31
0.0
  0
ARC
  8
0
  6
CONTINUOUS
 62
               3
  5
42F
 10
-21.467313942141942
 20
-1.254275116168619
 30
0.0
 40
90.199996746363567
 50
94.243251578719338
 51
445.7567484212845
  0
ARC
  8
0
  6
CONTINUOUS
 62
               3
  5
430
 10
-21.467313942141942
 20
-1.254275116168619
 30
0.0
 40
82.599999999999994
 50
94.243251578719338
 51
445.7567484212845
  0
LINE
  8
0
  6
CONTINUOUS
 62
               3
  5
431
 10
-14.79177516124922
 20
88.719339011544349
 30
0.0
 11
-15.355654749323433
 21
81.119310588903346
 31
0.0
  0
LINE
  8
0
  6
CONTINUOUS
 62
               3
  5
432
 10
-28.142852723034025
 20
88.719339011544349
 30
0.0
 11
-27.578973134967761
 21
81.119310588902792
 31
0.0
  0
LINE
  8
0
  6
CONTINUOUS
 62
               3
  5
433
 10
-16.780450726549606
 20
92.630319872716072
 30
0.0
 11
-10.675343643793529
 21
92.630319872716072
 31
0.0
  0
LINE
  8
0
  6
CONTINUOUS
 62
               3
  5
434
 10
-16.780450726549606
 20
97.537797160827893
 30
0.0
 11
-10.675343643793529
 21
97.537797160827893
 31
0.0
  0
LINE
  8
0
  6
CONTINUOUS
 62
               3
  5
435
 10
-16.780450726549606
 20
92.630319872716072
 30
0.0
 11
-16.780450726549606
 21
112.23031987271607
 31
0.0
  0
LINE
  8
0
  6
CONTINUOUS
 62
               3
  5
436
 10
-9.7804507265496063
 20
95.084058516771975
 30
0.0
 11
-9.7804507265496063
 21
109.77658122866016
 31
0.0
  0
LINE
  8
0
  6
CONTINUOUS
 62
               3
  5
437
 10
-16.780450726549606
 20
112.23031987271607
 30
0.0
 11
-10.675343643793529
 21
112.23031987271607
 31
0.0
  0
LINE
  8
0
  6
CONTINUOUS
 62
               3
  5
438
 10
-16.780450726549606
 20
107.32284258460425
 30
0.0
 11
-10.675343643793529
 21
107.32284258460425
 31
0.0
  0
ARC
  8
0
  6
CONTINUOUS
 62
               3
  5
439
 10
-13.591893713312732
 20
95.084058516771975
 30
0.0
 40
3.8114429867631237
 50
319.92557966161326
 51
400.0744203383851
  0
ARC
  8
0
  6
CONTINUOUS
 62
               3
  5
43A
 10
-13.591893713312732
 20
109.77658122866016
 30
0.0
 40
3.8114429867631223
 50
319.92557966161331
 51
400.0744203383851
  0
ARC
  8
0
  6
CONTINUOUS
 62
               3
  5
43B
 10
-23.601999284483004
 20
102.43031987271607
 30
0.0
 40
13.821548557933395
 50
339.2691848585834
 51
380.73081514141501
  0
LINE
  8
0
  6
CONTINUOUS
 62
               3
  5
43C
 10
-45.280450726549603
 20
97.430319872716055
 30
0.0
 11
-45.280450726549603
 21
107.43031987271607
 31
0.0
  0
LINE
  8
0
  6
CONTINUOUS
 62
               3
  5
43D
 10
-46.780450726549603
 20
98.930319872716055
 30
0.0
 11
-46.780450726549603
 21
105.93031987271607
 31
0.0
  0
LINE
  8
0
  6
CONTINUOUS
 62
               3
  5
43E
 10
-45.280450726549603
 20
97.430319872716055
 30
0.0
 11
-46.780450726549603
 21
98.930319872716055
 31
0.0
  0
LINE
  8
0
  6
CONTINUOUS
 62
               3
  5
43F
 10
-45.280450726549603
 20
107.43031987271607
 30
0.0
 11
-46.780450726549603
 21
105.93031987271607
 31
0.0
  0
LINE
  8
0
  6
CONTINUOUS
 62
               3
  5
440
 10
147.33583163653313
 20
92.615365296492428
 30
0.0
 11
155.83583163653313
 21
97.522842584604248
 31
0.0
  0
LINE
  8
0
  6
CONTINUOUS
 62
               3
  5
441
 10
155.83583163653313
 20
97.522842584604248
 30
0.0
 11
155.83583163653313
 21
107.33779716082789
 31
0.0
  0
LINE
  8
0
  6
CONTINUOUS
 62
               3
  5
442
 10
155.83583163653313
 20
107.33779716082789
 30
0.0
 11
147.33583163653313
 21
112.24527444893971
 31
0.0
  0
LINE
  8
0
  6
CONTINUOUS
 62
               3
  5
443
 10
147.33583163653313
 20
112.24527444893971
 30
0.0
 11
138.83583163653313
 21
107.33779716082789
 31
0.0
  0
LINE
  8
0
  6
CONTINUOUS
 62
               3
  5
444
 10
138.83583163653313
 20
107.33779716082789
 30
0.0
 11
138.83583163653313
 21
97.522842584604248
 31
0.0
  0
LINE
  8
0
  6
CONTINUOUS
 62
               3
  5
445
 10
138.83583163653313
 20
97.522842584604248
 30
0.0
 11
147.33583163653313
 21
92.615365296492428
 31
0.0
  0
CIRCLE
  8
0
  6
CONTINUOUS
 62
               3
  5
446
 10
147.33583163653313
 20
102.43031987271607
 30
0.0
 40
8.5
  0
ARC
  8
0
  6
CONTINUOUS
 62
               3
  5
447
 10
-28.182630658355443
 20
87.69048884215843
 30
0.0
 40
2.0
 50
277.56237820078064
 51
359.9999999999992
  0
ARC
  8
0
  6
CONTINUOUS
 62
               3
  5
448
 10
-28.182259606133186
 20
87.690516855768763
 30
0.0
 40
3.6000000000000001
 50
276.08057223729912
 51
359.9999999999992
  0
ARC
  8
0
  6
CONTINUOUS
 62
               3
  5
449
 10
-14.780450726549606
 20
87.69263250032769
 30
0.0
 40
2.0
 50
179.9999999999996
 51
263.25612638929573
  0
ARC
  8
0
  6
CONTINUOUS
 62
               3
  5
44A
 10
-14.78082177877185
 20
87.692660394565877
 30
0.0
 40
3.6000000000000001
 50
179.9999999999996
 51
264.37374279870539
  0
LINE
  8
0
  6
CONTINUOUS
 62
               3
  5
44B
 10
-19.981192830994118
 20
106.62031987271607
 30
0.0
 11
-22.981888553910913
 21
106.62031987271607
 31
0.0
  0
LINE
  8
0
  6
CONTINUOUS
 62
               3
  5
44C
 10
-19.981192830994118
 20
98.240319872716071
 30
0.0
 11
-22.981888553910913
 21
98.240319872716071
 31
0.0
  0
LINE
  8
0
  6
CONTINUOUS
 62
               3
  5
44D
 10
-19.981192830994118
 20
107.43031987271607
 30
0.0
 11
-22.981888553910913
 21
107.43031987271607
 31
0.0
  0
LINE
  8
0
  6
CONTINUOUS
 62
               3
  5
44E
 10
-19.981192830994118
 20
97.430319872716069
 30
0.0
 11
-22.981888553910913
 21
97.430319872716069
 31
0.0
  0
LINE
  8
0
  6
CONTINUOUS
 62
               3
  5
44F
 10
154.83583163653313
 20
88.698475036177541
 30
0.0
 11
154.83583163653313
 21
-91.475193185194399
 31
0.0
  0
LINE
  8
0
  6
CONTINUOUS
 62
               3
  5
450
 10
139.83583163653313
 20
88.698475036177541
 30
0.0
 11
139.83583163653313
 21
-91.475193185194399
 31
0.0
  0
LINE
  8
0
  6
CONTINUOUS
 62
               3
  5
451
 10
154.83583163653313
 20
88.698475036177541
 30
0.0
 11
161.83919429729593
 21
88.698475036177541
 31
0.0
  0
LINE
  8
0
  6
CONTINUOUS
 62
               3
  5
452
 10
132.83246897576885
 20
88.698475036177541
 30
0.0
 11
139.83583163653313
 21
88.698475036177541
 31
0.0
  0
LINE
  8
0
  6
CONTINUOUS
 62
               3
  5
453
 10
-26.182630658355443
 20
92.630319872716072
 30
0.0
 11
-33.287737741111521
 21
92.630319872716072
 31
0.0
  0
LINE
  8
0
  6
CONTINUOUS
 62
               3
  5
454
 10
-33.287737741111521
 20
97.537797160827893
 30
0.0
 11
-26.182630658355443
 21
97.537797160827893
 31
0.0
  0
LINE
  8
0
  6
CONTINUOUS
 62
               3
  5
455
 10
-26.182630658355443
 20
92.630319872716072
 30
0.0
 11
-26.182630658355443
 21
112.23031987271605
 31
0.0
  0
LINE
  8
0
  6
CONTINUOUS
 62
               3
  5
456
 10
-34.182630658355443
 20
95.084058516771975
 30
0.0
 11
-34.182630658355443
 21
109.77658122866015
 31
0.0
  0
LINE
  8
0
  6
CONTINUOUS
 62
               3
  5
457
 10
-26.182630658355443
 20
112.23031987271605
 30
0.0
 11
-33.287737741111521
 21
112.23031987271605
 31
0.0
  0
LINE
  8
0
  6
CONTINUOUS
 62
               3
  5
458
 10
-26.182630658355443
 20
107.32284258460425
 30
0.0
 11
-33.287737741111521
 21
107.32284258460425
 31
0.0
  0
ARC
  8
0
  6
CONTINUOUS
 62
               3
  5
459
 10
-30.371187671592317
 20
95.084058516771975
 30
0.0
 40
3.811442986763125
 50
139.92557966161368
 51
220.07442033838544
  0
ARC
  8
0
  6
CONTINUOUS
 62
               3
  5
45A
 10
-30.371187671592317
 20
109.77658122866018
 30
0.0
 40
3.8114429867631205
 50
139.9255796616138
 51
220.07442033838544
  0
ARC
  8
0
  6
CONTINUOUS
 62
               3
  5
45B
 10
-20.361082100422045
 20
102.43031987271607
 30
0.0
 40
13.821548557933399
 50
159.2691848585838
 51
200.73081514141538
  0
LINE
  8
0
  6
CONTINUOUS
 62
               3
  5
45C
 10
-34.182630658355443
 20
107.43031987271607
 30
0.0
 11
-45.280450726549603
 21
107.43031987271607
 31
0.0
  0
LINE
  8
0
  6
CONTINUOUS
 62
               3
  5
45D
 10
-34.182630658355443
 20
106.62031987271607
 30
0.0
 11
-46.090450726549605
 21
106.62031987271607
 31
0.0
  0
LINE
  8
0
  6
CONTINUOUS
 62
               3
  5
45E
 10
-34.182630658355443
 20
98.240319872716071
 30
0.0
 11
-46.090450726549605
 21
98.240319872716071
 31
0.0
  0
LINE
  8
0
  6
CONTINUOUS
 62
               3
  5
45F
 10
-34.182630658355443
 20
97.430319872716069
 30
0.0
 11
-45.280450726549603
 21
97.430319872716055
 31
0.0
  0
LINE
  8
0
  6
DASHDOT
 62
               4
  5
460
 10
147.33583163653313
 20
171.67427688572704
 30
0.0
 11
147.33583163653316
 21
-111.4751931851944
 31
0.0
  0
LINE
  8
0
  6
DASHDOT
 62
               4
  5
461
 10
10.219549273450394
 20
102.43031987271607
 30
0.0
 11
-66.780450726549603
 21
102.43031987271607
 31
0.0
  0
ARC
  8
0
  6
DASHED
 62
               4
  5
462
 10
-21.467313942141942
 20
-1.254275116168619
 30
0.0
 40
85.597906445171517
 50
94.243251578714066
 51
444.7602687375026
  0
ARC
  8
0
  6
DASHED
 62
               4
  5
463
 10
-21.467313942141942
 20
-1.254275116168619
 30
0.0
 40
87.197906445171512
 50
94.24325157871408
 51
444.68265142041344
  0
LINE
  8
0
  6
DASHED
 62
               4
  5
464
 10
134.83293279104652
 20
86.729133720782812
 30
0.0
 11
139.83583163653313
 21
86.729133720782812
 31
0.0
  0
LINE
  8
0
  6
DASHED
 62
               4
  5
465
 10
154.83583163653313
 20
86.729133720782812
 30
0.0
 11
159.83873048201775
 21
86.729133720782812
 31
0.0
  0
ENDSEC
  0
EOF
