  0
SECTION
  2
HEADER
  9
$ACADVER
  1
AC1009
  9
$INSBASE
 10
0.0
 20
0.0
 30
0.0
  9
$EXTMIN
 10
-754.82934813555266
 20
-494.55611118770031
 30
0.0
  9
$EXTMAX
 10
839.63708545137706
 20
420.46713196634977
 30
0.0
  9
$LIMMIN
 10
-804.65642418514426
 20
-523.15058753626442
  9
$LIMMAX
 10
889.46416150096866
 20
449.06160831491383
  9
$ORTHOMODE
 70
               0
  9
$REGENMODE
 70
               1
  9
$FILLMODE
 70
               1
  9
$QTEXTMODE
 70
               0
  9
$MIRRTEXT
 70
               1
  9
$DRAGMODE
 70
               2
  9
$LTSCALE
 40
1.0
  9
$OSMODE
 70
               0
  9
$ATTMODE
 70
               1
  9
$TEXTSIZE
 40
0.2
  9
$TRACEWID
 40
0.05
  9
$TEXTSTYLE
  7
STANDARD
  9
$CLAYER
  8
0
  9
$CELTYPE
  6
CONTINUOUS
  9
$CECOLOR
 62
             256
  9
$DIMSCALE
 40
1.0
  9
$DIMASZ
 40
0.18
  9
$DIMEXO
 40
0.0625
  9
$DIMDLI
 40
0.38
  9
$DIMRND
 40
0.0
  9
$DIMDLE
 40
0.0
  9
$DIMEXE
 40
0.18
  9
$DIMTP
 40
0.0
  9
$DIMTM
 40
0.0
  9
$DIMTXT
 40
0.18
  9
$DIMCEN
 40
0.09
  9
$DIMTSZ
 40
0.0
  9
$DIMTOL
 70
               0
  9
$DIMLIM
 70
               0
  9
$DIMTIH
 70
               1
  9
$DIMTOH
 70
               1
  9
$DIMSE1
 70
               0
  9
$DIMSE2
 70
               0
  9
$DIMTAD
 70
               0
  9
$DIMZIN
 70
               0
  9
$DIMBLK
  1

  9
$DIMASO
 70
               1
  9
$DIMSHO
 70
               1
  9
$DIMPOST
  1

  9
$DIMAPOST
  1

  9
$DIMALT
 70
               0
  9
$DIMALTD
 70
               2
  9
$DIMALTF
 40
25.399999999999999
  9
$DIMLFAC
 40
1.0
  9
$DIMTOFL
 70
               0
  9
$DIMTVP
 40
0.0
  9
$DIMTIX
 70
               0
  9
$DIMSOXD
 70
               0
  9
$DIMSAH
 70
               0
  9
$DIMBLK1
  1

  9
$DIMBLK2
  1

  9
$DIMSTYLE
  2
STANDARD
  9
$DIMCLRD
 70
               0
  9
$DIMCLRE
 70
               0
  9
$DIMCLRT
 70
               0
  9
$DIMTFAC
 40
1.0
  9
$DIMGAP
 40
0.09
  9
$LUNITS
 70
               2
  9
$LUPREC
 70
               4
  9
$AXISMODE
 70
               0
  9
$AXISUNIT
 10
0.0
 20
0.0
  9
$SKETCHINC
 40
0.1
  9
$FILLETRAD
 40
0.0
  9
$AUNITS
 70
               0
  9
$AUPREC
 70
               0
  9
$MENU
  1
acad
  9
$ELEVATION
 40
0.0
  9
$PELEVATION
 40
0.0
  9
$THICKNESS
 40
0.0
  9
$LIMCHECK
 70
               0
  9
$BLIPMODE
 70
               1
  9
$CHAMFERA
 40
0.0
  9
$CHAMFERB
 40
0.0
  9
$SKPOLY
 70
               0
  9
$TDCREATE
 40
0.000000000
  9
$TDUPDATE
 40
0.000000000
  9
$TDINDWG
 40
0.0000000000
  9
$TDUSRTIMER
 40
0.0000000000
  9
$USRTIMER
 70
               1
  9
$ANGBASE
 50
0.0
  9
$ANGDIR
 70
               0
  9
$PDMODE
 70
               0
  9
$PDSIZE
 40
1.0
  9
$PLINEWID
 40
0.0
  9
$COORDS
 70
               1
  9
$SPLFRAME
 70
               0
  9
$SPLINETYPE
 70
               6
  9
$SPLINESEGS
 70
               8
  9
$ATTDIA
 70
               0
  9
$ATTREQ
 70
               1
  9
$HANDLING
 70
               1
  9
$HANDSEED
  5
3B5
  9
$SURFTAB1
 70
               6
  9
$SURFTAB2
 70
               6
  9
$SURFTYPE
 70
               6
  9
$SURFU
 70
               6
  9
$SURFV
 70
               6
  9
$UCSNAME
  2

  9
$UCSORG
 10
0.0
 20
0.0
 30
0.0
  9
$UCSXDIR
 10
1.0
 20
0.0
 30
0.0
  9
$UCSYDIR
 10
0.0
 20
1.0
 30
0.0
  9
$PUCSNAME
  2

  9
$PUCSORG
 10
0.0
 20
0.0
 30
0.0
  9
$PUCSXDIR
 10
1.0
 20
0.0
 30
0.0
  9
$PUCSYDIR
 10
0.0
 20
1.0
 30
0.0
  9
$USERI1
 70
               0
  9
$USERI2
 70
               0
  9
$USERI3
 70
               0
  9
$USERI4
 70
               0
  9
$USERI5
 70
               0
  9
$USERR1
 40
0.0
  9
$USERR2
 40
0.0
  9
$USERR3
 40
0.0
  9
$USERR4
 40
0.0
  9
$USERR5
 40
0.0
  9
$WORLDVIEW
 70
               1
  9
$SHADEDGE
 70
               3
  9
$SHADEDIF
 70
              70
  9
$TILEMODE
 70
               1
  9
$MAXACTVP
 70
              16
  9
$PINSBASE
 10
0.0
 20
0.0
 30
0.0
  9
$PLIMCHECK
 70
               0
  9
$PEXTMIN
 10
1.0000000000000000E+20
 20
1.0000000000000000E+20
 30
1.0000000000000000E+20
  9
$PEXTMAX
 10
-1.0000000000000000E+20
 20
-1.0000000000000000E+20
 30
-1.0000000000000000E+20
  9
$PLIMMIN
 10
0.0
 20
0.0
  9
$PLIMMAX
 10
12.0
 20
9.0
  9
$UNITMODE
 70
               0
  9
$VISRETAIN
 70
               0
  9
$PLINEGEN
 70
               1
  9
$PSLTSCALE
 70
               0
  9
$TREEDEPTH
 70
            3020
  9
$DWGCODEPAGE
  3
dos932
  0
ENDSEC
  0
SECTION
  2
TABLES
  0
TABLE
  2
VPORT
 70
               1
  0
VPORT
  2
*ACTIVE
 70
               0
 10
0.0
 20
0.0
 11
1.0
 21
1.0
 12
42.403868657912199
 22
-37.044489610675299
 13
0.0
 23
0.0
 14
1.0
 24
1.0
 15
0.0
 25
0.0
 16
0.0
 26
0.0
 36
1.0
 17
0.0
 27
0.0
 37
0.0
 40
972.21219585117819
 41
1.7425420015461739
 42
50.0
 43
0.0
 44
0.0
 50
0.0
 51
0.0
 71
               0
 72
             100
 73
               1
 74
               1
 75
               0
 76
               0
 77
               0
 78
               0
  0
ENDTAB
  0
TABLE
  2
LTYPE
 70
              26
  0
LTYPE
  2
CONTINUOUS
 70
               0
  3
Solid line
 72
              65
 73
               0
 40
0.0
  0
LTYPE
  2
HIDDENX2
 70
               0
  3
CADPAC FUSION LINETYPE
 72
              65
 73
               2
 40
80.0
 49
60.0
 49
-20.0
  0
LTYPE
  2
HIDDEN
 70
               0
  3
CADPAC FUSION LINETYPE
 72
              65
 73
               2
 40
60.0
 49
40.0
 49
-20.0
  0
LTYPE
  2
HIDDEN2
 70
               0
  3
CADPAC FUSION LINETYPE
 72
              65
 73
               2
 40
50.0
 49
30.0
 49
-20.0
  0
LTYPE
  2
DASHED
 70
               0
  3
CADPAC FUSION LINETYPE
 72
              65
 73
               2
 40
60.0
 49
40.0
 49
-20.0
  0
LTYPE
  2
DASHED2
 70
               0
  3
CADPAC FUSION LINETYPE
 72
              65
 73
               2
 40
45.0
 49
30.0
 49
-15.0
  0
LTYPE
  2
DASHEDX2
 70
               0
  3
CADPAC FUSION LINETYPE
 72
              65
 73
               2
 40
90.0
 49
60.0
 49
-30.0
  0
LTYPE
  2
DOTX2
 70
               0
  3
CADPAC FUSION LINETYPE
 72
              65
 73
               2
 40
25.0
 49
0.0
 49
-25.0
  0
LTYPE
  2
DOT
 70
               0
  3
CADPAC FUSION LINETYPE
 72
              65
 73
               2
 40
20.0
 49
0.0
 49
-20.0
  0
LTYPE
  2
DOTS
 70
               0
  3
CADPAC FUSION LINETYPE
 72
              65
 73
               2
 40
20.0
 49
0.0
 49
-20.0
  0
LTYPE
  2
DOT2
 70
               0
  3
CADPAC FUSION LINETYPE
 72
              65
 73
               2
 40
15.0
 49
0.0
 49
-15.0
  0
LTYPE
  2
CENTERX2
 70
               0
  3
CADPAC FUSION LINETYPE
 72
              65
 73
               4
 40
120.0
 49
50.0
 49
-25.0
 49
20.0
 49
-25.0
  0
LTYPE
  2
CENTER
 70
               0
  3
CADPAC FUSION LINETYPE
 72
              65
 73
               4
 40
92.0
 49
40.0
 49
-20.0
 49
12.0
 49
-20.0
  0
LTYPE
  2
CENTER2
 70
               0
  3
CADPAC FUSION LINETYPE
 72
              65
 73
               4
 40
64.0
 49
30.0
 49
-15.0
 49
4.0
 49
-15.0
  0
LTYPE
  2
DASHDOTX2
 70
               0
  3
CADPAC FUSION LINETYPE
 72
              65
 73
               4
 40
100.0
 49
50.0
 49
-25.0
 49
0.0
 49
-25.0
  0
LTYPE
  2
DASHDOT
 70
               0
  3
CADPAC FUSION LINETYPE
 72
              65
 73
               4
 40
80.0
 49
40.0
 49
-20.0
 49
0.0
 49
-20.0
  0
LTYPE
  2
DASHDOT2
 70
               0
  3
CADPAC FUSION LINETYPE
 72
              65
 73
               4
 40
60.0
 49
30.0
 49
-15.0
 49
0.0
 49
-15.0
  0
LTYPE
  2
DIVIDEX2
 70
               0
  3
CADPAC FUSION LINETYPE
 72
              65
 73
               6
 40
125.0
 49
50.0
 49
-25.0
 49
0.0
 49
-25.0
 49
0.0
 49
-25.0
  0
LTYPE
  2
DIVIDE
 70
               0
  3
CADPAC FUSION LINETYPE
 72
              65
 73
               6
 40
100.0
 49
40.0
 49
-20.0
 49
0.0
 49
-20.0
 49
0.0
 49
-20.0
  0
LTYPE
  2
DIVIDE2
 70
               0
  3
CADPAC FUSION LINETYPE
 72
              65
 73
               6
 40
75.0
 49
30.0
 49
-15.0
 49
0.0
 49
-15.0
 49
0.0
 49
-15.0
  0
LTYPE
  2
BORDERX2
 70
               0
  3
CADPAC FUSION LINETYPE
 72
              65
 73
               6
 40
175.0
 49
50.0
 49
-25.0
 49
50.0
 49
-25.0
 49
0.0
 49
-25.0
  0
LTYPE
  2
BORDER
 70
               0
  3
CADPAC FUSION LINETYPE
 72
              65
 73
               6
 40
140.0
 49
40.0
 49
-20.0
 49
40.0
 49
-20.0
 49
0.0
 49
-20.0
  0
LTYPE
  2
BORDER2
 70
               0
  3
CADPAC FUSION LINETYPE
 72
              65
 73
               6
 40
105.0
 49
30.0
 49
-15.0
 49
30.0
 49
-15.0
 49
0.0
 49
-15.0
  0
LTYPE
  2
PHANTOMX2
 70
               0
  3
CADPAC FUSION LINETYPE
 72
              65
 73
               6
 40
150.0
 49
50.0
 49
-20.0
 49
20.0
 49
-20.0
 49
20.0
 49
-20.0
  0
LTYPE
  2
PHANTOM
 70
               0
  3
CADPAC FUSION LINETYPE
 72
              65
 73
               6
 40
124.0
 49
40.0
 49
-20.0
 49
12.0
 49
-20.0
 49
12.0
 49
-20.0
  0
LTYPE
  2
PHANTOM2
 70
               0
  3
CADPAC FUSION LINETYPE
 72
              65
 73
               6
 40
106.0
 49
30.0
 49
-20.0
 49
8.0
 49
-20.0
 49
8.0
 49
-20.0
  0
ENDTAB
  0
TABLE
  2
LAYER
 70
             256
  0
LAYER
  2
0
 70
               0
 62
               7
  6
CONTINUOUS
  0
LAYER
  2
LAYER001
 70
               0
 62
               7
  6
CONTINUOUS
  0
LAYER
  2
LAYER002
 70
               0
 62
               7
  6
CONTINUOUS
  0
LAYER
  2
LAYER003
 70
               0
 62
               7
  6
CONTINUOUS
  0
LAYER
  2
LAYER004
 70
               0
 62
               7
  6
CONTINUOUS
  0
LAYER
  2
LAYER005
 70
               0
 62
               7
  6
CONTINUOUS
  0
LAYER
  2
LAYER006
 70
               0
 62
               7
  6
CONTINUOUS
  0
LAYER
  2
LAYER007
 70
               0
 62
               7
  6
CONTINUOUS
  0
LAYER
  2
LAYER008
 70
               0
 62
               7
  6
CONTINUOUS
  0
LAYER
  2
LAYER009
 70
               0
 62
               7
  6
CONTINUOUS
  0
LAYER
  2
LAYER010
 70
               0
 62
               7
  6
CONTINUOUS
  0
LAYER
  2
LAYER011
 70
               0
 62
               7
  6
CONTINUOUS
  0
LAYER
  2
LAYER012
 70
               0
 62
               7
  6
CONTINUOUS
  0
LAYER
  2
LAYER013
 70
               0
 62
               7
  6
CONTINUOUS
  0
LAYER
  2
LAYER014
 70
               0
 62
               7
  6
CONTINUOUS
  0
LAYER
  2
LAYER015
 70
               0
 62
               7
  6
CONTINUOUS
  0
LAYER
  2
LAYER016
 70
               0
 62
               7
  6
CONTINUOUS
  0
LAYER
  2
LAYER017
 70
               0
 62
               7
  6
CONTINUOUS
  0
LAYER
  2
LAYER018
 70
               0
 62
               7
  6
CONTINUOUS
  0
LAYER
  2
LAYER019
 70
               0
 62
               7
  6
CONTINUOUS
  0
LAYER
  2
LAYER020
 70
               0
 62
               7
  6
CONTINUOUS
  0
LAYER
  2
LAYER021
 70
               0
 62
               7
  6
CONTINUOUS
  0
LAYER
  2
LAYER022
 70
               0
 62
               7
  6
CONTINUOUS
  0
LAYER
  2
LAYER023
 70
               0
 62
               7
  6
CONTINUOUS
  0
LAYER
  2
LAYER024
 70
               0
 62
               7
  6
CONTINUOUS
  0
LAYER
  2
LAYER025
 70
               0
 62
               7
  6
CONTINUOUS
  0
LAYER
  2
LAYER026
 70
               0
 62
               7
  6
CONTINUOUS
  0
LAYER
  2
LAYER027
 70
               0
 62
               7
  6
CONTINUOUS
  0
LAYER
  2
LAYER028
 70
               0
 62
               7
  6
CONTINUOUS
  0
LAYER
  2
LAYER029
 70
               0
 62
               7
  6
CONTINUOUS
  0
LAYER
  2
LAYER030
 70
               0
 62
               7
  6
CONTINUOUS
  0
LAYER
  2
LAYER031
 70
               0
 62
               7
  6
CONTINUOUS
  0
LAYER
  2
LAYER032
 70
               0
 62
               7
  6
CONTINUOUS
  0
LAYER
  2
LAYER033
 70
               0
 62
               7
  6
CONTINUOUS
  0
LAYER
  2
LAYER034
 70
               0
 62
               7
  6
CONTINUOUS
  0
LAYER
  2
LAYER035
 70
               0
 62
               7
  6
CONTINUOUS
  0
LAYER
  2
LAYER036
 70
               0
 62
               7
  6
CONTINUOUS
  0
LAYER
  2
LAYER037
 70
               0
 62
               7
  6
CONTINUOUS
  0
LAYER
  2
LAYER038
 70
               0
 62
               7
  6
CONTINUOUS
  0
LAYER
  2
LAYER039
 70
               0
 62
               7
  6
CONTINUOUS
  0
LAYER
  2
LAYER040
 70
               0
 62
               7
  6
CONTINUOUS
  0
LAYER
  2
LAYER041
 70
               0
 62
               7
  6
CONTINUOUS
  0
LAYER
  2
LAYER042
 70
               0
 62
               7
  6
CONTINUOUS
  0
LAYER
  2
LAYER043
 70
               0
 62
               7
  6
CONTINUOUS
  0
LAYER
  2
LAYER044
 70
               0
 62
               7
  6
CONTINUOUS
  0
LAYER
  2
LAYER045
 70
               0
 62
               7
  6
CONTINUOUS
  0
LAYER
  2
LAYER046
 70
               0
 62
               7
  6
CONTINUOUS
  0
LAYER
  2
LAYER047
 70
               0
 62
               7
  6
CONTINUOUS
  0
LAYER
  2
LAYER048
 70
               0
 62
               7
  6
CONTINUOUS
  0
LAYER
  2
LAYER049
 70
               0
 62
               7
  6
CONTINUOUS
  0
LAYER
  2
LAYER050
 70
               0
 62
               7
  6
CONTINUOUS
  0
LAYER
  2
LAYER051
 70
               0
 62
               7
  6
CONTINUOUS
  0
LAYER
  2
LAYER052
 70
               0
 62
               7
  6
CONTINUOUS
  0
LAYER
  2
LAYER053
 70
               0
 62
               7
  6
CONTINUOUS
  0
LAYER
  2
LAYER054
 70
               0
 62
               7
  6
CONTINUOUS
  0
LAYER
  2
LAYER055
 70
               0
 62
               7
  6
CONTINUOUS
  0
LAYER
  2
LAYER056
 70
               0
 62
               7
  6
CONTINUOUS
  0
LAYER
  2
LAYER057
 70
               0
 62
               7
  6
CONTINUOUS
  0
LAYER
  2
LAYER058
 70
               0
 62
               7
  6
CONTINUOUS
  0
LAYER
  2
LAYER059
 70
               0
 62
               7
  6
CONTINUOUS
  0
LAYER
  2
LAYER060
 70
               0
 62
               7
  6
CONTINUOUS
  0
LAYER
  2
LAYER061
 70
               0
 62
               7
  6
CONTINUOUS
  0
LAYER
  2
LAYER062
 70
               0
 62
               7
  6
CONTINUOUS
  0
LAYER
  2
LAYER063
 70
               0
 62
               7
  6
CONTINUOUS
  0
LAYER
  2
LAYER064
 70
               0
 62
               7
  6
CONTINUOUS
  0
LAYER
  2
LAYER065
 70
               0
 62
               7
  6
CONTINUOUS
  0
LAYER
  2
LAYER066
 70
               0
 62
               7
  6
CONTINUOUS
  0
LAYER
  2
LAYER067
 70
               0
 62
               7
  6
CONTINUOUS
  0
LAYER
  2
LAYER068
 70
               0
 62
               7
  6
CONTINUOUS
  0
LAYER
  2
LAYER069
 70
               0
 62
               7
  6
CONTINUOUS
  0
LAYER
  2
LAYER070
 70
               0
 62
               7
  6
CONTINUOUS
  0
LAYER
  2
LAYER071
 70
               0
 62
               7
  6
CONTINUOUS
  0
LAYER
  2
LAYER072
 70
               0
 62
               7
  6
CONTINUOUS
  0
LAYER
  2
LAYER073
 70
               0
 62
               7
  6
CONTINUOUS
  0
LAYER
  2
LAYER074
 70
               0
 62
               7
  6
CONTINUOUS
  0
LAYER
  2
LAYER075
 70
               0
 62
               7
  6
CONTINUOUS
  0
LAYER
  2
LAYER076
 70
               0
 62
               7
  6
CONTINUOUS
  0
LAYER
  2
LAYER077
 70
               0
 62
               7
  6
CONTINUOUS
  0
LAYER
  2
LAYER078
 70
               0
 62
               7
  6
CONTINUOUS
  0
LAYER
  2
LAYER079
 70
               0
 62
               7
  6
CONTINUOUS
  0
LAYER
  2
LAYER080
 70
               0
 62
               7
  6
CONTINUOUS
  0
LAYER
  2
LAYER081
 70
               0
 62
               7
  6
CONTINUOUS
  0
LAYER
  2
LAYER082
 70
               0
 62
               7
  6
CONTINUOUS
  0
LAYER
  2
LAYER083
 70
               0
 62
               7
  6
CONTINUOUS
  0
LAYER
  2
LAYER084
 70
               0
 62
               7
  6
CONTINUOUS
  0
LAYER
  2
LAYER085
 70
               0
 62
               7
  6
CONTINUOUS
  0
LAYER
  2
LAYER086
 70
               0
 62
               7
  6
CONTINUOUS
  0
LAYER
  2
LAYER087
 70
               0
 62
               7
  6
CONTINUOUS
  0
LAYER
  2
LAYER088
 70
               0
 62
               7
  6
CONTINUOUS
  0
LAYER
  2
LAYER089
 70
               0
 62
               7
  6
CONTINUOUS
  0
LAYER
  2
LAYER090
 70
               0
 62
               7
  6
CONTINUOUS
  0
LAYER
  2
LAYER091
 70
               0
 62
               7
  6
CONTINUOUS
  0
LAYER
  2
LAYER092
 70
               0
 62
               7
  6
CONTINUOUS
  0
LAYER
  2
LAYER093
 70
               0
 62
               7
  6
CONTINUOUS
  0
LAYER
  2
LAYER094
 70
               0
 62
               7
  6
CONTINUOUS
  0
LAYER
  2
LAYER095
 70
               0
 62
               7
  6
CONTINUOUS
  0
LAYER
  2
LAYER096
 70
               0
 62
               7
  6
CONTINUOUS
  0
LAYER
  2
LAYER097
 70
               0
 62
               7
  6
CONTINUOUS
  0
LAYER
  2
LAYER098
 70
               0
 62
               7
  6
CONTINUOUS
  0
LAYER
  2
LAYER099
 70
               0
 62
               7
  6
CONTINUOUS
  0
LAYER
  2
LAYER100
 70
               0
 62
               7
  6
CONTINUOUS
  0
LAYER
  2
LAYER101
 70
               0
 62
               7
  6
CONTINUOUS
  0
LAYER
  2
LAYER102
 70
               0
 62
               7
  6
CONTINUOUS
  0
LAYER
  2
LAYER103
 70
               0
 62
               7
  6
CONTINUOUS
  0
LAYER
  2
LAYER104
 70
               0
 62
               7
  6
CONTINUOUS
  0
LAYER
  2
LAYER105
 70
               0
 62
               7
  6
CONTINUOUS
  0
LAYER
  2
LAYER106
 70
               0
 62
               7
  6
CONTINUOUS
  0
LAYER
  2
LAYER107
 70
               0
 62
               7
  6
CONTINUOUS
  0
LAYER
  2
LAYER108
 70
               0
 62
               7
  6
CONTINUOUS
  0
LAYER
  2
LAYER109
 70
               0
 62
               7
  6
CONTINUOUS
  0
LAYER
  2
LAYER110
 70
               0
 62
               7
  6
CONTINUOUS
  0
LAYER
  2
LAYER111
 70
               0
 62
               7
  6
CONTINUOUS
  0
LAYER
  2
LAYER112
 70
               0
 62
               7
  6
CONTINUOUS
  0
LAYER
  2
LAYER113
 70
               0
 62
               7
  6
CONTINUOUS
  0
LAYER
  2
LAYER114
 70
               0
 62
               7
  6
CONTINUOUS
  0
LAYER
  2
LAYER115
 70
               0
 62
               7
  6
CONTINUOUS
  0
LAYER
  2
LAYER116
 70
               0
 62
               7
  6
CONTINUOUS
  0
LAYER
  2
LAYER117
 70
               0
 62
               7
  6
CONTINUOUS
  0
LAYER
  2
LAYER118
 70
               0
 62
               7
  6
CONTINUOUS
  0
LAYER
  2
LAYER119
 70
               0
 62
               7
  6
CONTINUOUS
  0
LAYER
  2
LAYER120
 70
               0
 62
               7
  6
CONTINUOUS
  0
LAYER
  2
LAYER121
 70
               0
 62
               7
  6
CONTINUOUS
  0
LAYER
  2
LAYER122
 70
               0
 62
               7
  6
CONTINUOUS
  0
LAYER
  2
LAYER123
 70
               0
 62
               7
  6
CONTINUOUS
  0
LAYER
  2
LAYER124
 70
               0
 62
               7
  6
CONTINUOUS
  0
LAYER
  2
LAYER125
 70
               0
 62
               7
  6
CONTINUOUS
  0
LAYER
  2
LAYER126
 70
               0
 62
               7
  6
CONTINUOUS
  0
LAYER
  2
LAYER127
 70
               0
 62
               7
  6
CONTINUOUS
  0
LAYER
  2
LAYER128
 70
               0
 62
               7
  6
CONTINUOUS
  0
LAYER
  2
LAYER129
 70
               0
 62
               7
  6
CONTINUOUS
  0
LAYER
  2
LAYER130
 70
               0
 62
               7
  6
CONTINUOUS
  0
LAYER
  2
LAYER131
 70
               0
 62
               7
  6
CONTINUOUS
  0
LAYER
  2
LAYER132
 70
               0
 62
               7
  6
CONTINUOUS
  0
LAYER
  2
LAYER133
 70
               0
 62
               7
  6
CONTINUOUS
  0
LAYER
  2
LAYER134
 70
               0
 62
               7
  6
CONTINUOUS
  0
LAYER
  2
LAYER135
 70
               0
 62
               7
  6
CONTINUOUS
  0
LAYER
  2
LAYER136
 70
               0
 62
               7
  6
CONTINUOUS
  0
LAYER
  2
LAYER137
 70
               0
 62
               7
  6
CONTINUOUS
  0
LAYER
  2
LAYER138
 70
               0
 62
               7
  6
CONTINUOUS
  0
LAYER
  2
LAYER139
 70
               0
 62
               7
  6
CONTINUOUS
  0
LAYER
  2
LAYER140
 70
               0
 62
               7
  6
CONTINUOUS
  0
LAYER
  2
LAYER141
 70
               0
 62
               7
  6
CONTINUOUS
  0
LAYER
  2
LAYER142
 70
               0
 62
               7
  6
CONTINUOUS
  0
LAYER
  2
LAYER143
 70
               0
 62
               7
  6
CONTINUOUS
  0
LAYER
  2
LAYER144
 70
               0
 62
               7
  6
CONTINUOUS
  0
LAYER
  2
LAYER145
 70
               0
 62
               7
  6
CONTINUOUS
  0
LAYER
  2
LAYER146
 70
               0
 62
               7
  6
CONTINUOUS
  0
LAYER
  2
LAYER147
 70
               0
 62
               7
  6
CONTINUOUS
  0
LAYER
  2
LAYER148
 70
               0
 62
               7
  6
CONTINUOUS
  0
LAYER
  2
LAYER149
 70
               0
 62
               7
  6
CONTINUOUS
  0
LAYER
  2
LAYER150
 70
               0
 62
               7
  6
CONTINUOUS
  0
LAYER
  2
LAYER151
 70
               0
 62
               7
  6
CONTINUOUS
  0
LAYER
  2
LAYER152
 70
               0
 62
               7
  6
CONTINUOUS
  0
LAYER
  2
LAYER153
 70
               0
 62
               7
  6
CONTINUOUS
  0
LAYER
  2
LAYER154
 70
               0
 62
               7
  6
CONTINUOUS
  0
LAYER
  2
LAYER155
 70
               0
 62
               7
  6
CONTINUOUS
  0
LAYER
  2
LAYER156
 70
               0
 62
               7
  6
CONTINUOUS
  0
LAYER
  2
LAYER157
 70
               0
 62
               7
  6
CONTINUOUS
  0
LAYER
  2
LAYER158
 70
               0
 62
               7
  6
CONTINUOUS
  0
LAYER
  2
LAYER159
 70
               0
 62
               7
  6
CONTINUOUS
  0
LAYER
  2
LAYER160
 70
               0
 62
               7
  6
CONTINUOUS
  0
LAYER
  2
LAYER161
 70
               0
 62
               7
  6
CONTINUOUS
  0
LAYER
  2
LAYER162
 70
               0
 62
               7
  6
CONTINUOUS
  0
LAYER
  2
LAYER163
 70
               0
 62
               7
  6
CONTINUOUS
  0
LAYER
  2
LAYER164
 70
               0
 62
               7
  6
CONTINUOUS
  0
LAYER
  2
LAYER165
 70
               0
 62
               7
  6
CONTINUOUS
  0
LAYER
  2
LAYER166
 70
               0
 62
               7
  6
CONTINUOUS
  0
LAYER
  2
LAYER167
 70
               0
 62
               7
  6
CONTINUOUS
  0
LAYER
  2
LAYER168
 70
               0
 62
               7
  6
CONTINUOUS
  0
LAYER
  2
LAYER169
 70
               0
 62
               7
  6
CONTINUOUS
  0
LAYER
  2
LAYER170
 70
               0
 62
               7
  6
CONTINUOUS
  0
LAYER
  2
LAYER171
 70
               0
 62
               7
  6
CONTINUOUS
  0
LAYER
  2
LAYER172
 70
               0
 62
               7
  6
CONTINUOUS
  0
LAYER
  2
LAYER173
 70
               0
 62
               7
  6
CONTINUOUS
  0
LAYER
  2
LAYER174
 70
               0
 62
               7
  6
CONTINUOUS
  0
LAYER
  2
LAYER175
 70
               0
 62
               7
  6
CONTINUOUS
  0
LAYER
  2
LAYER176
 70
               0
 62
               7
  6
CONTINUOUS
  0
LAYER
  2
LAYER177
 70
               0
 62
               7
  6
CONTINUOUS
  0
LAYER
  2
LAYER178
 70
               0
 62
               7
  6
CONTINUOUS
  0
LAYER
  2
LAYER179
 70
               0
 62
               7
  6
CONTINUOUS
  0
LAYER
  2
LAYER180
 70
               0
 62
               7
  6
CONTINUOUS
  0
LAYER
  2
LAYER181
 70
               0
 62
               7
  6
CONTINUOUS
  0
LAYER
  2
LAYER182
 70
               0
 62
               7
  6
CONTINUOUS
  0
LAYER
  2
LAYER183
 70
               0
 62
               7
  6
CONTINUOUS
  0
LAYER
  2
LAYER184
 70
               0
 62
               7
  6
CONTINUOUS
  0
LAYER
  2
LAYER185
 70
               0
 62
               7
  6
CONTINUOUS
  0
LAYER
  2
LAYER186
 70
               0
 62
               7
  6
CONTINUOUS
  0
LAYER
  2
LAYER187
 70
               0
 62
               7
  6
CONTINUOUS
  0
LAYER
  2
LAYER188
 70
               0
 62
               7
  6
CONTINUOUS
  0
LAYER
  2
LAYER189
 70
               0
 62
               7
  6
CONTINUOUS
  0
LAYER
  2
LAYER190
 70
               0
 62
               7
  6
CONTINUOUS
  0
LAYER
  2
LAYER191
 70
               0
 62
               7
  6
CONTINUOUS
  0
LAYER
  2
LAYER192
 70
               0
 62
               7
  6
CONTINUOUS
  0
LAYER
  2
LAYER193
 70
               0
 62
               7
  6
CONTINUOUS
  0
LAYER
  2
LAYER194
 70
               0
 62
               7
  6
CONTINUOUS
  0
LAYER
  2
LAYER195
 70
               0
 62
               7
  6
CONTINUOUS
  0
LAYER
  2
LAYER196
 70
               0
 62
               7
  6
CONTINUOUS
  0
LAYER
  2
LAYER197
 70
               0
 62
               7
  6
CONTINUOUS
  0
LAYER
  2
LAYER198
 70
               0
 62
               7
  6
CONTINUOUS
  0
LAYER
  2
LAYER199
 70
               0
 62
               7
  6
CONTINUOUS
  0
LAYER
  2
LAYER200
 70
               0
 62
               7
  6
CONTINUOUS
  0
LAYER
  2
LAYER201
 70
               0
 62
               7
  6
CONTINUOUS
  0
LAYER
  2
LAYER202
 70
               0
 62
               7
  6
CONTINUOUS
  0
LAYER
  2
LAYER203
 70
               0
 62
               7
  6
CONTINUOUS
  0
LAYER
  2
LAYER204
 70
               0
 62
               7
  6
CONTINUOUS
  0
LAYER
  2
LAYER205
 70
               0
 62
               7
  6
CONTINUOUS
  0
LAYER
  2
LAYER206
 70
               0
 62
               7
  6
CONTINUOUS
  0
LAYER
  2
LAYER207
 70
               0
 62
               7
  6
CONTINUOUS
  0
LAYER
  2
LAYER208
 70
               0
 62
               7
  6
CONTINUOUS
  0
LAYER
  2
LAYER209
 70
               0
 62
               7
  6
CONTINUOUS
  0
LAYER
  2
LAYER210
 70
               0
 62
               7
  6
CONTINUOUS
  0
LAYER
  2
LAYER211
 70
               0
 62
               7
  6
CONTINUOUS
  0
LAYER
  2
LAYER212
 70
               0
 62
               7
  6
CONTINUOUS
  0
LAYER
  2
LAYER213
 70
               0
 62
               7
  6
CONTINUOUS
  0
LAYER
  2
LAYER214
 70
               0
 62
               7
  6
CONTINUOUS
  0
LAYER
  2
LAYER215
 70
               0
 62
               7
  6
CONTINUOUS
  0
LAYER
  2
LAYER216
 70
               0
 62
               7
  6
CONTINUOUS
  0
LAYER
  2
LAYER217
 70
               0
 62
               7
  6
CONTINUOUS
  0
LAYER
  2
LAYER218
 70
               0
 62
               7
  6
CONTINUOUS
  0
LAYER
  2
LAYER219
 70
               0
 62
               7
  6
CONTINUOUS
  0
LAYER
  2
LAYER220
 70
               0
 62
               7
  6
CONTINUOUS
  0
LAYER
  2
LAYER221
 70
               0
 62
               7
  6
CONTINUOUS
  0
LAYER
  2
LAYER222
 70
               0
 62
               7
  6
CONTINUOUS
  0
LAYER
  2
LAYER223
 70
               0
 62
               7
  6
CONTINUOUS
  0
LAYER
  2
LAYER224
 70
               0
 62
               7
  6
CONTINUOUS
  0
LAYER
  2
LAYER225
 70
               0
 62
               7
  6
CONTINUOUS
  0
LAYER
  2
LAYER226
 70
               0
 62
               7
  6
CONTINUOUS
  0
LAYER
  2
LAYER227
 70
               0
 62
               7
  6
CONTINUOUS
  0
LAYER
  2
LAYER228
 70
               0
 62
               7
  6
CONTINUOUS
  0
LAYER
  2
LAYER229
 70
               0
 62
               7
  6
CONTINUOUS
  0
LAYER
  2
LAYER230
 70
               0
 62
               7
  6
CONTINUOUS
  0
LAYER
  2
LAYER231
 70
               0
 62
               7
  6
CONTINUOUS
  0
LAYER
  2
LAYER232
 70
               0
 62
               7
  6
CONTINUOUS
  0
LAYER
  2
LAYER233
 70
               0
 62
               7
  6
CONTINUOUS
  0
LAYER
  2
LAYER234
 70
               0
 62
               7
  6
CONTINUOUS
  0
LAYER
  2
LAYER235
 70
               0
 62
               7
  6
CONTINUOUS
  0
LAYER
  2
LAYER236
 70
               0
 62
               7
  6
CONTINUOUS
  0
LAYER
  2
LAYER237
 70
               0
 62
               7
  6
CONTINUOUS
  0
LAYER
  2
LAYER238
 70
               0
 62
               7
  6
CONTINUOUS
  0
LAYER
  2
LAYER239
 70
               0
 62
               7
  6
CONTINUOUS
  0
LAYER
  2
LAYER240
 70
               0
 62
               7
  6
CONTINUOUS
  0
LAYER
  2
LAYER241
 70
               0
 62
               7
  6
CONTINUOUS
  0
LAYER
  2
LAYER242
 70
               0
 62
               7
  6
CONTINUOUS
  0
LAYER
  2
LAYER243
 70
               0
 62
               7
  6
CONTINUOUS
  0
LAYER
  2
LAYER244
 70
               0
 62
               7
  6
CONTINUOUS
  0
LAYER
  2
LAYER245
 70
               0
 62
               7
  6
CONTINUOUS
  0
LAYER
  2
LAYER246
 70
               0
 62
               7
  6
CONTINUOUS
  0
LAYER
  2
LAYER247
 70
               0
 62
               7
  6
CONTINUOUS
  0
LAYER
  2
LAYER248
 70
               0
 62
               7
  6
CONTINUOUS
  0
LAYER
  2
LAYER249
 70
               0
 62
               7
  6
CONTINUOUS
  0
LAYER
  2
LAYER250
 70
               0
 62
               7
  6
CONTINUOUS
  0
LAYER
  2
LAYER251
 70
               0
 62
               7
  6
CONTINUOUS
  0
LAYER
  2
LAYER252
 70
               0
 62
               7
  6
CONTINUOUS
  0
LAYER
  2
LAYER253
 70
               0
 62
               7
  6
CONTINUOUS
  0
LAYER
  2
LAYER254
 70
               0
 62
               7
  6
CONTINUOUS
  0
LAYER
  2
LAYER255
 70
               0
 62
               7
  6
CONTINUOUS
  0
ENDTAB
  0
TABLE
  2
STYLE
 70
               1
  0
STYLE
  2
STANDARD
 70
               0
 40
0.0
 41
1.0
 50
0.0
 71
               0
 42
40.0
  3
MS Gothic.ttf
  4

  0
ENDTAB
  0
TABLE
  2
VIEW
 70
               0
  0
VIEW
  2
QQQQ
 70
               0
 40
972.21219585117819
 10
42.403868657912199
 20
-37.044489610675299
 41
1694.1205856861129
 11
0.0
 21
0.0
 31
1.0
 12
100.0
 22
100.0
 32
0.0
 42
50.0
 43
0.0
 44
0.0
 50
0.0
 71
               0
  0
ENDTAB
  0
TABLE
  2
UCS
 70
               0
  0
ENDTAB
  0
TABLE
  2
APPID
 70
               1
  0
APPID
  2
ACAD
 70
               0
  0
ENDTAB
  0
TABLE
  2
DIMSTYLE
 70
               1
  0
DIMSTYLE
  2
STANDARD
 70
               0
  3

  4

  5

  6

  7

 40
1.0
 41
0.18
 42
0.0625
 43
0.38
 44
0.18
 45
0.0
 46
0.0
 47
0.0
 48
0.0
140
0.18
141
0.09
142
0.0
143
25.399999999999999
144
1.0
145
0.0
146
1.0
147
0.09
 71
               0
 72
               0
 73
               1
 74
               1
 75
               0
 76
               0
 77
               0
 78
               0
170
               0
171
               2
172
               0
173
               0
174
               0
175
               0
176
               0
177
               0
178
               0
  0
ENDTAB
  0
ENDSEC
  0
SECTION
  2
BLOCKS
  0
ENDSEC
  0
SECTION
  2
ENTITIES
  0
LINE
  8
0
  6
DASHED
 62
               4
  5
136
 10
-150.22445894373533
 20
-92.600476618752083
 30
0.0
 11
-37.224458943735357
 21
-92.600476618752083
 31
0.0
  0
LINE
  8
0
  6
DASHED
 62
               4
  5
137
 10
103.27554105626461
 20
-122.60047661875198
 30
0.0
 11
103.27554105626461
 21
-287.600476618752
 31
0.0
  0
LINE
  8
0
  6
DASHED
 62
               4
  5
138
 10
-660.80981939141589
 20
-92.600477124940568
 30
0.0
 11
-547.80981939141589
 21
-92.600477124940568
 31
0.0
  0
LINE
  8
0
  6
DASHED
 62
               4
  5
139
 10
633.59320649934011
 20
-92.600477124942387
 30
0.0
 11
746.59320649934011
 21
-92.600477124942387
 31
0.0
  0
LINE
  8
0
  6
DASHED
 62
               4
  5
13A
 10
103.27554105626461
 20
377.89952338124834
 30
0.0
 11
103.27554105626461
 21
212.89952338124834
 31
0.0
  0
LINE
  8
0
  6
DASHED
 62
               4
  5
13B
 10
10.275541056264615
 20
-280.10047661875211
 30
0.0
 11
103.27554105626461
 21
-280.10047661875211
 31
0.0
  0
ARC
  8
0
  6
DASHED
 62
               4
  5
13C
 10
10.275541056264615
 20
-113.600476618752
 30
0.0
 40
166.49999999999852
 50
179.99999999999915
 51
269.99999999999937
  0
LINE
  8
0
  6
DASHDOT
 62
               4
  5
13D
 10
-93.724458943735371
 20
-323.05663188048527
 30
0.0
 11
-93.724458943735357
 21
-10.180994952466833
 31
0.0
  0
ARC
  8
0
  6
DASHDOT
 62
               4
  5
13E
 10
14.275541056264558
 20
-113.6004766187513
 30
0.0
 40
91.5
 50
179.9999999999996
 51
269.99999999999937
  0
LINE
  8
0
  6
DASHDOT
 62
               4
  5
13F
 10
-604.30981939141589
 20
-10.180994952466833
 30
0.0
 11
-604.30981939141589
 21
-333.36545544145116
 31
0.0
  0
LINE
  8
0
  6
DASHDOT
 62
               4
  5
140
 10
-724.16653210503478
 20
-205.10047661875097
 30
0.0
 11
-485.428756469897
 21
-205.10047661875097
 31
0.0
  0
LINE
  8
0
  6
DASHDOT
 62
               4
  5
141
 10
690.09320649934011
 20
-10.180994952466833
 30
0.0
 11
690.09320649934011
 21
-333.36545544145287
 31
0.0
  0
LINE
  8
0
  6
DASHDOT
 62
               4
  5
142
 10
570.236493785721
 20
-205.10047661875268
 30
0.0
 11
808.97426942085917
 21
-205.10047661875268
 31
0.0
  0
LINE
  8
0
  6
DASHDOT
 62
               4
  5
143
 10
-192.82387079011357
 20
295.39952338124766
 30
0.0
 11
194.20896736585388
 21
295.39952338124766
 31
0.0
  0
LINE
  8
0
  6
DASHDOT
 62
               4
  5
144
 10
-93.724458943735357
 20
390.01490799663219
 30
0.0
 11
-93.724458943735357
 21
194.78413876586291
 31
0.0
  0
LINE
  8
0
  6
CONTINUOUS
 62
               4
  5
145
 10
174.27554105626496
 20
-141.66547661875171
 30
0.0
 11
183.14220772293152
 21
-141.66547661875171
 31
0.0
  0
LINE
  8
0
  6
CONTINUOUS
 62
               4
  5
146
 10
174.27554105626496
 20
-163.53214328541827
 30
0.0
 11
183.14220772293152
 21
-163.53214328541827
 31
0.0
  0
LINE
  8
0
  6
CONTINUOUS
 62
               4
  5
147
 10
183.14220772293152
 20
-141.66547661875171
 30
0.0
 11
184.27554105626513
 21
-143.59880995208499
 31
0.0
  0
LINE
  8
0
  6
CONTINUOUS
 62
               4
  5
148
 10
183.14220772293152
 20
-163.53214328541827
 30
0.0
 11
184.27554105626513
 21
-161.59880995208488
 31
0.0
  0
LINE
  8
0
  6
CONTINUOUS
 62
               4
  5
149
 10
184.27554105626513
 20
-161.59880995208488
 30
0.0
 11
184.27554105626513
 21
-143.59880995208499
 31
0.0
  0
ARC
  8
0
  6
CONTINUOUS
 62
               4
  5
14A
 10
165.60887438959821
 20
-152.59880995208476
 30
0.0
 40
18.133333333333333
 50
341.99999960920729
 51
377.99999997943115
  0
ARC
  8
0
  6
CONTINUOUS
 62
               4
  5
14B
 10
178.94220772293164
 20
-144.33214328541823
 30
0.0
 40
4.8666666666666645
 50
325.99999962749001
 51
393.99999996114843
  0
ARC
  8
0
  6
CONTINUOUS
 62
               4
  5
14C
 10
178.94220772293164
 20
-160.86547661875153
 30
0.0
 40
4.8666666666666645
 50
325.99999962749001
 51
393.99999996114843
  0
LINE
  8
0
  6
CONTINUOUS
 62
               4
  5
14D
 10
174.27554105626496
 20
-147.06547661875157
 30
0.0
 11
183.14220772293152
 21
-147.06547661875157
 31
0.0
  0
LINE
  8
0
  6
CONTINUOUS
 62
               4
  5
14E
 10
174.27554105626496
 20
-158.06547661875169
 30
0.0
 11
183.14220772293152
 21
-158.06547661875169
 31
0.0
  0
LINE
  8
0
  6
CONTINUOUS
 62
               4
  5
14F
 10
184.27554105626513
 20
-158.59880995208499
 30
0.0
 11
186.74220772293182
 21
-158.59880995208499
 31
0.0
  0
LINE
  8
0
  6
CONTINUOUS
 62
               4
  5
150
 10
186.74220772293182
 20
-158.59880995208499
 30
0.0
 11
188.74220772293171
 21
-156.59880995208488
 31
0.0
  0
LINE
  8
0
  6
CONTINUOUS
 62
               4
  5
151
 10
186.74220772293182
 20
-146.59880995208476
 30
0.0
 11
188.74220772293171
 21
-148.59880995208499
 31
0.0
  0
LINE
  8
0
  6
CONTINUOUS
 62
               4
  5
152
 10
188.74220772293171
 20
-148.59880995208499
 30
0.0
 11
188.74220772293171
 21
-156.59880995208488
 31
0.0
  0
LINE
  8
0
  6
CONTINUOUS
 62
               4
  5
153
 10
186.74220772293182
 20
-146.59880995208476
 30
0.0
 11
186.74220772293182
 21
-158.59880995208499
 31
0.0
  0
LINE
  8
0
  6
CONTINUOUS
 62
               4
  5
154
 10
186.74220772293182
 20
-146.59880995208476
 30
0.0
 11
184.27554105626513
 21
-146.59880995208476
 31
0.0
  0
LINE
  8
0
  6
CONTINUOUS
 62
               4
  5
155
 10
174.27554105626467
 20
-299.16880995208527
 30
0.0
 11
183.14220772293123
 21
-299.16880995208527
 31
0.0
  0
LINE
  8
0
  6
CONTINUOUS
 62
               4
  5
156
 10
174.27554105626467
 20
-321.03547661875183
 30
0.0
 11
183.14220772293123
 21
-321.03547661875183
 31
0.0
  0
LINE
  8
0
  6
CONTINUOUS
 62
               4
  5
157
 10
183.14220772293123
 20
-299.16880995208527
 30
0.0
 11
184.27554105626467
 21
-301.10214328541855
 31
0.0
  0
LINE
  8
0
  6
CONTINUOUS
 62
               4
  5
158
 10
183.14220772293123
 20
-321.03547661875183
 30
0.0
 11
184.27554105626467
 21
-319.10214328541855
 31
0.0
  0
LINE
  8
0
  6
CONTINUOUS
 62
               4
  5
159
 10
184.27554105626467
 20
-319.10214328541855
 30
0.0
 11
184.27554105626467
 21
-301.10214328541855
 31
0.0
  0
ARC
  8
0
  6
CONTINUOUS
 62
               4
  5
15A
 10
165.60887438959793
 20
-310.10214328541844
 30
0.0
 40
18.133333333333333
 50
341.99999960920729
 51
377.99999997943115
  0
ARC
  8
0
  6
CONTINUOUS
 62
               4
  5
15B
 10
178.94220772293136
 20
-301.8354766187519
 30
0.0
 40
4.8666666666666645
 50
325.99999962749001
 51
393.99999996114843
  0
ARC
  8
0
  6
CONTINUOUS
 62
               4
  5
15C
 10
178.94220772293136
 20
-318.36880995208514
 30
0.0
 40
4.8666666666666645
 50
325.99999962749001
 51
393.99999996114843
  0
LINE
  8
0
  6
CONTINUOUS
 62
               4
  5
15D
 10
174.27554105626467
 20
-304.56880995208519
 30
0.0
 11
183.14220772293123
 21
-304.56880995208519
 31
0.0
  0
LINE
  8
0
  6
CONTINUOUS
 62
               4
  5
15E
 10
174.27554105626467
 20
-315.56880995208525
 30
0.0
 11
183.14220772293123
 21
-315.56880995208525
 31
0.0
  0
LINE
  8
0
  6
CONTINUOUS
 62
               4
  5
15F
 10
184.27554105626467
 20
-316.10214328541855
 30
0.0
 11
186.74220772293137
 21
-316.10214328541855
 31
0.0
  0
LINE
  8
0
  6
CONTINUOUS
 62
               4
  5
160
 10
186.74220772293137
 20
-316.10214328541855
 30
0.0
 11
188.74220772293125
 21
-314.10214328541855
 31
0.0
  0
LINE
  8
0
  6
CONTINUOUS
 62
               4
  5
161
 10
186.74220772293137
 20
-304.10214328541855
 30
0.0
 11
188.74220772293125
 21
-306.10214328541855
 31
0.0
  0
LINE
  8
0
  6
CONTINUOUS
 62
               4
  5
162
 10
188.74220772293125
 20
-306.10214328541855
 30
0.0
 11
188.74220772293125
 21
-314.10214328541855
 31
0.0
  0
LINE
  8
0
  6
CONTINUOUS
 62
               4
  5
163
 10
186.74220772293137
 20
-304.10214328541855
 30
0.0
 11
186.74220772293137
 21
-316.10214328541855
 31
0.0
  0
LINE
  8
0
  6
CONTINUOUS
 62
               4
  5
164
 10
186.74220772293137
 20
-304.10214328541855
 30
0.0
 11
184.27554105626467
 21
-304.10214328541855
 31
0.0
  0
LINE
  8
0
  6
CONTINUOUS
 62
               4
  5
165
 10
142.27554105626467
 20
-146.53214328541964
 30
0.0
 11
155.27554105626461
 21
-146.53214328541964
 31
0.0
  0
LINE
  8
0
  6
CONTINUOUS
 62
               4
  5
166
 10
155.27554105626461
 20
-158.53214328541964
 30
0.0
 11
142.27554105626467
 21
-158.53214328541964
 31
0.0
  0
LINE
  8
0
  6
CONTINUOUS
 62
               4
  5
167
 10
155.27554105626433
 20
-304.03547661875331
 30
0.0
 11
142.06601643931407
 21
-304.03547661875331
 31
0.0
  0
LINE
  8
0
  6
CONTINUOUS
 62
               4
  5
168
 10
142.27554105626427
 20
-316.03547661875336
 30
0.0
 11
155.27554105626433
 21
-316.03547661875336
 31
0.0
  0
ARC
  8
0
  6
CONTINUOUS
 62
               4
  5
169
 10
122.34073284741606
 20
-136.89880995208449
 30
0.0
 40
1.8000000000000007
 50
89.999999999999773
 51
179.99999999999957
  0
ARC
  8
0
  6
CONTINUOUS
 62
               4
  5
16A
 10
122.34073284741606
 20
-139.10175141130622
 30
0.0
 40
1.8000000000000007
 50
89.999999999999773
 51
179.99999999999957
  0
LINE
  8
0
  6
CONTINUOUS
 62
               4
  5
16B
 10
117.14073284741605
 20
-160.59880995208454
 30
0.0
 11
117.14073284741605
 21
-144.59880995208465
 31
0.0
  0
LINE
  8
0
  6
CONTINUOUS
 62
               4
  5
16C
 10
117.64073284741607
 20
-161.09880995208465
 30
0.0
 11
123.14073284741605
 21
-161.09880995208465
 31
0.0
  0
LINE
  8
0
  6
CONTINUOUS
 62
               4
  5
16D
 10
124.14073284741598
 20
-160.09880995208465
 30
0.0
 11
124.14073284741598
 21
-136.09880995208465
 31
0.0
  0
LINE
  8
0
  6
CONTINUOUS
 62
               4
  5
16E
 10
117.14073284741605
 20
-144.59880995208465
 30
0.0
 11
120.54073284741608
 21
-138.62536554642185
 31
0.0
  0
LINE
  8
0
  6
CONTINUOUS
 62
               4
  5
16F
 10
117.14073284741605
 20
-160.59880995208454
 30
0.0
 11
117.64073284741607
 21
-161.09880995208465
 31
0.0
  0
LINE
  8
0
  6
CONTINUOUS
 62
               4
  5
170
 10
117.64073284741607
 20
-161.09880995208465
 30
0.0
 11
117.64073284741607
 21
-152.59880995208465
 31
0.0
  0
ARC
  8
0
  6
CONTINUOUS
 62
               4
  5
171
 10
140.42693974396781
 20
-152.59880995208465
 30
0.0
 40
22.786206896551708
 50
150.77745261990586
 51
179.99999999999957
  0
LINE
  8
0
  6
CONTINUOUS
 62
               4
  5
172
 10
123.14073284741599
 20
-135.09880995208465
 30
0.0
 11
122.34073284741606
 21
-135.09880995208465
 31
0.0
  0
LINE
  8
0
  6
CONTINUOUS
 62
               4
  5
173
 10
122.34073284741606
 20
-137.30175141130627
 30
0.0
 11
123.14073284741605
 21
-137.30175141130627
 31
0.0
  0
ARC
  8
0
  6
CONTINUOUS
 62
               4
  5
174
 10
123.14073284741599
 20
-136.09880995208465
 30
0.0
 40
1.0
 50
359.99999999999915
 51
449.99999999999892
  0
ARC
  8
0
  6
CONTINUOUS
 62
               4
  5
175
 10
123.14073284741605
 20
-160.09880995208465
 30
0.0
 40
1.0
 50
269.99999999999932
 51
350.40593177314673
  0
ARC
  8
0
  6
CONTINUOUS
 62
               4
  5
176
 10
123.14073284741605
 20
-138.30175141130627
 30
0.0
 40
1.0
 50
359.99999999999915
 51
449.99999999999892
  0
LINE
  8
0
  6
CONTINUOUS
 62
               4
  5
177
 10
117.64073284741607
 20
-161.09880995208465
 30
0.0
 11
124.14073284741598
 21
-161.09880995208465
 31
0.0
  0
LINE
  8
0
  6
CONTINUOUS
 62
               4
  5
178
 10
120.54073284741608
 20
-136.89880995208449
 30
0.0
 11
120.54073284741608
 21
-141.4745122214411
 31
0.0
  0
LINE
  8
0
  6
CONTINUOUS
 62
               4
  5
179
 10
123.43993822430389
 20
-318.10214328541844
 30
0.0
 11
123.43993822430389
 21
-302.10214328541849
 31
0.0
  0
LINE
  8
0
  6
CONTINUOUS
 62
               4
  5
17A
 10
116.43993822430389
 20
-302.10214328541849
 30
0.0
 11
116.43993822430389
 21
-318.10214328541844
 31
0.0
  0
LINE
  8
0
  6
CONTINUOUS
 62
               4
  5
17B
 10
116.43993822430389
 20
-318.10214328541844
 30
0.0
 11
123.43993822430389
 21
-318.10214328541844
 31
0.0
  0
LINE
  8
0
  6
CONTINUOUS
 62
               4
  5
17C
 10
123.43993822430389
 20
-302.10214328541849
 30
0.0
 11
116.43993822430389
 21
-302.10214328541849
 31
0.0
  0
LINE
  8
0
  6
CONTINUOUS
 62
               4
  5
17D
 10
119.83993822430389
 20
-318.10214328541844
 30
0.0
 11
119.83993822430389
 21
-302.10214328541849
 31
0.0
  0
ARC
  8
0
  6
CONTINUOUS
 62
               4
  5
17E
 10
-604.30981939141589
 20
-205.10047661875097
 30
0.0
 40
90.499999999999986
 50
193.23323480919379
 51
226.76676519080488
  0
LINE
  8
0
  6
CONTINUOUS
 62
               4
  5
17F
 10
-614.21217781452333
 20
-320.00641433719261
 30
0.0
 11
-666.29958936705486
 21
-271.03619090446529
 31
0.0
  0
LINE
  8
0
  6
CONTINUOUS
 62
               4
  5
180
 10
-594.72024171562612
 20
-320.30047661875108
 30
0.0
 11
-542.32004941577679
 21
-271.03619090446529
 31
0.0
  0
ARC
  8
0
  6
CONTINUOUS
 62
               4
  5
181
 10
-604.30981939141589
 20
-205.10047661875097
 30
0.0
 40
90.499999999999986
 50
313.23323480919379
 51
347.94085475883332
  0
ARC
  8
0
  6
CONTINUOUS
 62
               4
  5
182
 10
-604.30981939141589
 20
-310.10047661875103
 30
0.0
 40
14.0
 50
7.6168015821361594
 51
82.383198417865188
  0
LINE
  8
0
  6
CONTINUOUS
 62
               4
  5
183
 10
-601.33063467158729
 20
-295.10047661875097
 30
0.0
 11
-610.32022703150153
 21
-304.09006897866533
 31
0.0
  0
ARC
  8
0
  6
CONTINUOUS
 62
               4
  5
184
 10
-604.30981939141589
 20
-310.10047661875097
 30
0.0
 40
17.5
 50
15.940718931959738
 51
58.997280866125834
  0
LINE
  8
0
  6
CONTINUOUS
 62
               4
  5
185
 10
-587.48275792493826
 20
-305.29423043244452
 30
0.0
 11
-598.29941175133035
 21
-316.11088425883651
 31
0.0
  0
ARC
  8
0
  6
CONTINUOUS
 62
               4
  5
186
 10
-604.30981939141589
 20
-310.10047661875097
 30
0.0
 40
8.5
 50
134.99999999999986
 51
314.99999999999943
  0
CIRCLE
  8
0
  6
CONTINUOUS
 62
               4
  5
187
 10
-604.30981939141589
 20
-310.10047661875097
 30
0.0
 40
8.0
  0
LINE
  8
0
  6
CONTINUOUS
 62
               4
  5
188
 10
599.16053910197411
 20
-141.63082661875268
 30
0.0
 11
589.66054353135007
 21
-147.11565161875279
 31
0.0
  0
LINE
  8
0
  6
CONTINUOUS
 62
               4
  5
189
 10
589.66054353135007
 20
-147.11565161875279
 30
0.0
 11
589.66054353135007
 21
-158.08530161875291
 31
0.0
  0
LINE
  8
0
  6
CONTINUOUS
 62
               4
  5
18A
 10
589.66054353135007
 20
-158.08530161875291
 30
0.0
 11
599.16053910197411
 21
-163.57012661875291
 31
0.0
  0
LINE
  8
0
  6
CONTINUOUS
 62
               4
  5
18B
 10
599.16053910197411
 20
-163.57012661875291
 30
0.0
 11
608.66053467259792
 21
-158.08530161875291
 31
0.0
  0
LINE
  8
0
  6
CONTINUOUS
 62
               4
  5
18C
 10
608.66053467259792
 20
-158.08530161875291
 30
0.0
 11
608.66053467259803
 21
-147.11565161875279
 31
0.0
  0
LINE
  8
0
  6
CONTINUOUS
 62
               4
  5
18D
 10
608.66053467259803
 20
-147.11565161875279
 30
0.0
 11
599.16053910197411
 21
-141.63082661875268
 31
0.0
  0
CIRCLE
  8
0
  6
CONTINUOUS
 62
               4
  5
18E
 10
599.16053910197411
 20
-152.60047661875279
 30
0.0
 40
9.0
  0
CIRCLE
  8
0
  6
CONTINUOUS
 62
               4
  5
18F
 10
599.16053910197411
 20
-152.60047661875279
 30
0.0
 40
6.0
  0
CIRCLE
  8
0
  6
CONTINUOUS
 62
               4
  5
190
 10
599.16053910197411
 20
-152.60047661875279
 30
0.0
 40
5.0999999999999979
  0
LINE
  8
0
  6
CONTINUOUS
 62
               4
  5
191
 10
781.025873896706
 20
-141.63082661875279
 30
0.0
 11
771.52587832608208
 21
-147.11565161875291
 31
0.0
  0
LINE
  8
0
  6
CONTINUOUS
 62
               4
  5
192
 10
771.52587832608208
 20
-147.11565161875291
 30
0.0
 11
771.52587832608208
 21
-158.08530161875291
 31
0.0
  0
LINE
  8
0
  6
CONTINUOUS
 62
               4
  5
193
 10
771.52587832608208
 20
-158.08530161875291
 30
0.0
 11
781.025873896706
 21
-163.57012661875291
 31
0.0
  0
LINE
  8
0
  6
CONTINUOUS
 62
               4
  5
194
 10
781.025873896706
 20
-163.57012661875291
 30
0.0
 11
790.52586946733004
 21
-158.08530161875291
 31
0.0
  0
LINE
  8
0
  6
CONTINUOUS
 62
               4
  5
195
 10
790.52586946733004
 20
-158.08530161875291
 30
0.0
 11
790.52586946733004
 21
-147.11565161875291
 31
0.0
  0
LINE
  8
0
  6
CONTINUOUS
 62
               4
  5
196
 10
790.52586946733004
 20
-147.11565161875291
 30
0.0
 11
781.025873896706
 21
-141.63082661875279
 31
0.0
  0
CIRCLE
  8
0
  6
CONTINUOUS
 62
               4
  5
197
 10
781.025873896706
 20
-152.60047661875279
 30
0.0
 40
9.0
  0
CIRCLE
  8
0
  6
CONTINUOUS
 62
               4
  5
198
 10
781.025873896706
 20
-152.60047661875279
 30
0.0
 40
6.0
  0
CIRCLE
  8
0
  6
CONTINUOUS
 62
               4
  5
199
 10
781.025873896706
 20
-152.60047661875279
 30
0.0
 40
5.0999999999999979
  0
LINE
  8
0
  6
CONTINUOUS
 62
               4
  5
19A
 10
690.09320649934011
 20
-299.13082661875285
 30
0.0
 11
680.59321092871619
 21
-304.61565161875291
 31
0.0
  0
LINE
  8
0
  6
CONTINUOUS
 62
               4
  5
19B
 10
680.59321092871619
 20
-304.61565161875291
 30
0.0
 11
680.59321092871619
 21
-315.58530161875291
 31
0.0
  0
LINE
  8
0
  6
CONTINUOUS
 62
               4
  5
19C
 10
680.59321092871619
 20
-315.58530161875291
 30
0.0
 11
690.09320649934011
 21
-321.07012661875291
 31
0.0
  0
LINE
  8
0
  6
CONTINUOUS
 62
               4
  5
19D
 10
690.09320649934011
 20
-321.07012661875291
 30
0.0
 11
699.59320206996392
 21
-315.58530161875291
 31
0.0
  0
LINE
  8
0
  6
CONTINUOUS
 62
               4
  5
19E
 10
699.59320206996392
 20
-315.58530161875291
 30
0.0
 11
699.59320206996392
 21
-304.61565161875291
 31
0.0
  0
LINE
  8
0
  6
CONTINUOUS
 62
               4
  5
19F
 10
699.59320206996392
 20
-304.61565161875291
 30
0.0
 11
690.09320649934011
 21
-299.13082661875285
 31
0.0
  0
CIRCLE
  8
0
  6
CONTINUOUS
 62
               4
  5
1A0
 10
690.09320649934011
 20
-310.10047661875279
 30
0.0
 40
9.0
  0
CIRCLE
  8
0
  6
CONTINUOUS
 62
               4
  5
1A1
 10
690.09320649934011
 20
-310.10047661875279
 30
0.0
 40
6.0
  0
CIRCLE
  8
0
  6
CONTINUOUS
 62
               4
  5
1A2
 10
690.09320649934011
 20
-310.10047661875279
 30
0.0
 40
5.0999999999999979
  0
ARC
  8
0
  6
CONTINUOUS
 62
               4
  5
1A3
 10
172.27554105626535
 20
389.82082253887296
 30
0.0
 40
1.9999999999999996
 50
0.0
 51
32.275644314577384
  0
LINE
  8
0
  6
CONTINUOUS
 62
               4
  5
1A4
 10
174.27554105626467
 20
397.33119004791382
 30
0.0
 11
183.14220772293123
 21
397.33119004791382
 31
0.0
  0
LINE
  8
0
  6
CONTINUOUS
 62
               4
  5
1A5
 10
174.27554105626467
 20
375.46452338124749
 30
0.0
 11
183.14220772293123
 21
375.46452338124749
 31
0.0
  0
LINE
  8
0
  6
CONTINUOUS
 62
               4
  5
1A6
 10
183.14220772293123
 20
397.33119004791382
 30
0.0
 11
184.27554105626467
 21
395.39785671458066
 31
0.0
  0
LINE
  8
0
  6
CONTINUOUS
 62
               4
  5
1A7
 10
183.14220772293123
 20
375.46452338124749
 30
0.0
 11
184.27554105626467
 21
377.39785671458088
 31
0.0
  0
LINE
  8
0
  6
CONTINUOUS
 62
               4
  5
1A8
 10
184.27554105626467
 20
377.39785671458088
 30
0.0
 11
184.27554105626467
 21
395.39785671458066
 31
0.0
  0
ARC
  8
0
  6
CONTINUOUS
 62
               4
  5
1A9
 10
165.60887438959793
 20
386.39785671458088
 30
0.0
 40
18.133333333333333
 50
341.99999960920729
 51
377.99999997943115
  0
ARC
  8
0
  6
CONTINUOUS
 62
               4
  5
1AA
 10
178.94220772293164
 20
394.66452338124731
 30
0.0
 40
4.8666666666666645
 50
325.99999962749001
 51
393.99999996114843
  0
ARC
  8
0
  6
CONTINUOUS
 62
               4
  5
1AB
 10
178.94220772293164
 20
378.131190047914
 30
0.0
 40
4.8666666666666645
 50
325.99999962749001
 51
393.99999996114843
  0
LINE
  8
0
  6
CONTINUOUS
 62
               4
  5
1AC
 10
174.27554105626467
 20
391.93119004791396
 30
0.0
 11
183.14220772293123
 21
391.93119004791396
 31
0.0
  0
LINE
  8
0
  6
CONTINUOUS
 62
               4
  5
1AD
 10
174.27554105626467
 20
380.93119004791396
 30
0.0
 11
183.14220772293123
 21
380.93119004791396
 31
0.0
  0
LINE
  8
0
  6
CONTINUOUS
 62
               4
  5
1AE
 10
184.27554105626467
 20
380.39785671458066
 30
0.0
 11
186.74220772293137
 21
380.39785671458066
 31
0.0
  0
LINE
  8
0
  6
CONTINUOUS
 62
               4
  5
1AF
 10
186.74220772293137
 20
380.39785671458066
 30
0.0
 11
188.74220772293125
 21
382.39785671458088
 31
0.0
  0
LINE
  8
0
  6
CONTINUOUS
 62
               4
  5
1B0
 10
186.74220772293137
 20
392.39785671458088
 30
0.0
 11
188.74220772293125
 21
390.39785671458066
 31
0.0
  0
LINE
  8
0
  6
CONTINUOUS
 62
               4
  5
1B1
 10
188.74220772293125
 20
390.39785671458066
 30
0.0
 11
188.74220772293125
 21
382.39785671458088
 31
0.0
  0
LINE
  8
0
  6
CONTINUOUS
 62
               4
  5
1B2
 10
186.74220772293137
 20
392.39785671458088
 30
0.0
 11
186.74220772293137
 21
380.39785671458066
 31
0.0
  0
LINE
  8
0
  6
CONTINUOUS
 62
               4
  5
1B3
 10
186.74220772293137
 20
392.39785671458088
 30
0.0
 11
184.27554105626467
 21
392.39785671458088
 31
0.0
  0
LINE
  8
0
  6
CONTINUOUS
 62
               4
  5
1B4
 10
174.27554105626467
 20
215.33119004791405
 30
0.0
 11
183.14220772293123
 21
215.33119004791405
 31
0.0
  0
LINE
  8
0
  6
CONTINUOUS
 62
               4
  5
1B5
 10
174.27554105626467
 20
193.46452338124749
 30
0.0
 11
183.14220772293123
 21
193.46452338124749
 31
0.0
  0
LINE
  8
0
  6
CONTINUOUS
 62
               4
  5
1B6
 10
183.14220772293123
 20
215.33119004791405
 30
0.0
 11
184.27554105626467
 21
213.39785671458066
 31
0.0
  0
LINE
  8
0
  6
CONTINUOUS
 62
               4
  5
1B7
 10
183.14220772293123
 20
193.46452338124749
 30
0.0
 11
184.27554105626467
 21
195.39785671458077
 31
0.0
  0
LINE
  8
0
  6
CONTINUOUS
 62
               4
  5
1B8
 10
184.27554105626467
 20
195.39785671458077
 30
0.0
 11
184.27554105626467
 21
213.39785671458066
 31
0.0
  0
ARC
  8
0
  6
CONTINUOUS
 62
               4
  5
1B9
 10
165.60887438959793
 20
204.39785671458077
 30
0.0
 40
18.133333333333333
 50
341.99999960920729
 51
377.99999997943115
  0
ARC
  8
0
  6
CONTINUOUS
 62
               4
  5
1BA
 10
178.94220772293164
 20
212.66452338124731
 30
0.0
 40
4.8666666666666645
 50
325.99999962749001
 51
393.99999996114843
  0
ARC
  8
0
  6
CONTINUOUS
 62
               4
  5
1BB
 10
178.94220772293164
 20
196.13119004791412
 30
0.0
 40
4.8666666666666645
 50
325.99999962749001
 51
393.99999996114843
  0
LINE
  8
0
  6
CONTINUOUS
 62
               4
  5
1BC
 10
174.27554105626467
 20
209.93119004791407
 30
0.0
 11
183.14220772293123
 21
209.93119004791407
 31
0.0
  0
LINE
  8
0
  6
CONTINUOUS
 62
               4
  5
1BD
 10
174.27554105626467
 20
198.93119004791396
 30
0.0
 11
183.14220772293123
 21
198.93119004791396
 31
0.0
  0
LINE
  8
0
  6
CONTINUOUS
 62
               4
  5
1BE
 10
184.27554105626467
 20
198.39785671458066
 30
0.0
 11
186.74220772293137
 21
198.39785671458066
 31
0.0
  0
LINE
  8
0
  6
CONTINUOUS
 62
               4
  5
1BF
 10
186.74220772293137
 20
198.39785671458066
 30
0.0
 11
188.74220772293125
 21
200.39785671458077
 31
0.0
  0
LINE
  8
0
  6
CONTINUOUS
 62
               4
  5
1C0
 10
186.74220772293137
 20
210.39785671458077
 30
0.0
 11
188.74220772293125
 21
208.39785671458066
 31
0.0
  0
LINE
  8
0
  6
CONTINUOUS
 62
               4
  5
1C1
 10
188.74220772293125
 20
208.39785671458066
 30
0.0
 11
188.74220772293125
 21
200.39785671458077
 31
0.0
  0
LINE
  8
0
  6
CONTINUOUS
 62
               4
  5
1C2
 10
186.74220772293137
 20
210.39785671458077
 30
0.0
 11
186.74220772293137
 21
198.39785671458066
 31
0.0
  0
LINE
  8
0
  6
CONTINUOUS
 62
               4
  5
1C3
 10
186.74220772293137
 20
210.39785671458077
 30
0.0
 11
184.27554105626467
 21
210.39785671458077
 31
0.0
  0
LINE
  8
0
  6
CONTINUOUS
 62
               4
  5
1C4
 10
142.27554105626467
 20
392.4645233812459
 30
0.0
 11
155.27554105626433
 21
392.4645233812459
 31
0.0
  0
LINE
  8
0
  6
CONTINUOUS
 62
               4
  5
1C5
 10
155.27554105626433
 20
380.46452338124612
 30
0.0
 11
142.27554105626467
 21
380.46452338124612
 31
0.0
  0
LINE
  8
0
  6
CONTINUOUS
 62
               4
  5
1C6
 10
155.27554105626433
 20
210.46452338124612
 30
0.0
 11
142.06601643931435
 21
210.4645233812459
 31
0.0
  0
LINE
  8
0
  6
CONTINUOUS
 62
               4
  5
1C7
 10
142.27554105626439
 20
198.46452338124601
 30
0.0
 11
155.27554105626433
 21
198.46452338124601
 31
0.0
  0
LINE
  8
0
  6
CONTINUOUS
 62
               4
  5
1C8
 10
174.27554105626467
 20
306.26619004791945
 30
0.0
 11
183.14220772293123
 21
306.26619004791945
 31
0.0
  0
LINE
  8
0
  6
CONTINUOUS
 62
               4
  5
1C9
 10
174.27554105626467
 20
284.39952338125312
 30
0.0
 11
183.14220772293123
 21
284.39952338125312
 31
0.0
  0
LINE
  8
0
  6
CONTINUOUS
 62
               4
  5
1CA
 10
183.14220772293123
 20
306.26619004791945
 30
0.0
 11
184.27554105626467
 21
304.33285671458628
 31
0.0
  0
LINE
  8
0
  6
CONTINUOUS
 62
               4
  5
1CB
 10
183.14220772293123
 20
284.39952338125312
 30
0.0
 11
184.27554105626467
 21
286.33285671458628
 31
0.0
  0
LINE
  8
0
  6
CONTINUOUS
 62
               4
  5
1CC
 10
184.27554105626467
 20
286.33285671458628
 30
0.0
 11
184.27554105626467
 21
304.33285671458628
 31
0.0
  0
ARC
  8
0
  6
CONTINUOUS
 62
               4
  5
1CD
 10
165.60887438959793
 20
295.33285671458628
 30
0.0
 40
18.133333333333333
 50
341.99999960920729
 51
377.99999997943115
  0
ARC
  8
0
  6
CONTINUOUS
 62
               4
  5
1CE
 10
178.94220772293164
 20
303.59952338125294
 30
0.0
 40
4.8666666666666645
 50
325.99999962749001
 51
393.99999996114843
  0
ARC
  8
0
  6
CONTINUOUS
 62
               4
  5
1CF
 10
178.94220772293164
 20
287.06619004791963
 30
0.0
 40
4.8666666666666645
 50
325.99999962749001
 51
393.99999996114843
  0
LINE
  8
0
  6
CONTINUOUS
 62
               4
  5
1D0
 10
174.27554105626467
 20
300.86619004791959
 30
0.0
 11
183.14220772293123
 21
300.86619004791959
 31
0.0
  0
LINE
  8
0
  6
CONTINUOUS
 62
               4
  5
1D1
 10
174.27554105626467
 20
289.86619004791959
 30
0.0
 11
183.14220772293123
 21
289.86619004791959
 31
0.0
  0
LINE
  8
0
  6
CONTINUOUS
 62
               4
  5
1D2
 10
184.27554105626467
 20
289.33285671458628
 30
0.0
 11
186.74220772293137
 21
289.33285671458628
 31
0.0
  0
LINE
  8
0
  6
CONTINUOUS
 62
               4
  5
1D3
 10
186.74220772293137
 20
289.33285671458628
 30
0.0
 11
188.74220772293125
 21
291.33285671458628
 31
0.0
  0
LINE
  8
0
  6
CONTINUOUS
 62
               4
  5
1D4
 10
186.74220772293137
 20
301.33285671458628
 30
0.0
 11
188.74220772293125
 21
299.33285671458628
 31
0.0
  0
LINE
  8
0
  6
CONTINUOUS
 62
               4
  5
1D5
 10
188.74220772293125
 20
299.33285671458628
 30
0.0
 11
188.74220772293125
 21
291.33285671458628
 31
0.0
  0
LINE
  8
0
  6
CONTINUOUS
 62
               4
  5
1D6
 10
186.74220772293137
 20
301.33285671458628
 30
0.0
 11
186.74220772293137
 21
289.33285671458628
 31
0.0
  0
LINE
  8
0
  6
CONTINUOUS
 62
               4
  5
1D7
 10
186.74220772293137
 20
301.33285671458628
 30
0.0
 11
184.27554105626467
 21
301.33285671458628
 31
0.0
  0
LINE
  8
0
  6
CONTINUOUS
 62
               4
  5
1D8
 10
124.27554105626446
 20
402.87053113646419
 30
0.0
 11
120.27554105626442
 21
402.87053113646419
 31
0.0
  0
LINE
  8
0
  6
CONTINUOUS
 62
               4
  5
1D9
 10
120.27554105626442
 20
402.87053113646419
 30
0.0
 11
120.27554105626442
 21
400.14963731147071
 31
0.0
  0
LINE
  8
0
  6
CONTINUOUS
 62
               4
  5
1DA
 10
118.77554105626442
 20
380.1524266388505
 30
0.0
 11
118.77554105626442
 21
394.1524266388505
 31
0.0
  0
LINE
  8
0
  6
CONTINUOUS
 62
               4
  5
1DB
 10
118.77554105626442
 20
378.39785671457997
 30
0.0
 11
124.27554105626446
 21
378.39785671457997
 31
0.0
  0
LINE
  8
0
  6
CONTINUOUS
 62
               4
  5
1DC
 10
118.77554105626442
 20
394.1524266388505
 30
0.0
 11
120.27554105626442
 21
400.14963731147071
 31
0.0
  0
LINE
  8
0
  6
CONTINUOUS
 62
               4
  5
1DD
 10
118.77554105626442
 20
378.39785671457997
 30
0.0
 11
118.77554105626442
 21
380.1524266388505
 31
0.0
  0
LINE
  8
0
  6
CONTINUOUS
 62
               4
  5
1DE
 10
124.27554105626452
 20
378.39785671457997
 30
0.0
 11
124.27554105626446
 21
402.87053113646419
 31
0.0
  0
LINE
  8
0
  6
CONTINUOUS
 62
               4
  5
1DF
 10
118.77554105626453
 20
196.39785671458009
 30
0.0
 11
118.77554105626453
 21
198.1524266388505
 31
0.0
  0
LINE
  8
0
  6
CONTINUOUS
 62
               4
  5
1E0
 10
118.77554105626453
 20
198.1524266388505
 30
0.0
 11
118.77554105626453
 21
212.15242663885061
 31
0.0
  0
LINE
  8
0
  6
CONTINUOUS
 62
               4
  5
1E1
 10
118.77554105626453
 20
212.15242663885061
 30
0.0
 11
120.27554105626447
 21
218.14963731147083
 31
0.0
  0
LINE
  8
0
  6
CONTINUOUS
 62
               4
  5
1E2
 10
120.27554105626447
 20
220.87053113646431
 30
0.0
 11
120.27554105626447
 21
208.14260907510646
 31
0.0
  0
LINE
  8
0
  6
CONTINUOUS
 62
               4
  5
1E3
 10
120.27554105626447
 20
208.14260907510646
 30
0.0
 11
120.27554105626447
 21
205.4217151888825
 31
0.0
  0
LINE
  8
0
  6
CONTINUOUS
 62
               4
  5
1E4
 10
118.77554105626453
 20
198.1524266388505
 30
0.0
 11
120.27554105626447
 21
205.4217151888825
 31
0.0
  0
LINE
  8
0
  6
CONTINUOUS
 62
               4
  5
1E5
 10
118.77554105626453
 20
196.39785671458009
 30
0.0
 11
124.27554105626452
 21
196.39785671458009
 31
0.0
  0
LINE
  8
0
  6
CONTINUOUS
 62
               4
  5
1E6
 10
124.27554105626457
 20
196.39785671457997
 30
0.0
 11
124.27554105626452
 21
220.87053113646431
 31
0.0
  0
LINE
  8
0
  6
CONTINUOUS
 62
               4
  5
1E7
 10
120.27554105626447
 20
208.14260907510646
 30
0.0
 11
124.27554105626452
 21
208.14260907510646
 31
0.0
  0
LINE
  8
0
  6
CONTINUOUS
 62
               4
  5
1E8
 10
124.27554105626452
 20
220.87053113646431
 30
0.0
 11
120.27554105626447
 21
220.87053113646431
 31
0.0
  0
LINE
  8
0
  6
CONTINUOUS
 62
               4
  5
1E9
 10
-709.22920345485022
 20
-154.28093316300254
 30
0.0
 11
-692.40670796733673
 21
-225.81733504955065
 31
0.0
  0
ARC
  8
0
  6
CONTINUOUS
 62
               4
  5
1EA
 10
-695.24248678878189
 20
-152.60047661875092
 30
0.0
 40
13.999999999999998
 50
247.61680158213562
 51
304.54472323524266
  0
ARC
  8
0
  6
CONTINUOUS
 62
               4
  5
1EB
 10
-695.24248678878189
 20
-152.60047661875092
 30
0.0
 40
17.499999999999996
 50
255.9407189319592
 51
296.97743012643411
  0
LINE
  8
0
  6
CONTINUOUS
 62
               4
  5
1EC
 10
-699.49368622783732
 20
-169.57626241291609
 30
0.0
 11
-703.45285631223885
 21
-154.80043850212235
 31
0.0
  0
ARC
  8
0
  6
CONTINUOUS
 62
               4
  5
1ED
 10
-695.24248678878189
 20
-152.60047661875092
 30
0.0
 40
8.4999999999999982
 50
20.938646928836501
 51
194.99999999999972
  0
CIRCLE
  8
0
  6
CONTINUOUS
 62
               4
  5
1EE
 10
-695.24248678878189
 20
-152.60047661875092
 30
0.0
 40
7.9999999999999991
  0
LINE
  8
0
  6
CONTINUOUS
 62
               4
  5
1EF
 10
-516.21293081549504
 20
-225.81733504955119
 30
0.0
 11
-499.39043532798138
 21
-154.28093316300425
 31
0.0
  0
LINE
  8
0
  6
CONTINUOUS
 62
               4
  5
1F0
 10
-521.31584451047752
 20
-159.27315790350096
 30
0.0
 11
-515.57711387742143
 21
-160.81084614220805
 31
0.0
  0
LINE
  8
0
  6
CONTINUOUS
 62
               4
  5
1F1
 10
-521.31584451047752
 20
-141.67346283652958
 30
0.0
 11
-511.17719011067857
 21
-144.39010709529401
 31
0.0
  0
ARC
  8
0
  6
CONTINUOUS
 62
               4
  5
1F2
 10
-513.37715199405
 20
-152.60047661875097
 30
0.0
 40
8.4999999999999982
 50
254.99999999999955
 51
434.99999999999915
  0
CIRCLE
  8
0
  6
CONTINUOUS
 62
               4
  5
1F3
 10
-513.37715199405
 20
-152.60047661875097
 30
0.0
 40
7.9999999999999991
  0
LINE
  8
0
  6
CONTINUOUS
 62
               3
  5
1F4
 10
-70.923856531668974
 20
-265.10047661875143
 30
0.0
 11
-115.22445894373536
 21
-265.10047661875143
 31
0.0
  0
LINE
  8
0
  6
CONTINUOUS
 62
               3
  5
1F5
 10
-115.22445894373536
 20
-265.10047661875143
 30
0.0
 11
-118.42907470209192
 21
-228.47155089048312
 31
0.0
  0
LINE
  8
0
  6
CONTINUOUS
 62
               3
  5
1F6
 10
-109.72445894373536
 20
-295.10047661875143
 30
0.0
 11
-77.724458943735357
 21
-295.10047661875143
 31
0.0
  0
LINE
  8
0
  6
CONTINUOUS
 62
               3
  5
1F7
 10
-110.72445894373536
 20
-265.10047661875143
 30
0.0
 11
-109.72445894373536
 21
-295.10047661875143
 31
0.0
  0
LINE
  8
0
  6
CONTINUOUS
 62
               3
  5
1F8
 10
-77.724458943735357
 20
-295.10047661875143
 30
0.0
 11
-76.724458943735357
 21
-265.10047661875143
 31
0.0
  0
LINE
  8
0
  6
CONTINUOUS
 62
               3
  5
1F9
 10
-98.724458943735357
 20
-265.10047661875143
 30
0.0
 11
-97.724458943735357
 21
-295.10047661875143
 31
0.0
  0
LINE
  8
0
  6
CONTINUOUS
 62
               3
  5
1FA
 10
-89.724458943735357
 20
-295.10047661875143
 30
0.0
 11
-88.724458943735357
 21
-265.10047661875143
 31
0.0
  0
ARC
  8
0
  6
CONTINUOUS
 62
               3
  5
1FB
 10
-1.2244589437353568
 20
-112.6004766187521
 30
0.0
 40
5.0
 50
0.0
 51
89.999999999999801
  0
ARC
  8
0
  6
CONTINUOUS
 62
               3
  5
1FC
 10
92.951174329614901
 20
-119.1001497380784
 30
0.0
 40
4.9999999999999991
 50
269.85422881554967
 51
341.24924640066655
  0
LINE
  8
0
  6
CONTINUOUS
 62
               3
  5
1FD
 10
106.20813695184069
 20
-114.60047661875187
 30
0.0
 11
124.89080230492148
 21
-114.60047661875187
 31
0.0
  0
LINE
  8
0
  6
CONTINUOUS
 62
               3
  5
1FE
 10
126.1395145014542
 20
-324.10047661875154
 30
0.0
 11
140.27675940222639
 21
-324.10047661875177
 31
0.0
  0
ARC
  8
0
  6
CONTINUOUS
 62
               3
  5
1FF
 10
140.27675940222639
 20
-322.10047661875177
 30
0.0
 40
1.9999999999999998
 50
269.99999999999693
 51
357.99999999999915
  0
ARC
  8
0
  6
CONTINUOUS
 62
               3
  5
200
 10
126.1395145014542
 20
-322.10047661875149
 30
0.0
 40
1.9999999999999998
 50
182.00000000000014
 51
269.99999999999739
  0
LINE
  8
0
  6
CONTINUOUS
 62
               3
  5
201
 10
132.13951450145476
 20
-100.60047661875153
 30
0.0
 11
140.27675940222679
 21
-100.60047661875232
 31
0.0
  0
ARC
  8
0
  6
CONTINUOUS
 62
               3
  5
202
 10
106.20813695184054
 20
-123.60047661875198
 30
0.0
 40
9.0
 50
89.99999999999973
 51
161.24924640066692
  0
LINE
  8
0
  6
CONTINUOUS
 62
               3
  5
203
 10
106.20813695184069
 20
-295.600476618752
 30
0.0
 11
118.38445114728998
 21
-295.60047661875171
 31
0.0
  0
ARC
  8
0
  6
CONTINUOUS
 62
               3
  5
204
 10
106.20813695184054
 20
-286.60047661875188
 30
0.0
 40
9.0
 50
207.66097941985353
 51
269.99999999999949
  0
LINE
  8
0
  6
CONTINUOUS
 62
               3
  5
205
 10
124.14073284741603
 20
-322.17027561215656
 30
0.0
 11
123.38140528238512
 21
-300.42597913523917
 31
0.0
  0
ARC
  8
0
  6
CONTINUOUS
 62
               3
  5
206
 10
118.3844511472897
 20
-300.60047661875171
 30
0.0
 40
4.9999999999999991
 50
1.9999999999999301
 51
89.999999999997101
  0
LINE
  8
0
  6
CONTINUOUS
 62
               3
  5
207
 10
130.14073284741642
 20
-102.53067762534663
 30
0.0
 11
129.88775644001691
 21
-109.77497410226412
 31
0.0
  0
ARC
  8
0
  6
CONTINUOUS
 62
               3
  5
208
 10
124.89080230492148
 20
-109.60047661875187
 30
0.0
 40
4.9999999999999991
 50
269.99999999999932
 51
358.00000000000136
  0
ARC
  8
0
  6
CONTINUOUS
 62
               3
  5
209
 10
132.13951450145458
 20
-102.60047661875164
 30
0.0
 40
1.9999999999999998
 50
89.999999999998153
 51
177.99999999999955
  0
ARC
  8
0
  6
CONTINUOUS
 62
               3
  5
20A
 10
140.27675940222679
 20
-102.60047661875232
 30
0.0
 40
1.9999999999999998
 50
357.99999999974705
 51
449.99999999999602
  0
LINE
  8
0
  6
CONTINUOUS
 62
               3
  5
20B
 10
124.14073284741603
 20
-129.46849788705316
 30
0.0
 11
124.14073284741603
 21
-322.17027561215656
 31
0.0
  0
LINE
  8
0
  6
CONTINUOUS
 62
               3
  5
20C
 10
142.27554105626467
 20
-322.17027561215667
 30
0.0
 11
142.27554105626467
 21
-102.67027561216612
 31
0.0
  0
LINE
  8
0
  6
CONTINUOUS
 62
               3
  5
20D
 10
155.27554105626507
 20
-113.60047661875198
 30
0.0
 11
151.27554105626487
 21
-113.60047661875221
 31
0.0
  0
LINE
  8
0
  6
CONTINUOUS
 62
               3
  5
20E
 10
146.27554105626487
 20
-113.60047661875221
 30
0.0
 11
142.27554105626513
 21
-113.60047661875221
 31
0.0
  0
LINE
  8
0
  6
CONTINUOUS
 62
               3
  5
20F
 10
155.27554105626461
 20
-296.60047661875251
 30
0.0
 11
151.27554105626413
 21
-296.60047661875251
 31
0.0
  0
LINE
  8
0
  6
CONTINUOUS
 62
               3
  5
210
 10
146.27554105626413
 20
-296.60047661875251
 30
0.0
 11
142.27554105626467
 21
-296.60047661875251
 31
0.0
  0
LINE
  8
0
  6
CONTINUOUS
 62
               3
  5
211
 10
146.27554105626487
 20
-109.60047661875221
 30
0.0
 11
146.27554105626442
 21
-146.53214328541929
 31
0.0
  0
LINE
  8
0
  6
CONTINUOUS
 62
               3
  5
212
 10
146.27554105626442
 20
-158.53214328541964
 30
0.0
 11
146.27554105626442
 21
-300.60047661875245
 31
0.0
  0
LINE
  8
0
  6
CONTINUOUS
 62
               3
  5
213
 10
151.27554105626487
 20
-109.60047661875221
 30
0.0
 11
151.27554105626442
 21
-146.53214328541929
 31
0.0
  0
LINE
  8
0
  6
CONTINUOUS
 62
               3
  5
214
 10
151.27554105626442
 20
-158.53214328541964
 30
0.0
 11
151.27554105626442
 21
-300.60047661875245
 31
0.0
  0
LINE
  8
0
  6
CONTINUOUS
 62
               3
  5
215
 10
151.27554105626487
 20
-109.60047661875221
 30
0.0
 11
146.27554105626487
 21
-109.60047661875221
 31
0.0
  0
LINE
  8
0
  6
CONTINUOUS
 62
               3
  5
216
 10
151.27554105626442
 20
-300.60047661875245
 30
0.0
 11
146.27554105626442
 21
-300.60047661875245
 31
0.0
  0
LINE
  8
0
  6
CONTINUOUS
 62
               3
  5
217
 10
167.17320368213421
 20
-100.60047661875244
 30
0.0
 11
155.27554105626507
 21
-100.6004766187521
 31
0.0
  0
LINE
  8
0
  6
CONTINUOUS
 62
               3
  5
218
 10
172.27554105626479
 20
-324.10047661875268
 30
0.0
 11
155.27554105626461
 21
-324.10047661875234
 31
0.0
  0
LINE
  8
0
  6
CONTINUOUS
 62
               3
  5
219
 10
155.27554105626507
 20
-100.6004766187521
 30
0.0
 11
155.27554105626461
 21
-324.10047661875234
 31
0.0
  0
LINE
  8
0
  6
CONTINUOUS
 62
               3
  5
21A
 10
174.27554105626467
 20
-322.10047661875279
 30
0.0
 11
174.27554105626513
 21
-110.67917746112634
 31
0.0
  0
ARC
  8
0
  6
CONTINUOUS
 62
               3
  5
21B
 10
172.27554105626479
 20
-322.10047661875279
 30
0.0
 40
1.9999999999999996
 50
269.99999999999932
 51
359.9999999999992
  0
LINE
  8
0
  6
CONTINUOUS
 62
               3
  5
21C
 10
168.86418148819644
 20
-101.5324906359762
 30
0.0
 11
173.96651886232718
 21
-109.61119147835034
 31
0.0
  0
ARC
  8
0
  6
CONTINUOUS
 62
               3
  5
21D
 10
172.27554105626524
 20
-110.67917746112634
 30
0.0
 40
1.9999999999999996
 50
0.0
 51
32.275644314577384
  0
ARC
  8
0
  6
CONTINUOUS
 62
               3
  5
21E
 10
167.17320368213421
 20
-102.60047661875232
 30
0.0
 40
1.9999999999999996
 50
32.275644314577548
 51
89.999999999999787
  0
LINE
  8
0
  6
CONTINUOUS
 62
               3
  5
21F
 10
98.236746994025594
 20
-290.77862718334956
 30
0.0
 11
97.685803837552641
 21
-120.70740933831898
 31
0.0
  0
LINE
  8
0
  6
CONTINUOUS
 62
               3
  5
220
 10
124.14073284741598
 20
-158.59880995208476
 30
0.0
 11
124.14073284741598
 21
-146.59880995208476
 31
0.0
  0
LINE
  8
0
  6
CONTINUOUS
 62
               3
  5
221
 10
123.43993822430389
 20
-316.10214328541838
 30
0.0
 11
123.43993822430389
 21
-304.10214328541849
 31
0.0
  0
LINE
  8
0
  6
CONTINUOUS
 62
               3
  5
222
 10
123.43993822430389
 20
-316.03547661875336
 30
0.0
 11
123.92650094588913
 21
-316.03547661875336
 31
0.0
  0
ARC
  8
0
  6
CONTINUOUS
 62
               3
  5
223
 10
-604.30981939141589
 20
-205.10047661875097
 30
0.0
 40
104.5
 50
300.46887311825162
 51
359.9999999999992
  0
LINE
  8
0
  6
CONTINUOUS
 62
               3
  5
224
 10
-611.40880210413991
 20
-322.16714328541764
 30
0.0
 11
-657.29865463996362
 21
-295.16952423779861
 31
0.0
  0
LINE
  8
0
  6
CONTINUOUS
 62
               3
  5
225
 10
-597.21083667869175
 20
-322.16714328541775
 30
0.0
 11
-551.32098414286816
 21
-295.16952423779861
 31
0.0
  0
ARC
  8
0
  6
CONTINUOUS
 62
               3
  5
226
 10
-604.30981939141589
 20
-205.10047661875097
 30
0.0
 40
104.5
 50
179.9999999999996
 51
239.53112688174707
  0
LINE
  8
0
  6
CONTINUOUS
 62
               3
  5
227
 10
-582.80981939141611
 20
-265.10047661875097
 30
0.0
 11
-625.80981939141611
 21
-265.10047661875097
 31
0.0
  0
LINE
  8
0
  6
CONTINUOUS
 62
               3
  5
228
 10
-620.30981939141611
 20
-295.10047661875097
 30
0.0
 11
-588.30981939141611
 21
-295.10047661875097
 31
0.0
  0
LINE
  8
0
  6
CONTINUOUS
 62
               3
  5
229
 10
-621.30981939141634
 20
-265.10047661875097
 30
0.0
 11
-620.30981939141611
 21
-295.10047661875097
 31
0.0
  0
LINE
  8
0
  6
CONTINUOUS
 62
               3
  5
22A
 10
-588.30981939141611
 20
-295.10047661875097
 30
0.0
 11
-587.30981939141623
 21
-265.10047661875097
 31
0.0
  0
LINE
  8
0
  6
CONTINUOUS
 62
               3
  5
22B
 10
-609.30981939141611
 20
-265.10047661875097
 30
0.0
 11
-608.30981939141611
 21
-295.10047661875097
 31
0.0
  0
LINE
  8
0
  6
CONTINUOUS
 62
               3
  5
22C
 10
-600.30981939141611
 20
-295.10047661875097
 30
0.0
 11
-599.30981939141611
 21
-265.10047661875097
 31
0.0
  0
LINE
  8
0
  6
CONTINUOUS
 62
               3
  5
22D
 10
-625.80981939141611
 20
-265.10047661875097
 30
0.0
 11
-630.2140547239477
 21
-214.75983641424563
 31
0.0
  0
LINE
  8
0
  6
CONTINUOUS
 62
               3
  5
22E
 10
-582.80981939141577
 20
-265.10047661875097
 30
0.0
 11
-578.40558405888396
 21
-214.75983641424563
 31
0.0
  0
ARC
  8
0
  6
CONTINUOUS
 62
               3
  5
22F
 10
-604.30981939141589
 20
-310.10047661875097
 30
0.0
 40
14.0
 50
239.53112688174716
 51
300.46887311825162
  0
ARC
  8
0
  6
CONTINUOUS
 62
               3
  5
230
 10
-686.30379588042979
 20
-111.46437939384673
 30
0.0
 40
1.0
 50
91.999999999998479
 51
179.9999999999996
  0
ARC
  8
0
  6
CONTINUOUS
 62
               3
  5
231
 10
-522.31584451045831
 20
-111.46437939384673
 30
0.0
 40
1.0
 50
0.0
 51
88.0000000000027
  0
ARC
  8
0
  6
CONTINUOUS
 62
               3
  5
232
 10
-675.80982019544399
 20
-77.100477124941264
 30
0.0
 40
5.0
 50
0.0
 51
89.999999999999801
  0
ARC
  8
0
  6
CONTINUOUS
 62
               3
  5
233
 10
-675.80982019544399
 20
-105.09426442210649
 30
0.0
 40
5.0
 50
271.99999999999977
 51
359.9999999999992
  0
ARC
  8
0
  6
CONTINUOUS
 62
               3
  5
234
 10
-532.80982019544399
 20
-105.09426442210649
 30
0.0
 40
5.0
 50
179.9999999999996
 51
267.99999999999903
  0
ARC
  8
0
  6
CONTINUOUS
 62
               3
  5
235
 10
-532.80981858738778
 20
-77.100477124941264
 30
0.0
 40
5.0
 50
89.999999999999801
 51
179.9999999999996
  0
ARC
  8
0
  6
CONTINUOUS
 62
               3
  5
236
 10
690.09320649934011
 20
-205.10047661875279
 30
0.0
 40
104.5
 50
300.46887311825162
 51
359.9999999999992
  0
CIRCLE
  8
0
  6
CONTINUOUS
 62
               3
  5
237
 10
690.09320649934011
 20
-205.10047661875279
 30
0.0
 40
84.5
  0
CIRCLE
  8
0
  6
CONTINUOUS
 62
               3
  5
238
 10
690.09320649934011
 20
-205.10047661875279
 30
0.0
 40
77.499999999999986
  0
ARC
  8
0
  6
CONTINUOUS
 62
               3
  5
239
 10
690.09320649934011
 20
-310.10047661875279
 30
0.0
 40
14.0
 50
239.53112688174707
 51
300.46887311825162
  0
LINE
  8
0
  6
CONTINUOUS
 62
               3
  5
23A
 10
682.99422378661586
 20
-322.16714328541929
 30
0.0
 11
637.10437125079238
 21
-295.16952423780043
 31
0.0
  0
LINE
  8
0
  6
CONTINUOUS
 62
               3
  5
23B
 10
697.19218921206425
 20
-322.16714328541929
 30
0.0
 11
743.08204174788773
 21
-295.16952423780043
 31
0.0
  0
ARC
  8
0
  6
CONTINUOUS
 62
               3
  5
23C
 10
781.025873896706
 20
-152.60047661875279
 30
0.0
 40
14.0
 50
359.53112688174679
 51
420.46887311825134
  0
LINE
  8
0
  6
CONTINUOUS
 62
               3
  5
23D
 10
795.0254051254002
 20
-152.71504265566494
 30
0.0
 11
794.58970745637941
 21
-205.95563025141945
 31
0.0
  0
LINE
  8
0
  6
CONTINUOUS
 62
               3
  5
23E
 10
787.92642241267629
 20
-140.41924391517392
 30
0.0
 11
741.60087220783169
 21
-114.17627536703837
 31
0.0
  0
ARC
  8
0
  6
CONTINUOUS
 62
               3
  5
23F
 10
599.16053910197411
 20
-152.60047661875268
 30
0.0
 40
14.0
 50
119.53112688174727
 51
180.46887311825185
  0
LINE
  8
0
  6
CONTINUOUS
 62
               3
  5
240
 10
592.25999058600394
 20
-140.41924391517358
 30
0.0
 11
638.58554079084843
 21
-114.17627536703826
 31
0.0
  0
LINE
  8
0
  6
CONTINUOUS
 62
               3
  5
241
 10
585.16100787327991
 20
-152.71504265566494
 30
0.0
 11
585.5967055423007
 21
-205.95563025141945
 31
0.0
  0
ARC
  8
0
  6
CONTINUOUS
 62
               3
  5
242
 10
690.09320649934011
 20
-205.10047661875279
 30
0.0
 40
104.5
 50
180.46887311825188
 51
239.53112688174707
  0
ARC
  8
0
  6
CONTINUOUS
 62
               3
  5
243
 10
690.09320649934011
 20
-205.10047661875279
 30
0.0
 40
104.5
 50
60.468873118252176
 51
119.53112688174731
  0
ARC
  8
0
  6
CONTINUOUS
 62
               3
  5
244
 10
608.09923001032621
 20
-111.46437939384855
 30
0.0
 40
1.0
 50
91.999999999998479
 51
179.9999999999996
  0
ARC
  8
0
  6
CONTINUOUS
 62
               3
  5
245
 10
772.08718138029781
 20
-111.46437939384866
 30
0.0
 40
1.0
 50
0.0
 51
88.0000000000027
  0
ARC
  8
0
  6
CONTINUOUS
 62
               3
  5
246
 10
618.59320569531201
 20
-77.100477124943083
 30
0.0
 40
5.0
 50
0.0
 51
89.999999999999801
  0
ARC
  8
0
  6
CONTINUOUS
 62
               3
  5
247
 10
618.59320569531201
 20
-105.09426442210831
 30
0.0
 40
5.0
 50
271.99999999999977
 51
359.9999999999992
  0
ARC
  8
0
  6
CONTINUOUS
 62
               3
  5
248
 10
761.59320569531201
 20
-105.09426442210831
 30
0.0
 40
5.0
 50
179.9999999999996
 51
267.99999999999903
  0
ARC
  8
0
  6
CONTINUOUS
 62
               3
  5
249
 10
761.59320730336822
 20
-77.100477124943083
 30
0.0
 40
5.0
 50
89.999999999999801
 51
179.9999999999996
  0
LINE
  8
0
  6
CONTINUOUS
 62
               3
  5
24A
 10
-77.224458943735129
 20
376.39952338124556
 30
0.0
 11
93.018578434038631
 21
376.39952338124743
 31
0.0
  0
LINE
  8
0
  6
CONTINUOUS
 62
               3
  5
24B
 10
-77.224458943735129
 20
214.39952338124564
 30
0.0
 11
93.018578434038631
 21
214.39952338124755
 31
0.0
  0
LINE
  8
0
  6
CONTINUOUS
 62
               3
  5
24C
 10
142.27554105626467
 20
398.46932237465188
 30
0.0
 11
142.27554105626467
 21
192.32972438784287
 31
0.0
  0
ARC
  8
0
  6
CONTINUOUS
 62
               3
  5
24D
 10
93.018578434038631
 20
381.39985026192102
 30
0.0
 40
4.9999999999999991
 50
269.85422881554967
 51
341.24924640066655
  0
LINE
  8
0
  6
CONTINUOUS
 62
               3
  5
24E
 10
106.27554105626442
 20
385.89952338124743
 30
0.0
 11
118.77554105626442
 21
385.89952338124698
 31
0.0
  0
ARC
  8
0
  6
CONTINUOUS
 62
               3
  5
24F
 10
106.27554105626442
 20
376.89952338124743
 30
0.0
 40
9.0
 50
89.99999999999973
 51
161.24924640066692
  0
LINE
  8
0
  6
CONTINUOUS
 62
               3
  5
250
 10
126.20691860587893
 20
400.39952338124812
 30
0.0
 11
140.34416350665055
 21
400.39952338124698
 31
0.0
  0
ARC
  8
0
  6
CONTINUOUS
 62
               3
  5
251
 10
126.20691860587893
 20
398.39952338124834
 30
0.0
 40
1.9999999999999998
 50
89.99999999999838
 51
177.99999999999963
  0
ARC
  8
0
  6
CONTINUOUS
 62
               3
  5
252
 10
140.34416350665055
 20
398.39952338124721
 30
0.0
 40
1.9999999999999998
 50
2.0000000000000444
 51
89.999999999999787
  0
LINE
  8
0
  6
CONTINUOUS
 62
               3
  5
253
 10
124.27554105626452
 20
398.46932237465347
 30
0.0
 11
124.27554105626452
 21
343.93689844805607
 31
0.0
  0
LINE
  8
0
  6
CONTINUOUS
 62
               3
  5
254
 10
124.27554105626452
 20
249.7464788460133
 30
0.0
 11
124.27554105626452
 21
192.32972438784174
 31
0.0
  0
ARC
  8
0
  6
CONTINUOUS
 62
               3
  5
255
 10
93.018578434038631
 20
209.39919650057408
 30
0.0
 40
4.9999999999999991
 50
18.750753599332658
 51
90.145771184449529
  0
ARC
  8
0
  6
CONTINUOUS
 62
               3
  5
256
 10
106.27554105626442
 20
213.89952338124755
 30
0.0
 40
9.0
 50
198.75075359933226
 51
269.99999999999949
  0
LINE
  8
0
  6
CONTINUOUS
 62
               3
  5
257
 10
126.20691860587893
 20
190.39952338124675
 30
0.0
 11
140.34416350665055
 21
190.39952338124789
 31
0.0
  0
ARC
  8
0
  6
CONTINUOUS
 62
               3
  5
258
 10
126.20691860587893
 20
192.39952338124664
 30
0.0
 40
1.9999999999999998
 50
181.99999999999957
 51
270.0000000000008
  0
ARC
  8
0
  6
CONTINUOUS
 62
               3
  5
259
 10
140.34416350665055
 20
192.39952338124777
 30
0.0
 40
1.9999999999999998
 50
269.99999999999943
 51
357.99999999999915
  0
LINE
  8
0
  6
CONTINUOUS
 62
               3
  5
25A
 10
130.2755410562645
 20
371.50482613645903
 30
0.0
 11
130.2755410562645
 21
219.88122385024354
 31
0.0
  0
LINE
  8
0
  6
CONTINUOUS
 62
               3
  5
25B
 10
146.27554105626479
 20
380.46452338124612
 30
0.0
 11
146.2755410562645
 21
210.46452338124658
 31
0.0
  0
LINE
  8
0
  6
CONTINUOUS
 62
               3
  5
25C
 10
151.27554105626479
 20
380.46452338124612
 30
0.0
 11
151.2755410562645
 21
210.46452338124658
 31
0.0
  0
LINE
  8
0
  6
CONTINUOUS
 62
               3
  5
25D
 10
172.27554105626479
 20
400.1495233812463
 30
0.0
 11
155.2755410562649
 21
400.14952338124721
 31
0.0
  0
LINE
  8
0
  6
CONTINUOUS
 62
               3
  5
25E
 10
172.27554105626479
 20
190.14952338124777
 30
0.0
 11
155.27554105626461
 21
190.149523381248
 31
0.0
  0
LINE
  8
0
  6
CONTINUOUS
 62
               3
  5
25F
 10
155.2755410562649
 20
400.14952338124721
 30
0.0
 11
155.27554105626461
 21
190.149523381248
 31
0.0
  0
LINE
  8
0
  6
CONTINUOUS
 62
               3
  5
260
 10
174.27554105626467
 20
192.14952338124777
 30
0.0
 11
174.27554105626467
 21
398.14952338124652
 31
0.0
  0
ARC
  8
0
  6
CONTINUOUS
 62
               3
  5
261
 10
172.27554105626479
 20
398.14952338124652
 30
0.0
 40
1.9999999999999998
 50
0.0
 51
89.999999999998408
  0
ARC
  8
0
  6
CONTINUOUS
 62
               3
  5
262
 10
172.27554105626479
 20
192.14952338124777
 30
0.0
 40
1.9999999999999996
 50
269.99999999999932
 51
359.9999999999992
  0
LINE
  8
0
  6
CONTINUOUS
 62
               3
  5
263
 10
124.27554105626423
 20
373.96452338124544
 30
0.0
 11
124.27554105626423
 21
393.96452338124612
 31
0.0
  0
LINE
  8
0
  6
CONTINUOUS
 62
               3
  5
264
 10
97.753207941976513
 20
379.79259066168032
 30
0.0
 11
97.753207941976513
 21
211.00645610081455
 31
0.0
  0
LINE
  8
0
  6
CONTINUOUS
 62
               3
  5
265
 10
120.27554105626447
 20
216.14963731147083
 30
0.0
 11
120.27554105626447
 21
212.15242663885061
 31
0.0
  0
LINE
  8
0
  6
CONTINUOUS
 62
               3
  5
266
 10
120.27554105626447
 20
219.1524266388505
 30
0.0
 11
120.27554105626447
 21
216.15242663885073
 31
0.0
  0
LINE
  8
0
  6
CONTINUOUS
 62
               3
  5
267
 10
120.27554105626447
 20
218.14963731147083
 30
0.0
 11
120.27554105626447
 21
220.87053113646431
 31
0.0
  0
LINE
  8
0
  6
CONTINUOUS
 62
               3
  5
268
 10
106.27554105626442
 20
204.89952338124766
 30
0.0
 11
118.77554105626453
 21
204.89952338124789
 31
0.0
  0
ARC
  8
0
  6
CONTINUOUS
 62
               3
  5
269
 10
10.275541056264615
 20
-113.600476618752
 30
0.0
 40
172.49999999999852
 50
180.00000000000003
 51
269.99999999999932
  0
LINE
  8
0
  6
CONTINUOUS
 62
               3
  5
26A
 10
-160.22445894373533
 20
-77.600476618751983
 30
0.0
 11
-160.22445894373533
 21
-105.6004766187521
 31
0.0
  0
LINE
  8
0
  6
CONTINUOUS
 62
               3
  5
26B
 10
-162.22445894373396
 20
-113.60047661875332
 30
0.0
 11
-162.22445894373396
 21
-107.60047661875073
 31
0.0
  0
LINE
  8
0
  6
CONTINUOUS
 62
               3
  5
26C
 10
-162.22445894373521
 20
-107.60047661875194
 30
0.0
 11
-160.22445894373533
 21
-105.60047661875205
 31
0.0
  0
ARC
  8
0
  6
CONTINUOUS
 62
               3
  5
26D
 10
92.951174329613991
 20
-291.10080349942609
 30
0.0
 40
4.9999999999999991
 50
18.750753599332054
 51
90.145771184448932
  0
ARC
  8
0
  6
CONTINUOUS
 62
               3
  5
26E
 10
-532.30981939141589
 20
-69.100477124941264
 30
0.0
 40
3.0
 50
269.99999999999937
 51
359.9999999999992
  0
ARC
  8
0
  6
CONTINUOUS
 62
               3
  5
26F
 10
-676.30981939141589
 20
-69.100477124941264
 30
0.0
 40
3.0
 50
179.9999999999996
 51
269.99999999999937
  0
ARC
  8
0
  6
CONTINUOUS
 62
               3
  5
270
 10
618.09320649934011
 20
-69.100477124943083
 30
0.0
 40
3.0
 50
179.9999999999996
 51
269.99999999999937
  0
ARC
  8
0
  6
CONTINUOUS
 62
               3
  5
271
 10
762.09320649934011
 20
-69.100477124943083
 30
0.0
 40
3.0
 50
269.99999999999937
 51
359.9999999999992
  0
LINE
  8
0
  6
CONTINUOUS
 62
               3
  5
272
 10
-162.22445894373539
 20
-107.60047661875211
 30
0.0
 11
-78.224458943735357
 21
-107.6004766187521
 31
0.0
  0
LINE
  8
0
  6
CONTINUOUS
 62
               3
  5
273
 10
-22.224458943735328
 20
-72.100476618752779
 30
0.0
 11
-165.22445894373533
 21
-72.100476618752779
 31
0.0
  0
LINE
  8
0
  6
CONTINUOUS
 62
               3
  5
274
 10
-165.22445894373533
 20
-72.100476618752779
 30
0.0
 11
-166.72445894373533
 21
-72.100476618752779
 31
0.0
  0
LINE
  8
0
  6
CONTINUOUS
 62
               3
  5
275
 10
-168.72445894373533
 20
-70.100476618752779
 30
0.0
 11
-168.72445894373533
 21
-52.100476618752779
 31
0.0
  0
LINE
  8
0
  6
CONTINUOUS
 62
               3
  5
276
 10
-168.72445894373533
 20
-52.100476618752779
 30
0.0
 11
-93.724458943735357
 21
-52.100476618752779
 31
0.0
  0
LINE
  8
0
  6
CONTINUOUS
 62
               3
  5
277
 10
-60.503763477980414
 20
-107.6004766187521
 30
0.0
 11
-78.224458943735357
 21
-107.6004766187521
 31
0.0
  0
LINE
  8
0
  6
CONTINUOUS
 62
               3
  5
278
 10
-27.224458943735357
 20
-77.100476618752779
 30
0.0
 11
-27.224458943735357
 21
-107.6004766187521
 31
0.0
  0
LINE
  8
0
  6
CONTINUOUS
 62
               3
  5
279
 10
-27.224458943735357
 20
-107.6004766187521
 30
0.0
 11
-1.2244589437353568
 21
-107.6004766187521
 31
0.0
  0
LINE
  8
0
  6
CONTINUOUS
 62
               3
  5
27A
 10
3.7755410562646432
 20
-112.6004766187521
 30
0.0
 11
3.7755410562646432
 21
-113.6004766187521
 31
0.0
  0
LINE
  8
0
  6
CONTINUOUS
 62
               3
  5
27B
 10
-33.224458943735357
 20
-107.6004766187521
 30
0.0
 11
-27.224458943735357
 21
-107.6004766187521
 31
0.0
  0
LINE
  8
0
  6
CONTINUOUS
 62
               3
  5
27C
 10
-41.224458943735357
 20
-107.6004766187521
 30
0.0
 11
-33.224458943735357
 21
-107.6004766187521
 31
0.0
  0
LINE
  8
0
  6
CONTINUOUS
 62
               3
  5
27D
 10
-60.503763477980414
 20
-107.6004766187521
 30
0.0
 11
-41.224458943735357
 21
-107.6004766187521
 31
0.0
  0
LINE
  8
0
  6
CONTINUOUS
 62
               3
  5
27E
 10
-20.724458943735357
 20
-72.100476618752779
 30
0.0
 11
-22.224458943735357
 21
-72.100476618752779
 31
0.0
  0
LINE
  8
0
  6
CONTINUOUS
 62
               3
  5
27F
 10
-93.724458943735357
 20
-52.100476618752779
 30
0.0
 11
-18.724458943735357
 21
-52.100476618752779
 31
0.0
  0
LINE
  8
0
  6
CONTINUOUS
 62
               3
  5
280
 10
-18.724458943735357
 20
-70.100476618752779
 30
0.0
 11
-18.724458943735357
 21
-52.100476618752779
 31
0.0
  0
LINE
  8
0
  6
CONTINUOUS
 62
               3
  5
281
 10
14.275541056264643
 20
-124.1004766187521
 30
0.0
 11
93.275541056264643
 21
-124.1004766187521
 31
0.0
  0
ARC
  8
0
  6
CONTINUOUS
 62
               3
  5
282
 10
-165.22445894373533
 20
-77.100476618752779
 30
0.0
 40
4.9999999999999716
 50
359.99999999999852
 51
449.99999999999932
  0
ARC
  8
0
  6
CONTINUOUS
 62
               3
  5
283
 10
-166.72445894373533
 20
-70.100476618753007
 30
0.0
 40
1.9999999999999716
 50
179.9999999999996
 51
270.00000000000023
  0
ARC
  8
0
  6
CONTINUOUS
 62
               3
  5
284
 10
-22.224458943735357
 20
-77.100476618752779
 30
0.0
 40
4.9999999999999574
 50
89.999999999999162
 51
179.99999999999991
  0
ARC
  8
0
  6
CONTINUOUS
 62
               3
  5
285
 10
-20.724458943735357
 20
-70.100476618753007
 30
0.0
 40
1.9999999999999858
 50
269.99999999999937
 51
360.0
  0
ARC
  8
0
  6
CONTINUOUS
 62
               3
  5
286
 10
14.275541056264643
 20
-113.6004766187521
 30
0.0
 40
10.499999999999915
 50
179.99999999999915
 51
269.99999999999972
  0
LINE
  8
0
  6
CONTINUOUS
 62
               3
  5
287
 10
-687.30379588033668
 20
-205.10047661875097
 30
0.0
 11
-687.30379588042979
 21
-113.60047712494058
 31
0.0
  0
LINE
  8
0
  6
CONTINUOUS
 62
               3
  5
288
 10
-521.31584451051981
 20
-205.10047661875097
 30
0.0
 11
-521.31584451045831
 21
-113.60047712494058
 31
0.0
  0
LINE
  8
0
  6
CONTINUOUS
 62
               3
  5
289
 10
-670.80982019544399
 20
-77.100477124941264
 30
0.0
 11
-670.80982019544399
 21
-105.09426442210649
 31
0.0
  0
LINE
  8
0
  6
CONTINUOUS
 62
               3
  5
28A
 10
-537.80982019544399
 20
-105.09426442210649
 30
0.0
 11
-537.80982019544399
 21
-77.100477124941264
 31
0.0
  0
LINE
  8
0
  6
CONTINUOUS
 62
               3
  5
28B
 10
-670.80982019544399
 20
-109.92270829614181
 30
0.0
 11
-604.30982019544399
 21
-107.60047712494058
 31
0.0
  0
LINE
  8
0
  6
CONTINUOUS
 62
               3
  5
28C
 10
-676.30981939141589
 20
-72.100477124941264
 30
0.0
 11
-532.30981939141589
 21
-72.100477124941264
 31
0.0
  0
LINE
  8
0
  6
CONTINUOUS
 62
               3
  5
28D
 10
-604.30982019544399
 20
-107.60047712494058
 30
0.0
 11
-537.80982019544399
 21
-109.92270829614181
 31
0.0
  0
LINE
  8
0
  6
CONTINUOUS
 62
               3
  5
28E
 10
-521.31584451045831
 20
-113.60047712494058
 30
0.0
 11
-521.31584451045831
 21
-111.46437939384673
 31
0.0
  0
LINE
  8
0
  6
CONTINUOUS
 62
               3
  5
28F
 10
-537.80982019544399
 20
-109.92270829614181
 30
0.0
 11
-525.05442073811059
 21
-110.36813666036657
 31
0.0
  0
LINE
  8
0
  6
CONTINUOUS
 62
               3
  5
290
 10
-525.05442073811059
 20
-110.36813666036657
 30
0.0
 11
-522.28094501375585
 21
-110.46498856682767
 31
0.0
  0
LINE
  8
0
  6
CONTINUOUS
 62
               3
  5
291
 10
-683.56521965277739
 20
-110.36813666036657
 30
0.0
 11
-670.80982019544399
 21
-109.92270829614181
 31
0.0
  0
LINE
  8
0
  6
CONTINUOUS
 62
               3
  5
292
 10
-529.30981939141589
 20
-52.100477124941264
 30
0.0
 11
-679.30981939141589
 21
-52.100477124941264
 31
0.0
  0
LINE
  8
0
  6
CONTINUOUS
 62
               3
  5
293
 10
-687.30379588042979
 20
-113.60047712494058
 30
0.0
 11
-687.30379588042979
 21
-111.46437939384673
 31
0.0
  0
LINE
  8
0
  6
CONTINUOUS
 62
               3
  5
294
 10
-686.33869537713213
 20
-110.46498856682756
 30
0.0
 11
-683.56521965277739
 21
-110.36813666036657
 31
0.0
  0
LINE
  8
0
  6
CONTINUOUS
 62
               3
  5
295
 10
623.59320569531201
 20
-77.100477124943083
 30
0.0
 11
623.59320569531201
 21
-105.09426442210831
 31
0.0
  0
LINE
  8
0
  6
CONTINUOUS
 62
               3
  5
296
 10
756.59320569531201
 20
-105.09426442210831
 30
0.0
 11
756.59320569531201
 21
-77.100477124943083
 31
0.0
  0
LINE
  8
0
  6
CONTINUOUS
 62
               3
  5
297
 10
623.59320569531201
 20
-109.92270829614374
 30
0.0
 11
648.95874548581969
 21
-109.03692412808554
 31
0.0
  0
LINE
  8
0
  6
CONTINUOUS
 62
               3
  5
298
 10
618.09320649934011
 20
-72.100477124943083
 30
0.0
 11
762.09320649934011
 21
-72.100477124943083
 31
0.0
  0
LINE
  8
0
  6
CONTINUOUS
 62
               3
  5
299
 10
731.22766765564575
 20
-109.03692418922633
 30
0.0
 11
756.59320569531201
 21
-109.92270829614374
 31
0.0
  0
LINE
  8
0
  6
CONTINUOUS
 62
               3
  5
29A
 10
773.08718138029781
 20
-132.01295982423636
 30
0.0
 11
773.08718138029781
 21
-111.46437939384866
 31
0.0
  0
LINE
  8
0
  6
CONTINUOUS
 62
               3
  5
29B
 10
756.59320569531201
 20
-109.92270829614374
 30
0.0
 11
769.3486051526454
 21
-110.36813666036839
 31
0.0
  0
LINE
  8
0
  6
CONTINUOUS
 62
               3
  5
29C
 10
769.3486051526454
 20
-110.36813666036839
 30
0.0
 11
772.12208087700014
 21
-110.46498856682949
 31
0.0
  0
LINE
  8
0
  6
CONTINUOUS
 62
               3
  5
29D
 10
610.83780623797861
 20
-110.36813666036839
 30
0.0
 11
623.59320569531201
 21
-109.92270829614374
 31
0.0
  0
LINE
  8
0
  6
CONTINUOUS
 62
               3
  5
29E
 10
765.09320649934011
 20
-52.100477124943083
 30
0.0
 11
615.09320649934011
 21
-52.100477124943083
 31
0.0
  0
LINE
  8
0
  6
CONTINUOUS
 62
               3
  5
29F
 10
607.09923001032621
 20
-132.01296073518421
 30
0.0
 11
607.09923001032621
 21
-111.46437939384855
 31
0.0
  0
LINE
  8
0
  6
CONTINUOUS
 62
               3
  5
2A0
 10
608.06433051362387
 20
-110.46498856682949
 30
0.0
 11
610.83780623797861
 21
-110.36813666036839
 31
0.0
  0
ARC
  8
0
  6
CONTINUOUS
 62
               3
  5
2A1
 10
-93.724458943735698
 20
295.39952338124561
 30
0.0
 40
74.999999999999943
 50
89.999999999999801
 51
269.99999999999937
  0
ARC
  8
0
  6
CONTINUOUS
 62
               3
  5
2A2
 10
-93.724458943735129
 20
295.39952338124561
 30
0.0
 40
74.999999999999943
 50
269.99999999999937
 51
449.99999999999898
  0
ARC
  8
0
  6
CONTINUOUS
 62
               3
  5
2A3
 10
-77.224458943735129
 20
295.39952338124561
 30
0.0
 40
80.999999999999972
 50
243.12662792726744
 51
476.87337207273146
  0
ARC
  8
0
  6
CONTINUOUS
 62
               3
  5
2A4
 10
-93.724458943735414
 20
295.39952338124561
 30
0.0
 40
52.5
 50
359.9999999999992
 51
539.99999999999875
  0
ARC
  8
0
  6
CONTINUOUS
 62
               3
  5
2A5
 10
-93.724458943735414
 20
295.39952338124561
 30
0.0
 40
52.5
 50
179.9999999999996
 51
359.9999999999992
  0
ARC
  8
0
  6
CONTINUOUS
 62
               3
  5
2A6
 10
-93.724458943735414
 20
295.39952338124561
 30
0.0
 40
59.5
 50
359.9999999999992
 51
539.99999999999875
  0
ARC
  8
0
  6
CONTINUOUS
 62
               3
  5
2A7
 10
-93.724458943735414
 20
295.39952338124561
 30
0.0
 40
59.5
 50
179.9999999999996
 51
359.9999999999992
  0
LINE
  8
0
  6
CONTINUOUS
 62
               3
  5
2A8
 10
10.275541056264371
 20
-286.10047661875052
 30
0.0
 11
93.275541056263791
 21
-286.1004766187524
 31
0.0
  0
LINE
  8
0
  6
CONTINUOUS
 62
               3
  5
2A9
 10
-679.30981939141589
 20
-69.100477124941264
 30
0.0
 11
-679.30981939141589
 21
-52.100477124941264
 31
0.0
  0
LINE
  8
0
  6
CONTINUOUS
 62
               3
  5
2AA
 10
-529.30981939141589
 20
-69.100477124941264
 30
0.0
 11
-529.30981939141589
 21
-52.100477124941264
 31
0.0
  0
LINE
  8
0
  6
CONTINUOUS
 62
               3
  5
2AB
 10
615.09320649934011
 20
-69.100477124943083
 30
0.0
 11
615.09320649934011
 21
-52.100477124943083
 31
0.0
  0
LINE
  8
0
  6
CONTINUOUS
 62
               3
  5
2AC
 10
765.09320649934011
 20
-69.100477124943083
 30
0.0
 11
765.09320649934011
 21
-52.100477124943083
 31
0.0
  0
ARC
  8
0
  6
CONTINUOUS
 62
               3
  5
2AD
 10
-695.24248678878189
 20
-152.60047661875086
 30
0.0
 40
14.0
 50
119.53112688174744
 51
180.46887311825185
  0
LINE
  8
0
  6
CONTINUOUS
 62
               3
  5
2AE
 10
-709.24201801747608
 20
-152.71504265566313
 30
0.0
 11
-708.80632034845542
 21
-205.95563025141763
 31
0.0
  0
LINE
  8
0
  6
CONTINUOUS
 62
               3
  5
2AF
 10
-702.14303530475206
 20
-140.41924391517193
 30
0.0
 11
-687.30379588042456
 21
-132.01296073517943
 31
0.0
  0
LINE
  8
0
  6
CONTINUOUS
 62
               3
  5
2B0
 10
-499.37668323844008
 20
-152.6004804548416
 30
0.0
 11
-499.81331843437664
 21
-205.95563025141763
 31
0.0
  0
ARC
  8
0
  6
CONTINUOUS
 62
               3
  5
2B1
 10
-513.37715199404977
 20
-152.60047661875086
 30
0.0
 40
14.0
 50
359.5311268817469
 51
420.46887311825071
  0
LINE
  8
0
  6
CONTINUOUS
 62
               3
  5
2B2
 10
-506.47660347807954
 20
-140.41924391517216
 30
0.0
 11
-521.31584451046342
 21
-132.01295982423136
 31
0.0
  0
ARC
  8
0
  6
CONTINUOUS
 62
               3
  5
2B3
 10
-604.30981939141589
 20
-205.10047661875097
 30
0.0
 40
82.993976488920794
 50
179.9999999999996
 51
258.68241345726312
  0
ARC
  8
0
  6
CONTINUOUS
 62
               3
  5
2B4
 10
-604.30981939141589
 20
-205.10047661875097
 30
0.0
 40
82.993976488920794
 50
281.31758654273534
 51
360.01127874305632
  0
POINT
  8
0
  6
CONTINUOUS
 62
               5
  5
2B5
 10
142.27554105626467
 20
-205.10047661875177
 30
0.0
  0
LINE
  8
LAYER001
  6
DASHDOT
 62
               4
  5
2B6
 10
-154.30981939141594
 20
-205.10047661875097
 30
0.0
 11
191.14336851623852
 21
-205.10047661875279
 31
0.0
  0
TEXT
  8
0
 62
               3
  5
2B7
 10
13.182674199623193
 20
-476.95951035781474
 30
0.0
 40
40.0
  1
延焼防止材入りのため、飲み込み代が４０ｍｍになっています
 72
               1
 11
13.182674199623193
 21
-476.95951035781474
 31
0.0
 73
               2
  0
CIRCLE
  8
LAYER006
  6
DIVIDE
 62
               7
  5
2B8
 10
80.772181430581725
 20
294.89952338124834
 30
0.0
 40
7.0
  0
CIRCLE
  8
LAYER006
  6
DIVIDE
 62
               7
  5
2B9
 10
80.772181430581725
 20
294.89952338124834
 30
0.0
 40
4.6989039999999997
  0
CIRCLE
  8
LAYER006
  6
DIVIDE
 62
               7
  5
2BA
 10
80.772181430581725
 20
294.89952338124834
 30
0.0
 40
6.0621780000000003
  0
LINE
  8
LAYER006
  6
DIVIDE
 62
               7
  5
2BB
 10
86.834359430581856
 20
298.39952338124834
 30
0.0
 11
80.772181430581725
 21
301.89952338124834
 31
0.0
  0
LINE
  8
LAYER006
  6
DIVIDE
 62
               7
  5
2BC
 10
86.834359430581856
 20
291.39952338124834
 30
0.0
 11
86.834359430581856
 21
298.39952338124834
 31
0.0
  0
LINE
  8
LAYER006
  6
DIVIDE
 62
               7
  5
2BD
 10
80.772181430581725
 20
287.89952338124834
 30
0.0
 11
86.834359430581856
 21
291.39952338124834
 31
0.0
  0
LINE
  8
LAYER006
  6
DIVIDE
 62
               7
  5
2BE
 10
74.710003430581821
 20
291.39952338124834
 30
0.0
 11
80.772181430581725
 21
287.89952338124834
 31
0.0
  0
LINE
  8
LAYER006
  6
DIVIDE
 62
               7
  5
2BF
 10
74.710003430581821
 20
298.39952338124834
 30
0.0
 11
74.710003430581821
 21
291.39952338124834
 31
0.0
  0
LINE
  8
LAYER006
  6
DIVIDE
 62
               7
  5
2C0
 10
80.772181430581725
 20
301.89952338124834
 30
0.0
 11
74.710003430581821
 21
298.39952338124834
 31
0.0
  0
CIRCLE
  8
LAYER006
  6
DIVIDE
 62
               7
  5
2C1
 10
80.772181430581725
 20
294.89952338124834
 30
0.0
 40
4.086112
  0
LINE
  8
LAYER006
  6
DIVIDE
 62
               7
  5
2C2
 10
69.268818769817472
 20
307.39952338124834
 30
0.0
 11
69.268818769817472
 21
282.39952338124834
 31
0.0
  0
LINE
  8
LAYER006
  6
DIVIDE
 62
               7
  5
2C3
 10
92.275541056264643
 20
307.39952338124834
 30
0.0
 11
69.268818769817472
 21
307.39952338124834
 31
0.0
  0
LINE
  8
LAYER006
  6
DIVIDE
 62
               7
  5
2C4
 10
92.275541056264643
 20
282.39952338124834
 30
0.0
 11
92.275541056264643
 21
307.39952338124834
 31
0.0
  0
LINE
  8
LAYER006
  6
DIVIDE
 62
               7
  5
2C5
 10
69.268818769817472
 20
282.39952338124834
 30
0.0
 11
92.275541056264643
 21
282.39952338124834
 31
0.0
  0
LINE
  8
LAYER006
  6
DIVIDE
 62
               7
  5
2C6
 10
72.268818769817472
 20
208.29952575620811
 30
0.0
 11
80.772181430581739
 21
208.29952575620811
 31
0.0
  0
LINE
  8
LAYER006
  6
DIVIDE
 62
               7
  5
2C7
 10
80.772181430581739
 20
208.29952575620811
 30
0.0
 11
89.275541056264643
 21
208.29952575620811
 31
0.0
  0
LINE
  8
LAYER006
  6
DIVIDE
 62
               7
  5
2C8
 10
80.772181430581739
 20
381.50160312864972
 30
0.0
 11
89.275541056264643
 21
381.50160312864972
 31
0.0
  0
LINE
  8
LAYER006
  6
DIVIDE
 62
               7
  5
2C9
 10
72.268818769817472
 20
381.50160312864972
 30
0.0
 11
80.772181430581739
 21
381.50160312864972
 31
0.0
  0
LINE
  8
LAYER006
  6
DIVIDE
 62
               7
  5
2CA
 10
69.268818769817472
 20
281.79189439904144
 30
0.0
 11
69.268818769817472
 21
308.00715236345519
 31
0.0
  0
LINE
  8
LAYER006
  6
DIVIDE
 62
               7
  5
2CB
 10
92.275541056264643
 20
308.00715236345519
 30
0.0
 11
92.275541056264643
 21
281.79189439904144
 31
0.0
  0
LINE
  8
LAYER005
  6
DIVIDE
 62
               7
  5
2CC
 10
89.275541056264643
 20
205.29952575620811
 30
0.0
 11
95.275541056264643
 21
205.29952575620811
 31
0.0
  0
LINE
  8
LAYER005
  6
DIVIDE
 62
               7
  5
2CD
 10
66.268818769817472
 20
205.29952575620811
 30
0.0
 11
66.268818769817472
 21
281.79189439904144
 31
0.0
  0
LINE
  8
LAYER005
  6
DIVIDE
 62
               7
  5
2CE
 10
72.268818769817472
 20
205.29952575620811
 30
0.0
 11
72.268818769817472
 21
281.79189439904144
 31
0.0
  0
LINE
  8
LAYER005
  6
DIVIDE
 62
               7
  5
2CF
 10
66.268818769817472
 20
281.79189439904144
 30
0.0
 11
72.268818769817472
 21
281.79189439904144
 31
0.0
  0
LINE
  8
LAYER005
  6
DIVIDE
 62
               7
  5
2D0
 10
89.275541056264643
 20
205.29952575620811
 30
0.0
 11
89.275541056264643
 21
281.79189439904144
 31
0.0
  0
LINE
  8
LAYER005
  6
DIVIDE
 62
               7
  5
2D1
 10
95.275541056264643
 20
205.29952575620811
 30
0.0
 11
95.275541056264643
 21
281.79189439904144
 31
0.0
  0
LINE
  8
LAYER005
  6
DIVIDE
 62
               7
  5
2D2
 10
72.268818769817472
 20
205.29952575620811
 30
0.0
 11
66.268818769817472
 21
205.29952575620811
 31
0.0
  0
LINE
  8
LAYER005
  6
DIVIDE
 62
               7
  5
2D3
 10
89.275541056264643
 20
281.79189439904144
 30
0.0
 11
95.275541056264643
 21
281.79189439904144
 31
0.0
  0
LINE
  8
LAYER005
  6
DIVIDE
 62
               7
  5
2D4
 10
72.268818769817472
 20
384.50160312864972
 30
0.0
 11
66.268818769817472
 21
384.50160312864972
 31
0.0
  0
LINE
  8
LAYER005
  6
DIVIDE
 62
               7
  5
2D5
 10
89.275541056264643
 20
384.50160312864972
 30
0.0
 11
95.275541056264643
 21
384.50160312864972
 31
0.0
  0
LINE
  8
LAYER005
  6
DIVIDE
 62
               7
  5
2D6
 10
89.275541056264643
 20
308.00715236345519
 30
0.0
 11
95.275541056264643
 21
308.00715236345519
 31
0.0
  0
LINE
  8
LAYER005
  6
DIVIDE
 62
               7
  5
2D7
 10
95.275541056264643
 20
384.50160312864972
 30
0.0
 11
95.275541056264643
 21
308.00715236345519
 31
0.0
  0
LINE
  8
LAYER005
  6
DIVIDE
 62
               7
  5
2D8
 10
89.275541056264643
 20
384.50160312864972
 30
0.0
 11
89.275541056264643
 21
308.00715236345519
 31
0.0
  0
LINE
  8
LAYER005
  6
DIVIDE
 62
               7
  5
2D9
 10
66.268818769817472
 20
308.00715236345519
 30
0.0
 11
72.268818769817472
 21
308.00715236345519
 31
0.0
  0
LINE
  8
LAYER005
  6
DIVIDE
 62
               7
  5
2DA
 10
66.268818769817472
 20
384.50160312864972
 30
0.0
 11
66.268818769817472
 21
308.00715236345519
 31
0.0
  0
LINE
  8
LAYER005
  6
DIVIDE
 62
               7
  5
2DB
 10
72.268818769817472
 20
384.50160312864972
 30
0.0
 11
72.268818769817472
 21
308.00715236345519
 31
0.0
  0
LINE
  8
0
  6
DIVIDE
 62
               7
  5
2DC
 10
75.772181430581554
 20
316.89952588124811
 30
0.0
 11
77.272181430581952
 21
318.39952588124811
 31
0.0
  0
LINE
  8
0
  6
DIVIDE
 62
               7
  5
2DD
 10
77.272181430581952
 20
318.39952588124811
 30
0.0
 11
84.272181430581554
 21
318.399525881248
 31
0.0
  0
LINE
  8
0
  6
DIVIDE
 62
               7
  5
2DE
 10
75.772181430581554
 20
316.89952588124811
 30
0.0
 11
85.772181430581952
 21
316.899525881248
 31
0.0
  0
LINE
  8
0
  6
DIVIDE
 62
               7
  5
2DF
 10
75.772181430581327
 20
307.39952338124834
 30
0.0
 11
75.772181430581554
 21
316.89952588124811
 31
0.0
  0
LINE
  8
0
  6
DIVIDE
 62
               7
  5
2E0
 10
76.672181430581929
 20
307.39952338124834
 30
0.0
 11
76.672181430582043
 21
317.79952588124803
 31
0.0
  0
LINE
  8
0
  6
DIVIDE
 62
               7
  5
2E1
 10
85.772181430581952
 20
316.899525881248
 30
0.0
 11
84.272181430581554
 21
318.399525881248
 31
0.0
  0
LINE
  8
0
  6
DIVIDE
 62
               7
  5
2E2
 10
84.872181430581236
 20
307.39952338124834
 30
0.0
 11
84.872181430581463
 21
317.79952588124803
 31
0.0
  0
LINE
  8
0
  6
DIVIDE
 62
               7
  5
2E3
 10
85.772181430581838
 20
307.39952338124834
 30
0.0
 11
85.772181430581952
 21
316.899525881248
 31
0.0
  0
LINE
  8
0
  6
DIVIDE
 62
               7
  5
2E4
 10
80.772181430581753
 20
-111.23083620609125
 30
0.0
 11
89.272181430581753
 21
-106.32335891797945
 31
0.0
  0
LINE
  8
0
  6
DIVIDE
 62
               7
  5
2E5
 10
89.272181430581753
 20
-106.32335891797945
 30
0.0
 11
89.272181430581753
 21
-96.508404341755806
 31
0.0
  0
LINE
  8
0
  6
DIVIDE
 62
               7
  5
2E6
 10
89.272181430581753
 20
-96.508404341755806
 30
0.0
 11
80.772181430581753
 21
-91.600927053643971
 31
0.0
  0
LINE
  8
0
  6
DIVIDE
 62
               7
  5
2E7
 10
80.772181430581753
 20
-91.600927053643971
 30
0.0
 11
72.272181430581753
 21
-96.508404341755806
 31
0.0
  0
LINE
  8
0
  6
DIVIDE
 62
               7
  5
2E8
 10
72.272181430581753
 20
-96.508404341755806
 30
0.0
 11
72.272181430581753
 21
-106.32335891797945
 31
0.0
  0
LINE
  8
0
  6
DIVIDE
 62
               7
  5
2E9
 10
72.272181430581753
 20
-106.32335891797945
 30
0.0
 11
80.772181430581753
 21
-111.23083620609125
 31
0.0
  0
CIRCLE
  8
0
  6
DIVIDE
 62
               7
  5
2EA
 10
80.772181430581753
 20
-101.41588162986761
 30
0.0
 40
8.5
  0
LINE
  8
0
  6
DIVIDE
 62
               7
  5
2EB
 10
88.272181430581753
 20
-115.14772646640614
 30
0.0
 11
88.272181430581753
 21
-295.32139468777808
 31
0.0
  0
LINE
  8
0
  6
DIVIDE
 62
               7
  5
2EC
 10
73.272181430581753
 20
-115.14772646640614
 30
0.0
 11
73.272181430581753
 21
-295.32139468777808
 31
0.0
  0
LINE
  8
0
  6
DIVIDE
 62
               7
  5
2ED
 10
88.272181430581753
 20
-115.14772646640614
 30
0.0
 11
95.275544091344557
 21
-115.14772646640614
 31
0.0
  0
LINE
  8
0
  6
DIVIDE
 62
               7
  5
2EE
 10
66.268818769817472
 20
-115.14772646640614
 30
0.0
 11
73.272181430581753
 21
-115.14772646640614
 31
0.0
  0
LINE
  8
0
  6
DASHDOT
 62
               7
  5
2EF
 10
80.772181430581739
 20
388.51490799663287
 30
0.0
 11
80.772181430581753
 21
195.28413876586359
 31
0.0
  0
LINE
  8
0
  6
DASHDOT
 62
               7
  5
2F0
 10
80.772181430581753
 20
-32.171924616856643
 30
0.0
 11
80.772181430581782
 21
-315.32139468777808
 31
0.0
  0
LINE
  8
LAYER009
  6
DIVIDE
 62
               7
  5
2F1
 10
68.968818769817517
 20
292.59951888124823
 30
0.0
 11
69.268818769817472
 21
292.59951888124823
 31
0.0
  0
LINE
  8
LAYER009
  6
DIVIDE
 62
               7
  5
2F2
 10
68.968818769817517
 20
297.19951388124821
 30
0.0
 11
69.268818769817472
 21
297.19951388124821
 31
0.0
  0
LINE
  8
LAYER009
  6
DIVIDE
 62
               7
  5
2F3
 10
68.968818769817517
 20
298.52532488124831
 30
0.0
 11
68.968818769817517
 21
291.27372188124821
 31
0.0
  0
ARC
  8
LAYER009
  6
DIVIDE
 62
               7
  5
2F4
 10
71.255428769817513
 20
294.89952288124834
 30
0.0
 40
4.2866099999999996
 50
122.23755499999278
 51
237.76244499997225
  0
ARC
  8
LAYER009
  6
DIVIDE
 62
               7
  5
2F5
 10
90.288931056264659
 20
294.89952288124834
 30
0.0
 40
4.2866099999999996
 50
302.23755499995991
 51
417.76244499993601
  0
LINE
  8
LAYER009
  6
DIVIDE
 62
               7
  5
2F6
 10
92.575541056264655
 20
298.52532488124831
 30
0.0
 11
92.575541056264655
 21
291.27372188124821
 31
0.0
  0
LINE
  8
LAYER009
  6
DIVIDE
 62
               7
  5
2F7
 10
92.575541056264655
 20
297.19951388124821
 30
0.0
 11
92.275541056264643
 21
297.19951388124821
 31
0.0
  0
LINE
  8
LAYER009
  6
DIVIDE
 62
               7
  5
2F8
 10
92.575541056264655
 20
292.59951888124823
 30
0.0
 11
92.275541056264643
 21
292.59951888124823
 31
0.0
  0
LINE
  8
LAYER001
  6
DIVIDE
 62
               7
  5
2F9
 10
93.275080276066376
 20
-92.918944121012174
 30
0.0
 11
93.275080276066376
 21
-115.14772646640614
 31
0.0
  0
LINE
  8
LAYER001
  6
DIVIDE
 62
               7
  5
2FA
 10
68.269282585095141
 20
-92.91587355359286
 30
0.0
 11
68.269282585095141
 21
-115.14772646640614
 31
0.0
  0
LINE
  8
LAYER001
  6
DIVIDE
 62
               7
  5
2FB
 10
73.272181430581753
 20
-117.11706778180087
 30
0.0
 11
88.272181430581753
 21
-117.11706778180087
 31
0.0
  0
LINE
  8
LAYER001
  6
DIVIDE
 62
               7
  5
2FC
 10
73.272181430581753
 20
-292.32069896486121
 30
0.0
 11
88.216147773846586
 21
-292.32069896486121
 31
0.0
  0
LINE
  8
LAYER001
  6
DIVIDE
 62
               7
  5
2FD
 10
95.275544091344557
 20
-295.32139468777808
 30
0.0
 11
88.272181430581753
 21
-295.32139468777808
 31
0.0
  0
LINE
  8
LAYER001
  6
DIVIDE
 62
               7
  5
2FE
 10
73.272181430581753
 20
-295.32139468777808
 30
0.0
 11
66.268818769817472
 21
-295.32139468777808
 31
0.0
  0
LINE
  8
LAYER001
  6
DIVIDE
 62
               7
  5
2FF
 10
93.27508027606757
 20
-61.442085324313013
 30
0.0
 11
93.27508027606757
 21
-94.976722814077988
 31
0.0
  0
LINE
  8
LAYER001
  6
DIVIDE
 62
               7
  5
300
 10
68.269282585095937
 20
-61.442085324313013
 30
0.0
 11
68.269282585095937
 21
-94.973652246658673
 31
0.0
  0
LINE
  8
LAYER001
  6
DIVIDE
 62
               7
  5
301
 10
68.269282585095937
 20
-61.442085324313013
 30
0.0
 11
93.27508027606757
 21
-61.442085324313013
 31
0.0
  0
LINE
  8
LAYER001
  6
DIVIDE
 62
               7
  5
302
 10
77.771531087200117
 20
-66.85434017654643
 30
0.0
 11
83.77292253303392
 21
-66.85434017654643
 31
0.0
  0
LINE
  8
LAYER001
  6
DIVIDE
 62
               7
  5
303
 10
68.269282585095937
 20
-79.446259661812519
 30
0.0
 11
93.27508027606757
 21
-79.446259661812519
 31
0.0
  0
LINE
  8
LAYER001
  6
DIVIDE
 62
               7
  5
304
 10
77.771531087200117
 20
-72.014536588055478
 30
0.0
 11
77.771531087200117
 21
-70.014072772777666
 31
0.0
  0
LINE
  8
LAYER001
  6
DIVIDE
 62
               7
  5
305
 10
77.771531087200117
 20
-66.85434017654643
 30
0.0
 11
77.771531087200117
 21
-72.014536588055478
 31
0.0
  0
LINE
  8
LAYER001
  6
DIVIDE
 62
               7
  5
306
 10
81.772458717756706
 20
-74.015000403333062
 30
0.0
 11
79.771994902478525
 21
-74.015000403333062
 31
0.0
  0
LINE
  8
LAYER001
  6
DIVIDE
 62
               7
  5
307
 10
68.269282585095937
 20
-71.444404400701359
 30
0.0
 11
77.771531087200117
 21
-71.444404400701359
 31
0.0
  0
LINE
  8
LAYER001
  6
DIVIDE
 62
               7
  5
308
 10
83.77292253303392
 20
-70.014072772777666
 30
0.0
 11
83.77292253303392
 21
-72.014536588055478
 31
0.0
  0
LINE
  8
LAYER001
  6
DIVIDE
 62
               7
  5
309
 10
83.77292253303392
 20
-66.85434017654643
 30
0.0
 11
83.77292253303392
 21
-72.014536588055478
 31
0.0
  0
LINE
  8
LAYER001
  6
DIVIDE
 62
               7
  5
30A
 10
83.77292253303392
 20
-71.444404400701359
 30
0.0
 11
93.27508027606757
 21
-71.444404400701359
 31
0.0
  0
LINE
  8
LAYER001
  6
DIVIDE
 62
               7
  5
30B
 10
74.770789984748035
 20
-52.834935795112727
 30
0.0
 11
74.770789984748035
 21
-61.442085324313013
 31
0.0
  0
LINE
  8
LAYER001
  6
DIVIDE
 62
               7
  5
30C
 10
76.043299112488285
 20
-52.100474451269065
 30
0.0
 11
74.769744373303467
 21
-52.835539296628042
 31
0.0
  0
LINE
  8
LAYER001
  6
DIVIDE
 62
               7
  5
30D
 10
86.773572876414619
 20
-52.835097319422147
 30
0.0
 11
86.773572876414619
 21
-61.442085324313013
 31
0.0
  0
LINE
  8
LAYER001
  6
DIVIDE
 62
               7
  5
30E
 10
80.772181430580986
 20
-52.836015954942695
 30
0.0
 11
80.772181430580986
 21
-61.442085324313013
 31
0.0
  0
LINE
  8
LAYER001
  6
DIVIDE
 62
               7
  5
30F
 10
86.773572876414619
 20
-52.835097319422147
 30
0.0
 11
85.501063748673801
 21
-52.100474451269065
 31
0.0
  0
LINE
  8
LAYER001
  6
DIVIDE
 62
               7
  5
310
 10
76.043299112488285
 20
-52.100474451269065
 30
0.0
 11
85.501063748673801
 21
-52.100474451269065
 31
0.0
  0
LINE
  8
LAYER001
  6
DIVIDE
 62
               7
  5
311
 10
95.275544091344557
 20
-115.14772646640614
 30
0.0
 11
95.275544091344557
 21
-295.32139468777808
 31
0.0
  0
LINE
  8
LAYER001
  6
DIVIDE
 62
               7
  5
312
 10
66.268818769817472
 20
-115.14772646640614
 30
0.0
 11
66.268818769817472
 21
-295.32139468777808
 31
0.0
  0
LINE
  8
LAYER001
  6
DIVIDE
 62
               7
  5
313
 10
93.275080276066376
 20
-92.918944121012174
 30
0.0
 11
92.56643355221513
 21
-92.433896701421475
 31
0.0
  0
LINE
  8
LAYER001
  6
DIVIDE
 62
               7
  5
314
 10
92.56643355221513
 20
-92.433896701421475
 30
0.0
 11
91.843690347531378
 21
-91.980138991072494
 31
0.0
  0
LINE
  8
LAYER001
  6
DIVIDE
 62
               7
  5
315
 10
91.843690347531378
 20
-91.980138991072494
 30
0.0
 11
91.107790299321607
 21
-91.557671047658715
 31
0.0
  0
LINE
  8
LAYER001
  6
DIVIDE
 62
               7
  5
316
 10
91.107790299321607
 20
-91.557671047658715
 30
0.0
 11
90.359673044892304
 21
-91.166492928873708
 31
0.0
  0
LINE
  8
LAYER001
  6
DIVIDE
 62
               7
  5
317
 10
90.359673044892304
 20
-91.166492928873708
 30
0.0
 11
89.60027822155007
 21
-90.806604692411014
 31
0.0
  0
LINE
  8
LAYER001
  6
DIVIDE
 62
               7
  5
318
 10
89.60027822155007
 20
-90.806604692411014
 30
0.0
 11
88.830545466601279
 21
-90.478006395964172
 31
0.0
  0
LINE
  8
LAYER001
  6
DIVIDE
 62
               7
  5
319
 10
88.830545466601279
 20
-90.478006395964172
 30
0.0
 11
88.051414417352476
 21
-90.180698097226752
 31
0.0
  0
LINE
  8
LAYER001
  6
DIVIDE
 62
               7
  5
31A
 10
88.051414417352476
 20
-90.180698097226752
 30
0.0
 11
87.26382471111026
 21
-89.914679853892267
 31
0.0
  0
LINE
  8
LAYER001
  6
DIVIDE
 62
               7
  5
31B
 10
87.26382471111026
 20
-89.914679853892267
 30
0.0
 11
86.468715985180893
 21
-89.679951723654199
 31
0.0
  0
LINE
  8
LAYER001
  6
DIVIDE
 62
               7
  5
31C
 10
86.468715985180893
 20
-89.679951723654199
 30
0.0
 11
85.667027876871032
 21
-89.47651376420626
 31
0.0
  0
LINE
  8
LAYER001
  6
DIVIDE
 62
               7
  5
31D
 10
85.667027876871032
 20
-89.47651376420626
 30
0.0
 11
84.859700023487221
 21
-89.304366033241848
 31
0.0
  0
LINE
  8
LAYER001
  6
DIVIDE
 62
               7
  5
31E
 10
84.859700023487221
 20
-89.304366033241848
 30
0.0
 11
84.047672062335891
 21
-89.163508588454562
 31
0.0
  0
LINE
  8
LAYER001
  6
DIVIDE
 62
               7
  5
31F
 10
84.047672062335891
 20
-89.163508588454562
 30
0.0
 11
83.23188363072353
 21
-89.053941487537969
 31
0.0
  0
LINE
  8
LAYER001
  6
DIVIDE
 62
               7
  5
320
 10
83.23188363072353
 20
-89.053941487537969
 30
0.0
 11
82.413274365956568
 21
-88.975664788185554
 31
0.0
  0
LINE
  8
LAYER001
  6
DIVIDE
 62
               7
  5
321
 10
82.413274365956568
 20
-88.975664788185554
 30
0.0
 11
81.592783905341662
 21
-88.928678548090943
 31
0.0
  0
LINE
  8
LAYER001
  6
DIVIDE
 62
               7
  5
322
 10
81.592783905341662
 20
-88.928678548090943
 30
0.0
 11
80.77135188618513
 21
-88.912982824947505
 31
0.0
  0
LINE
  8
LAYER001
  6
DIVIDE
 62
               7
  5
323
 10
80.77135188618513
 20
-88.912982824947505
 30
0.0
 11
79.949917945793629
 21
-88.928577676448953
 31
0.0
  0
LINE
  8
LAYER001
  6
DIVIDE
 62
               7
  5
324
 10
79.949917945793629
 20
-88.928577676448953
 30
0.0
 11
79.129421721473534
 21
-88.975463160288825
 31
0.0
  0
LINE
  8
LAYER001
  6
DIVIDE
 62
               7
  5
325
 10
79.129421721473534
 20
-88.975463160288825
 30
0.0
 11
78.310802850531502
 21
-89.053639334160493
 31
0.0
  0
LINE
  8
LAYER001
  6
DIVIDE
 62
               7
  5
326
 10
78.310802850531502
 20
-89.053639334160493
 30
0.0
 11
77.49500097027385
 21
-89.163106255757697
 31
0.0
  0
LINE
  8
LAYER001
  6
DIVIDE
 62
               7
  5
327
 10
77.49500097027385
 20
-89.163106255757697
 30
0.0
 11
76.682955718007122
 21
-89.303863982773976
 31
0.0
  0
LINE
  8
LAYER001
  6
DIVIDE
 62
               7
  5
328
 10
76.682955718007122
 20
-89.303863982773976
 30
0.0
 11
75.875606731037919
 21
-89.475912572902729
 31
0.0
  0
LINE
  8
LAYER001
  6
DIVIDE
 62
               7
  5
329
 10
75.875606731037919
 20
-89.475912572902729
 30
0.0
 11
75.073893646672673
 21
-89.679252083837525
 31
0.0
  0
LINE
  8
LAYER001
  6
DIVIDE
 62
               7
  5
32A
 10
75.073893646672673
 20
-89.679252083837525
 30
0.0
 11
74.278756102217756
 21
-89.913882573272076
 31
0.0
  0
LINE
  8
LAYER001
  6
DIVIDE
 62
               7
  5
32B
 10
74.278756102217756
 20
-89.913882573272076
 30
0.0
 11
73.491133734979883
 21
-90.179804098899751
 31
0.0
  0
LINE
  8
LAYER001
  6
DIVIDE
 62
               7
  5
32C
 10
73.491133734979883
 20
-90.179804098899751
 30
0.0
 11
72.711966182265371
 21
-90.47701671841412
 31
0.0
  0
LINE
  8
LAYER001
  6
DIVIDE
 62
               7
  5
32D
 10
72.711966182265371
 20
-90.47701671841412
 30
0.0
 11
71.942193081380822
 21
-90.805520489508723
 31
0.0
  0
LINE
  8
LAYER001
  6
DIVIDE
 62
               7
  5
32E
 10
71.942193081380822
 20
-90.805520489508723
 30
0.0
 11
71.182754069632779
 21
-91.165315469877214
 31
0.0
  0
LINE
  8
LAYER001
  6
DIVIDE
 62
               7
  5
32F
 10
71.182754069632779
 20
-91.165315469877214
 30
0.0
 11
70.434588784327559
 21
-91.556401717212964
 31
0.0
  0
LINE
  8
LAYER001
  6
DIVIDE
 62
               7
  5
330
 10
70.434588784327559
 20
-91.556401717212964
 30
0.0
 11
69.698636862771878
 21
-91.978779289209712
 31
0.0
  0
LINE
  8
LAYER001
  6
DIVIDE
 62
               7
  5
331
 10
69.698636862771878
 20
-91.978779289209712
 30
0.0
 11
68.975837942272051
 21
-92.432448243560827
 31
0.0
  0
LINE
  8
LAYER001
  6
DIVIDE
 62
               7
  5
332
 10
68.975837942272051
 20
-92.432448243560827
 30
0.0
 11
68.267131660134652
 21
-92.917408637959966
 31
0.0
  0
LINE
  8
LAYER001
  6
DIVIDE
 62
               7
  5
333
 10
81.772458592902922
 20
-74.01500015346258
 30
0.0
 11
81.87538050037125
 21
-74.012347951340587
 31
0.0
  0
LINE
  8
LAYER001
  6
DIVIDE
 62
               7
  5
334
 10
81.87538050037125
 20
-74.012347951340587
 30
0.0
 11
81.976950630671979
 21
-74.004578513138028
 31
0.0
  0
LINE
  8
LAYER001
  6
DIVIDE
 62
               7
  5
335
 10
81.976950630671979
 20
-74.004578513138028
 30
0.0
 11
82.077043468508066
 21
-73.991817354151863
 31
0.0
  0
LINE
  8
LAYER001
  6
DIVIDE
 62
               7
  5
336
 10
82.077043468508066
 20
-73.991817354151863
 30
0.0
 11
82.175533498582524
 21
-73.974189989679331
 31
0.0
  0
LINE
  8
LAYER001
  6
DIVIDE
 62
               7
  5
337
 10
82.175533498582524
 20
-73.974189989679331
 30
0.0
 11
82.272295205598141
 21
-73.951821935017506
 31
0.0
  0
LINE
  8
LAYER001
  6
DIVIDE
 62
               7
  5
338
 10
82.272295205598141
 20
-73.951821935017506
 30
0.0
 11
82.367203074257645
 21
-73.924838705463401
 31
0.0
  0
LINE
  8
LAYER001
  6
DIVIDE
 62
               7
  5
339
 10
82.367203074257645
 20
-73.924838705463401
 30
0.0
 11
82.460131589264279
 21
-73.893365816314258
 31
0.0
  0
LINE
  8
LAYER001
  6
DIVIDE
 62
               7
  5
33A
 10
82.460131589264279
 20
-73.893365816314258
 30
0.0
 11
82.550955235320714
 21
-73.857528782867064
 31
0.0
  0
LINE
  8
LAYER001
  6
DIVIDE
 62
               7
  5
33B
 10
82.550955235320714
 20
-73.857528782867064
 30
0.0
 11
82.639548497129908
 21
-73.817453120418946
 31
0.0
  0
LINE
  8
LAYER001
  6
DIVIDE
 62
               7
  5
33C
 10
82.639548497129908
 20
-73.817453120418946
 30
0.0
 11
82.725785859394762
 21
-73.773264344267062
 31
0.0
  0
LINE
  8
LAYER001
  6
DIVIDE
 62
               7
  5
33D
 10
82.725785859394762
 20
-73.773264344267062
 30
0.0
 11
82.809541806818174
 21
-73.725087969708454
 31
0.0
  0
LINE
  8
LAYER001
  6
DIVIDE
 62
               7
  5
33E
 10
82.809541806818174
 20
-73.725087969708454
 30
0.0
 11
82.89069082410299
 21
-73.673049512040308
 31
0.0
  0
LINE
  8
LAYER001
  6
DIVIDE
 62
               7
  5
33F
 10
82.89069082410299
 20
-73.673049512040308
 30
0.0
 11
82.969107395952221
 21
-73.617274486559637
 31
0.0
  0
LINE
  8
LAYER001
  6
DIVIDE
 62
               7
  5
340
 10
82.969107395952221
 20
-73.617274486559637
 30
0.0
 11
83.044666007068656
 21
-73.557888408563571
 31
0.0
  0
LINE
  8
LAYER001
  6
DIVIDE
 62
               7
  5
341
 10
83.044666007068656
 20
-73.557888408563571
 30
0.0
 11
83.117241142155137
 21
-73.495016793349237
 31
0.0
  0
LINE
  8
LAYER001
  6
DIVIDE
 62
               7
  5
342
 10
83.117241142155137
 20
-73.495016793349237
 30
0.0
 11
83.186707285914736
 21
-73.428785156213763
 31
0.0
  0
LINE
  8
LAYER001
  6
DIVIDE
 62
               7
  5
343
 10
83.186707285914736
 20
-73.428785156213763
 30
0.0
 11
83.252938923050294
 21
-73.359319012454165
 31
0.0
  0
LINE
  8
LAYER001
  6
DIVIDE
 62
               7
  5
344
 10
83.252938923050294
 20
-73.359319012454165
 30
0.0
 11
83.3158105382646
 21
-73.286743877367599
 31
0.0
  0
LINE
  8
LAYER001
  6
DIVIDE
 62
               7
  5
345
 10
83.3158105382646
 20
-73.286743877367599
 30
0.0
 11
83.375196616260723
 21
-73.211185266251192
 31
0.0
  0
LINE
  8
LAYER001
  6
DIVIDE
 62
               7
  5
346
 10
83.375196616260723
 20
-73.211185266251192
 30
0.0
 11
83.430971641741394
 21
-73.132768694402017
 31
0.0
  0
LINE
  8
LAYER001
  6
DIVIDE
 62
               7
  5
347
 10
83.430971641741394
 20
-73.132768694402017
 30
0.0
 11
83.483010099409569
 21
-73.051619677117202
 31
0.0
  0
LINE
  8
LAYER001
  6
DIVIDE
 62
               7
  5
348
 10
83.483010099409569
 20
-73.051619677117202
 30
0.0
 11
83.531186473968205
 21
-72.967863729693818
 31
0.0
  0
LINE
  8
LAYER001
  6
DIVIDE
 62
               7
  5
349
 10
83.531186473968205
 20
-72.967863729693818
 30
0.0
 11
83.575375250120146
 21
-72.881626367429021
 31
0.0
  0
LINE
  8
LAYER001
  6
DIVIDE
 62
               7
  5
34A
 10
83.575375250120146
 20
-72.881626367429021
 30
0.0
 11
83.615450912568235
 21
-72.793033105619827
 31
0.0
  0
LINE
  8
LAYER001
  6
DIVIDE
 62
               7
  5
34B
 10
83.615450912568235
 20
-72.793033105619827
 30
0.0
 11
83.651287946015429
 21
-72.702209459563392
 31
0.0
  0
LINE
  8
LAYER001
  6
DIVIDE
 62
               7
  5
34C
 10
83.651287946015429
 20
-72.702209459563392
 30
0.0
 11
83.682760835164686
 21
-72.609280944556815
 31
0.0
  0
LINE
  8
LAYER001
  6
DIVIDE
 62
               7
  5
34D
 10
83.682760835164686
 20
-72.609280944556815
 30
0.0
 11
83.709744064718848
 21
-72.514373075897225
 31
0.0
  0
LINE
  8
LAYER001
  6
DIVIDE
 62
               7
  5
34E
 10
83.709744064718848
 20
-72.514373075897225
 30
0.0
 11
83.732112119380815
 21
-72.417611368881694
 31
0.0
  0
LINE
  8
LAYER001
  6
DIVIDE
 62
               7
  5
34F
 10
83.732112119380815
 20
-72.417611368881694
 30
0.0
 11
83.749739483853375
 21
-72.319121338807349
 31
0.0
  0
LINE
  8
LAYER001
  6
DIVIDE
 62
               7
  5
350
 10
83.749739483853375
 20
-72.319121338807349
 30
0.0
 11
83.762500642839598
 21
-72.219028500971262
 31
0.0
  0
LINE
  8
LAYER001
  6
DIVIDE
 62
               7
  5
351
 10
83.762500642839598
 20
-72.219028500971262
 30
0.0
 11
83.77027008104227
 21
-72.117458370670562
 31
0.0
  0
LINE
  8
LAYER001
  6
DIVIDE
 62
               7
  5
352
 10
83.77027008104227
 20
-72.117458370670562
 30
0.0
 11
83.772922283164405
 21
-72.014536463202319
 31
0.0
  0
LINE
  8
LAYER001
  6
DIVIDE
 62
               7
  5
353
 10
77.771531337071963
 20
-72.014536463202944
 30
0.0
 11
77.774183539193928
 21
-72.11745837067113
 31
0.0
  0
LINE
  8
LAYER001
  6
DIVIDE
 62
               7
  5
354
 10
77.774183539193928
 20
-72.11745837067113
 30
0.0
 11
77.781952977396543
 21
-72.219028500971774
 31
0.0
  0
LINE
  8
LAYER001
  6
DIVIDE
 62
               7
  5
355
 10
77.781952977396543
 20
-72.219028500971774
 30
0.0
 11
77.794714136382652
 21
-72.319121338807975
 31
0.0
  0
LINE
  8
LAYER001
  6
DIVIDE
 62
               7
  5
356
 10
77.794714136382652
 20
-72.319121338807975
 30
0.0
 11
77.812341500855098
 21
-72.417611368882319
 31
0.0
  0
LINE
  8
LAYER001
  6
DIVIDE
 62
               7
  5
357
 10
77.812341500855098
 20
-72.417611368882319
 30
0.0
 11
77.834709555517065
 21
-72.514373075897851
 31
0.0
  0
LINE
  8
LAYER001
  6
DIVIDE
 62
               7
  5
358
 10
77.834709555517065
 20
-72.514373075897851
 30
0.0
 11
77.861692785071114
 21
-72.609280944557383
 31
0.0
  0
LINE
  8
LAYER001
  6
DIVIDE
 62
               7
  5
359
 10
77.861692785071114
 20
-72.609280944557383
 30
0.0
 11
77.893165674220313
 21
-72.70220945956396
 31
0.0
  0
LINE
  8
LAYER001
  6
DIVIDE
 62
               7
  5
35A
 10
77.893165674220313
 20
-72.70220945956396
 30
0.0
 11
77.929002707667451
 21
-72.793033105620339
 31
0.0
  0
LINE
  8
LAYER001
  6
DIVIDE
 62
               7
  5
35B
 10
77.929002707667451
 20
-72.793033105620339
 30
0.0
 11
77.969078370115483
 21
-72.881626367429533
 31
0.0
  0
LINE
  8
LAYER001
  6
DIVIDE
 62
               7
  5
35C
 10
77.969078370115483
 20
-72.881626367429533
 30
0.0
 11
78.013267146267367
 21
-72.967863729694329
 31
0.0
  0
LINE
  8
LAYER001
  6
DIVIDE
 62
               7
  5
35D
 10
78.013267146267367
 20
-72.967863729694329
 30
0.0
 11
78.061443520825947
 21
-73.051619677117657
 31
0.0
  0
LINE
  8
LAYER001
  6
DIVIDE
 62
               7
  5
35E
 10
78.061443520825947
 20
-73.051619677117657
 30
0.0
 11
78.113481978494065
 21
-73.132768694402472
 31
0.0
  0
LINE
  8
LAYER001
  6
DIVIDE
 62
               7
  5
35F
 10
78.113481978494065
 20
-73.132768694402472
 30
0.0
 11
78.169257003974735
 21
-73.21118526625159
 31
0.0
  0
LINE
  8
LAYER001
  6
DIVIDE
 62
               7
  5
360
 10
78.169257003974735
 20
-73.21118526625159
 30
0.0
 11
78.228643081970802
 21
-73.286743877367996
 31
0.0
  0
LINE
  8
LAYER001
  6
DIVIDE
 62
               7
  5
361
 10
78.228643081970802
 20
-73.286743877367996
 30
0.0
 11
78.291514697185107
 21
-73.359319012454506
 31
0.0
  0
LINE
  8
LAYER001
  6
DIVIDE
 62
               7
  5
362
 10
78.291514697185107
 20
-73.359319012454506
 30
0.0
 11
78.357746334320609
 21
-73.428785156214047
 31
0.0
  0
LINE
  8
LAYER001
  6
DIVIDE
 62
               7
  5
363
 10
78.357746334320609
 20
-73.428785156214047
 30
0.0
 11
78.427212478080151
 21
-73.495016793349521
 31
0.0
  0
LINE
  8
LAYER001
  6
DIVIDE
 62
               7
  5
364
 10
78.427212478080151
 20
-73.495016793349521
 30
0.0
 11
78.499787613166632
 21
-73.557888408563855
 31
0.0
  0
LINE
  8
LAYER001
  6
DIVIDE
 62
               7
  5
365
 10
78.499787613166632
 20
-73.557888408563855
 30
0.0
 11
78.575346224283066
 21
-73.617274486559864
 31
0.0
  0
LINE
  8
LAYER001
  6
DIVIDE
 62
               7
  5
366
 10
78.575346224283066
 20
-73.617274486559864
 30
0.0
 11
78.653762796132241
 21
-73.673049512040478
 31
0.0
  0
LINE
  8
LAYER001
  6
DIVIDE
 62
               7
  5
367
 10
78.653762796132241
 20
-73.673049512040478
 30
0.0
 11
78.734911813417057
 21
-73.725087969708682
 31
0.0
  0
LINE
  8
LAYER001
  6
DIVIDE
 62
               7
  5
368
 10
78.734911813417057
 20
-73.725087969708682
 30
0.0
 11
78.818667760840469
 21
-73.773264344267233
 31
0.0
  0
LINE
  8
LAYER001
  6
DIVIDE
 62
               7
  5
369
 10
78.818667760840469
 20
-73.773264344267233
 30
0.0
 11
78.904905123105323
 21
-73.81745312041906
 31
0.0
  0
LINE
  8
LAYER001
  6
DIVIDE
 62
               7
  5
36A
 10
78.904905123105323
 20
-73.81745312041906
 30
0.0
 11
78.993498384914517
 21
-73.857528782867121
 31
0.0
  0
LINE
  8
LAYER001
  6
DIVIDE
 62
               7
  5
36B
 10
78.993498384914517
 20
-73.857528782867121
 30
0.0
 11
79.084322030970952
 21
-73.893365816314315
 31
0.0
  0
LINE
  8
LAYER001
  6
DIVIDE
 62
               7
  5
36C
 10
79.084322030970952
 20
-73.893365816314315
 30
0.0
 11
79.177250545977529
 21
-73.924838705463458
 31
0.0
  0
LINE
  8
LAYER001
  6
DIVIDE
 62
               7
  5
36D
 10
79.177250545977529
 20
-73.924838705463458
 30
0.0
 11
79.27215841463709
 21
-73.951821935017506
 31
0.0
  0
LINE
  8
LAYER001
  6
DIVIDE
 62
               7
  5
36E
 10
79.27215841463709
 20
-73.951821935017506
 30
0.0
 11
79.368920121652707
 21
-73.974189989679388
 31
0.0
  0
LINE
  8
LAYER001
  6
DIVIDE
 62
               7
  5
36F
 10
79.368920121652707
 20
-73.974189989679388
 30
0.0
 11
79.467410151727108
 21
-73.99181735415192
 31
0.0
  0
LINE
  8
LAYER001
  6
DIVIDE
 62
               7
  5
370
 10
79.467410151727108
 20
-73.99181735415192
 30
0.0
 11
79.567502989563195
 21
-74.004578513138028
 31
0.0
  0
LINE
  8
LAYER001
  6
DIVIDE
 62
               7
  5
371
 10
79.567502989563195
 20
-74.004578513138028
 30
0.0
 11
79.669073119863924
 21
-74.012347951340587
 31
0.0
  0
LINE
  8
LAYER001
  6
DIVIDE
 62
               7
  5
372
 10
79.669073119863924
 20
-74.012347951340587
 30
0.0
 11
79.771995027332252
 21
-74.01500015346258
 31
0.0
  0
LINE
  8
LAYER001
  6
DIVIDE
 62
               7
  5
373
 10
80.771153242846879
 20
-52.836549563238719
 30
0.0
 11
80.593869326899664
 21
-52.747402803886985
 31
0.0
  0
LINE
  8
LAYER001
  6
DIVIDE
 62
               7
  5
374
 10
80.593869326899664
 20
-52.747402803886985
 30
0.0
 11
80.414601518687334
 21
-52.664005189001955
 31
0.0
  0
LINE
  8
LAYER001
  6
DIVIDE
 62
               7
  5
375
 10
80.414601518687334
 20
-52.664005189001955
 30
0.0
 11
80.233482013170374
 21
-52.586356740836976
 31
0.0
  0
LINE
  8
LAYER001
  6
DIVIDE
 62
               7
  5
376
 10
80.233482013170374
 20
-52.586356740836976
 30
0.0
 11
80.050643005309496
 21
-52.514457481645593
 31
0.0
  0
LINE
  8
LAYER001
  6
DIVIDE
 62
               7
  5
377
 10
80.050643005309496
 20
-52.514457481645593
 30
0.0
 11
79.866216690065016
 21
-52.448307433681208
 31
0.0
  0
LINE
  8
LAYER001
  6
DIVIDE
 62
               7
  5
378
 10
79.866216690065016
 20
-52.448307433681208
 30
0.0
 11
79.680335262397591
 21
-52.387906619197253
 31
0.0
  0
LINE
  8
LAYER001
  6
DIVIDE
 62
               7
  5
379
 10
79.680335262397591
 20
-52.387906619197253
 30
0.0
 11
79.493130917267763
 21
-52.333255060447385
 31
0.0
  0
LINE
  8
LAYER001
  6
DIVIDE
 62
               7
  5
37A
 10
79.493130917267763
 20
-52.333255060447385
 30
0.0
 11
79.304735849636018
 21
-52.284352779684866
 31
0.0
  0
LINE
  8
LAYER001
  6
DIVIDE
 62
               7
  5
37B
 10
79.304735849636018
 20
-52.284352779684866
 30
0.0
 11
79.115282254462954
 21
-52.241199799163326
 31
0.0
  0
LINE
  8
LAYER001
  6
DIVIDE
 62
               7
  5
37C
 10
79.115282254462954
 20
-52.241199799163326
 30
0.0
 11
78.924902326709002
 21
-52.203796141135967
 31
0.0
  0
LINE
  8
LAYER001
  6
DIVIDE
 62
               7
  5
37D
 10
78.924902326709002
 20
-52.203796141135967
 30
0.0
 11
78.733728261334818
 21
-52.172141827856649
 31
0.0
  0
LINE
  8
LAYER001
  6
DIVIDE
 62
               7
  5
37E
 10
78.733728261334818
 20
-52.172141827856649
 30
0.0
 11
78.541892253300887
 21
-52.146236881578517
 31
0.0
  0
LINE
  8
LAYER001
  6
DIVIDE
 62
               7
  5
37F
 10
78.541892253300887
 20
-52.146236881578517
 30
0.0
 11
78.349526497567808
 21
-52.126081324555116
 31
0.0
  0
LINE
  8
LAYER001
  6
DIVIDE
 62
               7
  5
380
 10
78.349526497567808
 20
-52.126081324555116
 30
0.0
 11
78.156763189095955
 21
-52.111675179040049
 31
0.0
  0
LINE
  8
LAYER001
  6
DIVIDE
 62
               7
  5
381
 10
78.156763189095955
 20
-52.111675179040049
 30
0.0
 11
77.963734522845982
 21
-52.103018467286603
 31
0.0
  0
LINE
  8
LAYER001
  6
DIVIDE
 62
               7
  5
382
 10
77.963734522845982
 20
-52.103018467286603
 30
0.0
 11
77.770572693778433
 21
-52.100111211548409
 31
0.0
  0
LINE
  8
LAYER001
  6
DIVIDE
 62
               7
  5
383
 10
77.770572693778433
 20
-52.100111211548409
 30
0.0
 11
77.577409896853908
 21
-52.102953434078756
 31
0.0
  0
LINE
  8
LAYER001
  6
DIVIDE
 62
               7
  5
384
 10
77.577409896853908
 20
-52.102953434078756
 30
0.0
 11
77.384378327032778
 21
-52.111545157131218
 31
0.0
  0
LINE
  8
LAYER001
  6
DIVIDE
 62
               7
  5
385
 10
77.384378327032778
 20
-52.111545157131218
 30
0.0
 11
77.191610179275699
 21
-52.125886402959367
 31
0.0
  0
LINE
  8
LAYER001
  6
DIVIDE
 62
               7
  5
386
 10
77.191610179275699
 20
-52.125886402959367
 30
0.0
 11
76.999237648543101
 21
-52.145977193816378
 31
0.0
  0
LINE
  8
LAYER001
  6
DIVIDE
 62
               7
  5
387
 10
76.999237648543101
 20
-52.145977193816378
 30
0.0
 11
76.807392929795697
 21
-52.171817551956025
 31
0.0
  0
LINE
  8
LAYER001
  6
DIVIDE
 62
               7
  5
388
 10
76.807392929795697
 20
-52.171817551956025
 30
0.0
 11
76.616208217993915
 21
-52.203407499631567
 31
0.0
  0
LINE
  8
LAYER001
  6
DIVIDE
 62
               7
  5
389
 10
76.616208217993915
 20
-52.203407499631567
 30
0.0
 11
76.425815708098241
 21
-52.240747059096549
 31
0.0
  0
LINE
  8
LAYER001
  6
DIVIDE
 62
               7
  5
38A
 10
76.425815708098241
 20
-52.240747059096549
 30
0.0
 11
76.236347595069276
 21
-52.283836252604431
 31
0.0
  0
LINE
  8
LAYER001
  6
DIVIDE
 62
               7
  5
38B
 10
76.236347595069276
 20
-52.283836252604431
 30
0.0
 11
76.047936073867504
 21
-52.332675102408729
 31
0.0
  0
LINE
  8
LAYER001
  6
DIVIDE
 62
               7
  5
38C
 10
76.047936073867504
 20
-52.332675102408729
 30
0.0
 11
75.860713339453639
 21
-52.387263630762789
 31
0.0
  0
LINE
  8
LAYER001
  6
DIVIDE
 62
               7
  5
38D
 10
75.860713339453639
 20
-52.387263630762789
 30
0.0
 11
75.674811586787996
 21
-52.447601859920184
 31
0.0
  0
LINE
  8
LAYER001
  6
DIVIDE
 62
               7
  5
38E
 10
75.674811586787996
 20
-52.447601859920184
 30
0.0
 11
75.490363010831231
 21
-52.513689812134288
 31
0.0
  0
LINE
  8
LAYER001
  6
DIVIDE
 62
               7
  5
38F
 10
75.490363010831231
 20
-52.513689812134288
 30
0.0
 11
75.307499806543888
 21
-52.585527509658789
 31
0.0
  0
LINE
  8
LAYER001
  6
DIVIDE
 62
               7
  5
390
 10
75.307499806543888
 20
-52.585527509658789
 30
0.0
 11
75.126354168886394
 21
-52.663114974746861
 31
0.0
  0
LINE
  8
LAYER001
  6
DIVIDE
 62
               7
  5
391
 10
75.126354168886394
 20
-52.663114974746861
 30
0.0
 11
74.947058292819463
 21
-52.746452229652164
 31
0.0
  0
LINE
  8
LAYER001
  6
DIVIDE
 62
               7
  5
392
 10
74.947058292819463
 20
-52.746452229652164
 30
0.0
 11
74.769744373303467
 21
-52.835539296628042
 31
0.0
  0
LINE
  8
LAYER001
  6
DIVIDE
 62
               7
  5
393
 10
86.772527264969426
 20
-52.834493685183276
 30
0.0
 11
86.595173446445301
 21
-52.745544295656146
 31
0.0
  0
LINE
  8
LAYER001
  6
DIVIDE
 62
               7
  5
394
 10
86.595173446445301
 20
-52.745544295656146
 30
0.0
 11
86.415843411173171
 21
-52.662338210331512
 31
0.0
  0
LINE
  8
LAYER001
  6
DIVIDE
 62
               7
  5
395
 10
86.415843411173171
 20
-52.662338210331512
 30
0.0
 11
86.234669039146752
 21
-52.584875383665974
 31
0.0
  0
LINE
  8
LAYER001
  6
DIVIDE
 62
               7
  5
396
 10
86.234669039146752
 20
-52.584875383665974
 30
0.0
 11
86.051782210359647
 21
-52.513155770116157
 31
0.0
  0
LINE
  8
LAYER001
  6
DIVIDE
 62
               7
  5
397
 10
86.051782210359647
 20
-52.513155770116157
 30
0.0
 11
85.867314804805631
 21
-52.44717932413846
 31
0.0
  0
LINE
  8
LAYER001
  6
DIVIDE
 62
               7
  5
398
 10
85.867314804805631
 20
-52.44717932413846
 30
0.0
 11
85.681398702478134
 21
-52.386946000189681
 31
0.0
  0
LINE
  8
LAYER001
  6
DIVIDE
 62
               7
  5
399
 10
85.681398702478134
 20
-52.386946000189681
 30
0.0
 11
85.494165783371045
 21
-52.332455752726219
 31
0.0
  0
LINE
  8
LAYER001
  6
DIVIDE
 62
               7
  5
39A
 10
85.494165783371045
 20
-52.332455752726219
 30
0.0
 11
85.305747927478023
 21
-52.283708536204557
 31
0.0
  0
LINE
  8
LAYER001
  6
DIVIDE
 62
               7
  5
39B
 10
85.305747927478023
 20
-52.283708536204557
 30
0.0
 11
85.116277014792672
 21
-52.24070430508138
 31
0.0
  0
LINE
  8
LAYER001
  6
DIVIDE
 62
               7
  5
39C
 10
85.116277014792672
 20
-52.24070430508138
 30
0.0
 11
84.925884925308708
 21
-52.203443013813285
 31
0.0
  0
LINE
  8
LAYER001
  6
DIVIDE
 62
               7
  5
39D
 10
84.925884925308708
 20
-52.203443013813285
 30
0.0
 11
84.734703539019733
 21
-52.171924616856643
 31
0.0
  0
LINE
  8
LAYER001
  6
DIVIDE
 62
               7
  5
39E
 10
84.734703539019733
 20
-52.171924616856643
 30
0.0
 11
84.542864735919522
 21
-52.146149068668137
 31
0.0
  0
LINE
  8
LAYER001
  6
DIVIDE
 62
               7
  5
39F
 10
84.542864735919522
 20
-52.146149068668137
 30
0.0
 11
84.350500396001621
 21
-52.126116323704338
 31
0.0
  0
LINE
  8
LAYER001
  6
DIVIDE
 62
               7
  5
3A0
 10
84.350500396001621
 20
-52.126116323704338
 30
0.0
 11
84.157742399259746
 21
-52.111826336421757
 31
0.0
  0
LINE
  8
LAYER001
  6
DIVIDE
 62
               7
  5
3A1
 10
84.157742399259746
 20
-52.111826336421757
 30
0.0
 11
83.964722625687614
 21
-52.103279061276993
 31
0.0
  0
LINE
  8
LAYER001
  6
DIVIDE
 62
               7
  5
3A2
 10
83.964722625687614
 20
-52.103279061276993
 30
0.0
 11
83.771572955278941
 21
-52.100474452726473
 31
0.0
  0
LINE
  8
LAYER001
  6
DIVIDE
 62
               7
  5
3A3
 10
83.771572955278941
 20
-52.100474452726473
 30
0.0
 11
83.578425268027217
 21
-52.103412465226967
 31
0.0
  0
LINE
  8
LAYER001
  6
DIVIDE
 62
               7
  5
3A4
 10
83.578425268027217
 20
-52.103412465226967
 30
0.0
 11
83.385411443926216
 21
-52.112093053234815
 31
0.0
  0
LINE
  8
LAYER001
  6
DIVIDE
 62
               7
  5
3A5
 10
83.385411443926216
 20
-52.112093053234815
 30
0.0
 11
83.192663362969654
 21
-52.126516171206703
 31
0.0
  0
LINE
  8
LAYER001
  6
DIVIDE
 62
               7
  5
3A6
 10
83.192663362969654
 20
-52.126516171206703
 30
0.0
 11
83.000312905151134
 21
-52.146681773599198
 31
0.0
  0
LINE
  8
LAYER001
  6
DIVIDE
 62
               7
  5
3A7
 10
83.000312905151134
 20
-52.146681773599198
 30
0.0
 11
82.808491950464429
 21
-52.172589814868786
 31
0.0
  0
LINE
  8
LAYER001
  6
DIVIDE
 62
               7
  5
3A8
 10
82.808491950464429
 20
-52.172589814868786
 30
0.0
 11
82.617332378903086
 21
-52.204240249472065
 31
0.0
  0
LINE
  8
LAYER001
  6
DIVIDE
 62
               7
  5
3A9
 10
82.617332378903086
 20
-52.204240249472065
 30
0.0
 11
82.426966070460821
 21
-52.241633031865575
 31
0.0
  0
LINE
  8
LAYER001
  6
DIVIDE
 62
               7
  5
3AA
 10
82.426966070460821
 20
-52.241633031865575
 30
0.0
 11
82.237524905131295
 21
-52.284768116505774
 31
0.0
  0
LINE
  8
LAYER001
  6
DIVIDE
 62
               7
  5
3AB
 10
82.237524905131295
 20
-52.284768116505774
 30
0.0
 11
82.049140762908166
 21
-52.333645457849428
 31
0.0
  0
LINE
  8
LAYER001
  6
DIVIDE
 62
               7
  5
3AC
 10
82.049140762908166
 20
-52.333645457849428
 30
0.0
 11
81.861945523785209
 21
-52.388265010352939
 31
0.0
  0
LINE
  8
LAYER001
  6
DIVIDE
 62
               7
  5
3AD
 10
81.861945523785209
 20
-52.388265010352939
 30
0.0
 11
81.67607106775597
 21
-52.448626728472902
 31
0.0
  0
LINE
  8
LAYER001
  6
DIVIDE
 62
               7
  5
3AE
 10
81.67607106775597
 20
-52.448626728472902
 30
0.0
 11
81.491649274814222
 21
-52.514730566665918
 31
0.0
  0
LINE
  8
LAYER001
  6
DIVIDE
 62
               7
  5
3AF
 10
81.491649274814222
 20
-52.514730566665918
 30
0.0
 11
81.308812024953511
 21
-52.586576479388469
 31
0.0
  0
LINE
  8
LAYER001
  6
DIVIDE
 62
               7
  5
3B0
 10
81.308812024953511
 20
-52.586576479388469
 30
0.0
 11
81.127691198167554
 21
-52.664164421097183
 31
0.0
  0
LINE
  8
LAYER001
  6
DIVIDE
 62
               7
  5
3B1
 10
81.127691198167554
 20
-52.664164421097183
 30
0.0
 11
80.948418674450124
 21
-52.747494346248544
 31
0.0
  0
LINE
  8
LAYER001
  6
DIVIDE
 62
               7
  5
3B2
 10
80.948418674450124
 20
-52.747494346248544
 30
0.0
 11
80.771126333794768
 21
-52.836566209299122
 31
0.0
  0
ENDSEC
  0
EOF
