  0
SECTION
  2
HEADER
  9
$ACADVER
  1
AC1009
  9
$INSBASE
 10
0.0
 20
0.0
 30
0.0
  9
$EXTMIN
 10
-546.74864339926251
 20
-689.44960225566797
 30
0.0
  9
$EXTMAX
 10
677.33135660073731
 20
673.40069830066727
 30
0.0
  9
$LIMMIN
 10
-585.00114339926245
 20
-732.03867414805347
  9
$LIMMAX
 10
715.58385660073736
 20
715.98977019305278
  9
$ORTHOMODE
 70
               0
  9
$REGENMODE
 70
               1
  9
$FILLMODE
 70
               1
  9
$QTEXTMODE
 70
               0
  9
$MIRRTEXT
 70
               1
  9
$DRAGMODE
 70
               2
  9
$LTSCALE
 40
1.0
  9
$OSMODE
 70
               0
  9
$ATTMODE
 70
               1
  9
$TEXTSIZE
 40
0.2
  9
$TRACEWID
 40
0.05
  9
$TEXTSTYLE
  7
STANDARD
  9
$CLAYER
  8
0
  9
$CELTYPE
  6
CONTINUOUS
  9
$CECOLOR
 62
             256
  9
$DIMSCALE
 40
1.0
  9
$DIMASZ
 40
0.18
  9
$DIMEXO
 40
0.0625
  9
$DIMDLI
 40
0.38
  9
$DIMRND
 40
0.0
  9
$DIMDLE
 40
0.0
  9
$DIMEXE
 40
0.18
  9
$DIMTP
 40
0.0
  9
$DIMTM
 40
0.0
  9
$DIMTXT
 40
0.18
  9
$DIMCEN
 40
0.09
  9
$DIMTSZ
 40
0.0
  9
$DIMTOL
 70
               0
  9
$DIMLIM
 70
               0
  9
$DIMTIH
 70
               1
  9
$DIMTOH
 70
               1
  9
$DIMSE1
 70
               0
  9
$DIMSE2
 70
               0
  9
$DIMTAD
 70
               0
  9
$DIMZIN
 70
               0
  9
$DIMBLK
  1

  9
$DIMASO
 70
               1
  9
$DIMSHO
 70
               1
  9
$DIMPOST
  1

  9
$DIMAPOST
  1

  9
$DIMALT
 70
               0
  9
$DIMALTD
 70
               2
  9
$DIMALTF
 40
25.399999999999999
  9
$DIMLFAC
 40
1.0
  9
$DIMTOFL
 70
               0
  9
$DIMTVP
 40
0.0
  9
$DIMTIX
 70
               0
  9
$DIMSOXD
 70
               0
  9
$DIMSAH
 70
               0
  9
$DIMBLK1
  1

  9
$DIMBLK2
  1

  9
$DIMSTYLE
  2
STANDARD
  9
$DIMCLRD
 70
               0
  9
$DIMCLRE
 70
               0
  9
$DIMCLRT
 70
               0
  9
$DIMTFAC
 40
1.0
  9
$DIMGAP
 40
0.09
  9
$LUNITS
 70
               2
  9
$LUPREC
 70
               4
  9
$AXISMODE
 70
               0
  9
$AXISUNIT
 10
0.0
 20
0.0
  9
$SKETCHINC
 40
0.1
  9
$FILLETRAD
 40
0.0
  9
$AUNITS
 70
               0
  9
$AUPREC
 70
               0
  9
$MENU
  1
acad
  9
$ELEVATION
 40
0.0
  9
$PELEVATION
 40
0.0
  9
$THICKNESS
 40
0.0
  9
$LIMCHECK
 70
               0
  9
$BLIPMODE
 70
               1
  9
$CHAMFERA
 40
0.0
  9
$CHAMFERB
 40
0.0
  9
$SKPOLY
 70
               0
  9
$TDCREATE
 40
0.000000000
  9
$TDUPDATE
 40
0.000000000
  9
$TDINDWG
 40
0.0000000000
  9
$TDUSRTIMER
 40
0.0000000000
  9
$USRTIMER
 70
               1
  9
$ANGBASE
 50
0.0
  9
$ANGDIR
 70
               0
  9
$PDMODE
 70
               0
  9
$PDSIZE
 40
1.0
  9
$PLINEWID
 40
0.0
  9
$COORDS
 70
               1
  9
$SPLFRAME
 70
               0
  9
$SPLINETYPE
 70
               6
  9
$SPLINESEGS
 70
               8
  9
$ATTDIA
 70
               0
  9
$ATTREQ
 70
               1
  9
$HANDLING
 70
               1
  9
$HANDSEED
  5
3E7
  9
$SURFTAB1
 70
               6
  9
$SURFTAB2
 70
               6
  9
$SURFTYPE
 70
               6
  9
$SURFU
 70
               6
  9
$SURFV
 70
               6
  9
$UCSNAME
  2

  9
$UCSORG
 10
0.0
 20
0.0
 30
0.0
  9
$UCSXDIR
 10
1.0
 20
0.0
 30
0.0
  9
$UCSYDIR
 10
0.0
 20
1.0
 30
0.0
  9
$PUCSNAME
  2

  9
$PUCSORG
 10
0.0
 20
0.0
 30
0.0
  9
$PUCSXDIR
 10
1.0
 20
0.0
 30
0.0
  9
$PUCSYDIR
 10
0.0
 20
1.0
 30
0.0
  9
$USERI1
 70
               0
  9
$USERI2
 70
               0
  9
$USERI3
 70
               0
  9
$USERI4
 70
               0
  9
$USERI5
 70
               0
  9
$USERR1
 40
0.0
  9
$USERR2
 40
0.0
  9
$USERR3
 40
0.0
  9
$USERR4
 40
0.0
  9
$USERR5
 40
0.0
  9
$WORLDVIEW
 70
               1
  9
$SHADEDGE
 70
               3
  9
$SHADEDIF
 70
              70
  9
$TILEMODE
 70
               1
  9
$MAXACTVP
 70
              16
  9
$PINSBASE
 10
0.0
 20
0.0
 30
0.0
  9
$PLIMCHECK
 70
               0
  9
$PEXTMIN
 10
1.0000000000000000E+20
 20
1.0000000000000000E+20
 30
1.0000000000000000E+20
  9
$PEXTMAX
 10
-1.0000000000000000E+20
 20
-1.0000000000000000E+20
 30
-1.0000000000000000E+20
  9
$PLIMMIN
 10
0.0
 20
0.0
  9
$PLIMMAX
 10
12.0
 20
9.0
  9
$UNITMODE
 70
               0
  9
$VISRETAIN
 70
               0
  9
$PLINEGEN
 70
               1
  9
$PSLTSCALE
 70
               0
  9
$TREEDEPTH
 70
            3020
  9
$DWGCODEPAGE
  3
dos932
  0
ENDSEC
  0
SECTION
  2
TABLES
  0
TABLE
  2
VPORT
 70
               1
  0
VPORT
  2
*ACTIVE
 70
               0
 10
0.0
 20
0.0
 11
1.0
 21
1.0
 12
65.291356600737458
 22
-8.0244519775003482
 13
0.0
 23
0.0
 14
1.0
 24
1.0
 15
0.0
 25
0.0
 16
0.0
 26
0.0
 36
1.0
 17
0.0
 27
0.0
 37
0.0
 40
1448.0284443411063
 41
0.8981764171019463
 42
50.0
 43
0.0
 44
0.0
 50
0.0
 51
0.0
 71
               0
 72
             100
 73
               1
 74
               1
 75
               0
 76
               0
 77
               0
 78
               0
  0
ENDTAB
  0
TABLE
  2
LTYPE
 70
              26
  0
LTYPE
  2
CONTINUOUS
 70
               0
  3
Solid line
 72
              65
 73
               0
 40
0.0
  0
LTYPE
  2
HIDDENX2
 70
               0
  3
CADPAC FUSION LINETYPE
 72
              65
 73
               2
 40
80.0
 49
60.0
 49
-20.0
  0
LTYPE
  2
HIDDEN
 70
               0
  3
CADPAC FUSION LINETYPE
 72
              65
 73
               2
 40
60.0
 49
40.0
 49
-20.0
  0
LTYPE
  2
HIDDEN2
 70
               0
  3
CADPAC FUSION LINETYPE
 72
              65
 73
               2
 40
50.0
 49
30.0
 49
-20.0
  0
LTYPE
  2
DASHED
 70
               0
  3
CADPAC FUSION LINETYPE
 72
              65
 73
               2
 40
60.0
 49
40.0
 49
-20.0
  0
LTYPE
  2
DASHED2
 70
               0
  3
CADPAC FUSION LINETYPE
 72
              65
 73
               2
 40
45.0
 49
30.0
 49
-15.0
  0
LTYPE
  2
DASHEDX2
 70
               0
  3
CADPAC FUSION LINETYPE
 72
              65
 73
               2
 40
90.0
 49
60.0
 49
-30.0
  0
LTYPE
  2
DOTX2
 70
               0
  3
CADPAC FUSION LINETYPE
 72
              65
 73
               2
 40
25.0
 49
0.0
 49
-25.0
  0
LTYPE
  2
DOT
 70
               0
  3
CADPAC FUSION LINETYPE
 72
              65
 73
               2
 40
20.0
 49
0.0
 49
-20.0
  0
LTYPE
  2
DOTS
 70
               0
  3
CADPAC FUSION LINETYPE
 72
              65
 73
               2
 40
20.0
 49
0.0
 49
-20.0
  0
LTYPE
  2
DOT2
 70
               0
  3
CADPAC FUSION LINETYPE
 72
              65
 73
               2
 40
15.0
 49
0.0
 49
-15.0
  0
LTYPE
  2
CENTERX2
 70
               0
  3
CADPAC FUSION LINETYPE
 72
              65
 73
               4
 40
120.0
 49
50.0
 49
-25.0
 49
20.0
 49
-25.0
  0
LTYPE
  2
CENTER
 70
               0
  3
CADPAC FUSION LINETYPE
 72
              65
 73
               4
 40
92.0
 49
40.0
 49
-20.0
 49
12.0
 49
-20.0
  0
LTYPE
  2
CENTER2
 70
               0
  3
CADPAC FUSION LINETYPE
 72
              65
 73
               4
 40
64.0
 49
30.0
 49
-15.0
 49
4.0
 49
-15.0
  0
LTYPE
  2
DASHDOTX2
 70
               0
  3
CADPAC FUSION LINETYPE
 72
              65
 73
               4
 40
100.0
 49
50.0
 49
-25.0
 49
0.0
 49
-25.0
  0
LTYPE
  2
DASHDOT
 70
               0
  3
CADPAC FUSION LINETYPE
 72
              65
 73
               4
 40
80.0
 49
40.0
 49
-20.0
 49
0.0
 49
-20.0
  0
LTYPE
  2
DASHDOT2
 70
               0
  3
CADPAC FUSION LINETYPE
 72
              65
 73
               4
 40
60.0
 49
30.0
 49
-15.0
 49
0.0
 49
-15.0
  0
LTYPE
  2
DIVIDEX2
 70
               0
  3
CADPAC FUSION LINETYPE
 72
              65
 73
               6
 40
125.0
 49
50.0
 49
-25.0
 49
0.0
 49
-25.0
 49
0.0
 49
-25.0
  0
LTYPE
  2
DIVIDE
 70
               0
  3
CADPAC FUSION LINETYPE
 72
              65
 73
               6
 40
100.0
 49
40.0
 49
-20.0
 49
0.0
 49
-20.0
 49
0.0
 49
-20.0
  0
LTYPE
  2
DIVIDE2
 70
               0
  3
CADPAC FUSION LINETYPE
 72
              65
 73
               6
 40
75.0
 49
30.0
 49
-15.0
 49
0.0
 49
-15.0
 49
0.0
 49
-15.0
  0
LTYPE
  2
BORDERX2
 70
               0
  3
CADPAC FUSION LINETYPE
 72
              65
 73
               6
 40
175.0
 49
50.0
 49
-25.0
 49
50.0
 49
-25.0
 49
0.0
 49
-25.0
  0
LTYPE
  2
BORDER
 70
               0
  3
CADPAC FUSION LINETYPE
 72
              65
 73
               6
 40
140.0
 49
40.0
 49
-20.0
 49
40.0
 49
-20.0
 49
0.0
 49
-20.0
  0
LTYPE
  2
BORDER2
 70
               0
  3
CADPAC FUSION LINETYPE
 72
              65
 73
               6
 40
105.0
 49
30.0
 49
-15.0
 49
30.0
 49
-15.0
 49
0.0
 49
-15.0
  0
LTYPE
  2
PHANTOMX2
 70
               0
  3
CADPAC FUSION LINETYPE
 72
              65
 73
               6
 40
150.0
 49
50.0
 49
-20.0
 49
20.0
 49
-20.0
 49
20.0
 49
-20.0
  0
LTYPE
  2
PHANTOM
 70
               0
  3
CADPAC FUSION LINETYPE
 72
              65
 73
               6
 40
124.0
 49
40.0
 49
-20.0
 49
12.0
 49
-20.0
 49
12.0
 49
-20.0
  0
LTYPE
  2
PHANTOM2
 70
               0
  3
CADPAC FUSION LINETYPE
 72
              65
 73
               6
 40
106.0
 49
30.0
 49
-20.0
 49
8.0
 49
-20.0
 49
8.0
 49
-20.0
  0
ENDTAB
  0
TABLE
  2
LAYER
 70
             256
  0
LAYER
  2
0
 70
               0
 62
               7
  6
CONTINUOUS
  0
LAYER
  2
LAYER001
 70
               0
 62
               7
  6
CONTINUOUS
  0
LAYER
  2
LAYER002
 70
               0
 62
               7
  6
CONTINUOUS
  0
LAYER
  2
LAYER003
 70
               0
 62
               7
  6
CONTINUOUS
  0
LAYER
  2
LAYER004
 70
               0
 62
               7
  6
CONTINUOUS
  0
LAYER
  2
LAYER005
 70
               0
 62
               7
  6
CONTINUOUS
  0
LAYER
  2
LAYER006
 70
               0
 62
               7
  6
CONTINUOUS
  0
LAYER
  2
LAYER007
 70
               0
 62
               7
  6
CONTINUOUS
  0
LAYER
  2
LAYER008
 70
               0
 62
               7
  6
CONTINUOUS
  0
LAYER
  2
LAYER009
 70
               0
 62
               7
  6
CONTINUOUS
  0
LAYER
  2
LAYER010
 70
               0
 62
               7
  6
CONTINUOUS
  0
LAYER
  2
LAYER011
 70
               0
 62
               7
  6
CONTINUOUS
  0
LAYER
  2
LAYER012
 70
               0
 62
               7
  6
CONTINUOUS
  0
LAYER
  2
LAYER013
 70
               0
 62
               7
  6
CONTINUOUS
  0
LAYER
  2
LAYER014
 70
               0
 62
               7
  6
CONTINUOUS
  0
LAYER
  2
LAYER015
 70
               0
 62
               7
  6
CONTINUOUS
  0
LAYER
  2
LAYER016
 70
               0
 62
               7
  6
CONTINUOUS
  0
LAYER
  2
LAYER017
 70
               0
 62
               7
  6
CONTINUOUS
  0
LAYER
  2
LAYER018
 70
               0
 62
               7
  6
CONTINUOUS
  0
LAYER
  2
LAYER019
 70
               0
 62
               7
  6
CONTINUOUS
  0
LAYER
  2
LAYER020
 70
               0
 62
               7
  6
CONTINUOUS
  0
LAYER
  2
LAYER021
 70
               0
 62
               7
  6
CONTINUOUS
  0
LAYER
  2
LAYER022
 70
               0
 62
               7
  6
CONTINUOUS
  0
LAYER
  2
LAYER023
 70
               0
 62
               7
  6
CONTINUOUS
  0
LAYER
  2
LAYER024
 70
               0
 62
               7
  6
CONTINUOUS
  0
LAYER
  2
LAYER025
 70
               0
 62
               7
  6
CONTINUOUS
  0
LAYER
  2
LAYER026
 70
               0
 62
               7
  6
CONTINUOUS
  0
LAYER
  2
LAYER027
 70
               0
 62
               7
  6
CONTINUOUS
  0
LAYER
  2
LAYER028
 70
               0
 62
               7
  6
CONTINUOUS
  0
LAYER
  2
LAYER029
 70
               0
 62
               7
  6
CONTINUOUS
  0
LAYER
  2
LAYER030
 70
               0
 62
               7
  6
CONTINUOUS
  0
LAYER
  2
LAYER031
 70
               0
 62
               7
  6
CONTINUOUS
  0
LAYER
  2
LAYER032
 70
               0
 62
               7
  6
CONTINUOUS
  0
LAYER
  2
LAYER033
 70
               0
 62
               7
  6
CONTINUOUS
  0
LAYER
  2
LAYER034
 70
               0
 62
               7
  6
CONTINUOUS
  0
LAYER
  2
LAYER035
 70
               0
 62
               7
  6
CONTINUOUS
  0
LAYER
  2
LAYER036
 70
               0
 62
               7
  6
CONTINUOUS
  0
LAYER
  2
LAYER037
 70
               0
 62
               7
  6
CONTINUOUS
  0
LAYER
  2
LAYER038
 70
               0
 62
               7
  6
CONTINUOUS
  0
LAYER
  2
LAYER039
 70
               0
 62
               7
  6
CONTINUOUS
  0
LAYER
  2
LAYER040
 70
               0
 62
               7
  6
CONTINUOUS
  0
LAYER
  2
LAYER041
 70
               0
 62
               7
  6
CONTINUOUS
  0
LAYER
  2
LAYER042
 70
               0
 62
               7
  6
CONTINUOUS
  0
LAYER
  2
LAYER043
 70
               0
 62
               7
  6
CONTINUOUS
  0
LAYER
  2
LAYER044
 70
               0
 62
               7
  6
CONTINUOUS
  0
LAYER
  2
LAYER045
 70
               0
 62
               7
  6
CONTINUOUS
  0
LAYER
  2
LAYER046
 70
               0
 62
               7
  6
CONTINUOUS
  0
LAYER
  2
LAYER047
 70
               0
 62
               7
  6
CONTINUOUS
  0
LAYER
  2
LAYER048
 70
               0
 62
               7
  6
CONTINUOUS
  0
LAYER
  2
LAYER049
 70
               0
 62
               7
  6
CONTINUOUS
  0
LAYER
  2
LAYER050
 70
               0
 62
               7
  6
CONTINUOUS
  0
LAYER
  2
LAYER051
 70
               0
 62
               7
  6
CONTINUOUS
  0
LAYER
  2
LAYER052
 70
               0
 62
               7
  6
CONTINUOUS
  0
LAYER
  2
LAYER053
 70
               0
 62
               7
  6
CONTINUOUS
  0
LAYER
  2
LAYER054
 70
               0
 62
               7
  6
CONTINUOUS
  0
LAYER
  2
LAYER055
 70
               0
 62
               7
  6
CONTINUOUS
  0
LAYER
  2
LAYER056
 70
               0
 62
               7
  6
CONTINUOUS
  0
LAYER
  2
LAYER057
 70
               0
 62
               7
  6
CONTINUOUS
  0
LAYER
  2
LAYER058
 70
               0
 62
               7
  6
CONTINUOUS
  0
LAYER
  2
LAYER059
 70
               0
 62
               7
  6
CONTINUOUS
  0
LAYER
  2
LAYER060
 70
               0
 62
               7
  6
CONTINUOUS
  0
LAYER
  2
LAYER061
 70
               0
 62
               7
  6
CONTINUOUS
  0
LAYER
  2
LAYER062
 70
               0
 62
               7
  6
CONTINUOUS
  0
LAYER
  2
LAYER063
 70
               0
 62
               7
  6
CONTINUOUS
  0
LAYER
  2
LAYER064
 70
               0
 62
               7
  6
CONTINUOUS
  0
LAYER
  2
LAYER065
 70
               0
 62
               7
  6
CONTINUOUS
  0
LAYER
  2
LAYER066
 70
               0
 62
               7
  6
CONTINUOUS
  0
LAYER
  2
LAYER067
 70
               0
 62
               7
  6
CONTINUOUS
  0
LAYER
  2
LAYER068
 70
               0
 62
               7
  6
CONTINUOUS
  0
LAYER
  2
LAYER069
 70
               0
 62
               7
  6
CONTINUOUS
  0
LAYER
  2
LAYER070
 70
               0
 62
               7
  6
CONTINUOUS
  0
LAYER
  2
LAYER071
 70
               0
 62
               7
  6
CONTINUOUS
  0
LAYER
  2
LAYER072
 70
               0
 62
               7
  6
CONTINUOUS
  0
LAYER
  2
LAYER073
 70
               0
 62
               7
  6
CONTINUOUS
  0
LAYER
  2
LAYER074
 70
               0
 62
               7
  6
CONTINUOUS
  0
LAYER
  2
LAYER075
 70
               0
 62
               7
  6
CONTINUOUS
  0
LAYER
  2
LAYER076
 70
               0
 62
               7
  6
CONTINUOUS
  0
LAYER
  2
LAYER077
 70
               0
 62
               7
  6
CONTINUOUS
  0
LAYER
  2
LAYER078
 70
               0
 62
               7
  6
CONTINUOUS
  0
LAYER
  2
LAYER079
 70
               0
 62
               7
  6
CONTINUOUS
  0
LAYER
  2
LAYER080
 70
               0
 62
               7
  6
CONTINUOUS
  0
LAYER
  2
LAYER081
 70
               0
 62
               7
  6
CONTINUOUS
  0
LAYER
  2
LAYER082
 70
               0
 62
               7
  6
CONTINUOUS
  0
LAYER
  2
LAYER083
 70
               0
 62
               7
  6
CONTINUOUS
  0
LAYER
  2
LAYER084
 70
               0
 62
               7
  6
CONTINUOUS
  0
LAYER
  2
LAYER085
 70
               0
 62
               7
  6
CONTINUOUS
  0
LAYER
  2
LAYER086
 70
               0
 62
               7
  6
CONTINUOUS
  0
LAYER
  2
LAYER087
 70
               0
 62
               7
  6
CONTINUOUS
  0
LAYER
  2
LAYER088
 70
               0
 62
               7
  6
CONTINUOUS
  0
LAYER
  2
LAYER089
 70
               0
 62
               7
  6
CONTINUOUS
  0
LAYER
  2
LAYER090
 70
               0
 62
               7
  6
CONTINUOUS
  0
LAYER
  2
LAYER091
 70
               0
 62
               7
  6
CONTINUOUS
  0
LAYER
  2
LAYER092
 70
               0
 62
               7
  6
CONTINUOUS
  0
LAYER
  2
LAYER093
 70
               0
 62
               7
  6
CONTINUOUS
  0
LAYER
  2
LAYER094
 70
               0
 62
               7
  6
CONTINUOUS
  0
LAYER
  2
LAYER095
 70
               0
 62
               7
  6
CONTINUOUS
  0
LAYER
  2
LAYER096
 70
               0
 62
               7
  6
CONTINUOUS
  0
LAYER
  2
LAYER097
 70
               0
 62
               7
  6
CONTINUOUS
  0
LAYER
  2
LAYER098
 70
               0
 62
               7
  6
CONTINUOUS
  0
LAYER
  2
LAYER099
 70
               0
 62
               7
  6
CONTINUOUS
  0
LAYER
  2
LAYER100
 70
               0
 62
               7
  6
CONTINUOUS
  0
LAYER
  2
LAYER101
 70
               0
 62
               7
  6
CONTINUOUS
  0
LAYER
  2
LAYER102
 70
               0
 62
               7
  6
CONTINUOUS
  0
LAYER
  2
LAYER103
 70
               0
 62
               7
  6
CONTINUOUS
  0
LAYER
  2
LAYER104
 70
               0
 62
               7
  6
CONTINUOUS
  0
LAYER
  2
LAYER105
 70
               0
 62
               7
  6
CONTINUOUS
  0
LAYER
  2
LAYER106
 70
               0
 62
               7
  6
CONTINUOUS
  0
LAYER
  2
LAYER107
 70
               0
 62
               7
  6
CONTINUOUS
  0
LAYER
  2
LAYER108
 70
               0
 62
               7
  6
CONTINUOUS
  0
LAYER
  2
LAYER109
 70
               0
 62
               7
  6
CONTINUOUS
  0
LAYER
  2
LAYER110
 70
               0
 62
               7
  6
CONTINUOUS
  0
LAYER
  2
LAYER111
 70
               0
 62
               7
  6
CONTINUOUS
  0
LAYER
  2
LAYER112
 70
               0
 62
               7
  6
CONTINUOUS
  0
LAYER
  2
LAYER113
 70
               0
 62
               7
  6
CONTINUOUS
  0
LAYER
  2
LAYER114
 70
               0
 62
               7
  6
CONTINUOUS
  0
LAYER
  2
LAYER115
 70
               0
 62
               7
  6
CONTINUOUS
  0
LAYER
  2
LAYER116
 70
               0
 62
               7
  6
CONTINUOUS
  0
LAYER
  2
LAYER117
 70
               0
 62
               7
  6
CONTINUOUS
  0
LAYER
  2
LAYER118
 70
               0
 62
               7
  6
CONTINUOUS
  0
LAYER
  2
LAYER119
 70
               0
 62
               7
  6
CONTINUOUS
  0
LAYER
  2
LAYER120
 70
               0
 62
               7
  6
CONTINUOUS
  0
LAYER
  2
LAYER121
 70
               0
 62
               7
  6
CONTINUOUS
  0
LAYER
  2
LAYER122
 70
               0
 62
               7
  6
CONTINUOUS
  0
LAYER
  2
LAYER123
 70
               0
 62
               7
  6
CONTINUOUS
  0
LAYER
  2
LAYER124
 70
               0
 62
               7
  6
CONTINUOUS
  0
LAYER
  2
LAYER125
 70
               0
 62
               7
  6
CONTINUOUS
  0
LAYER
  2
LAYER126
 70
               0
 62
               7
  6
CONTINUOUS
  0
LAYER
  2
LAYER127
 70
               0
 62
               7
  6
CONTINUOUS
  0
LAYER
  2
LAYER128
 70
               0
 62
               7
  6
CONTINUOUS
  0
LAYER
  2
LAYER129
 70
               0
 62
               7
  6
CONTINUOUS
  0
LAYER
  2
LAYER130
 70
               0
 62
               7
  6
CONTINUOUS
  0
LAYER
  2
LAYER131
 70
               0
 62
               7
  6
CONTINUOUS
  0
LAYER
  2
LAYER132
 70
               0
 62
               7
  6
CONTINUOUS
  0
LAYER
  2
LAYER133
 70
               0
 62
               7
  6
CONTINUOUS
  0
LAYER
  2
LAYER134
 70
               0
 62
               7
  6
CONTINUOUS
  0
LAYER
  2
LAYER135
 70
               0
 62
               7
  6
CONTINUOUS
  0
LAYER
  2
LAYER136
 70
               0
 62
               7
  6
CONTINUOUS
  0
LAYER
  2
LAYER137
 70
               0
 62
               7
  6
CONTINUOUS
  0
LAYER
  2
LAYER138
 70
               0
 62
               7
  6
CONTINUOUS
  0
LAYER
  2
LAYER139
 70
               0
 62
               7
  6
CONTINUOUS
  0
LAYER
  2
LAYER140
 70
               0
 62
               7
  6
CONTINUOUS
  0
LAYER
  2
LAYER141
 70
               0
 62
               7
  6
CONTINUOUS
  0
LAYER
  2
LAYER142
 70
               0
 62
               7
  6
CONTINUOUS
  0
LAYER
  2
LAYER143
 70
               0
 62
               7
  6
CONTINUOUS
  0
LAYER
  2
LAYER144
 70
               0
 62
               7
  6
CONTINUOUS
  0
LAYER
  2
LAYER145
 70
               0
 62
               7
  6
CONTINUOUS
  0
LAYER
  2
LAYER146
 70
               0
 62
               7
  6
CONTINUOUS
  0
LAYER
  2
LAYER147
 70
               0
 62
               7
  6
CONTINUOUS
  0
LAYER
  2
LAYER148
 70
               0
 62
               7
  6
CONTINUOUS
  0
LAYER
  2
LAYER149
 70
               0
 62
               7
  6
CONTINUOUS
  0
LAYER
  2
LAYER150
 70
               0
 62
               7
  6
CONTINUOUS
  0
LAYER
  2
LAYER151
 70
               0
 62
               7
  6
CONTINUOUS
  0
LAYER
  2
LAYER152
 70
               0
 62
               7
  6
CONTINUOUS
  0
LAYER
  2
LAYER153
 70
               0
 62
               7
  6
CONTINUOUS
  0
LAYER
  2
LAYER154
 70
               0
 62
               7
  6
CONTINUOUS
  0
LAYER
  2
LAYER155
 70
               0
 62
               7
  6
CONTINUOUS
  0
LAYER
  2
LAYER156
 70
               0
 62
               7
  6
CONTINUOUS
  0
LAYER
  2
LAYER157
 70
               0
 62
               7
  6
CONTINUOUS
  0
LAYER
  2
LAYER158
 70
               0
 62
               7
  6
CONTINUOUS
  0
LAYER
  2
LAYER159
 70
               0
 62
               7
  6
CONTINUOUS
  0
LAYER
  2
LAYER160
 70
               0
 62
               7
  6
CONTINUOUS
  0
LAYER
  2
LAYER161
 70
               0
 62
               7
  6
CONTINUOUS
  0
LAYER
  2
LAYER162
 70
               0
 62
               7
  6
CONTINUOUS
  0
LAYER
  2
LAYER163
 70
               0
 62
               7
  6
CONTINUOUS
  0
LAYER
  2
LAYER164
 70
               0
 62
               7
  6
CONTINUOUS
  0
LAYER
  2
LAYER165
 70
               0
 62
               7
  6
CONTINUOUS
  0
LAYER
  2
LAYER166
 70
               0
 62
               7
  6
CONTINUOUS
  0
LAYER
  2
LAYER167
 70
               0
 62
               7
  6
CONTINUOUS
  0
LAYER
  2
LAYER168
 70
               0
 62
               7
  6
CONTINUOUS
  0
LAYER
  2
LAYER169
 70
               0
 62
               7
  6
CONTINUOUS
  0
LAYER
  2
LAYER170
 70
               0
 62
               7
  6
CONTINUOUS
  0
LAYER
  2
LAYER171
 70
               0
 62
               7
  6
CONTINUOUS
  0
LAYER
  2
LAYER172
 70
               0
 62
               7
  6
CONTINUOUS
  0
LAYER
  2
LAYER173
 70
               0
 62
               7
  6
CONTINUOUS
  0
LAYER
  2
LAYER174
 70
               0
 62
               7
  6
CONTINUOUS
  0
LAYER
  2
LAYER175
 70
               0
 62
               7
  6
CONTINUOUS
  0
LAYER
  2
LAYER176
 70
               0
 62
               7
  6
CONTINUOUS
  0
LAYER
  2
LAYER177
 70
               0
 62
               7
  6
CONTINUOUS
  0
LAYER
  2
LAYER178
 70
               0
 62
               7
  6
CONTINUOUS
  0
LAYER
  2
LAYER179
 70
               0
 62
               7
  6
CONTINUOUS
  0
LAYER
  2
LAYER180
 70
               0
 62
               7
  6
CONTINUOUS
  0
LAYER
  2
LAYER181
 70
               0
 62
               7
  6
CONTINUOUS
  0
LAYER
  2
LAYER182
 70
               0
 62
               7
  6
CONTINUOUS
  0
LAYER
  2
LAYER183
 70
               0
 62
               7
  6
CONTINUOUS
  0
LAYER
  2
LAYER184
 70
               0
 62
               7
  6
CONTINUOUS
  0
LAYER
  2
LAYER185
 70
               0
 62
               7
  6
CONTINUOUS
  0
LAYER
  2
LAYER186
 70
               0
 62
               7
  6
CONTINUOUS
  0
LAYER
  2
LAYER187
 70
               0
 62
               7
  6
CONTINUOUS
  0
LAYER
  2
LAYER188
 70
               0
 62
               7
  6
CONTINUOUS
  0
LAYER
  2
LAYER189
 70
               0
 62
               7
  6
CONTINUOUS
  0
LAYER
  2
LAYER190
 70
               0
 62
               7
  6
CONTINUOUS
  0
LAYER
  2
LAYER191
 70
               0
 62
               7
  6
CONTINUOUS
  0
LAYER
  2
LAYER192
 70
               0
 62
               7
  6
CONTINUOUS
  0
LAYER
  2
LAYER193
 70
               0
 62
               7
  6
CONTINUOUS
  0
LAYER
  2
LAYER194
 70
               0
 62
               7
  6
CONTINUOUS
  0
LAYER
  2
LAYER195
 70
               0
 62
               7
  6
CONTINUOUS
  0
LAYER
  2
LAYER196
 70
               0
 62
               7
  6
CONTINUOUS
  0
LAYER
  2
LAYER197
 70
               0
 62
               7
  6
CONTINUOUS
  0
LAYER
  2
LAYER198
 70
               0
 62
               7
  6
CONTINUOUS
  0
LAYER
  2
LAYER199
 70
               0
 62
               7
  6
CONTINUOUS
  0
LAYER
  2
LAYER200
 70
               0
 62
               7
  6
CONTINUOUS
  0
LAYER
  2
LAYER201
 70
               0
 62
               7
  6
CONTINUOUS
  0
LAYER
  2
LAYER202
 70
               0
 62
               7
  6
CONTINUOUS
  0
LAYER
  2
LAYER203
 70
               0
 62
               7
  6
CONTINUOUS
  0
LAYER
  2
LAYER204
 70
               0
 62
               7
  6
CONTINUOUS
  0
LAYER
  2
LAYER205
 70
               0
 62
               7
  6
CONTINUOUS
  0
LAYER
  2
LAYER206
 70
               0
 62
               7
  6
CONTINUOUS
  0
LAYER
  2
LAYER207
 70
               0
 62
               7
  6
CONTINUOUS
  0
LAYER
  2
LAYER208
 70
               0
 62
               7
  6
CONTINUOUS
  0
LAYER
  2
LAYER209
 70
               0
 62
               7
  6
CONTINUOUS
  0
LAYER
  2
LAYER210
 70
               0
 62
               7
  6
CONTINUOUS
  0
LAYER
  2
LAYER211
 70
               0
 62
               7
  6
CONTINUOUS
  0
LAYER
  2
LAYER212
 70
               0
 62
               7
  6
CONTINUOUS
  0
LAYER
  2
LAYER213
 70
               0
 62
               7
  6
CONTINUOUS
  0
LAYER
  2
LAYER214
 70
               0
 62
               7
  6
CONTINUOUS
  0
LAYER
  2
LAYER215
 70
               0
 62
               7
  6
CONTINUOUS
  0
LAYER
  2
LAYER216
 70
               0
 62
               7
  6
CONTINUOUS
  0
LAYER
  2
LAYER217
 70
               0
 62
               7
  6
CONTINUOUS
  0
LAYER
  2
LAYER218
 70
               0
 62
               7
  6
CONTINUOUS
  0
LAYER
  2
LAYER219
 70
               0
 62
               7
  6
CONTINUOUS
  0
LAYER
  2
LAYER220
 70
               0
 62
               7
  6
CONTINUOUS
  0
LAYER
  2
LAYER221
 70
               0
 62
               7
  6
CONTINUOUS
  0
LAYER
  2
LAYER222
 70
               0
 62
               7
  6
CONTINUOUS
  0
LAYER
  2
LAYER223
 70
               0
 62
               7
  6
CONTINUOUS
  0
LAYER
  2
LAYER224
 70
               0
 62
               7
  6
CONTINUOUS
  0
LAYER
  2
LAYER225
 70
               0
 62
               7
  6
CONTINUOUS
  0
LAYER
  2
LAYER226
 70
               0
 62
               7
  6
CONTINUOUS
  0
LAYER
  2
LAYER227
 70
               0
 62
               7
  6
CONTINUOUS
  0
LAYER
  2
LAYER228
 70
               0
 62
               7
  6
CONTINUOUS
  0
LAYER
  2
LAYER229
 70
               0
 62
               7
  6
CONTINUOUS
  0
LAYER
  2
LAYER230
 70
               0
 62
               7
  6
CONTINUOUS
  0
LAYER
  2
LAYER231
 70
               0
 62
               7
  6
CONTINUOUS
  0
LAYER
  2
LAYER232
 70
               0
 62
               7
  6
CONTINUOUS
  0
LAYER
  2
LAYER233
 70
               0
 62
               7
  6
CONTINUOUS
  0
LAYER
  2
LAYER234
 70
               0
 62
               7
  6
CONTINUOUS
  0
LAYER
  2
LAYER235
 70
               0
 62
               7
  6
CONTINUOUS
  0
LAYER
  2
LAYER236
 70
               0
 62
               7
  6
CONTINUOUS
  0
LAYER
  2
LAYER237
 70
               0
 62
               7
  6
CONTINUOUS
  0
LAYER
  2
LAYER238
 70
               0
 62
               7
  6
CONTINUOUS
  0
LAYER
  2
LAYER239
 70
               0
 62
               7
  6
CONTINUOUS
  0
LAYER
  2
LAYER240
 70
               0
 62
               7
  6
CONTINUOUS
  0
LAYER
  2
LAYER241
 70
               0
 62
               7
  6
CONTINUOUS
  0
LAYER
  2
LAYER242
 70
               0
 62
               7
  6
CONTINUOUS
  0
LAYER
  2
LAYER243
 70
               0
 62
               7
  6
CONTINUOUS
  0
LAYER
  2
LAYER244
 70
               0
 62
               7
  6
CONTINUOUS
  0
LAYER
  2
LAYER245
 70
               0
 62
               7
  6
CONTINUOUS
  0
LAYER
  2
LAYER246
 70
               0
 62
               7
  6
CONTINUOUS
  0
LAYER
  2
LAYER247
 70
               0
 62
               7
  6
CONTINUOUS
  0
LAYER
  2
LAYER248
 70
               0
 62
               7
  6
CONTINUOUS
  0
LAYER
  2
LAYER249
 70
               0
 62
               7
  6
CONTINUOUS
  0
LAYER
  2
LAYER250
 70
               0
 62
               7
  6
CONTINUOUS
  0
LAYER
  2
LAYER251
 70
               0
 62
               7
  6
CONTINUOUS
  0
LAYER
  2
LAYER252
 70
               0
 62
               7
  6
CONTINUOUS
  0
LAYER
  2
LAYER253
 70
               0
 62
               7
  6
CONTINUOUS
  0
LAYER
  2
LAYER254
 70
               0
 62
               7
  6
CONTINUOUS
  0
LAYER
  2
LAYER255
 70
               0
 62
               7
  6
CONTINUOUS
  0
ENDTAB
  0
TABLE
  2
STYLE
 70
               1
  0
STYLE
  2
STANDARD
 70
               0
 40
0.0
 41
1.0
 50
0.0
 71
               0
 42
0.0
  3
txt
  4

  0
ENDTAB
  0
TABLE
  2
VIEW
 70
               0
  0
VIEW
  2
QQQQ
 70
               0
 40
1448.0284443411063
 10
65.291356600737458
 20
-8.0244519775003482
 41
1300.5849999999998
 11
0.0
 21
0.0
 31
1.0
 12
100.0
 22
100.0
 32
0.0
 42
50.0
 43
0.0
 44
0.0
 50
0.0
 71
               0
  0
ENDTAB
  0
TABLE
  2
UCS
 70
               0
  0
ENDTAB
  0
TABLE
  2
APPID
 70
               1
  0
APPID
  2
ACAD
 70
               0
  0
ENDTAB
  0
TABLE
  2
DIMSTYLE
 70
               1
  0
DIMSTYLE
  2
STANDARD
 70
               0
  3

  4

  5

  6

  7

 40
1.0
 41
0.18
 42
0.0625
 43
0.38
 44
0.18
 45
0.0
 46
0.0
 47
0.0
 48
0.0
140
0.18
141
0.09
142
0.0
143
25.399999999999999
144
1.0
145
0.0
146
1.0
147
0.09
 71
               0
 72
               0
 73
               1
 74
               1
 75
               0
 76
               0
 77
               0
 78
               0
170
               0
171
               2
172
               0
173
               0
174
               0
175
               0
176
               0
177
               0
178
               0
  0
ENDTAB
  0
ENDSEC
  0
SECTION
  2
BLOCKS
  0
BLOCK
  8
0
  5
139
  2
GROUP_1
 70
               0
 10
0.0
 20
0.0
 30
0.0
  3
GROUP_1
  0
LINE
  8
0
  6
CONTINUOUS
 62
               4
  5
13A
 10
-18.428849574595688
 20
-54.923169824643352
 30
0.0
 11
-5.8136410753686079
 21
-42.307961325416116
 31
0.0
  0
LINE
  8
0
  6
CONTINUOUS
 62
               4
  5
13B
 10
112.10450302026176
 20
-65.811173430957766
 30
0.0
 11
135.60771512580362
 21
-42.307961325415832
 31
0.0
  0
LINE
  8
0
  6
CONTINUOUS
 62
               4
  5
13C
 10
57.682650577738386
 20
-49.522347772895174
 30
0.0
 11
64.897037025217699
 21
-42.307961325415832
 31
0.0
  0
LINE
  8
0
  6
CONTINUOUS
 62
               4
  5
13D
 10
-13.6264508326651
 20
-191.54212728388461
 30
0.0
 11
112.10450302026176
 21
-65.811173430957766
 31
0.0
  0
LINE
  8
0
  6
CONTINUOUS
 62
               4
  5
13E
 10
-18.208643399262414
 20
-125.41364174989589
 30
0.0
 11
57.682650577738386
 21
-49.522347772895174
 31
0.0
  0
LINE
  8
0
  6
CONTINUOUS
 62
               4
  5
13F
 10
-6.3849975651254596
 20
-255.01135211693082
 30
0.0
 11
148.29135660073752
 21
-100.33499795106779
 31
0.0
  0
LINE
  8
0
  6
CONTINUOUS
 62
               4
  5
140
 10
69.600973558830518
 20
-249.73605909356081
 30
0.0
 11
146.3231209586117
 21
-173.01391169377968
 31
0.0
  0
LINE
  8
0
  6
CONTINUOUS
 62
               4
  5
141
 10
14.97500985730359
 20
-304.36202279508774
 30
0.0
 11
69.600973558830518
 21
-249.73605909356081
 31
0.0
  0
LINE
  8
0
  6
CONTINUOUS
 62
               4
  5
142
 10
85.685687957889812
 20
-304.36202279508751
 30
0.0
 11
137.2164454364476
 21
-252.8312653165296
 31
0.0
  0
ENDBLK
  8
0
  5
143
  0
BLOCK
  8
0
  5
144
  2
GROUP_2
 70
               0
 10
0.0
 20
0.0
 30
0.0
  3
GROUP_2
  0
LINE
  8
0
  6
CONTINUOUS
 62
               4
  5
145
 10
-506.38279575841915
 20
-255.03065031022419
 30
0.0
 11
-351.20864339926237
 21
-99.856497951067425
 31
0.0
  0
LINE
  8
0
  6
CONTINUOUS
 62
               4
  5
146
 10
-513.62424902595876
 20
-191.56142547717803
 30
0.0
 11
-364.37078487419689
 21
-42.307961325416116
 31
0.0
  0
LINE
  8
0
  6
CONTINUOUS
 62
               4
  5
147
 10
-518.20864339926288
 20
-54.724463649310238
 30
0.0
 11
-505.79214107536887
 21
-42.307961325416116
 31
0.0
  0
LINE
  8
0
  6
CONTINUOUS
 62
               4
  5
148
 10
-485.02499014269716
 20
-304.38352279508808
 30
0.0
 11
-353.67964797995575
 21
-173.03818063234684
 31
0.0
  0
LINE
  8
0
  6
CONTINUOUS
 62
               4
  5
149
 10
-414.31431204211106
 20
-304.38352279508808
 30
0.0
 11
-362.78632350211984
 21
-252.85553425509687
 31
0.0
  0
LINE
  8
0
  6
CONTINUOUS
 62
               4
  5
14A
 10
-518.20864339926231
 20
-125.43514174989555
 30
0.0
 11
-437.60037125153377
 21
-44.826869602167093
 31
0.0
  0
ENDBLK
  8
0
  5
14B
  0
BLOCK
  8
0
  5
14C
  2
GROUP_3
 70
               0
 10
0.0
 20
0.0
 30
0.0
  3
GROUP_3
  0
LINE
  8
0
  6
CONTINUOUS
 62
               4
  5
14D
 10
493.61720424158091
 20
-255.03065031022419
 30
0.0
 11
648.79135660073769
 21
-99.856497951067425
 31
0.0
  0
LINE
  8
0
  6
CONTINUOUS
 62
               4
  5
14E
 10
486.37575097404113
 20
-191.56142547717803
 30
0.0
 11
635.62921512580317
 21
-42.307961325416116
 31
0.0
  0
LINE
  8
0
  6
CONTINUOUS
 62
               4
  5
14F
 10
481.791356600737
 20
-54.724463649310238
 30
0.0
 11
494.20785892463107
 21
-42.307961325416116
 31
0.0
  0
LINE
  8
0
  6
CONTINUOUS
 62
               4
  5
150
 10
514.97500985730289
 20
-304.38352279508808
 30
0.0
 11
646.3203520200442
 21
-173.03818063234684
 31
0.0
  0
LINE
  8
0
  6
CONTINUOUS
 62
               4
  5
151
 10
585.68568795788894
 20
-304.38352279508808
 30
0.0
 11
637.2136764978801
 21
-252.85553425509687
 31
0.0
  0
LINE
  8
0
  6
CONTINUOUS
 62
               4
  5
152
 10
481.79135660073769
 20
-125.43514174989555
 30
0.0
 11
562.39962874846617
 21
-44.826869602167093
 31
0.0
  0
ENDBLK
  8
0
  5
153
  0
ENDSEC
  0
SECTION
  2
ENTITIES
  0
LINE
  8
0
  6
CONTINUOUS
 62
               4
  5
154
 10
-6.7086433992622432
 20
167.10946297962852
 30
0.0
 11
-6.7086433992622432
 21
92.227692427436679
 31
0.0
  0
LINE
  8
0
  6
CONTINUOUS
 62
               4
  5
155
 10
137.29135660073752
 20
97.227692427437248
 30
0.0
 11
137.29135660073752
 21
167.10946297962852
 31
0.0
  0
LINE
  8
0
  6
CONTINUOUS
 62
               4
  5
156
 10
7.2913566007375294
 20
-304.30796132541639
 30
0.0
 11
-9.7086433992623569
 21
-155.30796132541593
 31
0.0
  0
LINE
  8
0
  6
CONTINUOUS
 62
               4
  5
157
 10
-9.7086433992623569
 20
-53.693628531670967
 30
0.0
 11
-9.7086433992623569
 21
-155.30796132541593
 31
0.0
  0
LINE
  8
0
  6
CONTINUOUS
 62
               4
  5
158
 10
-6.7086433992622432
 20
92.227692427436679
 30
0.0
 11
136.79135660073797
 21
92.227692427436679
 31
0.0
  0
ARC
  8
0
  6
CONTINUOUS
 62
               4
  5
159
 10
0.2913566007376431
 20
-39.807961325416116
 30
0.0
 40
2.4999999999999996
 50
89.999999999965354
 51
269.99999999989632
  0
ARC
  8
0
  6
CONTINUOUS
 62
               4
  5
15A
 10
140.29135660073763
 20
-39.807961325416116
 30
0.0
 40
2.4999999999999996
 50
269.99999999989649
 51
449.99999999982703
  0
LINE
  8
0
  6
CONTINUOUS
 62
               4
  5
15B
 10
-9.7086433992623569
 20
-155.30796132541593
 30
0.0
 11
18.923248808680754
 21
-155.30796132541593
 31
0.0
  0
LINE
  8
0
  6
CONTINUOUS
 62
               4
  5
15C
 10
63.318523320586749
 20
-155.30796132541593
 30
0.0
 11
139.7881217343874
 21
-155.30796132541593
 31
0.0
  0
LINE
  8
0
  6
CONTINUOUS
 62
               4
  5
15D
 10
0.2913566007376431
 20
-37.307961325416116
 30
0.0
 11
140.29135660073763
 21
-37.307961325416116
 31
0.0
  0
ARC
  8
0
  6
CONTINUOUS
 62
               4
  5
15E
 10
10.291356600737643
 20
81.692038674583884
 30
0.0
 40
19.999999999999996
 50
148.21166938289122
 51
179.99999999993088
  0
LINE
  8
0
  6
CONTINUOUS
 62
               4
  5
15F
 10
-9.7086433992623569
 20
81.692038674583884
 30
0.0
 11
-9.7086433992623569
 21
56.929579385178485
 31
0.0
  0
LINE
  8
0
  6
CONTINUOUS
 62
               4
  5
160
 10
-25.049475823239632
 20
-38.181344489085475
 30
0.0
 11
-71.537087273297672
 21
-36.557961325416116
 31
0.0
  0
LINE
  8
0
  6
CONTINUOUS
 62
               4
  5
161
 10
-14.534145915749789
 20
51.932625250083035
 30
0.0
 11
-71.53708727329736
 21
49.942038674583884
 31
0.0
  0
ARC
  8
0
  6
CONTINUOUS
 62
               4
  5
162
 10
-25.223973306752114
 20
-43.178298624180925
 30
0.0
 40
5.0
 50
44.999999999982116
 51
87.999999999966505
  0
ARC
  8
0
  6
CONTINUOUS
 62
               4
  5
163
 10
-14.708643399262357
 20
56.929579385178485
 30
0.0
 40
5.0
 50
271.99999999989598
 51
359.99999999986176
  0
ARC
  8
0
  6
CONTINUOUS
 62
               4
  5
164
 10
-14.708643399262357
 20
-53.693628531670967
 30
0.0
 40
5.0
 50
0.0
 51
44.999999999982116
  0
LINE
  8
0
  6
CONTINUOUS
 62
               4
  5
165
 10
142.29135660073752
 20
92.227692427436679
 30
0.0
 11
137.29135660073752
 21
97.227692427436679
 31
0.0
  0
LINE
  8
0
  6
CONTINUOUS
 62
               4
  5
166
 10
142.29135660073752
 20
-41.307961325415889
 30
0.0
 11
142.29135660073752
 21
-155.42152955567116
 31
0.0
  0
LINE
  8
0
  6
CONTINUOUS
 62
               4
  5
167
 10
142.29135660073752
 20
-155.42152955567116
 30
0.0
 11
125.5631322010865
 21
-302.03618572506736
 31
0.0
  0
ARC
  8
0
  6
CONTINUOUS
 62
               4
  5
168
 10
119.79135660073753
 20
81.692038674583884
 30
0.0
 40
19.999999999999996
 50
0.0
 51
31.788330617039573
  0
LINE
  8
0
  6
CONTINUOUS
 62
               4
  5
169
 10
136.79135660073797
 20
92.227692427436679
 30
0.0
 11
136.79135660073797
 21
97.227692427437248
 31
0.0
  0
LINE
  8
0
  6
CONTINUOUS
 62
               4
  5
16A
 10
137.29135660073752
 20
97.227692427436679
 30
0.0
 11
136.79135660073797
 21
97.227692427436679
 31
0.0
  0
LINE
  8
0
  6
CONTINUOUS
 62
               4
  5
16B
 10
142.04135660073774
 20
91.977692427436679
 30
0.0
 11
136.79135660073797
 21
97.227692427436679
 31
0.0
  0
LINE
  8
0
  6
CONTINUOUS
 62
               4
  5
16C
 10
142.04135660073774
 20
91.977692427436679
 30
0.0
 11
142.29135660073752
 21
92.227692427436679
 31
0.0
  0
LINE
  8
0
  6
CONTINUOUS
 62
               4
  5
16D
 10
139.79135660073752
 20
-42.307961325416116
 30
0.0
 11
139.79135660073752
 21
-155.27956926785163
 31
0.0
  0
LINE
  8
0
  6
CONTINUOUS
 62
               4
  5
16E
 10
142.04135660073774
 20
-41.593318432551953
 30
0.0
 11
142.04135660073774
 21
-155.40733352688915
 31
0.0
  0
LINE
  8
0
  6
CONTINUOUS
 62
               4
  5
16F
 10
139.79135660073752
 20
-155.27956926785163
 30
0.0
 11
122.7881217343881
 21
-304.30796132541639
 31
0.0
  0
LINE
  8
0
  6
CONTINUOUS
 62
               4
  5
170
 10
139.7881217343874
 20
-155.30796132541593
 30
0.0
 11
142.29135660073752
 21
-155.42152955567116
 31
0.0
  0
LINE
  8
0
  6
CONTINUOUS
 62
               4
  5
171
 10
142.04135660073774
 20
-155.40733352688915
 30
0.0
 11
125.28563115441644
 21
-302.26336328510223
 31
0.0
  0
LINE
  8
0
  6
CONTINUOUS
 62
               4
  5
172
 10
142.29135660073752
 20
92.227692427436679
 30
0.0
 11
142.29135660073752
 21
-38.307961325416002
 31
0.0
  0
LINE
  8
0
  6
CONTINUOUS
 62
               4
  5
173
 10
142.04135660073774
 20
91.977692427436679
 30
0.0
 11
142.04135660073774
 21
-38.022604218280506
 31
0.0
  0
LINE
  8
0
  6
CONTINUOUS
 62
               4
  5
174
 10
139.79135660073752
 20
81.692038674583884
 30
0.0
 11
139.79135660073752
 21
-37.307961325416116
 31
0.0
  0
LINE
  8
0
  6
CONTINUOUS
 62
               4
  5
175
 10
123.43248918724358
 20
-208.93944678449873
 30
0.0
 11
-0.2206433992628689
 21
-105.18214883724592
 31
0.0
  0
ARC
  8
0
  6
CONTINUOUS
 62
               4
  5
176
 10
-848.98096349980199
 20
-1249.7405659641945
 30
0.0
 40
1424.9238755783815
 50
50.189956146266432
 51
53.440796050731763
  0
ARC
  8
0
  6
CONTINUOUS
 62
               4
  5
177
 10
128.87074543777061
 20
-84.3822788134528
 30
0.0
 40
130.75634311527989
 50
189.15312334030369
 51
212.76918311275256
  0
ARC
  8
0
  6
CONTINUOUS
 62
               4
  5
178
 10
126.65538210028872
 20
-74.248258062212486
 30
0.0
 40
134.72974192119386
 50
216.90649751133719
 51
268.62928723410664
  0
ARC
  8
0
  6
CONTINUOUS
 62
               4
  5
179
 10
-668.33899149777073
 20
-1033.4016086393078
 30
0.0
 40
1143.0835201141012
 50
46.158732653425403
 51
50.202696616656226
  0
LINE
  8
0
  6
CONTINUOUS
 62
               4
  5
17A
 10
-19.023242793651505
 20
-42.307961325416116
 30
0.0
 11
-11.173109493329562
 21
-50.158094625738286
 31
0.0
  0
LINE
  8
0
  6
CONTINUOUS
 62
               4
  5
17B
 10
-21.688439400818282
 20
-39.642764718249296
 30
0.0
 11
-19.023242793651519
 21
-42.307961325416116
 31
0.0
  0
ARC
  8
0
  6
CONTINUOUS
 62
               4
  5
17C
 10
-489.70864339926237
 20
81.692038674583884
 30
0.0
 40
19.999999999999996
 50
148.21166938289124
 51
179.99999999993088
  0
LINE
  8
0
  6
CONTINUOUS
 62
               4
  5
17D
 10
-506.70864339926226
 20
167.10946297962852
 30
0.0
 11
-506.70864339926226
 21
92.227692427436679
 31
0.0
  0
ARC
  8
0
  6
CONTINUOUS
 62
               4
  5
17E
 10
-379.70864339926294
 20
81.692038674583884
 30
0.0
 40
19.999999999999996
 50
0.0
 51
31.788330617039573
  0
LINE
  8
0
  6
CONTINUOUS
 62
               4
  5
17F
 10
-362.70864339926248
 20
92.227692427436679
 30
0.0
 11
-362.70864339926248
 21
167.10946297962852
 31
0.0
  0
LINE
  8
0
  6
CONTINUOUS
 62
               4
  5
180
 10
-492.70864339926248
 20
-304.30796132541639
 30
0.0
 11
-509.70864339926237
 21
-155.30796132541593
 31
0.0
  0
LINE
  8
0
  6
CONTINUOUS
 62
               4
  5
181
 10
-509.70864339926237
 20
-42.307961325416116
 30
0.0
 11
-509.70864339926237
 21
-155.30796132541593
 31
0.0
  0
LINE
  8
0
  6
CONTINUOUS
 62
               4
  5
182
 10
-506.70864339926226
 20
92.227692427436679
 30
0.0
 11
-362.70864339926248
 21
92.227692427436679
 31
0.0
  0
ARC
  8
0
  6
CONTINUOUS
 62
               4
  5
183
 10
-509.70864339926237
 20
-39.807961325416116
 30
0.0
 40
2.4999999999999996
 50
89.999999999965283
 51
269.99999999989649
  0
LINE
  8
0
  6
CONTINUOUS
 62
               4
  5
184
 10
-509.70864339926237
 20
81.692038674583884
 30
0.0
 11
-509.70864339926237
 21
-37.307961325416116
 31
0.0
  0
ARC
  8
0
  6
CONTINUOUS
 62
               4
  5
185
 10
-359.70864339926351
 20
-39.807961325416116
 30
0.0
 40
2.4999999999999996
 50
269.99999999989649
 51
449.99999999982703
  0
LINE
  8
0
  6
CONTINUOUS
 62
               4
  5
186
 10
-359.70864339926294
 20
-155.30796132541593
 30
0.0
 11
-359.70864339926351
 21
-42.307961325416116
 31
0.0
  0
LINE
  8
0
  6
CONTINUOUS
 62
               4
  5
187
 10
-359.70864339926351
 20
-37.307961325416116
 30
0.0
 11
-359.70864339926294
 21
81.692038674583884
 31
0.0
  0
LINE
  8
0
  6
CONTINUOUS
 62
               4
  5
188
 10
-376.70864339926226
 20
-304.30796132541639
 30
0.0
 11
-364.16055241856179
 21
-194.32763449456638
 31
0.0
  0
LINE
  8
0
  6
CONTINUOUS
 62
               4
  5
189
 10
-451.32941353785804
 20
24.69203867458377
 30
0.0
 11
-418.08787326066897
 21
24.69203867458377
 31
0.0
  0
LINE
  8
0
  6
CONTINUOUS
 62
               4
  5
18A
 10
-509.70864339926226
 20
-155.17643772829911
 30
0.0
 11
-375.75964339926225
 21
-155.17643772829877
 31
0.0
  0
ARC
  8
0
  6
CONTINUOUS
 62
               4
  5
18B
 10
-713.63787224838723
 20
-276.84883613976166
 30
0.0
 40
359.11818398045398
 50
13.303286818139947
 51
28.552443501618434
  0
ARC
  8
0
  6
CONTINUOUS
 62
               4
  5
18C
 10
-435.03982986925644
 20
-168.60216023719244
 30
0.0
 40
73.327111796148202
 50
342.62945642130711
 51
419.8368916056188
  0
LINE
  8
0
  6
CONTINUOUS
 62
               4
  5
18D
 10
-362.95227685572308
 20
-155.17643772829877
 30
0.0
 11
-359.70864339926288
 21
-155.17643772829877
 31
0.0
  0
LINE
  8
0
  6
CONTINUOUS
 62
               4
  5
18E
 10
-362.18407533055279
 20
-176.9030249488348
 30
0.0
 11
-359.70864339926288
 21
-155.17643772829911
 31
0.0
  0
ARC
  8
0
  6
CONTINUOUS
 62
               4
  5
18F
 10
-457.20864339926237
 20
-39.807961325416116
 30
0.0
 40
2.4999999999999996
 50
269.9999999998962
 51
336.8841127776559
  0
LINE
  8
0
  6
CONTINUOUS
 62
               4
  5
190
 10
-509.70864339926237
 20
-37.307961325416116
 30
0.0
 11
-461.66342034139052
 21
-37.307961325416116
 31
0.0
  0
ARC
  8
0
  6
CONTINUOUS
 62
               4
  5
191
 10
-412.20864339926237
 20
-39.807961325416116
 30
0.0
 40
2.4999999999999996
 50
203.11588722234291
 51
269.9999999998962
  0
LINE
  8
0
  6
CONTINUOUS
 62
               4
  5
192
 10
-407.75386645713422
 20
-37.307961325416116
 30
0.0
 11
-359.70864339926351
 21
-37.307961325416116
 31
0.0
  0
ARC
  8
0
  6
CONTINUOUS
 62
               4
  5
193
 10
620.29135660073769
 20
81.692038674583884
 30
0.0
 40
19.999999999999996
 50
0.0
 51
31.788330617039573
  0
LINE
  8
0
  6
CONTINUOUS
 62
               4
  5
194
 10
637.29135660073746
 20
167.10946297962852
 30
0.0
 11
637.29135660073746
 21
92.227692427436679
 31
0.0
  0
ARC
  8
0
  6
CONTINUOUS
 62
               4
  5
195
 10
510.29135660073769
 20
81.692038674583884
 30
0.0
 40
19.999999999999996
 50
148.21166938289124
 51
179.99999999993088
  0
LINE
  8
0
  6
CONTINUOUS
 62
               4
  5
196
 10
493.29135660073769
 20
92.227692427436679
 30
0.0
 11
493.29135660073769
 21
167.10946297962852
 31
0.0
  0
LINE
  8
0
  6
CONTINUOUS
 62
               4
  5
197
 10
637.29135660073746
 20
92.227692427436679
 30
0.0
 11
577.01835660073777
 21
92.227692427436679
 31
0.0
  0
LINE
  8
0
  6
CONTINUOUS
 62
               4
  5
198
 10
553.56435660073737
 20
92.227692427436679
 30
0.0
 11
493.29135660073769
 21
92.227692427436679
 31
0.0
  0
ARC
  8
0
  6
CONTINUOUS
 62
               4
  5
199
 10
640.29135660073769
 20
-39.807961325416116
 30
0.0
 40
2.4999999999999996
 50
269.99999999989649
 51
449.99999999982703
  0
LINE
  8
0
  6
CONTINUOUS
 62
               4
  5
19A
 10
490.29135660073769
 20
-37.307961325416116
 30
0.0
 11
557.07435660073736
 21
-37.307961325416116
 31
0.0
  0
LINE
  8
0
  6
CONTINUOUS
 62
               4
  5
19B
 10
573.50835660073733
 20
-37.307961325416116
 30
0.0
 11
640.29135660073769
 21
-37.307961325416116
 31
0.0
  0
LINE
  8
0
  6
CONTINUOUS
 62
               4
  5
19C
 10
640.29135660073769
 20
81.692038674583884
 30
0.0
 11
640.29135660073769
 21
-37.307961325416116
 31
0.0
  0
ARC
  8
0
  6
CONTINUOUS
 62
               4
  5
19D
 10
490.29135660073769
 20
-39.807961325416116
 30
0.0
 40
2.4999999999999996
 50
89.999999999965283
 51
269.99999999989649
  0
LINE
  8
0
  6
CONTINUOUS
 62
               4
  5
19E
 10
490.29135660073769
 20
-37.307961325416116
 30
0.0
 11
490.29135660073769
 21
81.692038674583884
 31
0.0
  0
ARC
  8
0
  6
CONTINUOUS
 62
               4
  5
19F
 10
539.50739078877143
 20
81.692038674583884
 30
0.0
 40
17.566965811965957
 50
0.0
 51
36.851448659216757
  0
LINE
  8
0
  6
CONTINUOUS
 62
               4
  5
1A0
 10
577.01835660073777
 20
97.227692427436679
 30
0.0
 11
553.56435660073737
 21
97.227692427436679
 31
0.0
  0
ARC
  8
0
  6
CONTINUOUS
 62
               4
  5
1A1
 10
591.07532241270326
 20
81.692038674583884
 30
0.0
 40
17.566965811965957
 50
143.14855134071405
 51
179.99999999993082
  0
LINE
  8
0
  6
CONTINUOUS
 62
               4
  5
1A2
 10
553.56435660073737
 20
92.227692427436679
 30
0.0
 11
553.56435660073737
 21
97.227692427436679
 31
0.0
  0
LINE
  8
0
  6
CONTINUOUS
 62
               4
  5
1A3
 10
577.01835660073777
 20
92.227692427436679
 30
0.0
 11
577.01835660073777
 21
97.227692427436679
 31
0.0
  0
LINE
  8
0
  6
CONTINUOUS
 62
               4
  5
1A4
 10
553.56435660073737
 20
97.227692427436679
 30
0.0
 11
559.29135660073746
 21
92.227692427436679
 31
0.0
  0
LINE
  8
0
  6
CONTINUOUS
 62
               4
  5
1A5
 10
571.29135660073723
 20
92.227692427436679
 30
0.0
 11
577.01835660073777
 21
97.227692427436679
 31
0.0
  0
LINE
  8
0
  6
CONTINUOUS
 62
               4
  5
1A6
 10
559.29135660073746
 20
92.227692427436679
 30
0.0
 11
571.29135660073723
 21
92.227692427436679
 31
0.0
  0
LINE
  8
0
  6
CONTINUOUS
 62
               4
  5
1A7
 10
571.29135660073723
 20
-38.307961325416002
 30
0.0
 11
559.29135660073746
 21
-38.307961325416002
 31
0.0
  0
ARC
  8
0
  6
CONTINUOUS
 62
               4
  5
1A8
 10
557.22971206732234
 20
-39.722041173882715
 30
0.0
 40
2.4999999999999996
 50
34.446185822131049
 51
93.562780573759412
  0
ARC
  8
0
  6
CONTINUOUS
 62
               4
  5
1A9
 10
573.35300113415281
 20
-39.722041173882715
 30
0.0
 40
2.4999999999999996
 50
86.437219426171424
 51
145.55381417779947
  0
LINE
  8
0
  6
CONTINUOUS
 62
               4
  5
1AA
 10
557.07435660073736
 20
81.692038674583884
 30
0.0
 11
557.07435660073736
 21
-37.307961325416116
 31
0.0
  0
LINE
  8
0
  6
CONTINUOUS
 62
               4
  5
1AB
 10
573.50835660073733
 20
81.692038674583884
 30
0.0
 11
573.50835660073733
 21
-37.307961325416116
 31
0.0
  0
LINE
  8
0
  6
CONTINUOUS
 62
               4
  5
1AC
 10
571.29135660073723
 20
-38.307961325416002
 30
0.0
 11
571.29135660073723
 21
92.227692427436679
 31
0.0
  0
LINE
  8
0
  6
CONTINUOUS
 62
               4
  5
1AD
 10
559.29135660073746
 20
92.227692427436679
 30
0.0
 11
559.29135660073746
 21
-38.307961325416002
 31
0.0
  0
LINE
  8
0
  6
CONTINUOUS
 62
               4
  5
1AE
 10
490.29135660073769
 20
-155.15493772829876
 30
0.0
 11
490.29135660073769
 21
-42.307961325416116
 31
0.0
  0
LINE
  8
0
  6
CONTINUOUS
 62
               4
  5
1AF
 10
571.29135660073723
 20
-41.307961325415889
 30
0.0
 11
559.29135660073746
 21
-41.307961325415889
 31
0.0
  0
ARC
  8
0
  6
CONTINUOUS
 62
               4
  5
1B0
 10
557.22971206732234
 20
-39.893881476949517
 30
0.0
 40
2.4999999999999996
 50
266.43721942620402
 51
325.55381417785475
  0
ARC
  8
0
  6
CONTINUOUS
 62
               4
  5
1B1
 10
573.35300113415281
 20
-39.893881476949517
 30
0.0
 40
2.4999999999999996
 50
214.44618582214406
 51
273.56278057379473
  0
LINE
  8
0
  6
CONTINUOUS
 62
               4
  5
1B2
 10
557.07435660073736
 20
-42.307961325416116
 30
0.0
 11
557.07435660073736
 21
-304.36202279508802
 31
0.0
  0
LINE
  8
0
  6
CONTINUOUS
 62
               4
  5
1B3
 10
573.50835660073733
 20
-42.393881476949517
 30
0.0
 11
573.50835660073733
 21
-304.36202279508802
 31
0.0
  0
LINE
  8
0
  6
CONTINUOUS
 62
               4
  5
1B4
 10
559.29135660073746
 20
-41.307961325415889
 30
0.0
 11
559.29135660073746
 21
-302.09024719473899
 31
0.0
  0
LINE
  8
0
  6
CONTINUOUS
 62
               4
  5
1B5
 10
571.29135660073723
 20
-302.09024719473899
 30
0.0
 11
571.29135660073723
 21
-41.307961325415889
 31
0.0
  0
ARC
  8
0
  6
CONTINUOUS
 62
               4
  5
1B6
 10
425.97264777724229
 20
-231.94068910782346
 30
0.0
 40
204.24864340422488
 50
353.49999999999915
 51
373.43680216747674
  0
ARC
  8
0
  6
CONTINUOUS
 62
               4
  5
1B7
 10
463.66365754530341
 20
-229.65627203841575
 30
0.0
 40
167.18634723772169
 50
351.25933879893398
 51
375.67746336854231
  0
ARC
  8
0
  6
CONTINUOUS
 62
               4
  5
1B8
 10
550.31328365420984
 20
-159.45218738188049
 30
0.0
 40
59.149634972654262
 50
186.49999999999955
 51
236.78754046668743
  0
ARC
  8
0
  6
CONTINUOUS
 62
               4
  5
1B9
 10
571.21827613143148
 20
-147.6031702831288
 30
0.0
 40
81.261593956721953
 50
186.49999999999955
 51
229.00792456454158
  0
LINE
  8
0
  6
CONTINUOUS
 62
               4
  5
1BA
 10
640.29135660073769
 20
-155.15493772829876
 30
0.0
 11
490.29135660073769
 21
-155.15493772829876
 31
0.0
  0
LINE
  8
0
  6
CONTINUOUS
 62
               4
  5
1BB
 10
640.29135660073769
 20
-42.307961325416116
 30
0.0
 11
640.29135660073769
 21
-155.15493772829876
 31
0.0
  0
LINE
  8
0
  6
CONTINUOUS
 62
               4
  5
1BC
 10
623.29135660073769
 20
-304.36202279508802
 30
0.0
 11
640.29135660073769
 21
-155.15493772829876
 31
0.0
  0
LINE
  8
0
  6
CONTINUOUS
 62
               4
  5
1BD
 10
507.29135660073757
 20
-304.36202279508802
 30
0.0
 11
490.29135660073769
 21
-155.15493772829876
 31
0.0
  0
LINE
  8
0
  6
CONTINUOUS
 62
               4
  5
1BE
 10
2.8062981735736301
 20
492.84591044815767
 30
0.0
 11
-71.53708727329763
 21
495.4420386745839
 31
0.0
  0
LINE
  8
0
  6
CONTINUOUS
 62
               4
  5
1BF
 10
2.8062981735743691
 20
584.53816690101098
 30
0.0
 11
-71.537087273297317
 21
581.94203867458384
 31
0.0
  0
LINE
  8
0
  6
CONTINUOUS
 62
               4
  5
1C0
 10
123.29135660073776
 20
-304.30796132541582
 30
0.0
 11
125.5631322010865
 21
-302.03618572506736
 31
0.0
  0
LINE
  8
0
  6
CONTINUOUS
 62
               4
  5
1C1
 10
122.7881217343881
 20
-304.30796132541639
 30
0.0
 11
125.5631322010865
 21
-302.03618572506736
 31
0.0
  0
LINE
  8
0
  6
CONTINUOUS
 62
               4
  5
1C2
 10
559.29135660073746
 20
-302.09024719473899
 30
0.0
 11
571.29135660073723
 21
-302.09024719473899
 31
0.0
  0
LINE
  8
0
  6
CONTINUOUS
 62
               4
  5
1C3
 10
557.07435660073736
 20
-304.36202279508802
 30
0.0
 11
559.29135660073746
 21
-302.09024719473899
 31
0.0
  0
LINE
  8
0
  6
CONTINUOUS
 62
               4
  5
1C4
 10
571.29135660073723
 20
-302.09024719473899
 30
0.0
 11
573.50835660073733
 21
-304.36202279508802
 31
0.0
  0
LINE
  8
0
  6
CONTINUOUS
 62
               4
  5
1C5
 10
-25.708643399262868
 20
-422.05318311273851
 30
0.0
 11
-25.708643399262868
 21
-412.17889690568273
 31
0.0
  0
LINE
  8
0
  6
CONTINUOUS
 62
               4
  5
1C6
 10
156.29135660073689
 20
-422.05318311273851
 30
0.0
 11
156.29135660073689
 21
-412.17889690568273
 31
0.0
  0
LINE
  8
0
  6
CONTINUOUS
 62
               4
  5
1C7
 10
-0.2086433992638916
 20
-521.30796132541491
 30
0.0
 11
130.79135660073803
 21
-521.30796132541491
 31
0.0
  0
LINE
  8
0
  6
CONTINUOUS
 62
               4
  5
1C8
 10
-500.20864339926334
 20
-521.30796132541491
 30
0.0
 11
-369.2086433992614
 21
-521.30796132541491
 31
0.0
  0
LINE
  8
0
  6
CONTINUOUS
 62
               4
  5
1C9
 10
499.79135660073666
 20
-521.30796132541491
 30
0.0
 11
630.7913566007386
 21
-521.30796132541491
 31
0.0
  0
CIRCLE
  8
0
  6
CONTINUOUS
 62
               4
  5
1CA
 10
65.291356600737558
 20
538.69203867458384
 30
0.0
 40
52.5
  0
LINE
  8
0
  6
CONTINUOUS
 62
               4
  5
1CB
 10
45.291356600737558
 20
452.48154047395894
 30
0.0
 11
45.291356600737558
 21
466.40787720057881
 31
0.0
  0
LINE
  8
0
  6
CONTINUOUS
 62
               4
  5
1CC
 10
85.291356600737558
 20
466.40787720057881
 30
0.0
 11
85.291356600737558
 21
452.48154047395894
 31
0.0
  0
LINE
  8
0
  6
CONTINUOUS
 62
               4
  5
1CD
 10
151.50185480136221
 20
518.69203867458384
 30
0.0
 11
137.57551807474181
 21
518.69203867458384
 31
0.0
  0
LINE
  8
0
  6
CONTINUOUS
 62
               4
  5
1CE
 10
137.57551807474181
 20
558.69203867458384
 30
0.0
 11
151.50185480136221
 21
558.69203867458384
 31
0.0
  0
LINE
  8
0
  6
CONTINUOUS
 62
               4
  5
1CF
 10
85.291356600737558
 20
624.90253687520942
 30
0.0
 11
85.291356600737558
 21
610.97620014858887
 31
0.0
  0
LINE
  8
0
  6
CONTINUOUS
 62
               4
  5
1D0
 10
45.291356600737558
 20
610.97620014858887
 30
0.0
 11
45.291356600737558
 21
624.90253687520942
 31
0.0
  0
LINE
  8
0
  6
CONTINUOUS
 62
               4
  5
1D1
 10
17.623233079876499
 20
516.69203867458339
 30
0.0
 11
112.95948012159748
 21
516.69203867458339
 31
0.0
  0
ARC
  8
0
  6
CONTINUOUS
 62
               4
  5
1D2
 10
77.794968250118686
 20
547.39843630220287
 30
0.0
 40
54.763804151667173
 50
141.3859176367836
 51
145.15009542089808
  0
ARC
  8
0
  6
CONTINUOUS
 62
               4
  5
1D3
 10
65.291356600737558
 20
538.69203867458384
 30
0.0
 40
51.5
 50
334.71098847332905
 51
410.9593273634826
  0
ARC
  8
0
  6
CONTINUOUS
 62
               4
  5
1D4
 10
65.291356600737558
 20
538.69203867458384
 30
0.0
 40
51.5
 50
129.04067263631032
 51
205.28901152646336
  0
ARC
  8
0
  6
CONTINUOUS
 62
               4
  5
1D5
 10
65.291356600737558
 20
538.69203867458384
 30
0.0
 40
77.5
 50
104.955248316603
 51
143.73200187372058
  0
ARC
  8
0
  6
CONTINUOUS
 62
               4
  5
1D6
 10
65.291356600737558
 20
538.69203867458384
 30
0.0
 40
77.5
 50
14.955248316637585
 51
75.044751683327831
  0
ARC
  8
0
  6
CONTINUOUS
 62
               4
  5
1D7
 10
65.291356600737558
 20
538.69203867458384
 30
0.0
 40
77.5
 50
284.95524831653381
 51
345.04475168322404
  0
LINE
  8
0
  6
CONTINUOUS
 62
               4
  5
1D8
 10
32.852953434119954
 20
578.69203867458361
 30
0.0
 11
65.291356600737558
 21
578.69203867458361
 31
0.0
  0
LINE
  8
0
  6
CONTINUOUS
 62
               4
  5
1D9
 10
65.291356600737558
 20
578.69203867458361
 30
0.0
 11
99.295032872576243
 21
578.69203867458361
 31
0.0
  0
ARC
  8
0
  6
CONTINUOUS
 62
               4
  5
1DA
 10
65.291356600737558
 20
538.69203867458384
 30
0.0
 40
77.5
 50
216.26799812627772
 51
255.04475168325865
  0
LINE
  8
0
  6
CONTINUOUS
 62
               4
  5
1DB
 10
-20.91914159988778
 20
558.69203867458384
 30
0.0
 11
-6.9928048732679144
 21
558.69203867458384
 31
0.0
  0
LINE
  8
0
  6
CONTINUOUS
 62
               4
  5
1DC
 10
-6.9928048732679144
 20
518.69203867458384
 30
0.0
 11
-20.91914159988778
 21
518.69203867458384
 31
0.0
  0
ARC
  8
0
  6
CONTINUOUS
 62
               4
  5
1DD
 10
17.686492642746746
 20
467.06957761981982
 30
0.0
 40
2.5
 50
56.38944847047263
 51
87.999999999999659
  0
CIRCLE
  8
0
  6
CONTINUOUS
 62
               4
  5
1DE
 10
65.291356600737558
 20
538.69203867458384
 30
0.0
 40
59.0
  0
ARC
  8
0
  6
CONTINUOUS
 62
               4
  5
1DF
 10
-511.70864339926226
 20
167.10946297962852
 30
0.0
 40
4.9999999999999991
 50
0.0
 51
66.4218215217725
  0
LINE
  8
0
  6
CONTINUOUS
 62
               4
  5
1E0
 10
-523.20864339926254
 20
171.69203867458424
 30
0.0
 11
-346.20864339926271
 21
171.69203867458424
 31
0.0
  0
LINE
  8
0
  6
CONTINUOUS
 62
               4
  5
1E1
 10
-454.70864339926237
 20
171.69203867458424
 30
0.0
 11
-454.70864339926237
 21
188.6920386745839
 31
0.0
  0
LINE
  8
0
  6
CONTINUOUS
 62
               4
  5
1E2
 10
-414.70864339926294
 20
188.6920386745839
 30
0.0
 11
-414.70864339926294
 21
171.69203867458424
 31
0.0
  0
LINE
  8
0
  6
CONTINUOUS
 62
               4
  5
1E3
 10
-454.70864339926237
 20
178.6920386745839
 30
0.0
 11
-414.70864339926294
 21
178.6920386745839
 31
0.0
  0
LINE
  8
0
  6
CONTINUOUS
 62
               4
  5
1E4
 10
-506.99280487326661
 20
188.6920386745839
 30
0.0
 11
-506.99280487326661
 21
171.69203867458424
 31
0.0
  0
LINE
  8
0
  6
CONTINUOUS
 62
               4
  5
1E5
 10
-520.91914159988755
 20
178.6920386745839
 30
0.0
 11
-520.91914159988755
 21
171.69203867458424
 31
0.0
  0
LINE
  8
0
  6
CONTINUOUS
 62
               4
  5
1E6
 10
-523.20864339926254
 20
178.6920386745839
 30
0.0
 11
-520.91914159988755
 21
178.6920386745839
 31
0.0
  0
LINE
  8
0
  6
CONTINUOUS
 62
               4
  5
1E7
 10
-520.91914159988755
 20
178.6920386745839
 30
0.0
 11
-506.99280487326661
 21
188.6920386745839
 31
0.0
  0
ARC
  8
0
  6
CONTINUOUS
 62
               4
  5
1E8
 10
-357.70864339926248
 20
167.10946297962852
 30
0.0
 40
4.9999999999999991
 50
113.57817847815815
 51
179.99999999993057
  0
LINE
  8
0
  6
CONTINUOUS
 62
               4
  5
1E9
 10
-362.42448192525757
 20
188.6920386745839
 30
0.0
 11
-362.42448192525757
 21
171.69203867458424
 31
0.0
  0
LINE
  8
0
  6
CONTINUOUS
 62
               4
  5
1EA
 10
-348.49814519863713
 20
178.6920386745839
 30
0.0
 11
-348.49814519863713
 21
171.69203867458424
 31
0.0
  0
LINE
  8
0
  6
CONTINUOUS
 62
               4
  5
1EB
 10
-346.20864339926271
 20
178.6920386745839
 30
0.0
 11
-348.49814519863713
 21
178.6920386745839
 31
0.0
  0
LINE
  8
0
  6
CONTINUOUS
 62
               4
  5
1EC
 10
-348.49814519863713
 20
178.6920386745839
 30
0.0
 11
-362.42448192525757
 21
188.6920386745839
 31
0.0
  0
ARC
  8
0
  6
CONTINUOUS
 62
               4
  5
1ED
 10
-11.708643399262257
 20
167.10946297962852
 30
0.0
 40
4.9999999999999991
 50
0.0
 51
66.4218215217725
  0
LINE
  8
0
  6
CONTINUOUS
 62
               4
  5
1EE
 10
-23.208643399262542
 20
171.69203867458424
 30
0.0
 11
153.79135660073729
 21
171.69203867458424
 31
0.0
  0
LINE
  8
0
  6
CONTINUOUS
 62
               4
  5
1EF
 10
45.291356600737629
 20
171.69203867458424
 30
0.0
 11
45.291356600737629
 21
188.6920386745839
 31
0.0
  0
LINE
  8
0
  6
CONTINUOUS
 62
               4
  5
1F0
 10
85.29135660073706
 20
188.6920386745839
 30
0.0
 11
85.29135660073706
 21
171.69203867458424
 31
0.0
  0
LINE
  8
0
  6
CONTINUOUS
 62
               4
  5
1F1
 10
45.291356600737629
 20
178.6920386745839
 30
0.0
 11
85.29135660073706
 21
178.6920386745839
 31
0.0
  0
LINE
  8
0
  6
CONTINUOUS
 62
               4
  5
1F2
 10
-6.992804873266607
 20
188.6920386745839
 30
0.0
 11
-6.992804873266607
 21
171.69203867458424
 31
0.0
  0
LINE
  8
0
  6
CONTINUOUS
 62
               4
  5
1F3
 10
-20.919141599887553
 20
178.6920386745839
 30
0.0
 11
-20.919141599887553
 21
171.69203867458424
 31
0.0
  0
LINE
  8
0
  6
CONTINUOUS
 62
               4
  5
1F4
 10
-23.208643399262542
 20
178.6920386745839
 30
0.0
 11
-20.919141599887553
 21
178.6920386745839
 31
0.0
  0
LINE
  8
0
  6
CONTINUOUS
 62
               4
  5
1F5
 10
-20.919141599887553
 20
178.6920386745839
 30
0.0
 11
-6.992804873266607
 21
188.6920386745839
 31
0.0
  0
ARC
  8
0
  6
CONTINUOUS
 62
               4
  5
1F6
 10
142.29135660073752
 20
167.10946297962852
 30
0.0
 40
4.9999999999999991
 50
113.57817847815815
 51
179.99999999993057
  0
LINE
  8
0
  6
CONTINUOUS
 62
               4
  5
1F7
 10
137.57551807474243
 20
188.6920386745839
 30
0.0
 11
137.57551807474243
 21
171.69203867458424
 31
0.0
  0
LINE
  8
0
  6
CONTINUOUS
 62
               4
  5
1F8
 10
151.50185480136287
 20
178.6920386745839
 30
0.0
 11
151.50185480136287
 21
171.69203867458424
 31
0.0
  0
LINE
  8
0
  6
CONTINUOUS
 62
               4
  5
1F9
 10
153.79135660073729
 20
178.6920386745839
 30
0.0
 11
151.50185480136287
 21
178.6920386745839
 31
0.0
  0
LINE
  8
0
  6
CONTINUOUS
 62
               4
  5
1FA
 10
151.50185480136287
 20
178.6920386745839
 30
0.0
 11
137.57551807474243
 21
188.6920386745839
 31
0.0
  0
ARC
  8
0
  6
CONTINUOUS
 62
               4
  5
1FB
 10
488.29135660073774
 20
167.10946297962852
 30
0.0
 40
4.9999999999999991
 50
0.0
 51
66.4218215217725
  0
LINE
  8
0
  6
CONTINUOUS
 62
               4
  5
1FC
 10
476.79135660073746
 20
171.69203867458424
 30
0.0
 11
653.79135660073734
 21
171.69203867458424
 31
0.0
  0
LINE
  8
0
  6
CONTINUOUS
 62
               4
  5
1FD
 10
545.29135660073757
 20
171.69203867458424
 30
0.0
 11
545.29135660073757
 21
188.6920386745839
 31
0.0
  0
LINE
  8
0
  6
CONTINUOUS
 62
               4
  5
1FE
 10
585.29135660073712
 20
188.6920386745839
 30
0.0
 11
585.29135660073712
 21
171.69203867458424
 31
0.0
  0
LINE
  8
0
  6
CONTINUOUS
 62
               4
  5
1FF
 10
545.29135660073757
 20
178.6920386745839
 30
0.0
 11
585.29135660073712
 21
178.6920386745839
 31
0.0
  0
LINE
  8
0
  6
CONTINUOUS
 62
               4
  5
200
 10
493.00719512673339
 20
188.6920386745839
 30
0.0
 11
493.00719512673339
 21
171.69203867458424
 31
0.0
  0
LINE
  8
0
  6
CONTINUOUS
 62
               4
  5
201
 10
479.08085840011245
 20
178.6920386745839
 30
0.0
 11
479.08085840011245
 21
171.69203867458424
 31
0.0
  0
LINE
  8
0
  6
CONTINUOUS
 62
               4
  5
202
 10
476.79135660073746
 20
178.6920386745839
 30
0.0
 11
479.08085840011245
 21
178.6920386745839
 31
0.0
  0
LINE
  8
0
  6
CONTINUOUS
 62
               4
  5
203
 10
479.08085840011245
 20
178.6920386745839
 30
0.0
 11
493.00719512673339
 21
188.6920386745839
 31
0.0
  0
ARC
  8
0
  6
CONTINUOUS
 62
               4
  5
204
 10
642.29135660073757
 20
167.10946297962852
 30
0.0
 40
4.9999999999999991
 50
113.57817847815815
 51
179.99999999993057
  0
LINE
  8
0
  6
CONTINUOUS
 62
               4
  5
205
 10
637.57551807474238
 20
188.6920386745839
 30
0.0
 11
637.57551807474238
 21
171.69203867458424
 31
0.0
  0
LINE
  8
0
  6
CONTINUOUS
 62
               4
  5
206
 10
651.50185480136292
 20
178.6920386745839
 30
0.0
 11
651.50185480136292
 21
171.69203867458424
 31
0.0
  0
LINE
  8
0
  6
CONTINUOUS
 62
               4
  5
207
 10
653.79135660073734
 20
178.6920386745839
 30
0.0
 11
651.50185480136292
 21
178.6920386745839
 31
0.0
  0
LINE
  8
0
  6
CONTINUOUS
 62
               4
  5
208
 10
651.50185480136292
 20
178.6920386745839
 30
0.0
 11
637.57551807474238
 21
188.6920386745839
 31
0.0
  0
LINE
  8
0
  6
DASHED2
 62
               4
  5
209
 10
8.2913566007377568
 20
123.69203867458388
 30
0.0
 11
122.29135660073753
 21
123.69203867458388
 31
0.0
  0
LINE
  8
0
  6
DASHED2
 62
               4
  5
20A
 10
-491.70864339926283
 20
123.69203867458388
 30
0.0
 11
-377.70864339926305
 21
123.69203867458388
 31
0.0
  0
LINE
  8
0
  6
DASHED2
 62
               4
  5
20B
 10
508.29135660073769
 20
123.69203867458388
 30
0.0
 11
622.29135660073746
 21
123.69203867458388
 31
0.0
  0
LINE
  8
0
  6
DASHED2
 62
               4
  5
20C
 10
122.29135660073753
 20
-316.3079613254161
 30
0.0
 11
122.29135660073753
 21
-416.3079613254161
 31
0.0
  0
LINE
  8
0
  6
DASHED2
 62
               4
  5
20D
 10
8.1585110466066766
 20
-316.3079613254161
 30
0.0
 11
8.1585110466066766
 21
-416.40638907086731
 31
0.0
  0
LINE
  8
0
  6
DASHED2
 62
               4
  5
20E
 10
8.1585110466066766
 20
-316.3079613254161
 30
0.0
 11
122.29135660073753
 21
-316.3079613254161
 31
0.0
  0
LINE
  8
0
  6
DASHED2
 62
               4
  5
20F
 10
122.29135660073753
 20
-316.3079613254161
 30
0.0
 11
123.29135660073776
 21
-315.30796132541587
 31
0.0
  0
LINE
  8
0
  6
DASHED2
 62
               4
  5
210
 10
8.1585110466066766
 20
-316.3079613254161
 30
0.0
 11
7.2913566007375294
 21
-315.44080687954693
 31
0.0
  0
LINE
  8
0
  6
DASHED2
 62
               4
  5
211
 10
123.29135660073776
 20
-315.30796132541587
 30
0.0
 11
123.29135660073776
 21
-304.30796132541633
 31
0.0
  0
LINE
  8
0
  6
DASHED2
 62
               4
  5
212
 10
7.2913566007375294
 20
-315.44080687954693
 30
0.0
 11
7.2913566007375294
 21
-304.30796132541639
 31
0.0
  0
LINE
  8
0
  6
DASHED2
 62
               4
  5
213
 10
7.7913566007346589
 20
-431.30796132541724
 30
0.0
 11
7.7913566007346589
 21
-496.30796132541496
 31
0.0
  0
LINE
  8
0
  6
DASHED2
 62
               4
  5
214
 10
65.291356600737643
 20
-416.3079613254161
 30
0.0
 11
8.2913566007374726
 21
-416.3079613254161
 31
0.0
  0
LINE
  8
0
  6
DASHED2
 62
               4
  5
215
 10
7.7913566007346589
 20
-431.30796132541724
 30
0.0
 11
65.291356600736506
 21
-431.3079613254161
 31
0.0
  0
LINE
  8
0
  6
DASHED2
 62
               4
  5
216
 10
65.291356600737643
 20
-416.3079613254161
 30
0.0
 11
122.29135660073753
 21
-416.3079613254161
 31
0.0
  0
LINE
  8
0
  6
DASHED2
 62
               4
  5
217
 10
122.79135660073935
 20
-431.30796132541724
 30
0.0
 11
65.291356600737643
 21
-431.3079613254161
 31
0.0
  0
LINE
  8
0
  6
DASHED2
 62
               4
  5
218
 10
122.79135660073935
 20
-431.30796132541724
 30
0.0
 11
122.79135660073935
 21
-496.30796132541496
 31
0.0
  0
LINE
  8
0
  6
DASHED2
 62
               4
  5
219
 10
-71.468643399263087
 20
-416.30796132541565
 30
0.0
 11
-71.468643399263087
 21
-407.78183282610843
 31
0.0
  0
LINE
  8
0
  6
DASHED2
 62
               4
  5
21A
 10
-65.57967065352868
 20
-407.78183282610843
 30
0.0
 11
-65.57967065352868
 21
-416.30796132541565
 31
0.0
  0
LINE
  8
0
  6
DASHED2
 62
               4
  5
21B
 10
-68.524157026395741
 20
-406.70796132541551
 30
0.0
 11
-50.893129772129825
 21
-406.70796132541551
 31
0.0
  0
LINE
  8
0
  6
DASHED2
 62
               4
  5
21C
 10
-47.948643399262764
 20
-416.30796132541565
 30
0.0
 11
-47.948643399262764
 21
-407.78183282610843
 31
0.0
  0
LINE
  8
0
  6
DASHED2
 62
               4
  5
21D
 10
-53.837616144997455
 20
-416.30796132541565
 30
0.0
 11
-53.837616144997455
 21
-407.78183282610843
 31
0.0
  0
ARC
  8
0
  6
DASHED2
 62
               4
  5
21E
 10
-68.524157026395741
 20
-411.2816929095315
 30
0.0
 40
4.5737315841157447
 50
49.925579661612304
 51
130.07442033835341
  0
ARC
  8
0
  6
DASHED2
 62
               4
  5
21F
 10
-50.893129772129825
 20
-411.2816929095315
 30
0.0
 40
4.5737315841157686
 50
49.925579661612304
 51
130.07442033835341
  0
ARC
  8
0
  6
DASHED2
 62
               4
  5
220
 10
-59.708643399262925
 20
-423.293819594936
 30
0.0
 40
16.58585826952007
 50
69.269184858547646
 51
110.73081514141818
  0
LINE
  8
0
  6
DASHED2
 62
               4
  5
221
 10
-71.468643399264508
 20
-418.30796132541599
 30
0.0
 11
-71.468643399264508
 21
-426.83408982472321
 31
0.0
  0
LINE
  8
0
  6
DASHED2
 62
               4
  5
222
 10
-65.579670653530101
 20
-426.83408982472321
 30
0.0
 11
-65.579670653530101
 21
-418.30796132541599
 31
0.0
  0
LINE
  8
0
  6
DASHED2
 62
               4
  5
223
 10
-68.524157026397162
 20
-427.90796132541578
 30
0.0
 11
-50.89312977213153
 21
-427.90796132541578
 31
0.0
  0
LINE
  8
0
  6
DASHED2
 62
               4
  5
224
 10
-47.948643399264185
 20
-418.30796132541599
 30
0.0
 11
-47.948643399264185
 21
-426.83408982472321
 31
0.0
  0
LINE
  8
0
  6
DASHED2
 62
               4
  5
225
 10
-53.837616144998591
 20
-418.30796132541599
 30
0.0
 11
-53.837616144998591
 21
-426.83408982472321
 31
0.0
  0
ARC
  8
0
  6
DASHED2
 62
               4
  5
226
 10
-68.524157026397162
 20
-423.33422974130036
 30
0.0
 40
4.5737315841157447
 50
229.92557966157796
 51
310.07442033831961
  0
ARC
  8
0
  6
DASHED2
 62
               4
  5
227
 10
-50.89312977213153
 20
-423.33422974130036
 30
0.0
 40
4.5737315841157686
 50
229.92557966157852
 51
310.07442033831961
  0
ARC
  8
0
  6
DASHED2
 62
               4
  5
228
 10
-59.708643399264346
 20
-411.32210305589587
 30
0.0
 40
16.58585826952007
 50
249.26918485851303
 51
290.73081514138352
  0
LINE
  8
0
  6
DASHED2
 62
               4
  5
229
 10
-65.708643399262868
 20
-427.90796132541578
 30
0.0
 11
-65.708643399262868
 21
-438.42732756774041
 31
0.0
  0
LINE
  8
0
  6
DASHED2
 62
               4
  5
22A
 10
-53.708643399262982
 20
-427.90796132541578
 30
0.0
 11
-53.708643399262982
 21
-438.42732756774041
 31
0.0
  0
LINE
  8
0
  6
DASHED2
 62
               4
  5
22B
 10
-64.508643399263107
 20
-439.62732756774079
 30
0.0
 11
-54.908643399263028
 21
-439.62732756774079
 31
0.0
  0
LINE
  8
0
  6
DASHED2
 62
               4
  5
22C
 10
-65.708643399262868
 20
-438.42732756774041
 30
0.0
 11
-64.508643399263107
 21
-439.62732756774079
 31
0.0
  0
LINE
  8
0
  6
DASHED2
 62
               4
  5
22D
 10
-53.708643399262982
 20
-438.42732756774041
 30
0.0
 11
-54.908643399263028
 21
-439.62732756774079
 31
0.0
  0
LINE
  8
0
  6
DASHED2
 62
               4
  5
22E
 10
-71.468643399263087
 20
-416.30796132541565
 30
0.0
 11
-47.948643399262764
 21
-416.30796132541565
 31
0.0
  0
LINE
  8
0
  6
DASHED2
 62
               4
  5
22F
 10
-47.948643399264185
 20
-418.30796132541599
 30
0.0
 11
-71.468643399264508
 21
-418.30796132541599
 31
0.0
  0
LINE
  8
0
  6
DASHED2
 62
               4
  5
230
 10
-65.708643399262868
 20
-301.24438184948684
 30
0.0
 11
-65.708643399262868
 21
-406.70796132541551
 31
0.0
  0
LINE
  8
0
  6
DASHED2
 62
               4
  5
231
 10
-53.708643399262982
 20
-301.24438184948684
 30
0.0
 11
-53.708643399262982
 21
-406.70796132541551
 31
0.0
  0
LINE
  8
0
  6
DASHED2
 62
               4
  5
232
 10
-53.708643399262982
 20
-301.24438184948684
 30
0.0
 11
-65.708643399262868
 21
-301.24438184948684
 31
0.0
  0
LINE
  8
0
  6
DASHED2
 62
               4
  5
233
 10
202.05135660073722
 20
-416.30796132541565
 30
0.0
 11
202.05135660073722
 21
-407.78183282610843
 31
0.0
  0
LINE
  8
0
  6
DASHED2
 62
               4
  5
234
 10
196.16238385500282
 20
-407.78183282610843
 30
0.0
 11
196.16238385500282
 21
-416.30796132541565
 31
0.0
  0
LINE
  8
0
  6
DASHED2
 62
               4
  5
235
 10
199.10687022786988
 20
-406.70796132541551
 30
0.0
 11
181.47584297360396
 21
-406.70796132541551
 31
0.0
  0
LINE
  8
0
  6
DASHED2
 62
               4
  5
236
 10
178.5313566007369
 20
-416.30796132541565
 30
0.0
 11
178.5313566007369
 21
-407.78183282610843
 31
0.0
  0
LINE
  8
0
  6
DASHED2
 62
               4
  5
237
 10
184.42032934647159
 20
-416.30796132541565
 30
0.0
 11
184.42032934647159
 21
-407.78183282610843
 31
0.0
  0
ARC
  8
0
  6
DASHED2
 62
               4
  5
238
 10
199.10687022786988
 20
-411.2816929095315
 30
0.0
 40
4.5737315841157447
 50
49.925579661646204
 51
130.07442033838728
  0
ARC
  8
0
  6
DASHED2
 62
               4
  5
239
 10
181.47584297360396
 20
-411.2816929095315
 30
0.0
 40
4.5737315841157686
 50
49.925579661646204
 51
130.07442033838728
  0
ARC
  8
0
  6
DASHED2
 62
               4
  5
23A
 10
190.29135660073706
 20
-423.293819594936
 30
0.0
 40
16.58585826952007
 50
69.269184858581426
 51
110.73081514145197
  0
LINE
  8
0
  6
DASHED2
 62
               4
  5
23B
 10
202.05135660073864
 20
-418.30796132541599
 30
0.0
 11
202.05135660073864
 21
-426.83408982472321
 31
0.0
  0
LINE
  8
0
  6
DASHED2
 62
               4
  5
23C
 10
196.16238385500424
 20
-426.83408982472321
 30
0.0
 11
196.16238385500424
 21
-418.30796132541599
 31
0.0
  0
LINE
  8
0
  6
DASHED2
 62
               4
  5
23D
 10
199.1068702278713
 20
-427.90796132541578
 30
0.0
 11
181.47584297360567
 21
-427.90796132541578
 31
0.0
  0
LINE
  8
0
  6
DASHED2
 62
               4
  5
23E
 10
178.53135660073832
 20
-418.30796132541599
 30
0.0
 11
178.53135660073832
 21
-426.83408982472321
 31
0.0
  0
LINE
  8
0
  6
DASHED2
 62
               4
  5
23F
 10
184.42032934647273
 20
-418.30796132541599
 30
0.0
 11
184.42032934647273
 21
-426.83408982472321
 31
0.0
  0
ARC
  8
0
  6
DASHED2
 62
               4
  5
240
 10
199.1068702278713
 20
-423.33422974130036
 30
0.0
 40
4.5737315841157447
 50
229.92557966167917
 51
310.07442033842085
  0
ARC
  8
0
  6
DASHED2
 62
               4
  5
241
 10
181.47584297360567
 20
-423.33422974130036
 30
0.0
 40
4.5737315841157686
 50
229.92557966167917
 51
310.07442033842028
  0
ARC
  8
0
  6
DASHED2
 62
               4
  5
242
 10
190.29135660073848
 20
-411.32210305589587
 30
0.0
 40
16.58585826952007
 50
249.26918485861526
 51
290.73081514148578
  0
LINE
  8
0
  6
DASHED2
 62
               4
  5
243
 10
196.291356600737
 20
-427.90796132541578
 30
0.0
 11
196.291356600737
 21
-438.42732756774041
 31
0.0
  0
LINE
  8
0
  6
DASHED2
 62
               4
  5
244
 10
184.29135660073712
 20
-427.90796132541578
 30
0.0
 11
184.29135660073712
 21
-438.42732756774041
 31
0.0
  0
LINE
  8
0
  6
DASHED2
 62
               4
  5
245
 10
195.09135660073724
 20
-439.62732756774079
 30
0.0
 11
185.49135660073716
 21
-439.62732756774079
 31
0.0
  0
LINE
  8
0
  6
DASHED2
 62
               4
  5
246
 10
196.291356600737
 20
-438.42732756774041
 30
0.0
 11
195.09135660073724
 21
-439.62732756774079
 31
0.0
  0
LINE
  8
0
  6
DASHED2
 62
               4
  5
247
 10
184.29135660073712
 20
-438.42732756774041
 30
0.0
 11
185.49135660073716
 21
-439.62732756774079
 31
0.0
  0
LINE
  8
0
  6
DASHED2
 62
               4
  5
248
 10
202.05135660073722
 20
-416.30796132541565
 30
0.0
 11
178.5313566007369
 21
-416.30796132541565
 31
0.0
  0
LINE
  8
0
  6
DASHED2
 62
               4
  5
249
 10
178.53135660073832
 20
-418.30796132541599
 30
0.0
 11
202.05135660073864
 21
-418.30796132541599
 31
0.0
  0
LINE
  8
0
  6
DASHED2
 62
               4
  5
24A
 10
196.291356600737
 20
-301.24438184948684
 30
0.0
 11
196.291356600737
 21
-406.70796132541551
 31
0.0
  0
LINE
  8
0
  6
DASHED2
 62
               4
  5
24B
 10
184.29135660073712
 20
-301.24438184948684
 30
0.0
 11
184.29135660073712
 21
-406.70796132541551
 31
0.0
  0
LINE
  8
0
  6
DASHED2
 62
               4
  5
24C
 10
184.29135660073712
 20
-301.24438184948684
 30
0.0
 11
196.291356600737
 21
-301.24438184948684
 31
0.0
  0
LINE
  8
0
  6
DASHED2
 62
               4
  5
24D
 10
-491.7086433992614
 20
-316.38352279508808
 30
0.0
 11
-491.7086433992614
 21
-416.3079613254161
 31
0.0
  0
LINE
  8
0
  6
DASHED2
 62
               4
  5
24E
 10
-492.20864339926476
 20
-431.30796132541724
 30
0.0
 11
-492.20864339926476
 21
-496.30796132541496
 31
0.0
  0
LINE
  8
0
  6
DASHED2
 62
               4
  5
24F
 10
-434.7086433992618
 20
-416.3079613254161
 30
0.0
 11
-491.70864339926197
 21
-416.3079613254161
 31
0.0
  0
LINE
  8
0
  6
DASHED2
 62
               4
  5
250
 10
-492.20864339926476
 20
-431.30796132541724
 30
0.0
 11
-434.70864339926294
 21
-431.3079613254161
 31
0.0
  0
LINE
  8
0
  6
DASHED2
 62
               4
  5
251
 10
-377.70864339926248
 20
-316.38352279508808
 30
0.0
 11
-377.7086433992622
 21
-416.3079613254161
 31
0.0
  0
LINE
  8
0
  6
DASHED2
 62
               4
  5
252
 10
-434.7086433992618
 20
-416.3079613254161
 30
0.0
 11
-377.70864339926192
 21
-416.3079613254161
 31
0.0
  0
LINE
  8
0
  6
DASHED2
 62
               4
  5
253
 10
-377.2086433992601
 20
-431.30796132541724
 30
0.0
 11
-434.7086433992618
 21
-431.3079613254161
 31
0.0
  0
LINE
  8
0
  6
DASHED2
 62
               4
  5
254
 10
-377.2086433992601
 20
-431.30796132541724
 30
0.0
 11
-377.2086433992601
 21
-496.30796132541496
 31
0.0
  0
LINE
  8
0
  6
DASHED2
 62
               4
  5
255
 10
-446.46864339926259
 20
-416.3079613254161
 30
0.0
 11
-446.46864339926259
 21
-407.78183282610888
 31
0.0
  0
LINE
  8
0
  6
DASHED2
 62
               4
  5
256
 10
-440.57967065352813
 20
-407.78183282610888
 30
0.0
 11
-440.57967065352813
 21
-416.3079613254161
 31
0.0
  0
LINE
  8
0
  6
DASHED2
 62
               4
  5
257
 10
-443.52415702639524
 20
-406.70796132541597
 30
0.0
 11
-425.89312977212927
 21
-406.70796132541597
 31
0.0
  0
LINE
  8
0
  6
DASHED2
 62
               4
  5
258
 10
-422.94864339926227
 20
-416.3079613254161
 30
0.0
 11
-422.94864339926227
 21
-407.78183282610888
 31
0.0
  0
LINE
  8
0
  6
DASHED2
 62
               4
  5
259
 10
-428.83761614499696
 20
-416.3079613254161
 30
0.0
 11
-428.83761614499696
 21
-407.78183282610888
 31
0.0
  0
ARC
  8
0
  6
DASHED2
 62
               4
  5
25A
 10
-443.52415702639524
 20
-411.28169290953196
 30
0.0
 40
4.5737315841157447
 50
49.925579661612304
 51
130.07442033835341
  0
ARC
  8
0
  6
DASHED2
 62
               4
  5
25B
 10
-425.89312977212927
 20
-411.28169290953196
 30
0.0
 40
4.5737315841157686
 50
49.925579661612304
 51
130.07442033835341
  0
ARC
  8
0
  6
DASHED2
 62
               4
  5
25C
 10
-434.70864339926237
 20
-423.29381959493645
 30
0.0
 40
16.58585826952007
 50
69.269184858547646
 51
110.73081514141818
  0
LINE
  8
0
  6
DASHED2
 62
               4
  5
25D
 10
-446.46864339926395
 20
-418.30796132541644
 30
0.0
 11
-446.46864339926395
 21
-426.83408982472366
 31
0.0
  0
LINE
  8
0
  6
DASHED2
 62
               4
  5
25E
 10
-440.5796706535296
 20
-426.83408982472366
 30
0.0
 11
-440.5796706535296
 21
-418.30796132541644
 31
0.0
  0
LINE
  8
0
  6
DASHED2
 62
               4
  5
25F
 10
-443.52415702639661
 20
-427.90796132541624
 30
0.0
 11
-425.89312977213098
 21
-427.90796132541624
 31
0.0
  0
LINE
  8
0
  6
DASHED2
 62
               4
  5
260
 10
-422.94864339926363
 20
-418.30796132541644
 30
0.0
 11
-422.94864339926363
 21
-426.83408982472366
 31
0.0
  0
LINE
  8
0
  6
DASHED2
 62
               4
  5
261
 10
-428.83761614499809
 20
-418.30796132541644
 30
0.0
 11
-428.83761614499809
 21
-426.83408982472366
 31
0.0
  0
ARC
  8
0
  6
DASHED2
 62
               4
  5
262
 10
-443.52415702639661
 20
-423.33422974130082
 30
0.0
 40
4.5737315841157447
 50
229.92557966157796
 51
310.07442033831961
  0
ARC
  8
0
  6
DASHED2
 62
               4
  5
263
 10
-425.89312977213098
 20
-423.33422974130082
 30
0.0
 40
4.5737315841157686
 50
229.92557966157852
 51
310.07442033831961
  0
ARC
  8
0
  6
DASHED2
 62
               4
  5
264
 10
-434.70864339926385
 20
-411.32210305589632
 30
0.0
 40
16.58585826952007
 50
249.26918485851303
 51
290.73081514138352
  0
LINE
  8
0
  6
DASHED2
 62
               4
  5
265
 10
-440.70864339926237
 20
-427.90796132541624
 30
0.0
 11
-440.70864339926237
 21
-438.42732756774086
 31
0.0
  0
LINE
  8
0
  6
DASHED2
 62
               4
  5
266
 10
-428.70864339926248
 20
-427.90796132541624
 30
0.0
 11
-428.70864339926248
 21
-438.42732756774086
 31
0.0
  0
LINE
  8
0
  6
DASHED2
 62
               4
  5
267
 10
-439.50864339926255
 20
-439.62732756774125
 30
0.0
 11
-429.90864339926253
 21
-439.62732756774125
 31
0.0
  0
LINE
  8
0
  6
DASHED2
 62
               4
  5
268
 10
-440.70864339926237
 20
-438.42732756774086
 30
0.0
 11
-439.50864339926255
 21
-439.62732756774125
 31
0.0
  0
LINE
  8
0
  6
DASHED2
 62
               4
  5
269
 10
-428.70864339926248
 20
-438.42732756774086
 30
0.0
 11
-429.90864339926253
 21
-439.62732756774125
 31
0.0
  0
LINE
  8
0
  6
DASHED2
 62
               4
  5
26A
 10
-446.46864339926259
 20
-416.3079613254161
 30
0.0
 11
-422.94864339926227
 21
-416.3079613254161
 31
0.0
  0
LINE
  8
0
  6
DASHED2
 62
               4
  5
26B
 10
-422.94864339926363
 20
-418.30796132541644
 30
0.0
 11
-446.46864339926395
 21
-418.30796132541644
 31
0.0
  0
LINE
  8
0
  6
DASHED2
 62
               4
  5
26C
 10
-440.70864339926237
 20
-301.2443818494873
 30
0.0
 11
-440.70864339926237
 21
-406.70796132541597
 31
0.0
  0
LINE
  8
0
  6
DASHED2
 62
               4
  5
26D
 10
-428.70864339926248
 20
-301.2443818494873
 30
0.0
 11
-428.70864339926248
 21
-406.70796132541597
 31
0.0
  0
LINE
  8
0
  6
DASHED2
 62
               4
  5
26E
 10
-428.70864339926248
 20
-301.2443818494873
 30
0.0
 11
-440.70864339926237
 21
-301.2443818494873
 31
0.0
  0
LINE
  8
0
  6
DASHED2
 62
               4
  5
26F
 10
-491.84148895339331
 20
-316.38352279508808
 30
0.0
 11
-377.70864339926248
 21
-316.38352279508808
 31
0.0
  0
LINE
  8
0
  6
DASHED2
 62
               4
  5
270
 10
-377.70864339926248
 20
-316.38352279508808
 30
0.0
 11
-376.70864339926226
 21
-315.38352279508786
 31
0.0
  0
LINE
  8
0
  6
DASHED2
 62
               4
  5
271
 10
-491.84148895339331
 20
-316.38352279508808
 30
0.0
 11
-492.70864339926248
 21
-315.51636834921891
 31
0.0
  0
LINE
  8
0
  6
DASHED2
 62
               4
  5
272
 10
-492.70864339926248
 20
-315.51636834921891
 30
0.0
 11
-492.70864339926248
 21
-304.38352279508837
 31
0.0
  0
LINE
  8
0
  6
DASHED2
 62
               4
  5
273
 10
-376.70864339926226
 20
-315.38352279508786
 30
0.0
 11
-376.70864339926226
 21
-304.38352279508831
 31
0.0
  0
LINE
  8
0
  6
DASHED2
 62
               4
  5
274
 10
508.2913566007386
 20
-316.38352279508808
 30
0.0
 11
508.2913566007386
 21
-416.3079613254161
 31
0.0
  0
LINE
  8
0
  6
DASHED2
 62
               4
  5
275
 10
507.79135660073524
 20
-431.30796132541724
 30
0.0
 11
507.79135660073524
 21
-496.30796132541496
 31
0.0
  0
LINE
  8
0
  6
DASHED2
 62
               4
  5
276
 10
565.29135660073825
 20
-416.3079613254161
 30
0.0
 11
508.29135660073803
 21
-416.3079613254161
 31
0.0
  0
LINE
  8
0
  6
DASHED2
 62
               4
  5
277
 10
507.79135660073524
 20
-431.30796132541724
 30
0.0
 11
565.29135660073712
 21
-431.3079613254161
 31
0.0
  0
LINE
  8
0
  6
DASHED2
 62
               4
  5
278
 10
622.29135660073757
 20
-316.38352279508808
 30
0.0
 11
622.2913566007378
 21
-416.3079613254161
 31
0.0
  0
LINE
  8
0
  6
DASHED2
 62
               4
  5
279
 10
565.29135660073825
 20
-416.3079613254161
 30
0.0
 11
622.29135660073803
 21
-416.3079613254161
 31
0.0
  0
LINE
  8
0
  6
DASHED2
 62
               4
  5
27A
 10
622.79135660073985
 20
-431.30796132541724
 30
0.0
 11
565.29135660073825
 21
-431.3079613254161
 31
0.0
  0
LINE
  8
0
  6
DASHED2
 62
               4
  5
27B
 10
622.79135660073985
 20
-431.30796132541724
 30
0.0
 11
622.79135660073985
 21
-496.30796132541496
 31
0.0
  0
LINE
  8
0
  6
DASHED2
 62
               4
  5
27C
 10
553.53135660073735
 20
-416.3079613254161
 30
0.0
 11
553.53135660073735
 21
-407.78183282610888
 31
0.0
  0
LINE
  8
0
  6
DASHED2
 62
               4
  5
27D
 10
559.42032934647182
 20
-407.78183282610888
 30
0.0
 11
559.42032934647182
 21
-416.3079613254161
 31
0.0
  0
LINE
  8
0
  6
DASHED2
 62
               4
  5
27E
 10
556.47584297360481
 20
-406.70796132541597
 30
0.0
 11
574.10687022787079
 21
-406.70796132541597
 31
0.0
  0
LINE
  8
0
  6
DASHED2
 62
               4
  5
27F
 10
577.05135660073779
 20
-416.3079613254161
 30
0.0
 11
577.05135660073779
 21
-407.78183282610888
 31
0.0
  0
LINE
  8
0
  6
DASHED2
 62
               4
  5
280
 10
571.1623838550031
 20
-416.3079613254161
 30
0.0
 11
571.1623838550031
 21
-407.78183282610888
 31
0.0
  0
ARC
  8
0
  6
DASHED2
 62
               4
  5
281
 10
556.47584297360481
 20
-411.28169290953196
 30
0.0
 40
4.5737315841157447
 50
49.925579661612304
 51
130.07442033835341
  0
ARC
  8
0
  6
DASHED2
 62
               4
  5
282
 10
574.10687022787079
 20
-411.28169290953196
 30
0.0
 40
4.5737315841157686
 50
49.925579661612304
 51
130.07442033835341
  0
ARC
  8
0
  6
DASHED2
 62
               4
  5
283
 10
565.29135660073757
 20
-423.29381959493645
 30
0.0
 40
16.58585826952007
 50
69.269184858547646
 51
110.73081514141818
  0
LINE
  8
0
  6
DASHED2
 62
               4
  5
284
 10
553.53135660073599
 20
-418.30796132541644
 30
0.0
 11
553.53135660073599
 21
-426.83408982472366
 31
0.0
  0
LINE
  8
0
  6
DASHED2
 62
               4
  5
285
 10
559.42032934647045
 20
-426.83408982472366
 30
0.0
 11
559.42032934647045
 21
-418.30796132541644
 31
0.0
  0
LINE
  8
0
  6
DASHED2
 62
               4
  5
286
 10
556.47584297360345
 20
-427.90796132541624
 30
0.0
 11
574.10687022786897
 21
-427.90796132541624
 31
0.0
  0
LINE
  8
0
  6
DASHED2
 62
               4
  5
287
 10
577.05135660073643
 20
-418.30796132541644
 30
0.0
 11
577.05135660073643
 21
-426.83408982472366
 31
0.0
  0
LINE
  8
0
  6
DASHED2
 62
               4
  5
288
 10
571.16238385500196
 20
-418.30796132541644
 30
0.0
 11
571.16238385500196
 21
-426.83408982472366
 31
0.0
  0
ARC
  8
0
  6
DASHED2
 62
               4
  5
289
 10
556.47584297360345
 20
-423.33422974130082
 30
0.0
 40
4.5737315841157447
 50
229.92557966157796
 51
310.07442033831961
  0
ARC
  8
0
  6
DASHED2
 62
               4
  5
28A
 10
574.10687022786897
 20
-423.33422974130082
 30
0.0
 40
4.5737315841157686
 50
229.92557966157852
 51
310.07442033831961
  0
ARC
  8
0
  6
DASHED2
 62
               4
  5
28B
 10
565.29135660073621
 20
-411.32210305589632
 30
0.0
 40
16.58585826952007
 50
249.26918485851303
 51
290.73081514138352
  0
LINE
  8
0
  6
DASHED2
 62
               4
  5
28C
 10
559.29135660073757
 20
-427.90796132541624
 30
0.0
 11
559.29135660073757
 21
-438.42732756774086
 31
0.0
  0
LINE
  8
0
  6
DASHED2
 62
               4
  5
28D
 10
571.29135660073757
 20
-427.90796132541624
 30
0.0
 11
571.29135660073757
 21
-438.42732756774086
 31
0.0
  0
LINE
  8
0
  6
DASHED2
 62
               4
  5
28E
 10
560.49135660073739
 20
-439.62732756774125
 30
0.0
 11
570.09135660073753
 21
-439.62732756774125
 31
0.0
  0
LINE
  8
0
  6
DASHED2
 62
               4
  5
28F
 10
559.29135660073757
 20
-438.42732756774086
 30
0.0
 11
560.49135660073739
 21
-439.62732756774125
 31
0.0
  0
LINE
  8
0
  6
DASHED2
 62
               4
  5
290
 10
571.29135660073757
 20
-438.42732756774086
 30
0.0
 11
570.09135660073753
 21
-439.62732756774125
 31
0.0
  0
LINE
  8
0
  6
DASHED2
 62
               4
  5
291
 10
553.53135660073735
 20
-416.3079613254161
 30
0.0
 11
577.05135660073779
 21
-416.3079613254161
 31
0.0
  0
LINE
  8
0
  6
DASHED2
 62
               4
  5
292
 10
577.05135660073643
 20
-418.30796132541644
 30
0.0
 11
553.53135660073599
 21
-418.30796132541644
 31
0.0
  0
LINE
  8
0
  6
DASHED2
 62
               4
  5
293
 10
508.15851104660669
 20
-316.38352279508808
 30
0.0
 11
622.29135660073757
 21
-316.38352279508808
 31
0.0
  0
LINE
  8
0
  6
DASHED2
 62
               4
  5
294
 10
622.29135660073757
 20
-316.38352279508808
 30
0.0
 11
623.2913566007378
 21
-315.38352279508786
 31
0.0
  0
LINE
  8
0
  6
DASHED2
 62
               4
  5
295
 10
508.15851104660669
 20
-316.38352279508808
 30
0.0
 11
507.29135660073752
 21
-315.51636834921891
 31
0.0
  0
LINE
  8
0
  6
DASHED2
 62
               4
  5
296
 10
559.29135660073757
 20
-301.2443818494873
 30
0.0
 11
559.29135660073757
 21
-406.70796132541597
 31
0.0
  0
LINE
  8
0
  6
DASHED2
 62
               4
  5
297
 10
571.29135660073757
 20
-301.2443818494873
 30
0.0
 11
571.29135660073757
 21
-406.70796132541597
 31
0.0
  0
LINE
  8
0
  6
DASHED2
 62
               4
  5
298
 10
571.29135660073757
 20
-301.2443818494873
 30
0.0
 11
559.29135660073757
 21
-301.2443818494873
 31
0.0
  0
LINE
  8
0
  6
DASHDOT
 62
               4
  5
299
 10
65.291356600737643
 20
208.6920386745839
 30
0.0
 11
65.2913566007377
 21
-663.24094262958465
 31
0.0
  0
LINE
  8
0
  6
DASHDOT
 62
               4
  5
29A
 10
2.3271074560117739
 20
6.692038674583884
 30
0.0
 11
-96.708643399262243
 21
6.692038674583884
 31
0.0
  0
LINE
  8
0
  6
DASHDOT
 62
               4
  5
29B
 10
-369.9897924431815
 20
6.692038674583884
 30
0.0
 11
-501.40752340688306
 21
6.692038674583884
 31
0.0
  0
LINE
  8
0
  6
DASHDOT
 62
               4
  5
29C
 10
-434.70864339926237
 20
208.6920386745839
 30
0.0
 11
-434.70864339926231
 21
-663.24094262958465
 31
0.0
  0
LINE
  8
0
  6
DASHDOT
 62
               4
  5
29D
 10
565.29135660073769
 20
208.6920386745839
 30
0.0
 11
565.29135660073769
 21
-416.3079613254161
 31
0.0
  0
LINE
  8
0
  6
DASHDOT
 62
               4
  5
29E
 10
65.291356600737558
 20
647.19203867458384
 30
0.0
 11
65.291356600737558
 21
430.1920386745839
 31
0.0
  0
LINE
  8
0
  6
DASHDOT
 62
               4
  5
29F
 10
-96.708643399262328
 20
538.69203867458384
 30
0.0
 11
173.7913566007378
 21
538.69203867458384
 31
0.0
  0
LINE
  8
0
  6
DASHDOT
 62
               4
  5
2A0
 10
565.29135660073769
 20
-663.24094262958465
 30
0.0
 11
565.29135660073769
 21
-367.3079613254161
 31
0.0
  0
LINE
  8
0
  6
DASHDOT
 62
               4
  5
2A1
 10
-59.708643399262925
 20
-295.31785932741076
 30
0.0
 11
-59.708643399262925
 21
-459.69622094690118
 31
0.0
  0
LINE
  8
0
  6
DASHDOT
 62
               4
  5
2A2
 10
190.29135660073706
 20
-295.31785932741076
 30
0.0
 11
190.29135660073706
 21
-459.69622094690118
 31
0.0
  0
ARC
  8
0
  6
DIVIDE
 62
               4
  5
2A3
 10
36.791356600737132
 20
-663.24094262958465
 30
0.0
 40
55.0
 50
58.789629707489617
 51
121.21037029250985
  0
ARC
  8
0
  6
DIVIDE
 62
               4
  5
2A4
 10
36.791356600737132
 20
-569.16118922854707
 30
0.0
 40
55.0
 50
238.78962970748935
 51
301.21037029250937
  0
ARC
  8
0
  6
DIVIDE
 62
               4
  5
2A5
 10
32.791356600737075
 20
-638.70356336486248
 30
0.0
 40
65.0
 50
59.999999999999723
 51
119.99999999999987
  0
ARC
  8
0
  6
DIVIDE
 62
               4
  5
2A6
 10
93.79135660073716
 20
-569.1611892285473
 30
0.0
 40
55.0
 50
238.78962970748941
 51
301.21037029250959
  0
ARC
  8
0
  6
DIVIDE
 62
               4
  5
2A7
 10
97.791356600737075
 20
-526.12026087288541
 30
0.0
 40
65.0
 50
239.99999999999966
 51
299.99999999999932
  0
LINE
  8
0
  6
DIVIDE
 62
               4
  5
2A8
 10
8.2913566007371919
 20
-578.49766664369395
 30
0.0
 11
8.2913566007371884
 21
-616.20106592906586
 31
0.0
  0
LINE
  8
0
  6
DIVIDE
 62
               4
  5
2A9
 10
122.29135660073725
 20
-586.32615759405394
 30
0.0
 11
122.29135660073725
 21
-616.20106592906586
 31
0.0
  0
ARC
  8
0
  6
DIVIDE
 62
               4
  5
2AA
 10
32.791356600737075
 20
-526.12026087288564
 30
0.0
 40
65.0
 50
239.99999999999929
 51
247.85677929855132
  0
LINE
  8
0
  6
DIVIDE
 62
               4
  5
2AB
 10
130.29135660073706
 20
-496.30796132541496
 30
0.0
 11
130.29135660073706
 21
-582.41191211887394
 31
0.0
  0
LINE
  8
0
  6
DIVIDE
 62
               4
  5
2AC
 10
0.2913566007370747
 20
-496.30796132541496
 30
0.0
 11
0.2913566007370747
 21
-582.41191211887394
 31
0.0
  0
ARC
  8
0
  6
DIVIDE
 62
               4
  5
2AD
 10
-463.20864339926231
 20
-663.24094262958465
 30
0.0
 40
55.0
 50
58.789629707489617
 51
121.21037029250985
  0
ARC
  8
0
  6
DIVIDE
 62
               4
  5
2AE
 10
-463.20864339926231
 20
-569.16118922854707
 30
0.0
 40
55.0
 50
238.78962970748935
 51
301.21037029250937
  0
ARC
  8
0
  6
DIVIDE
 62
               4
  5
2AF
 10
-467.20864339926237
 20
-638.70356336486248
 30
0.0
 40
65.0
 50
59.999999999999723
 51
119.99999999999987
  0
ARC
  8
0
  6
DIVIDE
 62
               4
  5
2B0
 10
-406.20864339926226
 20
-569.1611892285473
 30
0.0
 40
55.0
 50
238.78962970748941
 51
301.21037029250959
  0
ARC
  8
0
  6
DIVIDE
 62
               4
  5
2B1
 10
-402.20864339926237
 20
-526.12026087288541
 30
0.0
 40
65.0
 50
239.99999999999966
 51
299.99999999999932
  0
LINE
  8
0
  6
DIVIDE
 62
               4
  5
2B2
 10
-491.70864339926226
 20
-578.49766664369395
 30
0.0
 11
-491.70864339926226
 21
-616.20106592906586
 31
0.0
  0
LINE
  8
0
  6
DIVIDE
 62
               4
  5
2B3
 10
-377.7086433992622
 20
-586.32615759405394
 30
0.0
 11
-377.7086433992622
 21
-616.20106592906586
 31
0.0
  0
ARC
  8
0
  6
DIVIDE
 62
               4
  5
2B4
 10
-467.20864339926237
 20
-526.12026087288564
 30
0.0
 40
65.0
 50
239.99999999999929
 51
247.85677929855132
  0
LINE
  8
0
  6
DIVIDE
 62
               4
  5
2B5
 10
-369.70864339926237
 20
-496.30796132541496
 30
0.0
 11
-369.70864339926237
 21
-582.41191211887394
 31
0.0
  0
LINE
  8
0
  6
DIVIDE
 62
               4
  5
2B6
 10
-499.70864339926237
 20
-496.30796132541496
 30
0.0
 11
-499.70864339926237
 21
-582.41191211887394
 31
0.0
  0
ARC
  8
0
  6
DIVIDE
 62
               4
  5
2B7
 10
536.79135660073769
 20
-663.24094262958465
 30
0.0
 40
55.0
 50
58.789629707489617
 51
121.21037029250985
  0
ARC
  8
0
  6
DIVIDE
 62
               4
  5
2B8
 10
536.79135660073769
 20
-569.16118922854707
 30
0.0
 40
55.0
 50
238.78962970748935
 51
301.21037029250937
  0
ARC
  8
0
  6
DIVIDE
 62
               4
  5
2B9
 10
532.79135660073757
 20
-638.70356336486248
 30
0.0
 40
65.0
 50
59.999999999999723
 51
119.99999999999987
  0
ARC
  8
0
  6
DIVIDE
 62
               4
  5
2BA
 10
593.7913566007378
 20
-569.1611892285473
 30
0.0
 40
55.0
 50
238.78962970748941
 51
301.21037029250959
  0
ARC
  8
0
  6
DIVIDE
 62
               4
  5
2BB
 10
597.79135660073757
 20
-526.12026087288541
 30
0.0
 40
65.0
 50
239.99999999999966
 51
299.99999999999932
  0
LINE
  8
0
  6
DIVIDE
 62
               4
  5
2BC
 10
508.29135660073774
 20
-578.49766664369395
 30
0.0
 11
508.29135660073774
 21
-616.20106592906586
 31
0.0
  0
LINE
  8
0
  6
DIVIDE
 62
               4
  5
2BD
 10
622.2913566007378
 20
-586.32615759405394
 30
0.0
 11
622.2913566007378
 21
-616.20106592906586
 31
0.0
  0
ARC
  8
0
  6
DIVIDE
 62
               4
  5
2BE
 10
532.79135660073757
 20
-526.12026087288564
 30
0.0
 40
65.0
 50
239.99999999999929
 51
247.85677929855132
  0
LINE
  8
0
  6
DIVIDE
 62
               4
  5
2BF
 10
630.29135660073757
 20
-496.30796132541496
 30
0.0
 11
630.29135660073757
 21
-582.41191211887394
 31
0.0
  0
LINE
  8
0
  6
DIVIDE
 62
               4
  5
2C0
 10
500.29135660073763
 20
-496.30796132541496
 30
0.0
 11
500.29135660073763
 21
-582.41191211887394
 31
0.0
  0
LINE
  8
0
  6
CONTINUOUS
 62
               3
  5
2C1
 10
-74.708643399262357
 20
47.463594800548705
 30
0.0
 11
-74.037087273297928
 21
47.442038674584111
 31
0.0
  0
LINE
  8
0
  6
CONTINUOUS
 62
               3
  5
2C2
 10
-74.708643399262357
 20
-34.079517451380681
 30
0.0
 11
-74.037087273297928
 21
-34.057961325416116
 31
0.0
  0
LINE
  8
0
  6
CONTINUOUS
 62
               3
  5
2C3
 10
-71.537087273297388
 20
49.942038674583884
 30
0.0
 11
-74.037087273297928
 21
47.442038674584111
 31
0.0
  0
LINE
  8
0
  6
CONTINUOUS
 62
               3
  5
2C4
 10
-71.537087273297644
 20
-36.557961325416116
 30
0.0
 11
-74.037087273297928
 21
-34.057961325416116
 31
0.0
  0
LINE
  8
0
  6
CONTINUOUS
 62
               3
  5
2C5
 10
-74.037087273297928
 20
47.442038674584111
 30
0.0
 11
-74.037087273297928
 21
-34.057961325416116
 31
0.0
  0
LINE
  8
0
  6
CONTINUOUS
 62
               3
  5
2C6
 10
-79.708643399262357
 20
47.292038674583907
 30
0.0
 11
-79.708643399262357
 21
-33.90796132541611
 31
0.0
  0
LINE
  8
0
  6
CONTINUOUS
 62
               3
  5
2C7
 10
-74.708643399262357
 20
-36.40796132541611
 30
0.0
 11
-74.708643399262357
 21
49.792038674583907
 31
0.0
  0
LINE
  8
0
  6
CONTINUOUS
 62
               3
  5
2C8
 10
-74.708643399262357
 20
49.792038674583907
 30
0.0
 11
-77.208643399262357
 21
49.792038674583907
 31
0.0
  0
LINE
  8
0
  6
CONTINUOUS
 62
               3
  5
2C9
 10
-74.708643399262357
 20
-36.40796132541611
 30
0.0
 11
-77.208643399262357
 21
-36.40796132541611
 31
0.0
  0
ARC
  8
0
  6
CONTINUOUS
 62
               3
  5
2CA
 10
-77.208643399262357
 20
-33.90796132541611
 30
0.0
 40
2.5
 50
179.99999999993057
 51
269.99999999989649
  0
ARC
  8
0
  6
CONTINUOUS
 62
               3
  5
2CB
 10
-77.208643399262357
 20
47.292038674583907
 30
0.0
 40
2.5
 50
89.999999999965596
 51
179.99999999993057
  0
LINE
  8
0
  6
CONTINUOUS
 62
               3
  5
2CC
 10
-71.537087273297388
 20
49.942038674583884
 30
0.0
 11
-71.537087273297644
 21
-36.557961325416144
 31
0.0
  0
LINE
  8
0
  6
CONTINUOUS
 62
               3
  5
2CD
 10
148.29135660073752
 20
97.212973801675204
 30
0.0
 11
148.29135660073752
 21
-155.76290062194511
 31
0.0
  0
LINE
  8
0
  6
CONTINUOUS
 62
               3
  5
2CE
 10
145.79135660073766
 20
166.69203867458424
 30
0.0
 11
145.79135660073763
 21
101.78404161354051
 31
0.0
  0
LINE
  8
0
  6
CONTINUOUS
 62
               3
  5
2CF
 10
-18.208643399262328
 20
-56.178909905909435
 30
0.0
 11
-18.208643399262328
 21
-151.38054652200475
 31
0.0
  0
ARC
  8
0
  6
CONTINUOUS
 62
               3
  5
2D0
 10
-20.708643399262328
 20
-56.178909905909435
 30
0.0
 40
2.5
 50
0.0
 51
44.999999999999439
  0
LINE
  8
0
  6
CONTINUOUS
 62
               3
  5
2D1
 10
146.52358964777125
 20
100.01627466057418
 30
0.0
 11
147.5591235537039
 21
98.980740754641531
 31
0.0
  0
ARC
  8
0
  6
CONTINUOUS
 62
               3
  5
2D2
 10
148.29135660073763
 20
101.78404161354051
 30
0.0
 40
2.5
 50
179.9999999999996
 51
224.99999999999858
  0
ARC
  8
0
  6
CONTINUOUS
 62
               3
  5
2D3
 10
145.79135660073752
 20
97.212973801675204
 30
0.0
 40
2.5
 50
0.0
 51
44.999999999998977
  0
ARC
  8
0
  6
CONTINUOUS
 62
               3
  5
2D4
 10
10.291356600737643
 20
81.692038674583884
 30
0.0
 40
28.499999999999996
 50
154.58537908483871
 51
179.9999999999996
  0
LINE
  8
0
  6
CONTINUOUS
 62
               3
  5
2D5
 10
-18.208643399262357
 20
62.723712034020863
 30
0.0
 11
-18.208643399262357
 21
81.692038674583884
 31
0.0
  0
LINE
  8
0
  6
CONTINUOUS
 62
               3
  5
2D6
 10
-15.208643399262314
 20
166.69203867458424
 30
0.0
 11
-15.208643399262343
 21
94.996173370233961
 31
0.0
  0
LINE
  8
0
  6
CONTINUOUS
 62
               3
  5
2D7
 10
-62.708643399261959
 20
58.755515854619816
 30
0.0
 11
-20.621394657506087
 21
60.22523496647311
 31
0.0
  0
ARC
  8
0
  6
CONTINUOUS
 62
               3
  5
2D8
 10
-20.708643399262357
 20
62.723712034020863
 30
0.0
 40
2.5
 50
271.99999999999977
 51
359.9999999999992
  0
ARC
  8
0
  6
CONTINUOUS
 62
               3
  5
2D9
 10
-17.708643399262343
 20
94.996173370233961
 30
0.0
 40
2.5
 50
334.58537908483783
 51
359.9999999999992
  0
LINE
  8
0
  6
CONTINUOUS
 62
               3
  5
2DA
 10
-62.708643399261959
 20
-45.371438505452197
 30
0.0
 11
-27.708144641188156
 21
-46.593682854679471
 31
0.0
  0
LINE
  8
0
  6
CONTINUOUS
 62
               3
  5
2DB
 10
-18.940876446295945
 20
-54.411142952943081
 30
0.0
 11
-26.027626429978042
 21
-47.32439296926087
 31
0.0
  0
ARC
  8
0
  6
CONTINUOUS
 62
               3
  5
2DC
 10
-27.795393382944425
 20
-49.092159922227225
 30
0.0
 40
2.5
 50
44.999999999999211
 51
87.999999999999105
  0
LINE
  8
0
  6
CONTINUOUS
 62
               3
  5
2DD
 10
131.79135660073774
 20
-300.3805859199486
 30
0.0
 11
148.29135660073752
 21
-155.76290062194511
 31
0.0
  0
LINE
  8
0
  6
CONTINUOUS
 62
               3
  5
2DE
 10
-1.2086433992624706
 20
-300.38058591994849
 30
0.0
 11
-18.208643399262328
 21
-151.38054652200475
 31
0.0
  0
LINE
  8
0
  6
CONTINUOUS
 62
               3
  5
2DF
 10
148.29135660073752
 20
-42.307961325416116
 30
0.0
 11
-19.023242793651519
 21
-42.307961325416116
 31
0.0
  0
LINE
  8
0
  6
CONTINUOUS
 62
               3
  5
2E0
 10
-19.023242793651519
 20
-42.307961325416116
 30
0.0
 11
-26.027626429978042
 21
-47.32439296926087
 31
0.0
  0
CIRCLE
  8
0
  6
CONTINUOUS
 62
               3
  5
2E1
 10
-434.70864339926351
 20
6.6920386745836566
 30
0.0
 40
34.100000000000001
  0
CIRCLE
  8
0
  6
CONTINUOUS
 62
               3
  5
2E2
 10
-434.70864339926351
 20
6.6920386745836566
 30
0.0
 40
28.649999999999999
  0
CIRCLE
  8
0
  6
CONTINUOUS
 62
               3
  5
2E3
 10
-434.70864339926351
 20
6.6920386745836566
 30
0.0
 40
33.0
  0
CIRCLE
  8
0
  6
CONTINUOUS
 62
               3
  5
2E4
 10
-434.70864339926351
 20
6.6920386745836566
 30
0.0
 40
24.5
  0
LINE
  8
0
  6
CONTINUOUS
 62
               3
  5
2E5
 10
-456.27540022545332
 20
-14.874718151605819
 30
0.0
 11
-458.04316717841908
 21
-16.642485104572941
 31
0.0
  0
LINE
  8
0
  6
CONTINUOUS
 62
               3
  5
2E6
 10
-413.14188657307392
 20
-14.874718151605819
 30
0.0
 11
-411.37411962010754
 21
-16.642485104572486
 31
0.0
  0
ARC
  8
0
  6
CONTINUOUS
 62
               3
  5
2E7
 10
-434.70864339926362
 20
6.692038674583884
 30
0.0
 40
30.5
 50
224.99999999991346
 51
314.99999999987898
  0
CIRCLE
  8
0
  6
CONTINUOUS
 62
               3
  5
2E8
 10
-434.70864339926351
 20
6.6920386745836566
 30
0.0
 40
43.100000000000001
  0
LINE
  8
0
  6
CONTINUOUS
 62
               3
  5
2E9
 10
-518.20864339926231
 20
-56.178909905909435
 30
0.0
 11
-518.20864339926231
 21
-151.38054652200475
 31
0.0
  0
ARC
  8
0
  6
CONTINUOUS
 62
               3
  5
2EA
 10
-489.70864339926237
 20
81.692038674583884
 30
0.0
 40
28.499999999999996
 50
154.58537908483871
 51
179.9999999999996
  0
LINE
  8
0
  6
CONTINUOUS
 62
               3
  5
2EB
 10
-518.20864339926231
 20
-56.178909905909435
 30
0.0
 11
-518.20864339926231
 21
81.692038674583884
 31
0.0
  0
LINE
  8
0
  6
CONTINUOUS
 62
               3
  5
2EC
 10
-515.20864339926231
 20
166.69203867458424
 30
0.0
 11
-515.20864339926231
 21
94.996173370233961
 31
0.0
  0
ARC
  8
0
  6
CONTINUOUS
 62
               3
  5
2ED
 10
-517.70864339926231
 20
94.996173370233961
 30
0.0
 40
2.5
 50
334.58537908483783
 51
359.9999999999992
  0
LINE
  8
0
  6
CONTINUOUS
 62
               3
  5
2EE
 10
-501.20864339926248
 20
-300.38058591994849
 30
0.0
 11
-518.20864339926231
 21
-151.38054652200475
 31
0.0
  0
ARC
  8
0
  6
CONTINUOUS
 62
               3
  5
2EF
 10
-379.70864339926237
 20
81.692038674583884
 30
0.0
 40
28.499999999999996
 50
0.0000000000000057
 51
25.414620915160906
  0
LINE
  8
0
  6
CONTINUOUS
 62
               3
  5
2F0
 10
-351.20864339926237
 20
-56.178909905909435
 30
0.0
 11
-351.20864339926237
 21
81.692038674583884
 31
0.0
  0
ARC
  8
0
  6
CONTINUOUS
 62
               3
  5
2F1
 10
-351.70864339926237
 20
94.996173370233961
 30
0.0
 40
2.5
 50
179.9999999999996
 51
205.41462091516095
  0
LINE
  8
0
  6
CONTINUOUS
 62
               3
  5
2F2
 10
-354.20864339926231
 20
166.69203867458424
 30
0.0
 11
-354.20864339926237
 21
94.996173370233961
 31
0.0
  0
LINE
  8
0
  6
CONTINUOUS
 62
               3
  5
2F3
 10
-351.20864339926237
 20
-56.178909905909435
 30
0.0
 11
-351.20864339926237
 21
-151.38054652200441
 31
0.0
  0
LINE
  8
0
  6
CONTINUOUS
 62
               3
  5
2F4
 10
-368.20864339926226
 20
-300.3805859199486
 30
0.0
 11
-351.20864339926237
 21
-151.38054652200441
 31
0.0
  0
CIRCLE
  8
0
  6
CONTINUOUS
 62
               3
  5
2F5
 10
-434.70864339926237
 20
6.692038674583884
 30
0.0
 40
51.599999999998865
  0
LINE
  8
0
  6
CONTINUOUS
 62
               3
  5
2F6
 10
-450.88146009889397
 20
-42.307961325416116
 30
0.0
 11
-518.20864339926231
 21
-42.307961325416116
 31
0.0
  0
LINE
  8
0
  6
CONTINUOUS
 62
               3
  5
2F7
 10
-351.20864339926237
 20
-42.307961325416116
 30
0.0
 11
-418.53582669963077
 21
-42.307961325416116
 31
0.0
  0
LINE
  8
0
  6
CONTINUOUS
 62
               3
  5
2F8
 10
481.79135660073769
 20
-56.178909905909435
 30
0.0
 11
481.79135660073769
 21
-151.38054652200475
 31
0.0
  0
ARC
  8
0
  6
CONTINUOUS
 62
               3
  5
2F9
 10
510.29135660073769
 20
81.692038674583884
 30
0.0
 40
28.499999999999996
 50
154.58537908483871
 51
179.9999999999996
  0
LINE
  8
0
  6
CONTINUOUS
 62
               3
  5
2FA
 10
481.79135660073769
 20
-56.178909905909435
 30
0.0
 11
481.79135660073769
 21
81.692038674583884
 31
0.0
  0
LINE
  8
0
  6
CONTINUOUS
 62
               3
  5
2FB
 10
484.79135660073769
 20
166.69203867458424
 30
0.0
 11
484.79135660073769
 21
94.996173370233961
 31
0.0
  0
ARC
  8
0
  6
CONTINUOUS
 62
               3
  5
2FC
 10
482.29135660073769
 20
94.996173370233961
 30
0.0
 40
2.5
 50
334.58537908483783
 51
359.9999999999992
  0
LINE
  8
0
  6
CONTINUOUS
 62
               3
  5
2FD
 10
498.79135660073746
 20
-300.38058591994849
 30
0.0
 11
481.79135660073769
 21
-151.38054652200475
 31
0.0
  0
ARC
  8
0
  6
CONTINUOUS
 62
               3
  5
2FE
 10
620.29135660073769
 20
81.692038674583884
 30
0.0
 40
28.499999999999996
 50
0.0000000000000057
 51
25.414620915160906
  0
LINE
  8
0
  6
CONTINUOUS
 62
               3
  5
2FF
 10
648.79135660073769
 20
-56.178909905909435
 30
0.0
 11
648.79135660073769
 21
81.692038674583884
 31
0.0
  0
ARC
  8
0
  6
CONTINUOUS
 62
               3
  5
300
 10
648.29135660073769
 20
94.996173370233961
 30
0.0
 40
2.5
 50
179.9999999999996
 51
205.41462091516095
  0
LINE
  8
0
  6
CONTINUOUS
 62
               3
  5
301
 10
645.79135660073769
 20
166.69203867458424
 30
0.0
 11
645.79135660073769
 21
94.996173370233961
 31
0.0
  0
LINE
  8
0
  6
CONTINUOUS
 62
               3
  5
302
 10
648.79135660073769
 20
-42.307961325416116
 30
0.0
 11
481.79135660073769
 21
-42.307961325416116
 31
0.0
  0
LINE
  8
0
  6
CONTINUOUS
 62
               3
  5
303
 10
648.79135660073769
 20
-56.178909905909435
 30
0.0
 11
648.79135660073769
 21
-151.38054652200441
 31
0.0
  0
LINE
  8
0
  6
CONTINUOUS
 62
               3
  5
304
 10
631.79135660073769
 20
-300.3805859199486
 30
0.0
 11
648.79135660073769
 21
-151.38054652200441
 31
0.0
  0
LINE
  8
0
  6
CONTINUOUS
 62
               3
  5
305
 10
-74.708643399262314
 20
579.46359480054866
 30
0.0
 11
-74.037087273297885
 21
579.44203867458407
 31
0.0
  0
LINE
  8
0
  6
CONTINUOUS
 62
               3
  5
306
 10
-74.708643399262314
 20
497.9204825486193
 30
0.0
 11
-74.037087273297885
 21
497.9420386745839
 31
0.0
  0
LINE
  8
0
  6
CONTINUOUS
 62
               3
  5
307
 10
-71.537087273297345
 20
581.94203867458384
 30
0.0
 11
-74.037087273297885
 21
579.44203867458407
 31
0.0
  0
LINE
  8
0
  6
CONTINUOUS
 62
               3
  5
308
 10
-71.537087273297601
 20
495.4420386745839
 30
0.0
 11
-74.037087273297885
 21
497.9420386745839
 31
0.0
  0
LINE
  8
0
  6
CONTINUOUS
 62
               3
  5
309
 10
-74.037087273297885
 20
579.44203867458407
 30
0.0
 11
-74.037087273297885
 21
497.9420386745839
 31
0.0
  0
LINE
  8
0
  6
CONTINUOUS
 62
               3
  5
30A
 10
-79.708643399262314
 20
579.29203867458386
 30
0.0
 11
-79.708643399262314
 21
498.09203867458388
 31
0.0
  0
LINE
  8
0
  6
CONTINUOUS
 62
               3
  5
30B
 10
-74.708643399262314
 20
495.59203867458388
 30
0.0
 11
-74.708643399262314
 21
581.79203867458386
 31
0.0
  0
LINE
  8
0
  6
CONTINUOUS
 62
               3
  5
30C
 10
-74.708643399262314
 20
581.79203867458386
 30
0.0
 11
-77.208643399262314
 21
581.79203867458386
 31
0.0
  0
LINE
  8
0
  6
CONTINUOUS
 62
               3
  5
30D
 10
-74.708643399262314
 20
495.59203867458388
 30
0.0
 11
-77.208643399262314
 21
495.59203867458388
 31
0.0
  0
ARC
  8
0
  6
CONTINUOUS
 62
               3
  5
30E
 10
-77.208643399262314
 20
498.09203867458388
 30
0.0
 40
2.5
 50
179.99999999993088
 51
269.99999999989649
  0
ARC
  8
0
  6
CONTINUOUS
 62
               3
  5
30F
 10
-77.208643399262314
 20
579.29203867458386
 30
0.0
 40
2.5
 50
89.999999999965596
 51
179.99999999993088
  0
LINE
  8
0
  6
CONTINUOUS
 62
               3
  5
310
 10
-71.537087273297345
 20
581.94203867458384
 30
0.0
 11
-71.537087273297601
 21
495.4420386745839
 31
0.0
  0
LINE
  8
0
  6
CONTINUOUS
 62
               3
  5
311
 10
-62.708643399261916
 20
486.79930787512268
 30
0.0
 11
-0.4407371459590509
 21
484.62486467411719
 31
0.0
  0
LINE
  8
0
  6
CONTINUOUS
 62
               3
  5
312
 10
-62.702688066555176
 20
590.58497743884573
 30
0.0
 11
-0.4407371459593278
 21
592.75921267505032
 31
0.0
  0
LINE
  8
0
  6
CONTINUOUS
 62
               3
  5
313
 10
-1.2086433992624706
 20
-300.38058591994849
 30
0.0
 11
-1.2086433992624706
 21
-336.3079613254161
 31
0.0
  0
LINE
  8
0
  6
CONTINUOUS
 62
               3
  5
314
 10
131.79135660073774
 20
-300.3805859199486
 30
0.0
 11
131.79135660073774
 21
-336.3079613254161
 31
0.0
  0
LINE
  8
0
  6
CONTINUOUS
 62
               3
  5
315
 10
-1.2086433992624706
 20
-304.3079613254161
 30
0.0
 11
131.79135660073774
 21
-304.3079613254161
 31
0.0
  0
LINE
  8
0
  6
CONTINUOUS
 62
               3
  5
316
 10
-1.2086433992624706
 20
-336.3079613254161
 30
0.0
 11
131.79135660073774
 21
-336.3079613254161
 31
0.0
  0
LINE
  8
0
  6
CONTINUOUS
 62
               3
  5
317
 10
-501.20864339926248
 20
-304.38352279508808
 30
0.0
 11
-368.20864339926226
 21
-304.38352279508808
 31
0.0
  0
LINE
  8
0
  6
CONTINUOUS
 62
               3
  5
318
 10
498.79135660073746
 20
-304.38352279508808
 30
0.0
 11
631.79135660073769
 21
-304.38352279508808
 31
0.0
  0
LINE
  8
0
  6
CONTINUOUS
 62
               3
  5
319
 10
3.2913566007369042
 20
-496.30796132541496
 30
0.0
 11
3.2913566007369042
 21
-481.30796132541587
 31
0.0
  0
LINE
  8
0
  6
CONTINUOUS
 62
               3
  5
31A
 10
0.2913566007370747
 20
-496.30796132541496
 30
0.0
 11
130.29135660073706
 21
-496.30796132541496
 31
0.0
  0
ARC
  8
0
  6
CONTINUOUS
 62
               3
  5
31B
 10
-10.7086433992623
 20
-355.30796132541678
 30
0.0
 40
4.0
 50
89.999999999982236
 51
179.99999999996518
  0
ARC
  8
0
  6
CONTINUOUS
 62
               3
  5
31C
 10
-13.708643399262272
 20
-352.30796132541678
 30
0.0
 40
1.0000000000000004
 50
89.999999999981483
 51
179.99999999996524
  0
ARC
  8
0
  6
CONTINUOUS
 62
               3
  5
31D
 10
-13.708643399262272
 20
-352.30796132541678
 30
0.0
 40
1.9999999999999996
 50
89.999999999983004
 51
179.99999999996524
  0
LINE
  8
0
  6
CONTINUOUS
 62
               3
  5
31E
 10
-15.7086433992623
 20
-352.30796132541678
 30
0.0
 11
-15.708643399262868
 21
-415.30796132541565
 31
0.0
  0
LINE
  8
0
  6
CONTINUOUS
 62
               3
  5
31F
 10
-14.708643399262499
 20
-352.30796132541678
 30
0.0
 11
-14.708643399263067
 21
-415.30796132541565
 31
0.0
  0
ARC
  8
0
  6
CONTINUOUS
 62
               3
  5
320
 10
-16.708643399262812
 20
-415.30796132541565
 30
0.0
 40
1.9999999999999996
 50
269.99999999994748
 51
359.99999999993048
  0
ARC
  8
0
  6
CONTINUOUS
 62
               3
  5
321
 10
-16.708643399262812
 20
-415.30796132541565
 30
0.0
 40
1.0000000000000004
 50
269.99999999994748
 51
359.99999999993048
  0
LINE
  8
0
  6
CONTINUOUS
 62
               3
  5
322
 10
-16.708643399262812
 20
-417.30796132541565
 30
0.0
 11
-79.708643399262925
 21
-417.3079613254161
 31
0.0
  0
LINE
  8
0
  6
CONTINUOUS
 62
               3
  5
323
 10
-16.708643399262812
 20
-416.30796132541565
 30
0.0
 11
-79.708643399262925
 21
-416.3079613254161
 31
0.0
  0
LINE
  8
0
  6
CONTINUOUS
 62
               3
  5
324
 10
0.291356600737501
 20
-350.30796132541678
 30
0.0
 11
-13.708643399262272
 21
-350.30796132541678
 31
0.0
  0
LINE
  8
0
  6
CONTINUOUS
 62
               3
  5
325
 10
65.291356600737643
 20
-351.3079613254161
 30
0.0
 11
-13.708643399262272
 21
-351.30796132541678
 31
0.0
  0
LINE
  8
0
  6
CONTINUOUS
 62
               3
  5
326
 10
0.291356600737501
 20
-350.30796132541678
 30
0.0
 11
0.291356600737501
 21
-351.30796132541667
 31
0.0
  0
LINE
  8
0
  6
CONTINUOUS
 62
               3
  5
327
 10
0.2913566007380695
 20
-482.30796132541565
 30
0.0
 11
-13.708643399261845
 21
-482.30796132541587
 31
0.0
  0
ARC
  8
0
  6
CONTINUOUS
 62
               3
  5
328
 10
-13.708643399261845
 20
-480.30796132541587
 30
0.0
 40
1.0000000000000004
 50
179.99999999996601
 51
269.99999999994748
  0
ARC
  8
0
  6
CONTINUOUS
 62
               3
  5
329
 10
-13.708643399261845
 20
-480.30796132541587
 30
0.0
 40
1.9999999999999996
 50
179.99999999996601
 51
269.99999999994901
  0
ARC
  8
0
  6
CONTINUOUS
 62
               3
  5
32A
 10
-10.708643399262016
 20
-477.30796132541587
 30
0.0
 40
4.0
 50
179.99999999996601
 51
269.99999999994901
  0
LINE
  8
0
  6
CONTINUOUS
 62
               3
  5
32B
 10
0.2913566007380695
 20
-482.30796132541565
 30
0.0
 11
0.2913566007380695
 21
-481.30796132541587
 31
0.0
  0
LINE
  8
0
  6
CONTINUOUS
 62
               3
  5
32C
 10
-15.708643399262016
 20
-480.30796132541587
 30
0.0
 11
-15.708643399262868
 21
-419.30796132541565
 31
0.0
  0
LINE
  8
0
  6
CONTINUOUS
 62
               3
  5
32D
 10
-14.708643399261931
 20
-480.30796132541587
 30
0.0
 11
-14.708643399262925
 21
-419.30796132541565
 31
0.0
  0
LINE
  8
0
  6
CONTINUOUS
 62
               3
  5
32E
 10
65.291356600737075
 20
-481.30796132541496
 30
0.0
 11
-13.708643399261845
 21
-481.30796132541587
 31
0.0
  0
LINE
  8
0
  6
CONTINUOUS
 62
               3
  5
32F
 10
65.291356600737075
 20
-458.80796132541496
 30
0.0
 11
-14.708643399262073
 21
-458.80796132541565
 31
0.0
  0
ARC
  8
0
  6
CONTINUOUS
 62
               3
  5
330
 10
-16.708643399262812
 20
-419.30796132541565
 30
0.0
 40
1.9999999999999996
 50
0.000000000001145
 51
89.999999999983004
  0
ARC
  8
0
  6
CONTINUOUS
 62
               3
  5
331
 10
-16.708643399262812
 20
-419.30796132541565
 30
0.0
 40
1.0000000000000004
 50
0.0000000000007633
 51
89.999999999984539
  0
LINE
  8
0
  6
CONTINUOUS
 62
               3
  5
332
 10
-16.708643399262812
 20
-418.30796132541565
 30
0.0
 11
-79.708643399262925
 21
-418.3079613254161
 31
0.0
  0
LINE
  8
0
  6
CONTINUOUS
 62
               3
  5
333
 10
-14.708643399262499
 20
-374.30796132541678
 30
0.0
 11
65.291356600737643
 21
-374.30796132541678
 31
0.0
  0
LINE
  8
0
  6
CONTINUOUS
 62
               3
  5
334
 10
-11.708643399262527
 20
-374.30796132541678
 30
0.0
 11
-11.708643399263096
 21
-458.80796132541565
 31
0.0
  0
LINE
  8
0
  6
CONTINUOUS
 62
               3
  5
335
 10
-79.708643399262925
 20
-416.3079613254161
 30
0.0
 11
-79.708643399262925
 21
-417.3079613254161
 31
0.0
  0
LINE
  8
0
  6
CONTINUOUS
 62
               3
  5
336
 10
-79.708643399262925
 20
-418.3079613254161
 30
0.0
 11
-79.708643399262925
 21
-417.3079613254161
 31
0.0
  0
LINE
  8
0
  6
CONTINUOUS
 62
               3
  5
337
 10
-21.958643399262868
 20
-414.80796132541565
 30
0.0
 11
-29.458643399262868
 21
-414.80796132541565
 31
0.0
  0
LINE
  8
0
  6
CONTINUOUS
 62
               3
  5
338
 10
-21.958643399262868
 20
-419.80796132541565
 30
0.0
 11
-29.458643399262868
 21
-419.80796132541587
 31
0.0
  0
LINE
  8
0
  6
CONTINUOUS
 62
               3
  5
339
 10
-21.958643399262868
 20
-414.80796132541565
 30
0.0
 11
-21.958643399262868
 21
-416.30796132541565
 31
0.0
  0
LINE
  8
0
  6
CONTINUOUS
 62
               3
  5
33A
 10
-21.958643399262868
 20
-418.30796132541565
 30
0.0
 11
-21.958643399262868
 21
-419.80796132541565
 31
0.0
  0
LINE
  8
0
  6
CONTINUOUS
 62
               3
  5
33B
 10
-29.458643399262868
 20
-414.80796132541565
 30
0.0
 11
-29.458643399262868
 21
-416.30796132541565
 31
0.0
  0
LINE
  8
0
  6
CONTINUOUS
 62
               3
  5
33C
 10
-29.458643399262868
 20
-418.30796132541587
 30
0.0
 11
-29.458643399262868
 21
-419.80796132541587
 31
0.0
  0
ARC
  8
0
  6
CONTINUOUS
 62
               3
  5
33D
 10
141.29135660073746
 20
-355.30796132541678
 30
0.0
 40
4.0
 50
0.0000000000344079
 51
90.000000000017366
  0
ARC
  8
0
  6
CONTINUOUS
 62
               3
  5
33E
 10
144.2913566007374
 20
-352.30796132541678
 30
0.0
 40
1.0000000000000004
 50
0.000000000034357
 51
90.000000000018133
  0
ARC
  8
0
  6
CONTINUOUS
 62
               3
  5
33F
 10
144.2913566007374
 20
-352.30796132541678
 30
0.0
 40
1.9999999999999996
 50
0.000000000034357
 51
90.000000000016598
  0
LINE
  8
0
  6
CONTINUOUS
 62
               3
  5
340
 10
146.29135660073746
 20
-352.30796132541678
 30
0.0
 11
146.29135660073689
 21
-415.30796132541565
 31
0.0
  0
LINE
  8
0
  6
CONTINUOUS
 62
               3
  5
341
 10
145.29135660073763
 20
-352.30796132541678
 30
0.0
 11
145.29135660073706
 21
-415.30796132541565
 31
0.0
  0
ARC
  8
0
  6
CONTINUOUS
 62
               3
  5
342
 10
147.29135660073695
 20
-415.30796132541565
 30
0.0
 40
1.9999999999999996
 50
180.0000000000683
 51
270.00000000005133
  0
ARC
  8
0
  6
CONTINUOUS
 62
               3
  5
343
 10
147.29135660073695
 20
-415.30796132541565
 30
0.0
 40
1.0000000000000004
 50
180.0000000000683
 51
270.00000000005133
  0
LINE
  8
0
  6
CONTINUOUS
 62
               3
  5
344
 10
147.29135660073695
 20
-417.30796132541565
 30
0.0
 11
210.29135660073706
 21
-417.3079613254161
 31
0.0
  0
LINE
  8
0
  6
CONTINUOUS
 62
               3
  5
345
 10
147.29135660073695
 20
-416.30796132541565
 30
0.0
 11
210.29135660073706
 21
-416.3079613254161
 31
0.0
  0
LINE
  8
0
  6
CONTINUOUS
 62
               3
  5
346
 10
130.29135660073763
 20
-350.30796132541678
 30
0.0
 11
144.2913566007374
 21
-350.30796132541678
 31
0.0
  0
LINE
  8
0
  6
CONTINUOUS
 62
               3
  5
347
 10
65.291356600737643
 20
-351.3079613254161
 30
0.0
 11
144.2913566007374
 21
-351.30796132541678
 31
0.0
  0
LINE
  8
0
  6
CONTINUOUS
 62
               3
  5
348
 10
130.29135660073763
 20
-350.30796132541678
 30
0.0
 11
130.29135660073763
 21
-351.30796132541667
 31
0.0
  0
LINE
  8
0
  6
CONTINUOUS
 62
               3
  5
349
 10
130.29135660073592
 20
-482.30796132541565
 30
0.0
 11
144.29135660073598
 21
-482.30796132541587
 31
0.0
  0
ARC
  8
0
  6
CONTINUOUS
 62
               3
  5
34A
 10
144.29135660073598
 20
-480.30796132541587
 30
0.0
 40
1.0000000000000004
 50
270.00000000005133
 51
360.0000000000328
  0
ARC
  8
0
  6
CONTINUOUS
 62
               3
  5
34B
 10
144.29135660073598
 20
-480.30796132541587
 30
0.0
 40
1.9999999999999996
 50
270.00000000004979
 51
360.0000000000328
  0
ARC
  8
0
  6
CONTINUOUS
 62
               3
  5
34C
 10
141.29135660073604
 20
-477.30796132541587
 30
0.0
 40
4.0
 50
270.00000000004979
 51
360.0000000000328
  0
LINE
  8
0
  6
CONTINUOUS
 62
               3
  5
34D
 10
130.29135660073592
 20
-482.30796132541565
 30
0.0
 11
130.29135660073592
 21
-481.30796132541587
 31
0.0
  0
LINE
  8
0
  6
CONTINUOUS
 62
               3
  5
34E
 10
146.29135660073587
 20
-480.30796132541587
 30
0.0
 11
146.29135660073689
 21
-419.30796132541565
 31
0.0
  0
LINE
  8
0
  6
CONTINUOUS
 62
               3
  5
34F
 10
145.29135660073592
 20
-480.30796132541587
 30
0.0
 11
145.29135660073695
 21
-419.30796132541565
 31
0.0
  0
LINE
  8
0
  6
CONTINUOUS
 62
               3
  5
350
 10
65.291356600737075
 20
-481.30796132541496
 30
0.0
 11
144.29135660073598
 21
-481.30796132541587
 31
0.0
  0
LINE
  8
0
  6
CONTINUOUS
 62
               3
  5
351
 10
65.291356600737075
 20
-458.80796132541496
 30
0.0
 11
145.29135660073621
 21
-458.80796132541565
 31
0.0
  0
ARC
  8
0
  6
CONTINUOUS
 62
               3
  5
352
 10
147.29135660073695
 20
-419.30796132541565
 30
0.0
 40
1.9999999999999996
 50
90.000000000016598
 51
179.99999999999847
  0
ARC
  8
0
  6
CONTINUOUS
 62
               3
  5
353
 10
147.29135660073695
 20
-419.30796132541565
 30
0.0
 40
1.0000000000000004
 50
90.000000000015078
 51
179.99999999999883
  0
LINE
  8
0
  6
CONTINUOUS
 62
               3
  5
354
 10
147.29135660073695
 20
-418.30796132541565
 30
0.0
 11
210.29135660073706
 21
-418.3079613254161
 31
0.0
  0
LINE
  8
0
  6
CONTINUOUS
 62
               3
  5
355
 10
145.29135660073763
 20
-374.30796132541678
 30
0.0
 11
65.291356600737643
 21
-374.30796132541678
 31
0.0
  0
LINE
  8
0
  6
CONTINUOUS
 62
               3
  5
356
 10
142.29135660073752
 20
-374.30796132541678
 30
0.0
 11
142.29135660073695
 21
-458.80796132541565
 31
0.0
  0
LINE
  8
0
  6
CONTINUOUS
 62
               3
  5
357
 10
210.29135660073706
 20
-416.3079613254161
 30
0.0
 11
210.29135660073706
 21
-417.3079613254161
 31
0.0
  0
LINE
  8
0
  6
CONTINUOUS
 62
               3
  5
358
 10
210.29135660073706
 20
-418.3079613254161
 30
0.0
 11
210.29135660073706
 21
-417.3079613254161
 31
0.0
  0
LINE
  8
0
  6
CONTINUOUS
 62
               3
  5
359
 10
152.54135660073689
 20
-414.80796132541565
 30
0.0
 11
160.04135660073689
 21
-414.80796132541565
 31
0.0
  0
LINE
  8
0
  6
CONTINUOUS
 62
               3
  5
35A
 10
152.54135660073689
 20
-419.80796132541565
 30
0.0
 11
160.04135660073689
 21
-419.80796132541587
 31
0.0
  0
LINE
  8
0
  6
CONTINUOUS
 62
               3
  5
35B
 10
152.54135660073689
 20
-414.80796132541565
 30
0.0
 11
152.54135660073689
 21
-416.30796132541565
 31
0.0
  0
LINE
  8
0
  6
CONTINUOUS
 62
               3
  5
35C
 10
152.54135660073689
 20
-418.30796132541565
 30
0.0
 11
152.54135660073689
 21
-419.80796132541565
 31
0.0
  0
LINE
  8
0
  6
CONTINUOUS
 62
               3
  5
35D
 10
160.04135660073689
 20
-414.80796132541565
 30
0.0
 11
160.04135660073689
 21
-416.30796132541565
 31
0.0
  0
LINE
  8
0
  6
CONTINUOUS
 62
               3
  5
35E
 10
160.04135660073689
 20
-418.30796132541587
 30
0.0
 11
160.04135660073689
 21
-419.80796132541587
 31
0.0
  0
LINE
  8
0
  6
CONTINUOUS
 62
               3
  5
35F
 10
127.29135660073696
 20
-496.30796132541496
 30
0.0
 11
127.29135660073696
 21
-481.30796132541587
 31
0.0
  0
LINE
  8
0
  6
CONTINUOUS
 62
               3
  5
360
 10
-496.70864339926254
 20
-496.30796132541496
 30
0.0
 11
-496.70864339926254
 21
-481.30796132541587
 31
0.0
  0
LINE
  8
0
  6
CONTINUOUS
 62
               3
  5
361
 10
-499.70864339926237
 20
-496.30796132541496
 30
0.0
 11
-369.70864339926237
 21
-496.30796132541496
 31
0.0
  0
ARC
  8
0
  6
CONTINUOUS
 62
               3
  5
362
 10
-510.70864339926175
 20
-355.30796132541678
 30
0.0
 40
4.0
 50
89.999999999982236
 51
179.99999999996518
  0
LINE
  8
0
  6
CONTINUOUS
 62
               3
  5
363
 10
-514.70864339926175
 20
-355.3079613254144
 30
0.0
 11
-514.70864339926197
 21
-374.30796132541678
 31
0.0
  0
LINE
  8
0
  6
CONTINUOUS
 62
               3
  5
364
 10
-450.7086433992618
 20
-351.30796132541622
 30
0.0
 11
-510.7086433992618
 21
-351.30796132541678
 31
0.0
  0
LINE
  8
0
  6
CONTINUOUS
 62
               3
  5
365
 10
-450.7086433992618
 20
-482.30796132541485
 30
0.0
 11
-418.70864339926129
 21
-482.3079613254144
 31
0.0
  0
ARC
  8
0
  6
CONTINUOUS
 62
               3
  5
366
 10
-510.70864339926146
 20
-477.30796132541587
 30
0.0
 40
4.0
 50
179.99999999996601
 51
269.99999999994901
  0
LINE
  8
0
  6
CONTINUOUS
 62
               3
  5
367
 10
-514.70864339926152
 20
-477.30796132541587
 30
0.0
 11
-514.7086433992614
 21
-458.80796132541565
 31
0.0
  0
LINE
  8
0
  6
CONTINUOUS
 62
               3
  5
368
 10
-450.7086433992618
 20
-481.30796132541519
 30
0.0
 11
-510.70864339926499
 21
-481.30796132541587
 31
0.0
  0
LINE
  8
0
  6
CONTINUOUS
 62
               3
  5
369
 10
-450.7086433992618
 20
-458.80796132541508
 30
0.0
 11
-514.70864339926152
 21
-458.80796132541565
 31
0.0
  0
LINE
  8
0
  6
CONTINUOUS
 62
               3
  5
36A
 10
-514.70864339926197
 20
-374.30796132541678
 30
0.0
 11
-450.7086433992618
 21
-374.30796132541678
 31
0.0
  0
LINE
  8
0
  6
CONTINUOUS
 62
               3
  5
36B
 10
-511.70864339926197
 20
-374.30796132541678
 30
0.0
 11
-511.70864339926254
 21
-458.80796132541565
 31
0.0
  0
LINE
  8
0
  6
CONTINUOUS
 62
               3
  5
36C
 10
-418.7086433992618
 20
-351.30796132541622
 30
0.0
 11
-355.70864339926203
 21
-351.30796132541678
 31
0.0
  0
LINE
  8
0
  6
CONTINUOUS
 62
               3
  5
36D
 10
-418.70864339926129
 20
-481.30796132541519
 30
0.0
 11
-358.70864339926334
 21
-481.30796132541587
 31
0.0
  0
LINE
  8
0
  6
CONTINUOUS
 62
               3
  5
36E
 10
-418.70864339926129
 20
-458.80796132541519
 30
0.0
 11
-354.70864339926322
 21
-458.80796132541565
 31
0.0
  0
LINE
  8
0
  6
CONTINUOUS
 62
               3
  5
36F
 10
-354.7086433992618
 20
-374.30796132541678
 30
0.0
 11
-418.7086433992618
 21
-374.30796132541678
 31
0.0
  0
LINE
  8
0
  6
CONTINUOUS
 62
               3
  5
370
 10
-372.70864339926248
 20
-496.30796132541496
 30
0.0
 11
-372.70864339926248
 21
-481.30796132541587
 31
0.0
  0
LINE
  8
0
  6
CONTINUOUS
 62
               3
  5
371
 10
-450.7086433992618
 20
-350.30796132541678
 30
0.0
 11
-450.7086433992618
 21
-482.30796132541485
 31
0.0
  0
LINE
  8
0
  6
CONTINUOUS
 62
               3
  5
372
 10
-418.70864339926129
 20
-482.3079613254144
 30
0.0
 11
-418.7086433992618
 21
-350.30796132541678
 31
0.0
  0
LINE
  8
0
  6
CONTINUOUS
 62
               3
  5
373
 10
-450.70864339926237
 20
-350.30796132541678
 30
0.0
 11
-418.70864339926237
 21
-350.30796132541678
 31
0.0
  0
LINE
  8
0
  6
CONTINUOUS
 62
               3
  5
374
 10
-450.7086433992618
 20
-417.30796132541565
 30
0.0
 11
-418.70864339926129
 21
-417.30796132541565
 31
0.0
  0
LINE
  8
0
  6
CONTINUOUS
 62
               3
  5
375
 10
-450.7086433992618
 20
-416.30796132541587
 30
0.0
 11
-418.70864339926129
 21
-416.30796132541587
 31
0.0
  0
LINE
  8
0
  6
CONTINUOUS
 62
               3
  5
376
 10
-450.7086433992618
 20
-418.30796132541587
 30
0.0
 11
-418.70864339926129
 21
-418.30796132541587
 31
0.0
  0
ARC
  8
0
  6
CONTINUOUS
 62
               3
  5
377
 10
-358.708643399263
 20
-355.30796132541678
 30
0.0
 40
4.0
 50
0.0000000000344079
 51
90.000000000017366
  0
LINE
  8
0
  6
CONTINUOUS
 62
               3
  5
378
 10
-354.708643399263
 20
-355.3079613254144
 30
0.0
 11
-354.70864339926277
 21
-374.30796132541678
 31
0.0
  0
ARC
  8
0
  6
CONTINUOUS
 62
               3
  5
379
 10
-358.70864339926328
 20
-477.30796132541587
 30
0.0
 40
4.0
 50
270.00000000004979
 51
360.0000000000328
  0
LINE
  8
0
  6
CONTINUOUS
 62
               3
  5
37A
 10
-354.70864339926322
 20
-477.30796132541587
 30
0.0
 11
-354.70864339926334
 21
-458.80796132541565
 31
0.0
  0
LINE
  8
0
  6
CONTINUOUS
 62
               3
  5
37B
 10
-357.70864339926277
 20
-374.30796132541678
 30
0.0
 11
-357.7086433992622
 21
-458.80796132541565
 31
0.0
  0
LINE
  8
0
  6
CONTINUOUS
 62
               3
  5
37C
 10
-501.20864339926248
 20
-336.38352279508808
 30
0.0
 11
-368.20864339926226
 21
-336.38352279508808
 31
0.0
  0
LINE
  8
0
  6
CONTINUOUS
 62
               3
  5
37D
 10
-501.20864339926248
 20
-300.45614738962047
 30
0.0
 11
-501.20864339926248
 21
-336.38352279508808
 31
0.0
  0
LINE
  8
0
  6
CONTINUOUS
 62
               3
  5
37E
 10
-368.20864339926226
 20
-300.45614738962058
 30
0.0
 11
-368.20864339926226
 21
-336.38352279508808
 31
0.0
  0
LINE
  8
0
  6
CONTINUOUS
 62
               3
  5
37F
 10
503.29135660073746
 20
-496.30796132541496
 30
0.0
 11
503.29135660073746
 21
-481.30796132541587
 31
0.0
  0
LINE
  8
0
  6
CONTINUOUS
 62
               3
  5
380
 10
500.29135660073763
 20
-496.30796132541496
 30
0.0
 11
630.29135660073757
 21
-496.30796132541496
 31
0.0
  0
ARC
  8
0
  6
CONTINUOUS
 62
               3
  5
381
 10
489.29135660073825
 20
-355.30796132541678
 30
0.0
 40
4.0
 50
89.999999999982236
 51
179.99999999996518
  0
LINE
  8
0
  6
CONTINUOUS
 62
               3
  5
382
 10
485.29135660073825
 20
-355.3079613254144
 30
0.0
 11
485.29135660073803
 21
-374.30796132541678
 31
0.0
  0
LINE
  8
0
  6
CONTINUOUS
 62
               3
  5
383
 10
549.29135660073825
 20
-351.30796132541622
 30
0.0
 11
489.2913566007382
 21
-351.30796132541678
 31
0.0
  0
LINE
  8
0
  6
CONTINUOUS
 62
               3
  5
384
 10
549.29135660073825
 20
-482.30796132541485
 30
0.0
 11
581.29135660073871
 21
-482.3079613254144
 31
0.0
  0
ARC
  8
0
  6
CONTINUOUS
 62
               3
  5
385
 10
489.29135660073854
 20
-477.30796132541587
 30
0.0
 40
4.0
 50
179.99999999996601
 51
269.99999999994901
  0
LINE
  8
0
  6
CONTINUOUS
 62
               3
  5
386
 10
485.29135660073848
 20
-477.30796132541587
 30
0.0
 11
485.2913566007386
 21
-458.80796132541565
 31
0.0
  0
LINE
  8
0
  6
CONTINUOUS
 62
               3
  5
387
 10
549.29135660073825
 20
-481.30796132541519
 30
0.0
 11
489.29135660073501
 21
-481.30796132541587
 31
0.0
  0
LINE
  8
0
  6
CONTINUOUS
 62
               3
  5
388
 10
549.29135660073825
 20
-458.80796132541508
 30
0.0
 11
485.29135660073848
 21
-458.80796132541565
 31
0.0
  0
LINE
  8
0
  6
CONTINUOUS
 62
               3
  5
389
 10
485.29135660073803
 20
-374.30796132541678
 30
0.0
 11
549.29135660073825
 21
-374.30796132541678
 31
0.0
  0
LINE
  8
0
  6
CONTINUOUS
 62
               3
  5
38A
 10
488.29135660073803
 20
-374.30796132541678
 30
0.0
 11
488.29135660073746
 21
-458.80796132541565
 31
0.0
  0
LINE
  8
0
  6
CONTINUOUS
 62
               3
  5
38B
 10
581.29135660073825
 20
-351.30796132541622
 30
0.0
 11
644.29135660073803
 21
-351.30796132541678
 31
0.0
  0
LINE
  8
0
  6
CONTINUOUS
 62
               3
  5
38C
 10
581.29135660073871
 20
-481.30796132541519
 30
0.0
 11
641.29135660073666
 21
-481.30796132541587
 31
0.0
  0
LINE
  8
0
  6
CONTINUOUS
 62
               3
  5
38D
 10
581.29135660073871
 20
-458.80796132541519
 30
0.0
 11
645.29135660073678
 21
-458.80796132541565
 31
0.0
  0
LINE
  8
0
  6
CONTINUOUS
 62
               3
  5
38E
 10
645.29135660073825
 20
-374.30796132541678
 30
0.0
 11
581.29135660073825
 21
-374.30796132541678
 31
0.0
  0
LINE
  8
0
  6
CONTINUOUS
 62
               3
  5
38F
 10
627.29135660073757
 20
-496.30796132541496
 30
0.0
 11
627.29135660073757
 21
-481.30796132541587
 31
0.0
  0
LINE
  8
0
  6
CONTINUOUS
 62
               3
  5
390
 10
549.29135660073825
 20
-350.30796132541678
 30
0.0
 11
549.29135660073825
 21
-482.30796132541485
 31
0.0
  0
LINE
  8
0
  6
CONTINUOUS
 62
               3
  5
391
 10
581.29135660073871
 20
-482.3079613254144
 30
0.0
 11
581.29135660073825
 21
-350.30796132541678
 31
0.0
  0
LINE
  8
0
  6
CONTINUOUS
 62
               3
  5
392
 10
549.29135660073757
 20
-350.30796132541678
 30
0.0
 11
581.29135660073757
 21
-350.30796132541678
 31
0.0
  0
LINE
  8
0
  6
CONTINUOUS
 62
               3
  5
393
 10
549.29135660073825
 20
-417.30796132541565
 30
0.0
 11
581.29135660073871
 21
-417.30796132541565
 31
0.0
  0
LINE
  8
0
  6
CONTINUOUS
 62
               3
  5
394
 10
549.29135660073825
 20
-416.30796132541587
 30
0.0
 11
581.29135660073871
 21
-416.30796132541587
 31
0.0
  0
LINE
  8
0
  6
CONTINUOUS
 62
               3
  5
395
 10
549.29135660073825
 20
-418.30796132541587
 30
0.0
 11
581.29135660073871
 21
-418.30796132541587
 31
0.0
  0
ARC
  8
0
  6
CONTINUOUS
 62
               3
  5
396
 10
641.291356600737
 20
-355.30796132541678
 30
0.0
 40
4.0
 50
0.0000000000344079
 51
90.000000000017366
  0
LINE
  8
0
  6
CONTINUOUS
 62
               3
  5
397
 10
645.291356600737
 20
-355.3079613254144
 30
0.0
 11
645.29135660073723
 21
-374.30796132541678
 31
0.0
  0
ARC
  8
0
  6
CONTINUOUS
 62
               3
  5
398
 10
641.29135660073666
 20
-477.30796132541587
 30
0.0
 40
4.0
 50
270.00000000004979
 51
360.0000000000328
  0
LINE
  8
0
  6
CONTINUOUS
 62
               3
  5
399
 10
645.29135660073678
 20
-477.30796132541587
 30
0.0
 11
645.29135660073666
 21
-458.80796132541565
 31
0.0
  0
LINE
  8
0
  6
CONTINUOUS
 62
               3
  5
39A
 10
642.29135660073723
 20
-374.30796132541678
 30
0.0
 11
642.2913566007378
 21
-458.80796132541565
 31
0.0
  0
LINE
  8
0
  6
CONTINUOUS
 62
               3
  5
39B
 10
498.79135660073752
 20
-336.38352279508808
 30
0.0
 11
631.7913566007378
 21
-336.38352279508808
 31
0.0
  0
LINE
  8
0
  6
CONTINUOUS
 62
               3
  5
39C
 10
498.79135660073752
 20
-300.45614738962047
 30
0.0
 11
498.79135660073752
 21
-336.38352279508808
 31
0.0
  0
LINE
  8
0
  6
CONTINUOUS
 62
               3
  5
39D
 10
631.7913566007378
 20
-300.45614738962058
 30
0.0
 11
631.7913566007378
 21
-336.38352279508808
 31
0.0
  0
LINE
  8
0
  6
CONTINUOUS
 62
               3
  5
39E
 10
-62.708643399261959
 20
-36.866257378912138
 30
0.0
 11
-62.708643399261959
 21
58.755515854619816
 31
0.0
  0
LINE
  8
0
  6
CONTINUOUS
 62
               3
  5
39F
 10
-62.708643399261959
 20
-36.866257378912067
 30
0.0
 11
-62.708643399261959
 21
-45.371438505452048
 31
0.0
  0
LINE
  8
0
  6
CONTINUOUS
 62
               3
  5
3A0
 10
-62.708643399261916
 20
495.13374262108783
 30
0.0
 11
-62.708643399261916
 21
590.58497743884573
 31
0.0
  0
LINE
  8
0
  6
CONTINUOUS
 62
               3
  5
3A1
 10
-62.708643399261916
 20
495.13374262108795
 30
0.0
 11
-62.708643399261916
 21
486.79930787512268
 31
0.0
  0
CIRCLE
  8
0
  6
CONTINUOUS
 62
               3
  5
3A2
 10
65.291356600737558
 20
538.69203867458384
 30
0.0
 40
75.0
  0
ARC
  8
0
  6
CONTINUOUS
 62
               3
  5
3A3
 10
65.291356600737558
 20
538.69203867458384
 30
0.0
 40
88.5
 50
256.93897588510077
 51
283.06102411469175
  0
ARC
  8
0
  6
CONTINUOUS
 62
               3
  5
3A4
 10
65.291356600737558
 20
538.69203867458384
 30
0.0
 40
88.5
 50
346.9389758850661
 51
373.06102411465713
  0
ARC
  8
0
  6
CONTINUOUS
 62
               3
  5
3A5
 10
65.291356600737558
 20
538.69203867458384
 30
0.0
 40
88.5
 50
76.938975885169896
 51
103.06102411476094
  0
ARC
  8
0
  6
CONTINUOUS
 62
               3
  5
3A6
 10
65.291356600737458
 20
538.69203867458384
 30
0.0
 40
88.5
 50
166.93897588513528
 51
193.06102411472631
  0
ARC
  8
0
  6
CONTINUOUS
 62
               3
  5
3A7
 10
65.291356600737558
 20
538.69203867458384
 30
0.0
 40
83.499999999999901
 50
221.86604030116479
 51
256.14173134482382
  0
ARC
  8
0
  6
CONTINUOUS
 62
               3
  5
3A8
 10
65.291356600737558
 20
538.69203867458384
 30
0.0
 40
83.499999999999901
 50
283.85826865517498
 51
346.1417313448236
  0
ARC
  8
0
  6
CONTINUOUS
 62
               3
  5
3A9
 10
65.291356600737558
 20
538.69203867458384
 30
0.0
 40
83.499999999999901
 50
13.858268655175571
 51
76.141731344824251
  0
ARC
  8
0
  6
CONTINUOUS
 62
               3
  5
3AA
 10
65.291356600737558
 20
538.69203867458384
 30
0.0
 40
83.499999999999901
 50
103.85826865517537
 51
138.1339596988347
  0
ARC
  8
0
  6
CONTINUOUS
 62
               3
  5
3AB
 10
148.20697635962244
 20
573.69203867458407
 30
0.0
 40
15.0
 50
202.88538047615864
 51
269.99999999999937
  0
ARC
  8
0
  6
CONTINUOUS
 62
               3
  5
3AC
 10
148.20697635962253
 20
503.69203867458378
 30
0.0
 40
15.0
 50
89.999999999999801
 51
157.1146195238405
  0
ARC
  8
0
  6
CONTINUOUS
 62
               3
  5
3AD
 10
100.29135660073756
 20
455.77641891569886
 30
0.0
 40
15.0
 50
112.8853804761584
 51
179.9999999999996
  0
ARC
  8
0
  6
CONTINUOUS
 62
               3
  5
3AE
 10
30.291356600737558
 20
455.77641891569886
 30
0.0
 40
15.0
 50
0.0
 51
67.114619523841412
  0
ARC
  8
0
  6
CONTINUOUS
 62
               3
  5
3AF
 10
-17.624263158147457
 20
503.6920386745839
 30
0.0
 40
15.0
 50
22.885380476158666
 51
89.999999999999801
  0
ARC
  8
0
  6
CONTINUOUS
 62
               3
  5
3B0
 10
-17.624263158147443
 20
573.69203867458384
 30
0.0
 40
15.0
 50
269.99999999999937
 51
337.11461952384099
  0
ARC
  8
0
  6
CONTINUOUS
 62
               3
  5
3B1
 10
30.291356600737558
 20
621.60765843346883
 30
0.0
 40
15.0
 50
292.88538047615771
 51
359.9999999999992
  0
ARC
  8
0
  6
CONTINUOUS
 62
               3
  5
3B2
 10
100.29135660073756
 20
621.60765843346883
 30
0.0
 40
15.0
 50
179.9999999999996
 51
247.11461952384064
  0
LINE
  8
0
  6
CONTINUOUS
 62
               3
  5
3B3
 10
45.291356600737558
 20
624.90253687520942
 30
0.0
 11
45.291356600737558
 21
621.60765843346883
 31
0.0
  0
LINE
  8
0
  6
CONTINUOUS
 62
               3
  5
3B4
 10
85.291356600737558
 20
624.90253687520942
 30
0.0
 11
85.291356600737558
 21
619.76145337581374
 31
0.0
  0
LINE
  8
0
  6
CONTINUOUS
 62
               3
  5
3B5
 10
146.36077130196742
 20
558.69203867458384
 30
0.0
 11
151.50185480136221
 21
558.69203867458384
 31
0.0
  0
LINE
  8
0
  6
CONTINUOUS
 62
               3
  5
3B6
 10
148.20697635962253
 20
518.69203867458384
 30
0.0
 11
151.50185480136221
 21
518.69203867458384
 31
0.0
  0
LINE
  8
0
  6
CONTINUOUS
 62
               3
  5
3B7
 10
45.291356600737558
 20
455.77641891569886
 30
0.0
 11
45.291356600737558
 21
452.48154047395894
 31
0.0
  0
LINE
  8
0
  6
CONTINUOUS
 62
               3
  5
3B8
 10
85.291356600737558
 20
455.77641891569886
 30
0.0
 11
85.291356600737558
 21
452.48154047395894
 31
0.0
  0
LINE
  8
0
  6
CONTINUOUS
 62
               3
  5
3B9
 10
-20.91914159988778
 20
518.69203867458384
 30
0.0
 11
-17.624263158147457
 21
518.69203867458384
 31
0.0
  0
LINE
  8
0
  6
CONTINUOUS
 62
               3
  5
3BA
 10
-20.91914159988778
 20
558.69203867458384
 30
0.0
 11
-17.624263158147443
 21
558.69203867458384
 31
0.0
  0
ARC
  8
0
  6
CONTINUOUS
 62
               3
  5
3BB
 10
65.291356600737558
 20
538.69203867458384
 30
0.0
 40
80.500000000000043
 50
195.06541275409876
 51
254.93458724590019
  0
ARC
  8
0
  6
CONTINUOUS
 62
               3
  5
3BC
 10
65.291356600737558
 20
538.69203867458384
 30
0.0
 40
80.500000000000043
 50
285.06541275409859
 51
344.93458724589993
  0
ARC
  8
0
  6
CONTINUOUS
 62
               3
  5
3BD
 10
65.291356600737558
 20
538.69203867458384
 30
0.0
 40
80.500000000000043
 50
15.065412754099327
 51
75.614355213953999
  0
ARC
  8
0
  6
CONTINUOUS
 62
               3
  5
3BE
 10
65.291356600737558
 20
538.69203867458384
 30
0.0
 40
80.500000000000043
 50
105.065412754099
 51
164.93458724590045
  0
ARC
  8
0
  6
CONTINUOUS
 62
               3
  5
3BF
 10
-0.6152346294718265
 20
597.75616681014571
 30
0.0
 40
5.0
 50
271.99999999999937
 51
318.13395969883442
  0
ARC
  8
0
  6
CONTINUOUS
 62
               3
  5
3C0
 10
-0.6152346294715708
 20
479.62791053902168
 30
0.0
 40
5.0
 50
41.866040301164631
 51
87.999999999999645
  0
LINE
  8
0
  6
CONTINUOUS
 62
               3
  5
3C1
 10
-509.70864339926237
 20
188.6920386745839
 30
0.0
 11
-359.70864339926294
 21
188.6920386745839
 31
0.0
  0
LINE
  8
0
  6
CONTINUOUS
 62
               3
  5
3C2
 10
-523.20864339926254
 20
178.6920386745839
 30
0.0
 11
-523.20864339926254
 21
171.69203867458424
 31
0.0
  0
LINE
  8
0
  6
CONTINUOUS
 62
               3
  5
3C3
 10
-523.20864339926254
 20
178.6920386745839
 30
0.0
 11
-509.70864339926237
 21
188.6920386745839
 31
0.0
  0
LINE
  8
0
  6
CONTINUOUS
 62
               3
  5
3C4
 10
-346.20864339926271
 20
178.6920386745839
 30
0.0
 11
-346.20864339926271
 21
171.69203867458424
 31
0.0
  0
LINE
  8
0
  6
CONTINUOUS
 62
               3
  5
3C5
 10
-346.20864339926271
 20
178.6920386745839
 30
0.0
 11
-359.70864339926294
 21
188.6920386745839
 31
0.0
  0
ARC
  8
0
  6
CONTINUOUS
 62
               3
  5
3C6
 10
-520.20864339926231
 20
166.69203867458424
 30
0.0
 40
5.0
 50
0.0000000000000079
 51
89.999999999999815
  0
LINE
  8
0
  6
CONTINUOUS
 62
               3
  5
3C7
 10
-523.20864339926254
 20
171.69203867458424
 30
0.0
 11
-520.20864339926231
 21
171.69203867458424
 31
0.0
  0
ARC
  8
0
  6
CONTINUOUS
 62
               3
  5
3C8
 10
-349.20864339926237
 20
166.69203867458424
 30
0.0
 40
5.0
 50
89.999999999999801
 51
179.9999999999996
  0
LINE
  8
0
  6
CONTINUOUS
 62
               3
  5
3C9
 10
-346.20864339926271
 20
171.69203867458424
 30
0.0
 11
-349.20864339926237
 21
171.69203867458424
 31
0.0
  0
LINE
  8
0
  6
CONTINUOUS
 62
               3
  5
3CA
 10
-9.7086433992623711
 20
188.6920386745839
 30
0.0
 11
140.29135660073706
 21
188.6920386745839
 31
0.0
  0
LINE
  8
0
  6
CONTINUOUS
 62
               3
  5
3CB
 10
-23.208643399262542
 20
178.6920386745839
 30
0.0
 11
-23.208643399262542
 21
171.69203867458424
 31
0.0
  0
LINE
  8
0
  6
CONTINUOUS
 62
               3
  5
3CC
 10
-23.208643399262542
 20
178.6920386745839
 30
0.0
 11
-9.7086433992623711
 21
188.6920386745839
 31
0.0
  0
LINE
  8
0
  6
CONTINUOUS
 62
               3
  5
3CD
 10
153.79135660073729
 20
178.6920386745839
 30
0.0
 11
153.79135660073729
 21
171.69203867458424
 31
0.0
  0
LINE
  8
0
  6
CONTINUOUS
 62
               3
  5
3CE
 10
153.79135660073729
 20
178.6920386745839
 30
0.0
 11
140.29135660073706
 21
188.6920386745839
 31
0.0
  0
ARC
  8
0
  6
CONTINUOUS
 62
               3
  5
3CF
 10
-20.208643399262314
 20
166.69203867458424
 30
0.0
 40
5.0
 50
0.0000000000000079
 51
89.999999999999815
  0
LINE
  8
0
  6
CONTINUOUS
 62
               3
  5
3D0
 10
-23.208643399262542
 20
171.69203867458424
 30
0.0
 11
-20.208643399262314
 21
171.69203867458424
 31
0.0
  0
ARC
  8
0
  6
CONTINUOUS
 62
               3
  5
3D1
 10
150.79135660073763
 20
166.69203867458424
 30
0.0
 40
5.0
 50
89.999999999999801
 51
179.9999999999996
  0
LINE
  8
0
  6
CONTINUOUS
 62
               3
  5
3D2
 10
153.79135660073729
 20
171.69203867458424
 30
0.0
 11
150.79135660073763
 21
171.69203867458424
 31
0.0
  0
LINE
  8
0
  6
CONTINUOUS
 62
               3
  5
3D3
 10
490.29135660073763
 20
188.6920386745839
 30
0.0
 11
640.29135660073712
 21
188.6920386745839
 31
0.0
  0
LINE
  8
0
  6
CONTINUOUS
 62
               3
  5
3D4
 10
476.79135660073746
 20
178.6920386745839
 30
0.0
 11
476.79135660073746
 21
171.69203867458424
 31
0.0
  0
LINE
  8
0
  6
CONTINUOUS
 62
               3
  5
3D5
 10
476.79135660073746
 20
178.6920386745839
 30
0.0
 11
490.29135660073763
 21
188.6920386745839
 31
0.0
  0
LINE
  8
0
  6
CONTINUOUS
 62
               3
  5
3D6
 10
653.79135660073734
 20
178.6920386745839
 30
0.0
 11
653.79135660073734
 21
171.69203867458424
 31
0.0
  0
LINE
  8
0
  6
CONTINUOUS
 62
               3
  5
3D7
 10
653.79135660073734
 20
178.6920386745839
 30
0.0
 11
640.29135660073712
 21
188.6920386745839
 31
0.0
  0
ARC
  8
0
  6
CONTINUOUS
 62
               3
  5
3D8
 10
479.79135660073769
 20
166.69203867458424
 30
0.0
 40
5.0
 50
0.0000000000000079
 51
89.999999999999815
  0
LINE
  8
0
  6
CONTINUOUS
 62
               3
  5
3D9
 10
476.79135660073746
 20
171.69203867458424
 30
0.0
 11
479.79135660073769
 21
171.69203867458424
 31
0.0
  0
ARC
  8
0
  6
CONTINUOUS
 62
               3
  5
3DA
 10
650.79135660073757
 20
166.69203867458424
 30
0.0
 40
5.0
 50
89.999999999999801
 51
179.9999999999996
  0
LINE
  8
0
  6
CONTINUOUS
 62
               3
  5
3DB
 10
653.79135660073734
 20
171.69203867458424
 30
0.0
 11
650.79135660073757
 21
171.69203867458424
 31
0.0
  0
INSERT
  8
0
  6
CONTINUOUS
  5
3DC
  2
GROUP_1
 10
0.0
 20
0.0
 30
0.0
  0
INSERT
  8
0
  6
CONTINUOUS
  5
3DD
  2
GROUP_2
 10
0.0
 20
0.0
 30
0.0
  0
INSERT
  8
0
  6
CONTINUOUS
  5
3DE
  2
GROUP_3
 10
0.0
 20
0.0
 30
0.0
  0
LINE
  8
LAYER001
  6
DIVIDE
 62
               4
  5
3DF
 10
5.0213918474367034
 20
-336.3079613254161
 30
0.0
 11
5.0213918474367034
 21
-351.3079613254161
 31
0.0
  0
LINE
  8
LAYER001
  6
DIVIDE
 62
               4
  5
3E0
 10
125.56132135403847
 20
-336.3079613254161
 30
0.0
 11
125.56132135403847
 21
-351.3079613254161
 31
0.0
  0
LINE
  8
LAYER001
  6
DIVIDE
 62
               4
  5
3E1
 10
-374.43867864596155
 20
-336.38352279508808
 30
0.0
 11
-374.43867864596155
 21
-351.38352279508808
 31
0.0
  0
LINE
  8
LAYER001
  6
DIVIDE
 62
               4
  5
3E2
 10
-494.97860815256331
 20
-336.38352279508808
 30
0.0
 11
-494.97860815256331
 21
-351.38352279508808
 31
0.0
  0
LINE
  8
LAYER001
  6
DIVIDE
 62
               4
  5
3E3
 10
625.56132135403845
 20
-336.38352279508808
 30
0.0
 11
625.56132135403845
 21
-351.38352279508808
 31
0.0
  0
LINE
  8
LAYER001
  6
DIVIDE
 62
               4
  5
3E4
 10
505.02139184743669
 20
-336.38352279508808
 30
0.0
 11
505.02139184743669
 21
-351.38352279508808
 31
0.0
  0
ENDSEC
  0
EOF
