  0
SECTION
  2
HEADER
  9
$ACADVER
  1
AC1009
  9
$INSBASE
 10
0.0
 20
0.0
 30
0.0
  9
$EXTMIN
 10
-641.28625489580406
 20
-1613.5508417537342
 30
0.0
  9
$EXTMAX
 10
744.43500906164388
 20
696.28042476353119
 30
0.0
  9
$LIMMIN
 10
-684.59004439447426
 20
-1685.7330688323987
  9
$LIMMAX
 10
787.73879856031408
 20
768.46265184219578
  9
$ORTHOMODE
 70
               0
  9
$REGENMODE
 70
               1
  9
$FILLMODE
 70
               1
  9
$QTEXTMODE
 70
               0
  9
$MIRRTEXT
 70
               1
  9
$DRAGMODE
 70
               2
  9
$LTSCALE
 40
1.0
  9
$OSMODE
 70
               0
  9
$ATTMODE
 70
               1
  9
$TEXTSIZE
 40
0.2
  9
$TRACEWID
 40
0.05
  9
$TEXTSTYLE
  7
STANDARD
  9
$CLAYER
  8
0
  9
$CELTYPE
  6
CONTINUOUS
  9
$CECOLOR
 62
             256
  9
$DIMSCALE
 40
1.0
  9
$DIMASZ
 40
0.18
  9
$DIMEXO
 40
0.0625
  9
$DIMDLI
 40
0.38
  9
$DIMRND
 40
0.0
  9
$DIMDLE
 40
0.0
  9
$DIMEXE
 40
0.18
  9
$DIMTP
 40
0.0
  9
$DIMTM
 40
0.0
  9
$DIMTXT
 40
0.18
  9
$DIMCEN
 40
0.09
  9
$DIMTSZ
 40
0.0
  9
$DIMTOL
 70
               0
  9
$DIMLIM
 70
               0
  9
$DIMTIH
 70
               1
  9
$DIMTOH
 70
               1
  9
$DIMSE1
 70
               0
  9
$DIMSE2
 70
               0
  9
$DIMTAD
 70
               0
  9
$DIMZIN
 70
               0
  9
$DIMBLK
  1

  9
$DIMASO
 70
               1
  9
$DIMSHO
 70
               1
  9
$DIMPOST
  1

  9
$DIMAPOST
  1

  9
$DIMALT
 70
               0
  9
$DIMALTD
 70
               2
  9
$DIMALTF
 40
25.399999999999999
  9
$DIMLFAC
 40
1.0
  9
$DIMTOFL
 70
               0
  9
$DIMTVP
 40
0.0
  9
$DIMTIX
 70
               0
  9
$DIMSOXD
 70
               0
  9
$DIMSAH
 70
               0
  9
$DIMBLK1
  1

  9
$DIMBLK2
  1

  9
$DIMSTYLE
  2
STANDARD
  9
$DIMCLRD
 70
               0
  9
$DIMCLRE
 70
               0
  9
$DIMCLRT
 70
               0
  9
$DIMTFAC
 40
1.0
  9
$DIMGAP
 40
0.09
  9
$LUNITS
 70
               2
  9
$LUPREC
 70
               4
  9
$AXISMODE
 70
               0
  9
$AXISUNIT
 10
0.0
 20
0.0
  9
$SKETCHINC
 40
0.1
  9
$FILLETRAD
 40
0.0
  9
$AUNITS
 70
               0
  9
$AUPREC
 70
               0
  9
$MENU
  1
acad
  9
$ELEVATION
 40
0.0
  9
$PELEVATION
 40
0.0
  9
$THICKNESS
 40
0.0
  9
$LIMCHECK
 70
               0
  9
$BLIPMODE
 70
               1
  9
$CHAMFERA
 40
0.0
  9
$CHAMFERB
 40
0.0
  9
$SKPOLY
 70
               0
  9
$TDCREATE
 40
0.000000000
  9
$TDUPDATE
 40
0.000000000
  9
$TDINDWG
 40
0.0000000000
  9
$TDUSRTIMER
 40
0.0000000000
  9
$USRTIMER
 70
               1
  9
$ANGBASE
 50
0.0
  9
$ANGDIR
 70
               0
  9
$PDMODE
 70
               0
  9
$PDSIZE
 40
1.0
  9
$PLINEWID
 40
0.0
  9
$COORDS
 70
               1
  9
$SPLFRAME
 70
               0
  9
$SPLINETYPE
 70
               6
  9
$SPLINESEGS
 70
               8
  9
$ATTDIA
 70
               0
  9
$ATTREQ
 70
               1
  9
$HANDLING
 70
               1
  9
$HANDSEED
  5
537
  9
$SURFTAB1
 70
               6
  9
$SURFTAB2
 70
               6
  9
$SURFTYPE
 70
               6
  9
$SURFU
 70
               6
  9
$SURFV
 70
               6
  9
$UCSNAME
  2

  9
$UCSORG
 10
0.0
 20
0.0
 30
0.0
  9
$UCSXDIR
 10
1.0
 20
0.0
 30
0.0
  9
$UCSYDIR
 10
0.0
 20
1.0
 30
0.0
  9
$PUCSNAME
  2

  9
$PUCSORG
 10
0.0
 20
0.0
 30
0.0
  9
$PUCSXDIR
 10
1.0
 20
0.0
 30
0.0
  9
$PUCSYDIR
 10
0.0
 20
1.0
 30
0.0
  9
$USERI1
 70
               0
  9
$USERI2
 70
               0
  9
$USERI3
 70
               0
  9
$USERI4
 70
               0
  9
$USERI5
 70
               0
  9
$USERR1
 40
0.0
  9
$USERR2
 40
0.0
  9
$USERR3
 40
0.0
  9
$USERR4
 40
0.0
  9
$USERR5
 40
0.0
  9
$WORLDVIEW
 70
               1
  9
$SHADEDGE
 70
               3
  9
$SHADEDIF
 70
              70
  9
$TILEMODE
 70
               1
  9
$MAXACTVP
 70
              16
  9
$PINSBASE
 10
0.0
 20
0.0
 30
0.0
  9
$PLIMCHECK
 70
               0
  9
$PEXTMIN
 10
1.0000000000000000E+20
 20
1.0000000000000000E+20
 30
1.0000000000000000E+20
  9
$PEXTMAX
 10
-1.0000000000000000E+20
 20
-1.0000000000000000E+20
 30
-1.0000000000000000E+20
  9
$PLIMMIN
 10
0.0
 20
0.0
  9
$PLIMMAX
 10
12.0
 20
9.0
  9
$UNITMODE
 70
               0
  9
$VISRETAIN
 70
               0
  9
$PLINEGEN
 70
               1
  9
$PSLTSCALE
 70
               0
  9
$TREEDEPTH
 70
            3020
  9
$DWGCODEPAGE
  3
dos932
  0
ENDSEC
  0
SECTION
  2
TABLES
  0
TABLE
  2
VPORT
 70
               1
  0
VPORT
  2
*ACTIVE
 70
               0
 10
0.0
 20
0.0
 11
1.0
 21
1.0
 12
51.574377082919909
 22
-458.63520849510144
 13
0.0
 23
0.0
 14
1.0
 24
1.0
 15
0.0
 25
0.0
 16
0.0
 26
0.0
 36
1.0
 17
0.0
 27
0.0
 37
0.0
 40
2454.1957206745947
 41
0.5999231563121149
 42
50.0
 43
0.0
 44
0.0
 50
0.0
 51
0.0
 71
               0
 72
             100
 73
               1
 74
               1
 75
               0
 76
               0
 77
               0
 78
               0
  0
ENDTAB
  0
TABLE
  2
LTYPE
 70
              26
  0
LTYPE
  2
CONTINUOUS
 70
               0
  3
Solid line
 72
              65
 73
               0
 40
0.0
  0
LTYPE
  2
HIDDENX2
 70
               0
  3
CADPAC FUSION LINETYPE
 72
              65
 73
               2
 40
47.560000000000002
 49
35.670000000000002
 49
-11.890000000000001
  0
LTYPE
  2
HIDDEN
 70
               0
  3
CADPAC FUSION LINETYPE
 72
              65
 73
               2
 40
35.670000000000002
 49
23.780000000000001
 49
-11.890000000000001
  0
LTYPE
  2
HIDDEN2
 70
               0
  3
CADPAC FUSION LINETYPE
 72
              65
 73
               2
 40
29.725000000000001
 49
17.835000000000001
 49
-11.890000000000001
  0
LTYPE
  2
DASHED
 70
               0
  3
CADPAC FUSION LINETYPE
 72
              65
 73
               2
 40
35.670000000000002
 49
23.780000000000001
 49
-11.890000000000001
  0
LTYPE
  2
DASHED2
 70
               0
  3
CADPAC FUSION LINETYPE
 72
              65
 73
               2
 40
26.752500000000001
 49
17.835000000000001
 49
-8.9175000000000004
  0
LTYPE
  2
DASHEDX2
 70
               0
  3
CADPAC FUSION LINETYPE
 72
              65
 73
               2
 40
53.505000000000003
 49
35.670000000000002
 49
-17.835000000000001
  0
LTYPE
  2
DOTX2
 70
               0
  3
CADPAC FUSION LINETYPE
 72
              65
 73
               2
 40
14.862500000000001
 49
0.0
 49
-14.862500000000001
  0
LTYPE
  2
DOT
 70
               0
  3
CADPAC FUSION LINETYPE
 72
              65
 73
               2
 40
11.890000000000001
 49
0.0
 49
-11.890000000000001
  0
LTYPE
  2
DOTS
 70
               0
  3
CADPAC FUSION LINETYPE
 72
              65
 73
               2
 40
11.890000000000001
 49
0.0
 49
-11.890000000000001
  0
LTYPE
  2
DOT2
 70
               0
  3
CADPAC FUSION LINETYPE
 72
              65
 73
               2
 40
8.9175000000000004
 49
0.0
 49
-8.9175000000000004
  0
LTYPE
  2
CENTERX2
 70
               0
  3
CADPAC FUSION LINETYPE
 72
              65
 73
               4
 40
71.340000000000003
 49
29.725000000000001
 49
-14.862500000000001
 49
11.890000000000001
 49
-14.862500000000001
  0
LTYPE
  2
CENTER
 70
               0
  3
CADPAC FUSION LINETYPE
 72
              65
 73
               4
 40
54.694000000000003
 49
23.780000000000001
 49
-11.890000000000001
 49
7.1340000000000003
 49
-11.890000000000001
  0
LTYPE
  2
CENTER2
 70
               0
  3
CADPAC FUSION LINETYPE
 72
              65
 73
               4
 40
38.048000000000002
 49
17.835000000000001
 49
-8.9175000000000004
 49
2.3780000000000001
 49
-8.9175000000000004
  0
LTYPE
  2
DASHDOTX2
 70
               0
  3
CADPAC FUSION LINETYPE
 72
              65
 73
               4
 40
59.450000000000003
 49
29.725000000000001
 49
-14.862500000000001
 49
0.0
 49
-14.862500000000001
  0
LTYPE
  2
DASHDOT
 70
               0
  3
CADPAC FUSION LINETYPE
 72
              65
 73
               4
 40
47.560000000000002
 49
23.780000000000001
 49
-11.890000000000001
 49
0.0
 49
-11.890000000000001
  0
LTYPE
  2
DASHDOT2
 70
               0
  3
CADPAC FUSION LINETYPE
 72
              65
 73
               4
 40
35.670000000000002
 49
17.835000000000001
 49
-8.9175000000000004
 49
0.0
 49
-8.9175000000000004
  0
LTYPE
  2
DIVIDEX2
 70
               0
  3
CADPAC FUSION LINETYPE
 72
              65
 73
               6
 40
74.3125
 49
29.725000000000001
 49
-14.862500000000001
 49
0.0
 49
-14.862500000000001
 49
0.0
 49
-14.862500000000001
  0
LTYPE
  2
DIVIDE
 70
               0
  3
CADPAC FUSION LINETYPE
 72
              65
 73
               6
 40
59.450000000000003
 49
23.780000000000001
 49
-11.890000000000001
 49
0.0
 49
-11.890000000000001
 49
0.0
 49
-11.890000000000001
  0
LTYPE
  2
DIVIDE2
 70
               0
  3
CADPAC FUSION LINETYPE
 72
              65
 73
               6
 40
44.587500000000006
 49
17.835000000000001
 49
-8.9175000000000004
 49
0.0
 49
-8.9175000000000004
 49
0.0
 49
-8.9175000000000004
  0
LTYPE
  2
BORDERX2
 70
               0
  3
CADPAC FUSION LINETYPE
 72
              65
 73
               6
 40
104.03750000000001
 49
29.725000000000001
 49
-14.862500000000001
 49
29.725000000000001
 49
-14.862500000000001
 49
0.0
 49
-14.862500000000001
  0
LTYPE
  2
BORDER
 70
               0
  3
CADPAC FUSION LINETYPE
 72
              65
 73
               6
 40
83.230000000000004
 49
23.780000000000001
 49
-11.890000000000001
 49
23.780000000000001
 49
-11.890000000000001
 49
0.0
 49
-11.890000000000001
  0
LTYPE
  2
BORDER2
 70
               0
  3
CADPAC FUSION LINETYPE
 72
              65
 73
               6
 40
62.422499999999999
 49
17.835000000000001
 49
-8.9175000000000004
 49
17.835000000000001
 49
-8.9175000000000004
 49
0.0
 49
-8.9175000000000004
  0
LTYPE
  2
PHANTOMX2
 70
               0
  3
CADPAC FUSION LINETYPE
 72
              65
 73
               6
 40
89.175000000000011
 49
29.725000000000001
 49
-11.890000000000001
 49
11.890000000000001
 49
-11.890000000000001
 49
11.890000000000001
 49
-11.890000000000001
  0
LTYPE
  2
PHANTOM
 70
               0
  3
CADPAC FUSION LINETYPE
 72
              65
 73
               6
 40
73.718000000000004
 49
23.780000000000001
 49
-11.890000000000001
 49
7.1340000000000003
 49
-11.890000000000001
 49
7.1340000000000003
 49
-11.890000000000001
  0
LTYPE
  2
PHANTOM2
 70
               0
  3
CADPAC FUSION LINETYPE
 72
              65
 73
               6
 40
63.017000000000003
 49
17.835000000000001
 49
-11.890000000000001
 49
4.7560000000000002
 49
-11.890000000000001
 49
4.7560000000000002
 49
-11.890000000000001
  0
ENDTAB
  0
TABLE
  2
LAYER
 70
             256
  0
LAYER
  2
0
 70
               0
 62
               7
  6
CONTINUOUS
  0
LAYER
  2
LAYER001
 70
               0
 62
               7
  6
CONTINUOUS
  0
LAYER
  2
LAYER002
 70
               0
 62
               7
  6
CONTINUOUS
  0
LAYER
  2
LAYER003
 70
               0
 62
               7
  6
CONTINUOUS
  0
LAYER
  2
LAYER004
 70
               0
 62
               7
  6
CONTINUOUS
  0
LAYER
  2
LAYER005
 70
               0
 62
               7
  6
CONTINUOUS
  0
LAYER
  2
LAYER006
 70
               0
 62
               7
  6
CONTINUOUS
  0
LAYER
  2
LAYER007
 70
               0
 62
               7
  6
CONTINUOUS
  0
LAYER
  2
LAYER008
 70
               0
 62
               7
  6
CONTINUOUS
  0
LAYER
  2
LAYER009
 70
               0
 62
               7
  6
CONTINUOUS
  0
LAYER
  2
LAYER010
 70
               0
 62
               7
  6
CONTINUOUS
  0
LAYER
  2
LAYER011
 70
               0
 62
               7
  6
CONTINUOUS
  0
LAYER
  2
LAYER012
 70
               0
 62
               7
  6
CONTINUOUS
  0
LAYER
  2
LAYER013
 70
               0
 62
               7
  6
CONTINUOUS
  0
LAYER
  2
LAYER014
 70
               0
 62
               7
  6
CONTINUOUS
  0
LAYER
  2
LAYER015
 70
               0
 62
               7
  6
CONTINUOUS
  0
LAYER
  2
LAYER016
 70
               0
 62
               7
  6
CONTINUOUS
  0
LAYER
  2
LAYER017
 70
               0
 62
               7
  6
CONTINUOUS
  0
LAYER
  2
LAYER018
 70
               0
 62
               7
  6
CONTINUOUS
  0
LAYER
  2
LAYER019
 70
               0
 62
               7
  6
CONTINUOUS
  0
LAYER
  2
LAYER020
 70
               0
 62
               7
  6
CONTINUOUS
  0
LAYER
  2
LAYER021
 70
               0
 62
               7
  6
CONTINUOUS
  0
LAYER
  2
LAYER022
 70
               0
 62
               7
  6
CONTINUOUS
  0
LAYER
  2
LAYER023
 70
               0
 62
               7
  6
CONTINUOUS
  0
LAYER
  2
LAYER024
 70
               0
 62
               7
  6
CONTINUOUS
  0
LAYER
  2
LAYER025
 70
               0
 62
               7
  6
CONTINUOUS
  0
LAYER
  2
LAYER026
 70
               0
 62
               7
  6
CONTINUOUS
  0
LAYER
  2
LAYER027
 70
               0
 62
               7
  6
CONTINUOUS
  0
LAYER
  2
LAYER028
 70
               0
 62
               7
  6
CONTINUOUS
  0
LAYER
  2
LAYER029
 70
               0
 62
               7
  6
CONTINUOUS
  0
LAYER
  2
LAYER030
 70
               0
 62
               7
  6
CONTINUOUS
  0
LAYER
  2
LAYER031
 70
               0
 62
               7
  6
CONTINUOUS
  0
LAYER
  2
LAYER032
 70
               0
 62
               7
  6
CONTINUOUS
  0
LAYER
  2
LAYER033
 70
               0
 62
               7
  6
CONTINUOUS
  0
LAYER
  2
LAYER034
 70
               0
 62
               7
  6
CONTINUOUS
  0
LAYER
  2
LAYER035
 70
               0
 62
               7
  6
CONTINUOUS
  0
LAYER
  2
LAYER036
 70
               0
 62
               7
  6
CONTINUOUS
  0
LAYER
  2
LAYER037
 70
               0
 62
               7
  6
CONTINUOUS
  0
LAYER
  2
LAYER038
 70
               0
 62
               7
  6
CONTINUOUS
  0
LAYER
  2
LAYER039
 70
               0
 62
               7
  6
CONTINUOUS
  0
LAYER
  2
LAYER040
 70
               0
 62
               7
  6
CONTINUOUS
  0
LAYER
  2
LAYER041
 70
               0
 62
               7
  6
CONTINUOUS
  0
LAYER
  2
LAYER042
 70
               0
 62
               7
  6
CONTINUOUS
  0
LAYER
  2
LAYER043
 70
               0
 62
               7
  6
CONTINUOUS
  0
LAYER
  2
LAYER044
 70
               0
 62
               7
  6
CONTINUOUS
  0
LAYER
  2
LAYER045
 70
               0
 62
               7
  6
CONTINUOUS
  0
LAYER
  2
LAYER046
 70
               0
 62
               7
  6
CONTINUOUS
  0
LAYER
  2
LAYER047
 70
               0
 62
               7
  6
CONTINUOUS
  0
LAYER
  2
LAYER048
 70
               0
 62
               7
  6
CONTINUOUS
  0
LAYER
  2
LAYER049
 70
               0
 62
               7
  6
CONTINUOUS
  0
LAYER
  2
LAYER050
 70
               0
 62
               7
  6
CONTINUOUS
  0
LAYER
  2
LAYER051
 70
               0
 62
               7
  6
CONTINUOUS
  0
LAYER
  2
LAYER052
 70
               0
 62
               7
  6
CONTINUOUS
  0
LAYER
  2
LAYER053
 70
               0
 62
               7
  6
CONTINUOUS
  0
LAYER
  2
LAYER054
 70
               0
 62
               7
  6
CONTINUOUS
  0
LAYER
  2
LAYER055
 70
               0
 62
               7
  6
CONTINUOUS
  0
LAYER
  2
LAYER056
 70
               0
 62
               7
  6
CONTINUOUS
  0
LAYER
  2
LAYER057
 70
               0
 62
               7
  6
CONTINUOUS
  0
LAYER
  2
LAYER058
 70
               0
 62
               7
  6
CONTINUOUS
  0
LAYER
  2
LAYER059
 70
               0
 62
               7
  6
CONTINUOUS
  0
LAYER
  2
LAYER060
 70
               0
 62
               7
  6
CONTINUOUS
  0
LAYER
  2
LAYER061
 70
               0
 62
               7
  6
CONTINUOUS
  0
LAYER
  2
LAYER062
 70
               0
 62
               7
  6
CONTINUOUS
  0
LAYER
  2
LAYER063
 70
               0
 62
               7
  6
CONTINUOUS
  0
LAYER
  2
LAYER064
 70
               0
 62
               7
  6
CONTINUOUS
  0
LAYER
  2
LAYER065
 70
               0
 62
               7
  6
CONTINUOUS
  0
LAYER
  2
LAYER066
 70
               0
 62
               7
  6
CONTINUOUS
  0
LAYER
  2
LAYER067
 70
               0
 62
               7
  6
CONTINUOUS
  0
LAYER
  2
LAYER068
 70
               0
 62
               7
  6
CONTINUOUS
  0
LAYER
  2
LAYER069
 70
               0
 62
               7
  6
CONTINUOUS
  0
LAYER
  2
LAYER070
 70
               0
 62
               7
  6
CONTINUOUS
  0
LAYER
  2
LAYER071
 70
               0
 62
               7
  6
CONTINUOUS
  0
LAYER
  2
LAYER072
 70
               0
 62
               7
  6
CONTINUOUS
  0
LAYER
  2
LAYER073
 70
               0
 62
               7
  6
CONTINUOUS
  0
LAYER
  2
LAYER074
 70
               0
 62
               7
  6
CONTINUOUS
  0
LAYER
  2
LAYER075
 70
               0
 62
               7
  6
CONTINUOUS
  0
LAYER
  2
LAYER076
 70
               0
 62
               7
  6
CONTINUOUS
  0
LAYER
  2
LAYER077
 70
               0
 62
               7
  6
CONTINUOUS
  0
LAYER
  2
LAYER078
 70
               0
 62
               7
  6
CONTINUOUS
  0
LAYER
  2
LAYER079
 70
               0
 62
               7
  6
CONTINUOUS
  0
LAYER
  2
LAYER080
 70
               0
 62
               7
  6
CONTINUOUS
  0
LAYER
  2
LAYER081
 70
               0
 62
               7
  6
CONTINUOUS
  0
LAYER
  2
LAYER082
 70
               0
 62
               7
  6
CONTINUOUS
  0
LAYER
  2
LAYER083
 70
               0
 62
               7
  6
CONTINUOUS
  0
LAYER
  2
LAYER084
 70
               0
 62
               7
  6
CONTINUOUS
  0
LAYER
  2
LAYER085
 70
               0
 62
               7
  6
CONTINUOUS
  0
LAYER
  2
LAYER086
 70
               0
 62
               7
  6
CONTINUOUS
  0
LAYER
  2
LAYER087
 70
               0
 62
               7
  6
CONTINUOUS
  0
LAYER
  2
LAYER088
 70
               0
 62
               7
  6
CONTINUOUS
  0
LAYER
  2
LAYER089
 70
               0
 62
               7
  6
CONTINUOUS
  0
LAYER
  2
LAYER090
 70
               0
 62
               7
  6
CONTINUOUS
  0
LAYER
  2
LAYER091
 70
               0
 62
               7
  6
CONTINUOUS
  0
LAYER
  2
LAYER092
 70
               0
 62
               7
  6
CONTINUOUS
  0
LAYER
  2
LAYER093
 70
               0
 62
               7
  6
CONTINUOUS
  0
LAYER
  2
LAYER094
 70
               0
 62
               7
  6
CONTINUOUS
  0
LAYER
  2
LAYER095
 70
               0
 62
               7
  6
CONTINUOUS
  0
LAYER
  2
LAYER096
 70
               0
 62
               7
  6
CONTINUOUS
  0
LAYER
  2
LAYER097
 70
               0
 62
               7
  6
CONTINUOUS
  0
LAYER
  2
LAYER098
 70
               0
 62
               7
  6
CONTINUOUS
  0
LAYER
  2
LAYER099
 70
               0
 62
               7
  6
CONTINUOUS
  0
LAYER
  2
LAYER100
 70
               0
 62
               7
  6
CONTINUOUS
  0
LAYER
  2
LAYER101
 70
               0
 62
               7
  6
CONTINUOUS
  0
LAYER
  2
LAYER102
 70
               0
 62
               7
  6
CONTINUOUS
  0
LAYER
  2
LAYER103
 70
               0
 62
               7
  6
CONTINUOUS
  0
LAYER
  2
LAYER104
 70
               0
 62
               7
  6
CONTINUOUS
  0
LAYER
  2
LAYER105
 70
               0
 62
               7
  6
CONTINUOUS
  0
LAYER
  2
LAYER106
 70
               0
 62
               7
  6
CONTINUOUS
  0
LAYER
  2
LAYER107
 70
               0
 62
               7
  6
CONTINUOUS
  0
LAYER
  2
LAYER108
 70
               0
 62
               7
  6
CONTINUOUS
  0
LAYER
  2
LAYER109
 70
               0
 62
               7
  6
CONTINUOUS
  0
LAYER
  2
LAYER110
 70
               0
 62
               7
  6
CONTINUOUS
  0
LAYER
  2
LAYER111
 70
               0
 62
               7
  6
CONTINUOUS
  0
LAYER
  2
LAYER112
 70
               0
 62
               7
  6
CONTINUOUS
  0
LAYER
  2
LAYER113
 70
               0
 62
               7
  6
CONTINUOUS
  0
LAYER
  2
LAYER114
 70
               0
 62
               7
  6
CONTINUOUS
  0
LAYER
  2
LAYER115
 70
               0
 62
               7
  6
CONTINUOUS
  0
LAYER
  2
LAYER116
 70
               0
 62
               7
  6
CONTINUOUS
  0
LAYER
  2
LAYER117
 70
               0
 62
               7
  6
CONTINUOUS
  0
LAYER
  2
LAYER118
 70
               0
 62
               7
  6
CONTINUOUS
  0
LAYER
  2
LAYER119
 70
               0
 62
               7
  6
CONTINUOUS
  0
LAYER
  2
LAYER120
 70
               0
 62
               7
  6
CONTINUOUS
  0
LAYER
  2
LAYER121
 70
               0
 62
               7
  6
CONTINUOUS
  0
LAYER
  2
LAYER122
 70
               0
 62
               7
  6
CONTINUOUS
  0
LAYER
  2
LAYER123
 70
               0
 62
               7
  6
CONTINUOUS
  0
LAYER
  2
LAYER124
 70
               0
 62
               7
  6
CONTINUOUS
  0
LAYER
  2
LAYER125
 70
               0
 62
               7
  6
CONTINUOUS
  0
LAYER
  2
LAYER126
 70
               0
 62
               7
  6
CONTINUOUS
  0
LAYER
  2
LAYER127
 70
               0
 62
               7
  6
CONTINUOUS
  0
LAYER
  2
LAYER128
 70
               0
 62
               7
  6
CONTINUOUS
  0
LAYER
  2
LAYER129
 70
               0
 62
               7
  6
CONTINUOUS
  0
LAYER
  2
LAYER130
 70
               0
 62
               7
  6
CONTINUOUS
  0
LAYER
  2
LAYER131
 70
               0
 62
               7
  6
CONTINUOUS
  0
LAYER
  2
LAYER132
 70
               0
 62
               7
  6
CONTINUOUS
  0
LAYER
  2
LAYER133
 70
               0
 62
               7
  6
CONTINUOUS
  0
LAYER
  2
LAYER134
 70
               0
 62
               7
  6
CONTINUOUS
  0
LAYER
  2
LAYER135
 70
               0
 62
               7
  6
CONTINUOUS
  0
LAYER
  2
LAYER136
 70
               0
 62
               7
  6
CONTINUOUS
  0
LAYER
  2
LAYER137
 70
               0
 62
               7
  6
CONTINUOUS
  0
LAYER
  2
LAYER138
 70
               0
 62
               7
  6
CONTINUOUS
  0
LAYER
  2
LAYER139
 70
               0
 62
               7
  6
CONTINUOUS
  0
LAYER
  2
LAYER140
 70
               0
 62
               7
  6
CONTINUOUS
  0
LAYER
  2
LAYER141
 70
               0
 62
               7
  6
CONTINUOUS
  0
LAYER
  2
LAYER142
 70
               0
 62
               7
  6
CONTINUOUS
  0
LAYER
  2
LAYER143
 70
               0
 62
               7
  6
CONTINUOUS
  0
LAYER
  2
LAYER144
 70
               0
 62
               7
  6
CONTINUOUS
  0
LAYER
  2
LAYER145
 70
               0
 62
               7
  6
CONTINUOUS
  0
LAYER
  2
LAYER146
 70
               0
 62
               7
  6
CONTINUOUS
  0
LAYER
  2
LAYER147
 70
               0
 62
               7
  6
CONTINUOUS
  0
LAYER
  2
LAYER148
 70
               0
 62
               7
  6
CONTINUOUS
  0
LAYER
  2
LAYER149
 70
               0
 62
               7
  6
CONTINUOUS
  0
LAYER
  2
LAYER150
 70
               0
 62
               7
  6
CONTINUOUS
  0
LAYER
  2
LAYER151
 70
               0
 62
               7
  6
CONTINUOUS
  0
LAYER
  2
LAYER152
 70
               0
 62
               7
  6
CONTINUOUS
  0
LAYER
  2
LAYER153
 70
               0
 62
               7
  6
CONTINUOUS
  0
LAYER
  2
LAYER154
 70
               0
 62
               7
  6
CONTINUOUS
  0
LAYER
  2
LAYER155
 70
               0
 62
               7
  6
CONTINUOUS
  0
LAYER
  2
LAYER156
 70
               0
 62
               7
  6
CONTINUOUS
  0
LAYER
  2
LAYER157
 70
               0
 62
               7
  6
CONTINUOUS
  0
LAYER
  2
LAYER158
 70
               0
 62
               7
  6
CONTINUOUS
  0
LAYER
  2
LAYER159
 70
               0
 62
               7
  6
CONTINUOUS
  0
LAYER
  2
LAYER160
 70
               0
 62
               7
  6
CONTINUOUS
  0
LAYER
  2
LAYER161
 70
               0
 62
               7
  6
CONTINUOUS
  0
LAYER
  2
LAYER162
 70
               0
 62
               7
  6
CONTINUOUS
  0
LAYER
  2
LAYER163
 70
               0
 62
               7
  6
CONTINUOUS
  0
LAYER
  2
LAYER164
 70
               0
 62
               7
  6
CONTINUOUS
  0
LAYER
  2
LAYER165
 70
               0
 62
               7
  6
CONTINUOUS
  0
LAYER
  2
LAYER166
 70
               0
 62
               7
  6
CONTINUOUS
  0
LAYER
  2
LAYER167
 70
               0
 62
               7
  6
CONTINUOUS
  0
LAYER
  2
LAYER168
 70
               0
 62
               7
  6
CONTINUOUS
  0
LAYER
  2
LAYER169
 70
               0
 62
               7
  6
CONTINUOUS
  0
LAYER
  2
LAYER170
 70
               0
 62
               7
  6
CONTINUOUS
  0
LAYER
  2
LAYER171
 70
               0
 62
               7
  6
CONTINUOUS
  0
LAYER
  2
LAYER172
 70
               0
 62
               7
  6
CONTINUOUS
  0
LAYER
  2
LAYER173
 70
               0
 62
               7
  6
CONTINUOUS
  0
LAYER
  2
LAYER174
 70
               0
 62
               7
  6
CONTINUOUS
  0
LAYER
  2
LAYER175
 70
               0
 62
               7
  6
CONTINUOUS
  0
LAYER
  2
LAYER176
 70
               0
 62
               7
  6
CONTINUOUS
  0
LAYER
  2
LAYER177
 70
               0
 62
               7
  6
CONTINUOUS
  0
LAYER
  2
LAYER178
 70
               0
 62
               7
  6
CONTINUOUS
  0
LAYER
  2
LAYER179
 70
               0
 62
               7
  6
CONTINUOUS
  0
LAYER
  2
LAYER180
 70
               0
 62
               7
  6
CONTINUOUS
  0
LAYER
  2
LAYER181
 70
               0
 62
               7
  6
CONTINUOUS
  0
LAYER
  2
LAYER182
 70
               0
 62
               7
  6
CONTINUOUS
  0
LAYER
  2
LAYER183
 70
               0
 62
               7
  6
CONTINUOUS
  0
LAYER
  2
LAYER184
 70
               0
 62
               7
  6
CONTINUOUS
  0
LAYER
  2
LAYER185
 70
               0
 62
               7
  6
CONTINUOUS
  0
LAYER
  2
LAYER186
 70
               0
 62
               7
  6
CONTINUOUS
  0
LAYER
  2
LAYER187
 70
               0
 62
               7
  6
CONTINUOUS
  0
LAYER
  2
LAYER188
 70
               0
 62
               7
  6
CONTINUOUS
  0
LAYER
  2
LAYER189
 70
               0
 62
               7
  6
CONTINUOUS
  0
LAYER
  2
LAYER190
 70
               0
 62
               7
  6
CONTINUOUS
  0
LAYER
  2
LAYER191
 70
               0
 62
               7
  6
CONTINUOUS
  0
LAYER
  2
LAYER192
 70
               0
 62
               7
  6
CONTINUOUS
  0
LAYER
  2
LAYER193
 70
               0
 62
               7
  6
CONTINUOUS
  0
LAYER
  2
LAYER194
 70
               0
 62
               7
  6
CONTINUOUS
  0
LAYER
  2
LAYER195
 70
               0
 62
               7
  6
CONTINUOUS
  0
LAYER
  2
LAYER196
 70
               0
 62
               7
  6
CONTINUOUS
  0
LAYER
  2
LAYER197
 70
               0
 62
               7
  6
CONTINUOUS
  0
LAYER
  2
LAYER198
 70
               0
 62
               7
  6
CONTINUOUS
  0
LAYER
  2
LAYER199
 70
               0
 62
               7
  6
CONTINUOUS
  0
LAYER
  2
LAYER200
 70
               0
 62
               7
  6
CONTINUOUS
  0
LAYER
  2
LAYER201
 70
               0
 62
               7
  6
CONTINUOUS
  0
LAYER
  2
LAYER202
 70
               0
 62
               7
  6
CONTINUOUS
  0
LAYER
  2
LAYER203
 70
               0
 62
               7
  6
CONTINUOUS
  0
LAYER
  2
LAYER204
 70
               0
 62
               7
  6
CONTINUOUS
  0
LAYER
  2
LAYER205
 70
               0
 62
               7
  6
CONTINUOUS
  0
LAYER
  2
LAYER206
 70
               0
 62
               7
  6
CONTINUOUS
  0
LAYER
  2
LAYER207
 70
               0
 62
               7
  6
CONTINUOUS
  0
LAYER
  2
LAYER208
 70
               0
 62
               7
  6
CONTINUOUS
  0
LAYER
  2
LAYER209
 70
               0
 62
               7
  6
CONTINUOUS
  0
LAYER
  2
LAYER210
 70
               0
 62
               7
  6
CONTINUOUS
  0
LAYER
  2
LAYER211
 70
               0
 62
               7
  6
CONTINUOUS
  0
LAYER
  2
LAYER212
 70
               0
 62
               7
  6
CONTINUOUS
  0
LAYER
  2
LAYER213
 70
               0
 62
               7
  6
CONTINUOUS
  0
LAYER
  2
LAYER214
 70
               0
 62
               7
  6
CONTINUOUS
  0
LAYER
  2
LAYER215
 70
               0
 62
               7
  6
CONTINUOUS
  0
LAYER
  2
LAYER216
 70
               0
 62
               7
  6
CONTINUOUS
  0
LAYER
  2
LAYER217
 70
               0
 62
               7
  6
CONTINUOUS
  0
LAYER
  2
LAYER218
 70
               0
 62
               7
  6
CONTINUOUS
  0
LAYER
  2
LAYER219
 70
               0
 62
               7
  6
CONTINUOUS
  0
LAYER
  2
LAYER220
 70
               0
 62
               7
  6
CONTINUOUS
  0
LAYER
  2
LAYER221
 70
               0
 62
               7
  6
CONTINUOUS
  0
LAYER
  2
LAYER222
 70
               0
 62
               7
  6
CONTINUOUS
  0
LAYER
  2
LAYER223
 70
               0
 62
               7
  6
CONTINUOUS
  0
LAYER
  2
LAYER224
 70
               0
 62
               7
  6
CONTINUOUS
  0
LAYER
  2
LAYER225
 70
               0
 62
               7
  6
CONTINUOUS
  0
LAYER
  2
LAYER226
 70
               0
 62
               7
  6
CONTINUOUS
  0
LAYER
  2
LAYER227
 70
               0
 62
               7
  6
CONTINUOUS
  0
LAYER
  2
LAYER228
 70
               0
 62
               7
  6
CONTINUOUS
  0
LAYER
  2
LAYER229
 70
               0
 62
               7
  6
CONTINUOUS
  0
LAYER
  2
LAYER230
 70
               0
 62
               7
  6
CONTINUOUS
  0
LAYER
  2
LAYER231
 70
               0
 62
               7
  6
CONTINUOUS
  0
LAYER
  2
LAYER232
 70
               0
 62
               7
  6
CONTINUOUS
  0
LAYER
  2
LAYER233
 70
               0
 62
               7
  6
CONTINUOUS
  0
LAYER
  2
LAYER234
 70
               0
 62
               7
  6
CONTINUOUS
  0
LAYER
  2
LAYER235
 70
               0
 62
               7
  6
CONTINUOUS
  0
LAYER
  2
LAYER236
 70
               0
 62
               7
  6
CONTINUOUS
  0
LAYER
  2
LAYER237
 70
               0
 62
               7
  6
CONTINUOUS
  0
LAYER
  2
LAYER238
 70
               0
 62
               7
  6
CONTINUOUS
  0
LAYER
  2
LAYER239
 70
               0
 62
               7
  6
CONTINUOUS
  0
LAYER
  2
LAYER240
 70
               0
 62
               7
  6
CONTINUOUS
  0
LAYER
  2
LAYER241
 70
               0
 62
               7
  6
CONTINUOUS
  0
LAYER
  2
LAYER242
 70
               0
 62
               7
  6
CONTINUOUS
  0
LAYER
  2
LAYER243
 70
               0
 62
               7
  6
CONTINUOUS
  0
LAYER
  2
LAYER244
 70
               0
 62
               7
  6
CONTINUOUS
  0
LAYER
  2
LAYER245
 70
               0
 62
               7
  6
CONTINUOUS
  0
LAYER
  2
LAYER246
 70
               0
 62
               7
  6
CONTINUOUS
  0
LAYER
  2
LAYER247
 70
               0
 62
               7
  6
CONTINUOUS
  0
LAYER
  2
LAYER248
 70
               0
 62
               7
  6
CONTINUOUS
  0
LAYER
  2
LAYER249
 70
               0
 62
               7
  6
CONTINUOUS
  0
LAYER
  2
LAYER250
 70
               0
 62
               7
  6
CONTINUOUS
  0
LAYER
  2
LAYER251
 70
               0
 62
               7
  6
CONTINUOUS
  0
LAYER
  2
LAYER252
 70
               0
 62
               7
  6
CONTINUOUS
  0
LAYER
  2
LAYER253
 70
               0
 62
               7
  6
CONTINUOUS
  0
LAYER
  2
LAYER254
 70
               0
 62
               7
  6
CONTINUOUS
  0
LAYER
  2
LAYER255
 70
               0
 62
               7
  6
CONTINUOUS
  0
ENDTAB
  0
TABLE
  2
STYLE
 70
               1
  0
STYLE
  2
STANDARD
 70
               0
 40
0.0
 41
0.8
 50
0.0
 71
               0
 42
40.0
  3
MS PGothic.ttf
  4

  0
ENDTAB
  0
TABLE
  2
VIEW
 70
               0
  0
VIEW
  2
QQQQ
 70
               0
 40
2454.1957206745947
 10
51.574377082919909
 20
-458.63520849510144
 41
1472.3288429547883
 11
0.0
 21
0.0
 31
1.0
 12
100.0
 22
100.0
 32
0.0
 42
50.0
 43
0.0
 44
0.0
 50
0.0
 71
               0
  0
ENDTAB
  0
TABLE
  2
UCS
 70
               0
  0
ENDTAB
  0
TABLE
  2
APPID
 70
               1
  0
APPID
  2
ACAD
 70
               0
  0
ENDTAB
  0
TABLE
  2
DIMSTYLE
 70
               1
  0
DIMSTYLE
  2
STANDARD
 70
               0
  3

  4

  5

  6

  7

 40
1.0
 41
0.18
 42
0.0625
 43
0.38
 44
0.18
 45
0.0
 46
0.0
 47
0.0
 48
0.0
140
0.18
141
0.09
142
0.0
143
25.399999999999999
144
1.0
145
0.0
146
1.0
147
0.09
 71
               0
 72
               0
 73
               1
 74
               1
 75
               0
 76
               0
 77
               0
 78
               0
170
               0
171
               2
172
               0
173
               0
174
               0
175
               0
176
               0
177
               0
178
               0
  0
ENDTAB
  0
ENDSEC
  0
SECTION
  2
BLOCKS
  0
BLOCK
  8
0
  5
139
  2
GROUP_1
 70
               0
 10
0.0
 20
0.0
 30
0.0
  3
GROUP_1
  0
LINE
  8
0
  6
CONTINUOUS
 62
               4
  5
13A
 10
-85.845206175333203
 20
-52.379615784105027
 30
0.0
 11
-71.104997676106009
 21
-37.639407284877635
 31
0.0
  0
LINE
  8
0
  6
CONTINUOUS
 62
               4
  5
13B
 10
46.813146419524358
 20
-61.142619390419284
 30
0.0
 11
70.316358525066221
 21
-37.63940728487735
 31
0.0
  0
LINE
  8
0
  6
CONTINUOUS
 62
               4
  5
13C
 10
-7.6087060229990158
 20
-44.853793732356692
 30
0.0
 11
-0.3943195755197024
 21
-37.63940728487735
 31
0.0
  0
LINE
  8
0
  6
CONTINUOUS
 62
               4
  5
13D
 10
-78.917807433402501
 20
-186.87357324334613
 30
0.0
 11
46.813146419524358
 21
-61.142619390419284
 31
0.0
  0
LINE
  8
0
  6
CONTINUOUS
 62
               4
  5
13E
 10
-83.499999999999815
 20
-120.74508770935741
 30
0.0
 11
-7.6087060229990158
 21
-44.853793732356692
 31
0.0
  0
LINE
  8
0
  6
CONTINUOUS
 62
               4
  5
13F
 10
-71.676354165862861
 20
-250.34279807639234
 30
0.0
 11
83.000000000000114
 21
-95.66644391052931
 31
0.0
  0
LINE
  8
0
  6
CONTINUOUS
 62
               4
  5
140
 10
4.3096169580931161
 20
-245.06750505302233
 30
0.0
 11
81.031764357874295
 21
-168.34535765324119
 31
0.0
  0
LINE
  8
0
  6
CONTINUOUS
 62
               4
  5
141
 10
-50.316346743433812
 20
-299.69346875454926
 30
0.0
 11
4.3096169580931161
 21
-245.06750505302233
 31
0.0
  0
LINE
  8
0
  6
CONTINUOUS
 62
               4
  5
142
 10
20.39433135715241
 20
-299.69346875454903
 30
0.0
 11
71.925088835710199
 21
-248.16271127599111
 31
0.0
  0
ENDBLK
  8
0
  5
143
  0
BLOCK
  8
0
  5
144
  2
GROUP_2
 70
               0
 10
0.0
 20
0.0
 30
0.0
  3
GROUP_2
  0
LINE
  8
0
  6
CONTINUOUS
 62
               4
  5
145
 10
-571.67415235915655
 20
-250.36209626968571
 30
0.0
 11
-416.49999999999977
 21
-95.187943910528944
 31
0.0
  0
LINE
  8
0
  6
CONTINUOUS
 62
               4
  5
146
 10
-578.91560562669611
 20
-186.89287143663955
 30
0.0
 11
-429.66214147493429
 21
-37.639407284877635
 31
0.0
  0
LINE
  8
0
  6
CONTINUOUS
 62
               4
  5
147
 10
-550.31634674343456
 20
-299.7149687545496
 30
0.0
 11
-418.97100458069315
 21
-168.36962659180836
 31
0.0
  0
LINE
  8
0
  6
CONTINUOUS
 62
               4
  5
148
 10
-479.60566864284846
 20
-299.7149687545496
 30
0.0
 11
-428.07768010285724
 21
-248.18698021455839
 31
0.0
  0
LINE
  8
0
  6
CONTINUOUS
 62
               4
  5
149
 10
-582.99999999999955
 20
-49.55590960877106
 30
0.0
 11
-571.08349767610628
 21
-37.639407284877635
 31
0.0
  0
LINE
  8
0
  6
CONTINUOUS
 62
               4
  5
14A
 10
-582.99999999999955
 20
-120.26658770935694
 30
0.0
 11
-502.89172785227117
 21
-40.158315561628612
 31
0.0
  0
ENDBLK
  8
0
  5
14B
  0
BLOCK
  8
0
  5
14C
  2
GROUP_3
 70
               0
 10
0.0
 20
0.0
 30
0.0
  3
GROUP_3
  0
LINE
  8
0
  6
CONTINUOUS
 62
               4
  5
14D
 10
428.32584764084345
 20
-250.36209626968571
 30
0.0
 11
583.50000000000023
 21
-95.187943910528944
 31
0.0
  0
LINE
  8
0
  6
CONTINUOUS
 62
               4
  5
14E
 10
421.08439437330384
 20
-186.89287143663955
 30
0.0
 11
570.33785852506571
 21
-37.639407284877635
 31
0.0
  0
LINE
  8
0
  6
CONTINUOUS
 62
               4
  5
14F
 10
416.49999999999972
 20
-50.055909608771756
 30
0.0
 11
428.91650232389372
 21
-37.639407284877635
 31
0.0
  0
LINE
  8
0
  6
CONTINUOUS
 62
               4
  5
150
 10
449.68365325656549
 20
-299.7149687545496
 30
0.0
 11
581.02899541930697
 21
-168.36962659180836
 31
0.0
  0
LINE
  8
0
  6
CONTINUOUS
 62
               4
  5
151
 10
520.39433135715149
 20
-299.7149687545496
 30
0.0
 11
571.92231989714287
 21
-248.18698021455839
 31
0.0
  0
LINE
  8
0
  6
CONTINUOUS
 62
               4
  5
152
 10
416.50000000000028
 20
-120.76658770935707
 30
0.0
 11
497.10827214772888
 21
-40.158315561628612
 31
0.0
  0
ENDBLK
  8
0
  5
153
  0
ENDSEC
  0
SECTION
  2
ENTITIES
  0
LINE
  8
0
  6
DASHDOT
 62
               4
  5
154
 10
0.0000000000002416
 20
213.36059271512238
 30
0.0
 11
0.0000000000002416
 21
-411.63940728487762
 31
0.0
  0
LINE
  8
0
  6
DASHDOT
 62
               4
  5
155
 10
-499.99999999999977
 20
213.36059271512238
 30
0.0
 11
-499.99999999999977
 21
-411.63940728487762
 31
0.0
  0
LINE
  8
0
  6
DASHDOT
 62
               4
  5
156
 10
0.0000000000001563
 20
651.86059271512227
 30
0.0
 11
0.0000000000001705
 21
423.9685504958025
 31
0.0
  0
LINE
  8
0
  6
DASHDOT
 62
               4
  5
157
 10
-194.7604954140084
 20
543.36059271512227
 30
0.0
 11
199.21602649019394
 21
543.36059271512227
 31
0.0
  0
LINE
  8
0
  6
DASHDOT
 62
               4
  5
158
 10
500.00000000000017
 20
213.36059271512238
 30
0.0
 11
500.00000000000017
 21
-411.63940728487762
 31
0.0
  0
LINE
  8
0
  6
DASHDOT
 62
               4
  5
159
 10
-174.24971798529685
 20
27.36059271512238
 30
0.0
 11
-91.824425574425277
 21
27.36059271512238
 31
0.0
  0
LINE
  8
0
  6
DASHDOT
 62
               4
  5
15A
 10
174.24971798529734
 20
27.36059271512238
 30
0.0
 11
91.82442557442576
 21
27.36059271512238
 31
0.0
  0
LINE
  8
0
  6
DASHDOT
 62
               4
  5
15B
 10
-431.47477522477504
 20
27.36059271512238
 30
0.0
 11
-568.17557442557427
 21
27.36059271512238
 31
0.0
  0
LINE
  8
0
  6
DASHDOT
 62
               4
  5
15C
 10
568.52522477522484
 20
27.360592715122365
 30
0.0
 11
431.82442557442567
 21
27.360592715122365
 31
0.0
  0
LINE
  8
0
  6
DASHDOT
 62
               4
  5
15D
 10
500.00000000000028
 20
-651.86059271512227
 30
0.0
 11
500.00000000000028
 21
-362.63940728487762
 31
0.0
  0
LINE
  8
0
  6
DASHDOT
 62
               4
  5
15E
 10
-125.00000000000031
 20
-290.64930528687228
 30
0.0
 11
-125.00000000000031
 21
-455.0276669063627
 31
0.0
  0
LINE
  8
0
  6
DASHDOT
 62
               4
  5
15F
 10
124.99999999999966
 20
-290.64930528687228
 30
0.0
 11
124.99999999999966
 21
-455.0276669063627
 31
0.0
  0
LINE
  8
0
  6
DASHDOT
 62
               4
  5
160
 10
0.0000000000002416
 20
-651.86059271512227
 30
0.0
 11
0.0000000000002416
 21
-362.63940728487762
 31
0.0
  0
LINE
  8
0
  6
DASHDOT
 62
               4
  5
161
 10
-500.0000000000004
 20
-651.86059271512227
 30
0.0
 11
-500.0000000000004
 21
-362.63940728487762
 31
0.0
  0
LINE
  8
0
  6
DASHDOT
 62
               4
  5
162
 10
-392.13776905046848
 20
-1138.0087881963127
 30
0.0
 11
-392.13776905046836
 21
-1009.0087881963127
 31
0.0
  0
LINE
  8
0
  6
DASHDOT
 62
               4
  5
163
 10
-450.13776905046848
 20
-1080.0087881963127
 30
0.0
 11
-334.13776905046848
 21
-1080.0087881963127
 31
0.0
  0
LINE
  8
0
  6
DASHDOT
 62
               4
  5
164
 10
-461.94094753457591
 20
-1073.5087881963127
 30
0.0
 11
-327.63776905046848
 21
-1073.5087881963127
 31
0.0
  0
LINE
  8
0
  6
DASHDOT
 62
               4
  5
165
 10
-268.23776905046839
 20
-1073.5087881963127
 30
0.0
 11
-169.63776905046848
 21
-1073.5087881963127
 31
0.0
  0
LINE
  8
0
  6
DASHDOT
 62
               4
  5
166
 10
-302.63776905046848
 20
-1080.0087881963127
 30
0.0
 11
-228.2377690504685
 21
-1080.0087881963127
 31
0.0
  0
LINE
  8
0
  6
DASHDOT
 62
               4
  5
167
 10
-516.03776905046834
 20
-1073.5087881963125
 30
0.0
 11
-614.63776905046848
 21
-1073.5087881963123
 31
0.0
  0
LINE
  8
0
  6
DASHDOT
 62
               4
  5
168
 10
-481.63776905046848
 20
-1080.0087881963125
 30
0.0
 11
-556.03776905046834
 21
-1080.0087881963125
 31
0.0
  0
LINE
  8
0
  6
DASHDOT
 62
               4
  5
169
 10
-394.083726446235
 20
-976.5409041272776
 30
0.0
 11
-394.083726446235
 21
-843.5409041272776
 31
0.0
  0
LINE
  8
0
  6
DASHDOT
 62
               4
  5
16A
 10
221.6339236858812
 20
-1073.5087881963127
 30
0.0
 11
320.23392368588134
 21
-1073.5087881963127
 31
0.0
  0
LINE
  8
0
  6
DASHDOT
 62
               4
  5
16B
 10
196.6339236858812
 20
-1088.0087881963127
 30
0.0
 11
261.6339236858812
 21
-1088.0087881963127
 31
0.0
  0
LINE
  8
0
  6
DASHDOT
 62
               4
  5
16C
 10
70.877907460638212
 20
-1088.0087881963127
 30
0.0
 11
170.87790746063843
 21
-1088.0087881963127
 31
0.0
  0
LINE
  8
0
  6
DASHDOT
 62
               4
  5
16D
 10
120.87790746063821
 20
-1138.0087881963127
 30
0.0
 11
120.87790746063844
 21
-1009.0087881963127
 31
0.0
  0
LINE
  8
0
  6
DASHDOT
 62
               4
  5
16E
 10
56.377907460638212
 20
-1073.5087881963127
 30
0.0
 11
190.92191724058944
 21
-1073.5087881963127
 31
0.0
  0
LINE
  8
0
  6
DASHDOT
 62
               4
  5
16F
 10
20.121891235395438
 20
-1073.5087881963127
 30
0.0
 11
-78.478108764604585
 21
-1073.5087881963127
 31
0.0
  0
LINE
  8
0
  6
DASHDOT
 62
               4
  5
170
 10
45.121891235395438
 20
-1088.0087881963127
 30
0.0
 11
-19.878108764604562
 21
-1088.0087881963127
 31
0.0
  0
LINE
  8
0
  6
DASHDOT
 62
               4
  5
171
 10
120.87790746063844
 20
-987.25277197106993
 30
0.0
 11
120.87790746063844
 21
-863.6527719710698
 31
0.0
  0
LINE
  8
0
  6
DASHDOT
 62
               4
  5
172
 10
609.28652321630807
 20
-907.32435262452168
 30
0.0
 11
609.28652321630807
 21
-1177.8711394243478
 31
0.0
  0
LINE
  8
0
  6
DASHDOT
 62
               4
  5
173
 10
447.28652321630818
 20
-1015.8243526245217
 30
0.0
 11
717.7865232163083
 21
-1015.8243526245217
 31
0.0
  0
LINE
  8
0
  6
DASHDOT
 62
               4
  5
174
 10
677.81174799153291
 20
-1490.323786373106
 30
0.0
 11
447.55790992287984
 21
-1490.323786373106
 31
0.0
  0
LINE
  8
0
  6
DASHDOT
 62
               4
  5
175
 10
609.28652321630807
 20
-1304.323786373106
 30
0.0
 11
609.28652321630807
 21
-1555.323786373106
 31
0.0
  0
LINE
  8
0
  6
DASHDOT
 62
               4
  5
176
 10
559.28652321630807
 20
-1504.823786373106
 30
0.0
 11
659.2865232163083
 21
-1504.823786373106
 31
0.0
  0
LINE
  8
0
  6
DASHDOT
 62
               4
  5
177
 10
609.28652321630807
 20
-1206.4243526245218
 30
0.0
 11
609.28652321630807
 21
-1082.8243526245215
 31
0.0
  0
LINE
  8
0
  6
DASHDOT
 62
               4
  5
178
 10
409.28652321630807
 20
-1496.823786373106
 30
0.0
 11
483.68652321630805
 21
-1496.823786373106
 31
0.0
  0
LINE
  8
0
  6
DASHDOT
 62
               4
  5
179
 10
409.2865232163083
 20
-1015.8243526245215
 30
0.0
 11
542.2865232163083
 21
-1015.8243526245215
 31
0.0
  0
LINE
  8
0
  6
CONTINUOUS
 62
               4
  5
17A
 10
-441.99999999999966
 20
-299.6394072848779
 30
0.0
 11
-424.98499395200713
 21
-150.5078836877604
 31
0.0
  0
LINE
  8
0
  6
CONTINUOUS
 62
               4
  5
17B
 10
-139.99999999999983
 20
488.36059271512232
 30
0.0
 11
-139.3284438740356
 21
488.36059271512232
 31
0.0
  0
LINE
  8
0
  6
CONTINUOUS
 62
               4
  5
17C
 10
-136.82844387403514
 20
485.86059271512232
 30
0.0
 11
-139.3284438740356
 21
488.36059271512232
 31
0.0
  0
LINE
  8
0
  6
CONTINUOUS
 62
               4
  5
17D
 10
-139.99999999999983
 20
598.36059271512227
 30
0.0
 11
-139.3284438740356
 21
598.36059271512227
 31
0.0
  0
LINE
  8
0
  6
CONTINUOUS
 62
               4
  5
17E
 10
-136.8284438740356
 20
600.86059271512227
 30
0.0
 11
-139.3284438740356
 21
598.36059271512227
 31
0.0
  0
LINE
  8
0
  6
CONTINUOUS
 62
               4
  5
17F
 10
-139.3284438740356
 20
598.36059271512227
 30
0.0
 11
-139.3284438740356
 21
488.36059271512232
 31
0.0
  0
LINE
  8
0
  6
CONTINUOUS
 62
               4
  5
180
 10
-144.99999999999983
 20
598.46059271512536
 30
0.0
 11
-144.99999999999983
 21
488.2605927151223
 31
0.0
  0
LINE
  8
0
  6
CONTINUOUS
 62
               4
  5
181
 10
-139.99999999999983
 20
485.7605927151223
 30
0.0
 11
-139.99999999999983
 21
600.9605927151224
 31
0.0
  0
LINE
  8
0
  6
CONTINUOUS
 62
               4
  5
182
 10
-139.99999999999983
 20
600.9605927151224
 30
0.0
 11
-142.49999999999983
 21
600.9605927151224
 31
0.0
  0
LINE
  8
0
  6
CONTINUOUS
 62
               4
  5
183
 10
-139.99999999999983
 20
485.7605927151223
 30
0.0
 11
-142.49999999999983
 21
485.7605927151223
 31
0.0
  0
ARC
  8
0
  6
CONTINUOUS
 62
               4
  5
184
 10
-142.49999999999983
 20
488.2605927151223
 30
0.0
 40
2.5
 50
179.99999999989669
 51
269.99999999984499
  0
ARC
  8
0
  6
CONTINUOUS
 62
               4
  5
185
 10
-142.49999999999983
 20
598.4605927151224
 30
0.0
 40
2.5
 50
89.999999999948344
 51
179.99999999989538
  0
LINE
  8
0
  6
CONTINUOUS
 62
               4
  5
186
 10
-136.82844387403514
 20
485.86059271512232
 30
0.0
 11
-136.8284438740356
 21
600.86059271512227
 31
0.0
  0
LINE
  8
0
  6
CONTINUOUS
 62
               4
  5
187
 10
-45.490335786377756
 20
604.05018973346387
 30
0.0
 11
-136.8284438740356
 21
600.86059271512227
 31
0.0
  0
LINE
  8
0
  6
CONTINUOUS
 62
               4
  5
188
 10
-43.993469777239277
 20
482.61872398391586
 30
0.0
 11
-136.82844387403512
 21
485.86059271512232
 31
0.0
  0
LINE
  8
0
  6
CONTINUOUS
 62
               4
  5
189
 10
-571.99999999999966
 20
171.778017020167
 30
0.0
 11
-571.99999999999966
 21
96.896246467971565
 31
0.0
  0
LINE
  8
0
  6
CONTINUOUS
 62
               4
  5
18A
 10
-427.99999999999989
 20
96.896246467975175
 30
0.0
 11
-427.99999999999989
 21
171.778017020167
 31
0.0
  0
LINE
  8
0
  6
CONTINUOUS
 62
               4
  5
18B
 10
-571.99999999999966
 20
96.896246467971565
 30
0.0
 11
-427.99999999999989
 21
96.896246467975175
 31
0.0
  0
LINE
  8
0
  6
CONTINUOUS
 62
               4
  5
18C
 10
-574.99999999999977
 20
-150.50788368776062
 30
0.0
 11
-424.98499395200713
 21
-150.5078836877604
 31
0.0
  0
LINE
  8
0
  6
CONTINUOUS
 62
               4
  5
18D
 10
-424.99999999999977
 20
-37.63940728487762
 30
0.0
 11
-424.99999999999977
 21
-150.5078836877604
 31
0.0
  0
LINE
  8
0
  6
CONTINUOUS
 62
               4
  5
18E
 10
-574.99999999999977
 20
-32.63940728487762
 30
0.0
 11
-527.73463538610179
 21
-32.63940728487762
 31
0.0
  0
CIRCLE
  8
0
  6
CONTINUOUS
 62
               4
  5
18F
 10
-499.99999999999972
 20
27.360592715122493
 30
0.0
 40
57.5
  0
ARC
  8
0
  6
CONTINUOUS
 62
               4
  5
190
 10
-522.4999999999992
 20
-35.139407284877606
 30
0.0
 40
2.4999999999999996
 50
269.99999999984436
 51
348.77920027019394
  0
ARC
  8
0
  6
CONTINUOUS
 62
               4
  5
191
 10
-477.4999999999992
 20
-35.139407284877606
 30
0.0
 40
2.4999999999999996
 50
191.2207997296924
 51
269.99999999984436
  0
LINE
  8
0
  6
CONTINUOUS
 62
               4
  5
192
 10
140.00000000000017
 20
488.36059271512232
 30
0.0
 11
139.32844387403594
 21
488.36059271512232
 31
0.0
  0
LINE
  8
0
  6
CONTINUOUS
 62
               4
  5
193
 10
136.82844387403549
 20
485.86059271512232
 30
0.0
 11
139.32844387403594
 21
488.36059271512232
 31
0.0
  0
LINE
  8
0
  6
CONTINUOUS
 62
               4
  5
194
 10
140.00000000000014
 20
598.36059271512227
 30
0.0
 11
139.32844387403591
 21
598.36059271512227
 31
0.0
  0
LINE
  8
0
  6
CONTINUOUS
 62
               4
  5
195
 10
136.82844387403591
 20
600.86059271512227
 30
0.0
 11
139.32844387403591
 21
598.36059271512227
 31
0.0
  0
LINE
  8
0
  6
CONTINUOUS
 62
               4
  5
196
 10
139.32844387403591
 20
598.36059271512227
 30
0.0
 11
139.32844387403594
 21
488.36059271512232
 31
0.0
  0
LINE
  8
0
  6
CONTINUOUS
 62
               4
  5
197
 10
145.00000000000014
 20
598.46059271512536
 30
0.0
 11
145.00000000000017
 21
488.2605927151223
 31
0.0
  0
LINE
  8
0
  6
CONTINUOUS
 62
               4
  5
198
 10
140.00000000000017
 20
485.7605927151223
 30
0.0
 11
140.00000000000014
 21
600.9605927151224
 31
0.0
  0
LINE
  8
0
  6
CONTINUOUS
 62
               4
  5
199
 10
140.00000000000014
 20
600.9605927151224
 30
0.0
 11
142.50000000000014
 21
600.9605927151224
 31
0.0
  0
LINE
  8
0
  6
CONTINUOUS
 62
               4
  5
19A
 10
140.00000000000017
 20
485.7605927151223
 30
0.0
 11
142.50000000000017
 21
485.7605927151223
 31
0.0
  0
ARC
  8
0
  6
CONTINUOUS
 62
               4
  5
19B
 10
142.50000000000017
 20
488.2605927151223
 30
0.0
 40
2.5
 50
270.00000000005082
 51
359.9999999999992
  0
ARC
  8
0
  6
CONTINUOUS
 62
               4
  5
19C
 10
142.50000000000014
 20
598.4605927151224
 30
0.0
 40
2.5
 50
0.0000000000677433
 51
90.000000000016726
  0
LINE
  8
0
  6
CONTINUOUS
 62
               4
  5
19D
 10
136.82844387403549
 20
485.86059271512232
 30
0.0
 11
136.82844387403591
 21
600.86059271512227
 31
0.0
  0
LINE
  8
0
  6
CONTINUOUS
 62
               4
  5
19E
 10
43.993469777239596
 20
482.61872398391586
 30
0.0
 11
136.82844387403543
 21
485.86059271512232
 31
0.0
  0
LINE
  8
0
  6
CONTINUOUS
 62
               4
  5
19F
 10
45.490335786378068
 20
604.05018973346387
 30
0.0
 11
136.82844387403591
 21
600.86059271512227
 31
0.0
  0
LINE
  8
0
  6
CONTINUOUS
 62
               4
  5
1A0
 10
442.00000000000011
 20
-299.6394072848779
 30
0.0
 11
425.00000000000023
 21
-150.63940728487745
 31
0.0
  0
LINE
  8
0
  6
CONTINUOUS
 62
               4
  5
1A1
 10
428.00000000000034
 20
171.778017020167
 30
0.0
 11
428.00000000000034
 21
96.896246467975175
 31
0.0
  0
LINE
  8
0
  6
CONTINUOUS
 62
               4
  5
1A2
 10
572.00000000000023
 20
96.896246467975132
 30
0.0
 11
572.00000000000023
 21
171.778017020167
 31
0.0
  0
LINE
  8
0
  6
CONTINUOUS
 62
               4
  5
1A3
 10
-71.999999999999659
 20
171.778017020167
 30
0.0
 11
-71.999999999999659
 21
96.896246467975175
 31
0.0
  0
LINE
  8
0
  6
CONTINUOUS
 62
               4
  5
1A4
 10
72.000000000000114
 20
96.896246467975175
 30
0.0
 11
72.000000000000114
 21
171.778017020167
 31
0.0
  0
LINE
  8
0
  6
CONTINUOUS
 62
               4
  5
1A5
 10
-74.999999999999773
 20
-51.44663061709673
 30
0.0
 11
-74.999999999999773
 21
-150.63940728487745
 31
0.0
  0
LINE
  8
0
  6
CONTINUOUS
 62
               4
  5
1A6
 10
-71.999999999999659
 20
96.896246467975175
 30
0.0
 11
72.000000000000114
 21
96.896246467975175
 31
0.0
  0
ARC
  8
0
  6
CONTINUOUS
 62
               4
  5
1A7
 10
94.837831101270126
 20
-36.608799515827116
 30
0.0
 40
5.0
 50
92.000000000016158
 51
134.99999999999045
  0
LINE
  8
0
  6
CONTINUOUS
 62
               4
  5
1A8
 10
91.302297195336394
 20
-33.073265609895401
 30
0.0
 11
86.736155520354032
 21
-37.63940728487762
 31
0.0
  0
LINE
  8
0
  6
CONTINUOUS
 62
               4
  5
1A9
 10
76.464466094067745
 20
-47.911096711163623
 30
0.0
 11
86.736155520354032
 21
-37.63940728487762
 31
0.0
  0
ARC
  8
0
  6
CONTINUOUS
 62
               4
  5
1AA
 10
65.000000000000227
 20
-35.13940728487762
 30
0.0
 40
2.4999999999999996
 50
270.00000000005082
 51
449.99999999994753
  0
LINE
  8
0
  6
CONTINUOUS
 62
               4
  5
1AB
 10
140.00000000000023
 20
82.360592715122266
 30
0.0
 11
139.32844387403583
 21
82.360592715122266
 31
0.0
  0
LINE
  8
0
  6
CONTINUOUS
 62
               4
  5
1AC
 10
136.82844387403577
 20
84.860592715122493
 30
0.0
 11
139.32844387403583
 21
82.360592715122266
 31
0.0
  0
LINE
  8
0
  6
CONTINUOUS
 62
               4
  5
1AD
 10
140.00000000000023
 20
84.960592715122402
 30
0.0
 11
142.50000000000023
 21
84.960592715122402
 31
0.0
  0
ARC
  8
0
  6
CONTINUOUS
 62
               4
  5
1AE
 10
142.50000000000023
 20
82.460592715122402
 30
0.0
 40
2.5
 50
0.000000000069046
 51
90.000000000016726
  0
LINE
  8
0
  6
CONTINUOUS
 62
               4
  5
1AF
 10
140.00000000000023
 20
-27.63940728487762
 30
0.0
 11
139.32844387403583
 21
-27.63940728487762
 31
0.0
  0
LINE
  8
0
  6
CONTINUOUS
 62
               4
  5
1B0
 10
136.82844387403577
 20
-30.139407284876881
 30
0.0
 11
139.32844387403583
 21
-27.63940728487762
 31
0.0
  0
LINE
  8
0
  6
CONTINUOUS
 62
               4
  5
1B1
 10
139.32844387403583
 20
82.360592715122266
 30
0.0
 11
139.32844387403583
 21
-27.63940728487762
 31
0.0
  0
LINE
  8
0
  6
CONTINUOUS
 62
               4
  5
1B2
 10
140.00000000000023
 20
-30.239407284877615
 30
0.0
 11
140.00000000000023
 21
84.960592715122402
 31
0.0
  0
LINE
  8
0
  6
CONTINUOUS
 62
               4
  5
1B3
 10
145.00000000000023
 20
82.460592715122402
 30
0.0
 11
145.00000000000023
 21
-27.739407284877615
 31
0.0
  0
LINE
  8
0
  6
CONTINUOUS
 62
               4
  5
1B4
 10
140.00000000000023
 20
-30.239407284877615
 30
0.0
 11
142.50000000000023
 21
-30.239407284877615
 31
0.0
  0
ARC
  8
0
  6
CONTINUOUS
 62
               4
  5
1B5
 10
142.50000000000023
 20
-27.739407284877615
 30
0.0
 40
2.5
 50
270.00000000005082
 51
359.99999999999949
  0
LINE
  8
0
  6
CONTINUOUS
 62
               4
  5
1B6
 10
136.82844387403577
 20
84.860592715122493
 30
0.0
 11
136.82844387403503
 21
-30.13940728487762
 31
0.0
  0
LINE
  8
0
  6
CONTINUOUS
 62
               4
  5
1B7
 10
136.82844387403503
 20
-30.13940728487762
 30
0.0
 11
94.663333617757587
 21
-31.611845380731666
 31
0.0
  0
ARC
  8
0
  6
CONTINUOUS
 62
               4
  5
1B8
 10
55.000000000000227
 20
86.36059271512238
 30
0.0
 40
19.999999999999996
 50
12.730180138373973
 51
31.788330617102307
  0
LINE
  8
0
  6
CONTINUOUS
 62
               4
  5
1B9
 10
136.82844387403583
 20
84.860592715122436
 30
0.0
 11
79.210967671861511
 21
86.872639320274686
 31
0.0
  0
ARC
  8
0
  6
CONTINUOUS
 62
               4
  5
1BA
 10
79.38546515537405
 20
91.869593455370136
 30
0.0
 40
5.0
 50
192.73018013840917
 51
268.00000000005213
  0
LINE
  8
0
  6
CONTINUOUS
 62
               4
  5
1BB
 10
65.000000000000227
 20
-32.63940728487762
 30
0.0
 11
27.734635386102411
 21
-32.639407284877613
 31
0.0
  0
LINE
  8
0
  6
CONTINUOUS
 62
               4
  5
1BC
 10
-64.999999999998252
 20
-32.63940728487762
 30
0.0
 11
27.734635386102411
 21
-32.639407284877613
 31
0.0
  0
LINE
  8
0
  6
CONTINUOUS
 62
               4
  5
1BD
 10
-57.999999999999886
 20
-299.6394072848779
 30
0.0
 11
-74.999999999999773
 21
-150.63940728487745
 31
0.0
  0
ARC
  8
0
  6
CONTINUOUS
 62
               4
  5
1BE
 10
-64.999999999999758
 20
-35.13940728487762
 30
0.0
 40
2.4999999999999996
 50
89.999999999948159
 51
269.99999999984476
  0
ARC
  8
0
  6
CONTINUOUS
 62
               4
  5
1BF
 10
-54.999999999999758
 20
86.36059271512238
 30
0.0
 40
19.999999999999996
 50
148.21166938286288
 51
167.26981986159129
  0
LINE
  8
0
  6
CONTINUOUS
 62
               4
  5
1C0
 10
-139.99999999999977
 20
82.360592715122266
 30
0.0
 11
-139.32844387403537
 21
82.360592715122266
 31
0.0
  0
LINE
  8
0
  6
CONTINUOUS
 62
               4
  5
1C1
 10
-136.82844387403532
 20
84.860592715122493
 30
0.0
 11
-139.32844387403537
 21
82.360592715122266
 31
0.0
  0
LINE
  8
0
  6
CONTINUOUS
 62
               4
  5
1C2
 10
-136.82844387403537
 20
84.860592715122436
 30
0.0
 11
-79.21096767186107
 21
86.872639320274686
 31
0.0
  0
LINE
  8
0
  6
CONTINUOUS
 62
               4
  5
1C3
 10
-139.99999999999977
 20
84.960592715122402
 30
0.0
 11
-142.49999999999977
 21
84.960592715122402
 31
0.0
  0
ARC
  8
0
  6
CONTINUOUS
 62
               4
  5
1C4
 10
-142.49999999999977
 20
82.460592715122402
 30
0.0
 40
2.5
 50
89.999999999948344
 51
179.99999999989603
  0
ARC
  8
0
  6
CONTINUOUS
 62
               4
  5
1C5
 10
-79.385465155373566
 20
91.869593455370136
 30
0.0
 40
5.0
 50
271.9999999998434
 51
347.26981986148633
  0
LINE
  8
0
  6
CONTINUOUS
 62
               4
  5
1C6
 10
-139.99999999999977
 20
-27.63940728487762
 30
0.0
 11
-139.32844387403537
 21
-27.63940728487762
 31
0.0
  0
LINE
  8
0
  6
CONTINUOUS
 62
               4
  5
1C7
 10
-136.82844387403532
 20
-30.139407284876881
 30
0.0
 11
-139.32844387403537
 21
-27.63940728487762
 31
0.0
  0
LINE
  8
0
  6
CONTINUOUS
 62
               4
  5
1C8
 10
-139.32844387403537
 20
82.360592715122266
 30
0.0
 11
-139.32844387403537
 21
-27.63940728487762
 31
0.0
  0
LINE
  8
0
  6
CONTINUOUS
 62
               4
  5
1C9
 10
-139.99999999999977
 20
-30.239407284877615
 30
0.0
 11
-139.99999999999977
 21
84.960592715122402
 31
0.0
  0
LINE
  8
0
  6
CONTINUOUS
 62
               4
  5
1CA
 10
-144.99999999999977
 20
82.460592715122402
 30
0.0
 11
-144.99999999999977
 21
-27.739407284877615
 31
0.0
  0
LINE
  8
0
  6
CONTINUOUS
 62
               4
  5
1CB
 10
-139.99999999999977
 20
-30.239407284877615
 30
0.0
 11
-142.49999999999977
 21
-30.239407284877615
 31
0.0
  0
ARC
  8
0
  6
CONTINUOUS
 62
               4
  5
1CC
 10
-142.49999999999977
 20
-27.739407284877615
 30
0.0
 40
2.5
 50
179.9999999998962
 51
269.99999999984499
  0
LINE
  8
0
  6
CONTINUOUS
 62
               4
  5
1CD
 10
-136.82844387403532
 20
84.860592715122493
 30
0.0
 11
-136.82844387403458
 21
-30.13940728487762
 31
0.0
  0
LINE
  8
0
  6
CONTINUOUS
 62
               4
  5
1CE
 10
-136.82844387403458
 20
-30.13940728487762
 30
0.0
 11
-94.663333617757146
 21
-31.611845380731666
 31
0.0
  0
ARC
  8
0
  6
CONTINUOUS
 62
               4
  5
1CF
 10
-79.999999999999744
 20
-51.44663061709673
 30
0.0
 40
4.9999999999999991
 50
0.0
 51
44.999999999973191
  0
ARC
  8
0
  6
CONTINUOUS
 62
               4
  5
1D0
 10
-94.837831101269686
 20
-36.608799515827116
 30
0.0
 40
5.0
 50
44.999999999974911
 51
87.99999999994894
  0
LINE
  8
0
  6
CONTINUOUS
 62
               4
  5
1D1
 10
-91.302297195335939
 20
-33.073265609895401
 30
0.0
 11
-86.736155520353577
 21
-37.63940728487762
 31
0.0
  0
LINE
  8
0
  6
CONTINUOUS
 62
               4
  5
1D2
 10
-76.464466094067262
 20
-47.911096711163623
 30
0.0
 11
-86.736155520353577
 21
-37.63940728487762
 31
0.0
  0
ARC
  8
0
  6
CONTINUOUS
 62
               4
  5
1D3
 10
575.00000000000023
 20
-35.13940728487762
 30
0.0
 40
2.4999999999999996
 50
269.99999999984567
 51
449.99999999974102
  0
LINE
  8
0
  6
CONTINUOUS
 62
               4
  5
1D4
 10
425.00000000000017
 20
-37.63940728487762
 30
0.0
 11
425.00000000000017
 21
-150.63940728487745
 31
0.0
  0
LINE
  8
0
  6
CONTINUOUS
 62
               4
  5
1D5
 10
435.00000000000017
 20
-37.63940728487762
 30
0.0
 11
477.50000000000074
 21
-37.63940728487762
 31
0.0
  0
LINE
  8
0
  6
CONTINUOUS
 62
               4
  5
1D6
 10
522.50000000000068
 20
-37.63940728487762
 30
0.0
 11
575.00000000000023
 21
-37.63940728487762
 31
0.0
  0
LINE
  8
0
  6
CONTINUOUS
 62
               4
  5
1D7
 10
527.7346353861019
 20
-32.63940728487762
 30
0.0
 11
575.00000000000023
 21
-32.63940728487762
 31
0.0
  0
ARC
  8
0
  6
CONTINUOUS
 62
               4
  5
1D8
 10
477.50000000000074
 20
-35.13940728487762
 30
0.0
 40
2.4999999999999996
 50
269.99999999984567
 51
348.77920027019394
  0
ARC
  8
0
  6
CONTINUOUS
 62
               4
  5
1D9
 10
522.50000000000068
 20
-35.13940728487762
 30
0.0
 40
2.4999999999999996
 50
191.22079972969266
 51
269.99999999984567
  0
CIRCLE
  8
0
  6
CONTINUOUS
 62
               4
  5
1DA
 10
500.00000000000017
 20
27.36059271512238
 30
0.0
 40
57.600000000000001
  0
ARC
  8
0
  6
CONTINUOUS
 62
               4
  5
1DB
 10
-574.99999999999977
 20
-35.13940728487762
 30
0.0
 40
2.4999999999999996
 50
90.000000000154827
 51
270.00000000005019
  0
LINE
  8
0
  6
CONTINUOUS
 62
               4
  5
1DC
 10
-473.21264290752032
 20
55.36059271512228
 30
0.0
 11
-526.78735709247917
 21
55.36059271512228
 31
0.0
  0
CIRCLE
  8
0
  6
CONTINUOUS
 62
               4
  5
1DD
 10
-499.99999999999977
 20
27.360592715122394
 30
0.0
 40
48.5
  0
CIRCLE
  8
0
  6
CONTINUOUS
 62
               4
  5
1DE
 10
-499.99999999999977
 20
27.360592715122394
 30
0.0
 40
38.75
  0
CIRCLE
  8
0
  6
CONTINUOUS
 62
               4
  5
1DF
 10
-499.99999999999977
 20
27.360592715122394
 30
0.0
 40
47.299999999999997
  0
LINE
  8
0
  6
CONTINUOUS
 62
               4
  5
1E0
 10
-531.81980515339433
 20
-4.4592124382721607
 30
0.0
 11
-533.44615075012348
 21
-6.0855580350013128
 31
0.0
  0
LINE
  8
0
  6
CONTINUOUS
 62
               4
  5
1E1
 10
-468.1801948466051
 20
-4.4592124382721607
 30
0.0
 11
-466.55384924987601
 21
-6.0855580350011991
 31
0.0
  0
ARC
  8
0
  6
CONTINUOUS
 62
               4
  5
1E2
 10
-499.99999999999977
 20
27.360592715122394
 30
0.0
 40
45.0
 50
224.99999999987045
 51
314.99999999981878
  0
CIRCLE
  8
0
  6
CONTINUOUS
 62
               4
  5
1E3
 10
-499.99999999999977
 20
27.360592715122394
 30
0.0
 40
43.0
  0
LINE
  8
0
  6
CONTINUOUS
 62
               4
  5
1E4
 10
526.78735709247962
 20
55.360592715122266
 30
0.0
 11
473.21264290752077
 21
55.360592715122266
 31
0.0
  0
CIRCLE
  8
0
  6
CONTINUOUS
 62
               4
  5
1E5
 10
500.00000000000017
 20
27.36059271512238
 30
0.0
 40
48.5
  0
CIRCLE
  8
0
  6
CONTINUOUS
 62
               4
  5
1E6
 10
500.00000000000017
 20
27.36059271512238
 30
0.0
 40
38.75
  0
CIRCLE
  8
0
  6
CONTINUOUS
 62
               4
  5
1E7
 10
500.00000000000017
 20
27.36059271512238
 30
0.0
 40
47.299999999999997
  0
LINE
  8
0
  6
CONTINUOUS
 62
               4
  5
1E8
 10
468.18019484660562
 20
-4.4592124382721749
 30
0.0
 11
466.55384924987646
 21
-6.085558035001327
 31
0.0
  0
LINE
  8
0
  6
CONTINUOUS
 62
               4
  5
1E9
 10
531.81980515339478
 20
-4.4592124382721749
 30
0.0
 11
533.44615075012393
 21
-6.0855580350012133
 31
0.0
  0
ARC
  8
0
  6
CONTINUOUS
 62
               4
  5
1EA
 10
500.00000000000017
 20
27.36059271512238
 30
0.0
 40
45.0
 50
224.99999999987045
 51
314.99999999981878
  0
CIRCLE
  8
0
  6
CONTINUOUS
 62
               4
  5
1EB
 10
500.00000000000017
 20
27.36059271512238
 30
0.0
 40
43.0
  0
LINE
  8
0
  6
CONTINUOUS
 62
               4
  5
1EC
 10
-74.999999999999758
 20
-150.63940728487745
 30
0.0
 11
-46.368107792056648
 21
-150.63940728487745
 31
0.0
  0
LINE
  8
0
  6
CONTINUOUS
 62
               4
  5
1ED
 10
58.141132586506174
 20
-204.4239163410773
 30
0.0
 11
-65.51200000000027
 21
-100.66661839382442
 31
0.0
  0
ARC
  8
0
  6
CONTINUOUS
 62
               4
  5
1EE
 10
-914.27232010053922
 20
-1245.225035520773
 30
0.0
 40
1424.9238755783815
 50
50.189956146237648
 51
53.440796050701131
  0
ARC
  8
0
  6
CONTINUOUS
 62
               4
  5
1EF
 10
63.579388837033207
 20
-79.86674837003136
 30
0.0
 40
130.75634311527989
 50
189.15312334019521
 51
212.7691831126306
  0
ARC
  8
0
  6
CONTINUOUS
 62
               4
  5
1F0
 10
61.364025499551317
 20
-69.732727618791046
 30
0.0
 40
134.72974192119386
 50
216.90649751121279
 51
268.62928723395265
  0
ARC
  8
0
  6
CONTINUOUS
 62
               4
  5
1F1
 10
-733.63034809850797
 20
-1028.8860781958863
 30
0.0
 40
1143.0835201141012
 50
46.158732653398935
 51
50.202696616627449
  0
LINE
  8
0
  6
CONTINUOUS
 62
               4
  5
1F2
 10
-1.9728332801506525
 20
-150.63940728487745
 30
0.0
 11
74.496765133650001
 21
-150.63940728487745
 31
0.0
  0
LINE
  8
0
  6
CONTINUOUS
 62
               4
  5
1F3
 10
77.000000000000114
 20
-150.75297551513268
 30
0.0
 11
60.271775600349102
 21
-297.36763168452887
 31
0.0
  0
LINE
  8
0
  6
CONTINUOUS
 62
               4
  5
1F4
 10
74.500000000000114
 20
-150.61101522731315
 30
0.0
 11
57.496765133650698
 21
-299.6394072848779
 31
0.0
  0
LINE
  8
0
  6
CONTINUOUS
 62
               4
  5
1F5
 10
74.496765133650001
 20
-150.63940728487745
 30
0.0
 11
77.000000000000114
 21
-150.75297551513268
 31
0.0
  0
LINE
  8
0
  6
CONTINUOUS
 62
               4
  5
1F6
 10
76.750000000000341
 20
-150.73877948635067
 30
0.0
 11
59.994274553679034
 21
-297.59480924456375
 31
0.0
  0
ARC
  8
0
  6
CONTINUOUS
 62
               4
  5
1F7
 10
79.500000000000114
 20
-51.946630617096702
 30
0.0
 40
5.0
 50
134.99999999992141
 51
179.99999999989652
  0
LINE
  8
0
  6
CONTINUOUS
 62
               4
  5
1F8
 10
76.750000000000341
 20
-47.625562805231027
 30
0.0
 11
76.750000000000341
 21
-150.73877948635067
 31
0.0
  0
LINE
  8
0
  6
CONTINUOUS
 62
               4
  5
1F9
 10
77.000000000000114
 20
-47.375562805231255
 30
0.0
 11
77.000000000000114
 21
-150.75297551513268
 31
0.0
  0
LINE
  8
0
  6
CONTINUOUS
 62
               4
  5
1FA
 10
74.500000000000114
 20
-51.946630617096702
 30
0.0
 11
74.500000000000114
 21
-150.61101522731315
 31
0.0
  0
ARC
  8
0
  6
CONTINUOUS
 62
               4
  5
1FB
 10
-778.929228849124
 20
-272.31180569634
 30
0.0
 40
359.11818398045398
 50
13.306177675722576
 51
28.55244350160207
  0
ARC
  8
0
  6
CONTINUOUS
 62
               4
  5
1FC
 10
-500.33118646999333
 20
-164.06512979377078
 30
0.0
 40
73.327111796148202
 50
342.62945642111072
 51
419.83689160537818
  0
LINE
  8
0
  6
CONTINUOUS
 62
               4
  5
1FD
 10
-574.9999999999992
 20
-37.63940728487762
 30
0.0
 11
-574.9999999999992
 21
-150.63940728487745
 31
0.0
  0
LINE
  8
0
  6
CONTINUOUS
 62
               4
  5
1FE
 10
-557.99999999999932
 20
-299.6394072848779
 30
0.0
 11
-574.9999999999992
 21
-150.63940728487745
 31
0.0
  0
LINE
  8
0
  6
CONTINUOUS
 62
               4
  5
1FF
 10
-574.9999999999992
 20
86.36059271512238
 30
0.0
 11
-574.9999999999992
 21
-32.63940728487762
 31
0.0
  0
ARC
  8
0
  6
CONTINUOUS
 62
               4
  5
200
 10
-554.9999999999992
 20
86.36059271512238
 30
0.0
 40
19.999999999999996
 50
148.21166938286299
 51
179.99999999989646
  0
ARC
  8
0
  6
CONTINUOUS
 62
               4
  5
201
 10
-445.00000000000034
 20
86.36059271512238
 30
0.0
 40
19.999999999999996
 50
0.0000000000687203
 51
31.788330617102261
  0
LINE
  8
0
  6
CONTINUOUS
 62
               4
  5
202
 10
-425.00000000000034
 20
86.36059271512238
 30
0.0
 11
-425.00000000000034
 21
-32.63940728487762
 31
0.0
  0
LINE
  8
0
  6
CONTINUOUS
 62
               4
  5
203
 10
-424.99999999999977
 20
-32.63940728487762
 30
0.0
 11
-472.26536461389776
 21
-32.63940728487762
 31
0.0
  0
ARC
  8
0
  6
CONTINUOUS
 62
               4
  5
204
 10
-424.99999999999983
 20
-35.13940728487762
 30
0.0
 40
2.4999999999999996
 50
269.99999999984436
 51
449.99999999974102
  0
ARC
  8
0
  6
CONTINUOUS
 62
               4
  5
205
 10
485.02192705347244
 20
-154.93665693845909
 30
0.0
 40
59.149634972654262
 50
186.49999999989257
 51
236.78754046655175
  0
ARC
  8
0
  6
CONTINUOUS
 62
               4
  5
206
 10
505.92691953069408
 20
-143.08763983970746
 30
0.0
 40
81.261593956721953
 50
186.49999999989254
 51
229.00792456441022
  0
LINE
  8
0
  6
CONTINUOUS
 62
               4
  5
207
 10
491.78299999999996
 20
-150.63940728487748
 30
0.0
 11
425.00000000000017
 21
-150.63940728487748
 31
0.0
  0
LINE
  8
0
  6
CONTINUOUS
 62
               4
  5
208
 10
575.00000000000023
 20
-150.63940728487748
 30
0.0
 11
508.21699999999981
 21
-150.63940728487748
 31
0.0
  0
ARC
  8
0
  6
CONTINUOUS
 62
               4
  5
209
 10
360.68129117650489
 20
-227.42515866440212
 30
0.0
 40
204.24864340422488
 50
353.49999999979656
 51
373.43680216726273
  0
ARC
  8
0
  6
CONTINUOUS
 62
               4
  5
20A
 10
398.37230094456589
 20
-225.14074159499441
 30
0.0
 40
167.18634723772169
 50
351.25933879873276
 51
375.67746336832698
  0
ARC
  8
0
  6
CONTINUOUS
 62
               4
  5
20B
 10
486.78299999999962
 20
-54.528586402349561
 30
0.0
 40
5.0
 50
0.0
 51
89.99999999994769
  0
ARC
  8
0
  6
CONTINUOUS
 62
               4
  5
20C
 10
513.21700000000078
 20
-54.528586402349561
 30
0.0
 40
5.0
 50
89.99999999994769
 51
179.99999999989652
  0
LINE
  8
0
  6
CONTINUOUS
 62
               4
  5
20D
 10
494.00000000000017
 20
-49.528586402349561
 30
0.0
 11
494.00000000000017
 21
-297.57471675131785
 31
0.0
  0
LINE
  8
0
  6
CONTINUOUS
 62
               4
  5
20E
 10
506.00000000000017
 20
-297.57471675131785
 30
0.0
 11
506.00000000000017
 21
-49.528586402349561
 31
0.0
  0
LINE
  8
0
  6
CONTINUOUS
 62
               4
  5
20F
 10
508.21700000000072
 20
-54.528586402349561
 30
0.0
 11
508.21700000000072
 21
-299.84649235166728
 31
0.0
  0
LINE
  8
0
  6
CONTINUOUS
 62
               4
  5
210
 10
491.78299999999962
 20
-54.528586402349561
 30
0.0
 11
491.78299999999962
 21
-299.84649235166728
 31
0.0
  0
LINE
  8
0
  6
CONTINUOUS
 62
               4
  5
211
 10
575.00000000000023
 20
-37.63940728487762
 30
0.0
 11
575.00000000000023
 21
-150.63940728487748
 31
0.0
  0
LINE
  8
0
  6
CONTINUOUS
 62
               4
  5
212
 10
558.00000000000023
 20
-299.6394072848779
 30
0.0
 11
575.00000000000023
 21
-150.63940728487748
 31
0.0
  0
ARC
  8
0
  6
CONTINUOUS
 62
               4
  5
213
 10
474.21603418803369
 20
86.360592715122365
 30
0.0
 40
17.566965811965957
 50
0.0
 51
36.851448659209801
  0
ARC
  8
0
  6
CONTINUOUS
 62
               4
  5
214
 10
525.78396581196671
 20
86.360592715122365
 30
0.0
 40
17.566965811965957
 50
143.14855134068659
 51
179.99999999989643
  0
LINE
  8
0
  6
CONTINUOUS
 62
               4
  5
215
 10
494.00000000000017
 20
96.896246467973796
 30
0.0
 11
506.00000000000017
 21
96.896246467973796
 31
0.0
  0
LINE
  8
0
  6
CONTINUOUS
 62
               4
  5
216
 10
511.72700000000094
 20
101.8962464679738
 30
0.0
 11
488.2729999999994
 21
101.8962464679738
 31
0.0
  0
LINE
  8
0
  6
CONTINUOUS
 62
               4
  5
217
 10
488.2729999999994
 20
96.896246467973796
 30
0.0
 11
488.2729999999994
 21
101.8962464679738
 31
0.0
  0
LINE
  8
0
  6
CONTINUOUS
 62
               4
  5
218
 10
511.72700000000094
 20
96.896246467973796
 30
0.0
 11
511.72700000000094
 21
101.8962464679738
 31
0.0
  0
LINE
  8
0
  6
CONTINUOUS
 62
               4
  5
219
 10
488.2729999999994
 20
101.8962464679738
 30
0.0
 11
494.00000000000017
 21
96.896246467973796
 31
0.0
  0
LINE
  8
0
  6
CONTINUOUS
 62
               4
  5
21A
 10
506.00000000000017
 20
96.896246467973796
 30
0.0
 11
511.72700000000094
 21
101.8962464679738
 31
0.0
  0
LINE
  8
0
  6
CONTINUOUS
 62
               4
  5
21B
 10
506.00000000000017
 20
86.360592715122365
 30
0.0
 11
506.00000000000017
 21
96.896246467973796
 31
0.0
  0
LINE
  8
0
  6
CONTINUOUS
 62
               4
  5
21C
 10
494.00000000000017
 20
96.896246467973796
 30
0.0
 11
494.00000000000017
 21
86.360592715122365
 31
0.0
  0
LINE
  8
0
  6
CONTINUOUS
 62
               4
  5
21D
 10
572.0
 20
96.896246467975132
 30
0.0
 11
511.72700000000037
 21
96.896246467975132
 31
0.0
  0
LINE
  8
0
  6
CONTINUOUS
 62
               4
  5
21E
 10
488.27299999999997
 20
96.896246467975132
 30
0.0
 11
428.00000000000028
 21
96.896246467975132
 31
0.0
  0
LINE
  8
0
  6
CONTINUOUS
 62
               4
  5
21F
 10
575.00000000000023
 20
86.360592715122337
 30
0.0
 11
575.00000000000023
 21
-32.639407284877635
 31
0.0
  0
ARC
  8
0
  6
CONTINUOUS
 62
               4
  5
220
 10
555.00000000000023
 20
86.360592715122337
 30
0.0
 40
19.999999999999996
 50
0.0
 51
31.78833061703353
  0
LINE
  8
0
  6
CONTINUOUS
 62
               4
  5
221
 10
472.2653646138985
 20
-32.63940728487762
 30
0.0
 11
425.00000000000017
 21
-32.63940728487762
 31
0.0
  0
LINE
  8
0
  6
CONTINUOUS
 62
               4
  5
222
 10
425.00000000000017
 20
86.360592715122337
 30
0.0
 11
425.00000000000017
 21
-32.639407284877635
 31
0.0
  0
ARC
  8
0
  6
CONTINUOUS
 62
               4
  5
223
 10
445.00000000000017
 20
86.360592715122337
 30
0.0
 40
19.999999999999996
 50
148.21166938293172
 51
179.99999999996518
  0
ARC
  8
0
  6
CONTINUOUS
 62
               4
  5
224
 10
425.00000000000017
 20
-35.13940728487762
 30
0.0
 40
2.4999999999999996
 50
90.000000000154827
 51
270.00000000005019
  0
LINE
  8
0
  6
CONTINUOUS
 62
               4
  5
225
 10
58.000000000000369
 20
-299.63940728487734
 30
0.0
 11
60.271775600349116
 21
-297.36763168452887
 31
0.0
  0
LINE
  8
0
  6
CONTINUOUS
 62
               4
  5
226
 10
57.496765133650712
 20
-299.6394072848779
 30
0.0
 11
60.271775600349116
 21
-297.36763168452887
 31
0.0
  0
LINE
  8
0
  6
CONTINUOUS
 62
               4
  5
227
 10
494.00000000000006
 20
-297.42169315420051
 30
0.0
 11
505.99999999999983
 21
-297.42169315420051
 31
0.0
  0
LINE
  8
0
  6
CONTINUOUS
 62
               4
  5
228
 10
491.78299999999996
 20
-299.69346875454954
 30
0.0
 11
494.00000000000006
 21
-297.42169315420051
 31
0.0
  0
LINE
  8
0
  6
CONTINUOUS
 62
               4
  5
229
 10
505.99999999999983
 20
-297.42169315420051
 30
0.0
 11
508.21699999999993
 21
-299.69346875454954
 31
0.0
  0
LINE
  8
0
  6
CONTINUOUS
 62
               4
  5
22A
 10
-91.000000000000256
 20
-417.38462907220003
 30
0.0
 11
-91.000000000000256
 21
-407.51034286514425
 31
0.0
  0
LINE
  8
0
  6
CONTINUOUS
 62
               4
  5
22B
 10
90.999999999999488
 20
-417.38462907220003
 30
0.0
 11
90.999999999999488
 21
-407.51034286514425
 31
0.0
  0
LINE
  8
0
  6
CONTINUOUS
 62
               4
  5
22C
 10
-65.500000000001279
 20
-516.63940728487637
 30
0.0
 11
65.500000000000625
 21
-516.63940728487637
 31
0.0
  0
LINE
  8
0
  6
CONTINUOUS
 62
               4
  5
22D
 10
-565.50000000000068
 20
-516.63940728487637
 30
0.0
 11
-434.49999999999881
 21
-516.63940728487637
 31
0.0
  0
LINE
  8
0
  6
CONTINUOUS
 62
               4
  5
22E
 10
434.49999999999926
 20
-516.63940728487637
 30
0.0
 11
565.50000000000114
 21
-516.63940728487637
 31
0.0
  0
CIRCLE
  8
0
  6
CONTINUOUS
 62
               4
  5
22F
 10
0.0000000000001705
 20
543.36059271512227
 30
0.0
 40
52.5
  0
LINE
  8
0
  6
CONTINUOUS
 62
               4
  5
230
 10
86.210498200625068
 20
523.36059271512227
 30
0.0
 11
72.284161474005202
 21
523.36059271512227
 31
0.0
  0
LINE
  8
0
  6
CONTINUOUS
 62
               4
  5
231
 10
72.284161474005202
 20
563.36059271512227
 30
0.0
 11
86.210498200625068
 21
563.36059271512227
 31
0.0
  0
LINE
  8
0
  6
CONTINUOUS
 62
               4
  5
232
 10
20.000000000000171
 20
629.57109091574694
 30
0.0
 11
20.000000000000171
 21
615.64475418912662
 31
0.0
  0
LINE
  8
0
  6
CONTINUOUS
 62
               4
  5
233
 10
-19.999999999999829
 20
615.64475418912662
 30
0.0
 11
-19.999999999999829
 21
629.57109091574694
 31
0.0
  0
LINE
  8
0
  6
CONTINUOUS
 62
               4
  5
234
 10
-86.210498200625409
 20
563.36059271512227
 30
0.0
 11
-72.284161474004861
 21
563.36059271512227
 31
0.0
  0
LINE
  8
0
  6
CONTINUOUS
 62
               4
  5
235
 10
-72.284161474004861
 20
523.36059271512227
 30
0.0
 11
-86.210498200625409
 21
523.36059271512227
 31
0.0
  0
LINE
  8
0
  6
CONTINUOUS
 62
               4
  5
236
 10
-47.668123520860888
 20
521.36059271512181
 30
0.0
 11
47.668123520860092
 21
521.36059271512181
 31
0.0
  0
ARC
  8
0
  6
CONTINUOUS
 62
               4
  5
237
 10
12.503611649381298
 20
552.06699034274129
 30
0.0
 40
54.763804151667173
 50
141.38591763675663
 51
145.15009542087034
  0
ARC
  8
0
  6
CONTINUOUS
 62
               4
  5
238
 10
0.0000000000001705
 20
543.36059271512227
 30
0.0
 40
51.5
 50
334.71098847326505
 51
410.95932736340404
  0
ARC
  8
0
  6
CONTINUOUS
 62
               4
  5
239
 10
0.0000000000001705
 20
543.36059271512227
 30
0.0
 40
51.5
 50
129.04067263628565
 51
205.28901152642416
  0
ARC
  8
0
  6
CONTINUOUS
 62
               4
  5
23A
 10
0.0000000000001705
 20
543.36059271512227
 30
0.0
 40
77.5
 50
104.95524831661733
 51
165.04475168329611
  0
ARC
  8
0
  6
CONTINUOUS
 62
               4
  5
23B
 10
0.0000000000001705
 20
543.36059271512227
 30
0.0
 40
77.5
 50
14.955248316531517
 51
75.044751683210308
  0
LINE
  8
0
  6
CONTINUOUS
 62
               4
  5
23C
 10
-32.438403166617434
 20
583.36059271512204
 30
0.0
 11
0.0000000000001705
 21
583.36059271512204
 31
0.0
  0
LINE
  8
0
  6
CONTINUOUS
 62
               4
  5
23D
 10
0.0000000000001705
 20
583.36059271512204
 30
0.0
 11
34.003676271838856
 21
583.36059271512204
 31
0.0
  0
LINE
  8
0
  6
CONTINUOUS
 62
               4
  5
23E
 10
-19.999999999999829
 20
457.15009451449703
 30
0.0
 11
-19.999999999999829
 21
471.07643124111689
 31
0.0
  0
LINE
  8
0
  6
CONTINUOUS
 62
               4
  5
23F
 10
20.000000000000171
 20
471.07643124111689
 30
0.0
 11
20.000000000000171
 21
457.15009451449703
 31
0.0
  0
CIRCLE
  8
0
  6
CONTINUOUS
 62
               4
  5
240
 10
0.0000000000001705
 20
543.36059271512227
 30
0.0
 40
59.0
  0
ARC
  8
0
  6
CONTINUOUS
 62
               4
  5
241
 10
-576.99999999999966
 20
171.778017020167
 30
0.0
 40
4.9999999999999991
 50
0.0
 51
66.421821521759654
  0
LINE
  8
0
  6
CONTINUOUS
 62
               4
  5
242
 10
-588.5
 20
176.36059271512272
 30
0.0
 11
-411.50000000000011
 21
176.36059271512272
 31
0.0
  0
LINE
  8
0
  6
CONTINUOUS
 62
               4
  5
243
 10
-519.99999999999977
 20
176.36059271512272
 30
0.0
 11
-519.99999999999977
 21
193.36059271512238
 31
0.0
  0
LINE
  8
0
  6
CONTINUOUS
 62
               4
  5
244
 10
-480.00000000000034
 20
193.36059271512238
 30
0.0
 11
-480.00000000000034
 21
176.36059271512272
 31
0.0
  0
LINE
  8
0
  6
CONTINUOUS
 62
               4
  5
245
 10
-519.99999999999977
 20
183.36059271512238
 30
0.0
 11
-480.00000000000034
 21
183.36059271512238
 31
0.0
  0
LINE
  8
0
  6
CONTINUOUS
 62
               4
  5
246
 10
-572.28416147400401
 20
193.36059271512238
 30
0.0
 11
-572.28416147400401
 21
176.36059271512272
 31
0.0
  0
LINE
  8
0
  6
CONTINUOUS
 62
               4
  5
247
 10
-586.2104982006249
 20
183.36059271512238
 30
0.0
 11
-586.2104982006249
 21
176.36059271512272
 31
0.0
  0
LINE
  8
0
  6
CONTINUOUS
 62
               4
  5
248
 10
-588.5
 20
183.36059271512238
 30
0.0
 11
-586.2104982006249
 21
183.36059271512238
 31
0.0
  0
LINE
  8
0
  6
CONTINUOUS
 62
               4
  5
249
 10
-586.2104982006249
 20
183.36059271512238
 30
0.0
 11
-572.28416147400401
 21
193.36059271512238
 31
0.0
  0
ARC
  8
0
  6
CONTINUOUS
 62
               4
  5
24A
 10
-422.99999999999989
 20
171.778017020167
 30
0.0
 40
4.9999999999999991
 50
113.57817847813625
 51
179.99999999989603
  0
LINE
  8
0
  6
CONTINUOUS
 62
               4
  5
24B
 10
-427.71583852599497
 20
193.36059271512238
 30
0.0
 11
-427.71583852599497
 21
176.36059271512272
 31
0.0
  0
LINE
  8
0
  6
CONTINUOUS
 62
               4
  5
24C
 10
-413.78950179937453
 20
183.36059271512238
 30
0.0
 11
-413.78950179937453
 21
176.36059271512272
 31
0.0
  0
LINE
  8
0
  6
CONTINUOUS
 62
               4
  5
24D
 10
-411.50000000000011
 20
183.36059271512238
 30
0.0
 11
-413.78950179937453
 21
183.36059271512238
 31
0.0
  0
LINE
  8
0
  6
CONTINUOUS
 62
               4
  5
24E
 10
-413.78950179937453
 20
183.36059271512238
 30
0.0
 11
-427.71583852599497
 21
193.36059271512238
 31
0.0
  0
ARC
  8
0
  6
CONTINUOUS
 62
               4
  5
24F
 10
-76.999999999999659
 20
171.778017020167
 30
0.0
 40
4.9999999999999991
 50
0.0
 51
66.421821521759782
  0
LINE
  8
0
  6
CONTINUOUS
 62
               4
  5
250
 10
-88.499999999999943
 20
176.36059271512272
 30
0.0
 11
88.499999999999886
 21
176.36059271512272
 31
0.0
  0
LINE
  8
0
  6
CONTINUOUS
 62
               4
  5
251
 10
-19.999999999999773
 20
176.36059271512272
 30
0.0
 11
-19.999999999999773
 21
193.36059271512238
 31
0.0
  0
LINE
  8
0
  6
CONTINUOUS
 62
               4
  5
252
 10
19.999999999999659
 20
193.36059271512238
 30
0.0
 11
19.999999999999659
 21
176.36059271512272
 31
0.0
  0
LINE
  8
0
  6
CONTINUOUS
 62
               4
  5
253
 10
-19.999999999999773
 20
183.36059271512238
 30
0.0
 11
19.999999999999659
 21
183.36059271512238
 31
0.0
  0
LINE
  8
0
  6
CONTINUOUS
 62
               4
  5
254
 10
-72.284161474004009
 20
193.36059271512238
 30
0.0
 11
-72.284161474004009
 21
176.36059271512272
 31
0.0
  0
LINE
  8
0
  6
CONTINUOUS
 62
               4
  5
255
 10
-86.210498200624954
 20
183.36059271512238
 30
0.0
 11
-86.210498200624954
 21
176.36059271512272
 31
0.0
  0
LINE
  8
0
  6
CONTINUOUS
 62
               4
  5
256
 10
-88.499999999999943
 20
183.36059271512238
 30
0.0
 11
-86.210498200624954
 21
183.36059271512238
 31
0.0
  0
LINE
  8
0
  6
CONTINUOUS
 62
               4
  5
257
 10
-86.210498200624954
 20
183.36059271512238
 30
0.0
 11
-72.284161474004009
 21
193.36059271512238
 31
0.0
  0
ARC
  8
0
  6
CONTINUOUS
 62
               4
  5
258
 10
77.000000000000114
 20
171.778017020167
 30
0.0
 40
4.9999999999999991
 50
113.57817847813655
 51
179.99999999989603
  0
LINE
  8
0
  6
CONTINUOUS
 62
               4
  5
259
 10
72.284161474005032
 20
193.36059271512238
 30
0.0
 11
72.284161474005032
 21
176.36059271512272
 31
0.0
  0
LINE
  8
0
  6
CONTINUOUS
 62
               4
  5
25A
 10
86.210498200625466
 20
183.36059271512238
 30
0.0
 11
86.210498200625466
 21
176.36059271512272
 31
0.0
  0
LINE
  8
0
  6
CONTINUOUS
 62
               4
  5
25B
 10
88.499999999999886
 20
183.36059271512238
 30
0.0
 11
86.210498200625466
 21
183.36059271512238
 31
0.0
  0
LINE
  8
0
  6
CONTINUOUS
 62
               4
  5
25C
 10
86.210498200625466
 20
183.36059271512238
 30
0.0
 11
72.284161474005032
 21
193.36059271512238
 31
0.0
  0
ARC
  8
0
  6
CONTINUOUS
 62
               4
  5
25D
 10
423.00000000000034
 20
171.778017020167
 30
0.0
 40
4.9999999999999991
 50
0.0
 51
66.421821521759654
  0
LINE
  8
0
  6
CONTINUOUS
 62
               4
  5
25E
 10
411.50000000000006
 20
176.36059271512272
 30
0.0
 11
588.5
 21
176.36059271512272
 31
0.0
  0
LINE
  8
0
  6
CONTINUOUS
 62
               4
  5
25F
 10
480.00000000000017
 20
176.36059271512272
 30
0.0
 11
480.00000000000017
 21
193.36059271512238
 31
0.0
  0
LINE
  8
0
  6
CONTINUOUS
 62
               4
  5
260
 10
519.99999999999977
 20
193.36059271512238
 30
0.0
 11
519.99999999999977
 21
176.36059271512272
 31
0.0
  0
LINE
  8
0
  6
CONTINUOUS
 62
               4
  5
261
 10
480.00000000000017
 20
183.36059271512238
 30
0.0
 11
519.99999999999977
 21
183.36059271512238
 31
0.0
  0
LINE
  8
0
  6
CONTINUOUS
 62
               4
  5
262
 10
427.71583852599599
 20
193.36059271512238
 30
0.0
 11
427.71583852599599
 21
176.36059271512272
 31
0.0
  0
LINE
  8
0
  6
CONTINUOUS
 62
               4
  5
263
 10
413.78950179937505
 20
183.36059271512238
 30
0.0
 11
413.78950179937505
 21
176.36059271512272
 31
0.0
  0
LINE
  8
0
  6
CONTINUOUS
 62
               4
  5
264
 10
411.50000000000006
 20
183.36059271512238
 30
0.0
 11
413.78950179937505
 21
183.36059271512238
 31
0.0
  0
LINE
  8
0
  6
CONTINUOUS
 62
               4
  5
265
 10
413.78950179937505
 20
183.36059271512238
 30
0.0
 11
427.71583852599599
 21
193.36059271512238
 31
0.0
  0
ARC
  8
0
  6
CONTINUOUS
 62
               4
  5
266
 10
577.00000000000023
 20
171.778017020167
 30
0.0
 40
4.9999999999999991
 50
113.57817847813625
 51
179.99999999989603
  0
LINE
  8
0
  6
CONTINUOUS
 62
               4
  5
267
 10
572.28416147400503
 20
193.36059271512238
 30
0.0
 11
572.28416147400503
 21
176.36059271512272
 31
0.0
  0
LINE
  8
0
  6
CONTINUOUS
 62
               4
  5
268
 10
586.21049820062558
 20
183.36059271512238
 30
0.0
 11
586.21049820062558
 21
176.36059271512272
 31
0.0
  0
LINE
  8
0
  6
CONTINUOUS
 62
               4
  5
269
 10
588.5
 20
183.36059271512238
 30
0.0
 11
586.21049820062558
 21
183.36059271512238
 31
0.0
  0
LINE
  8
0
  6
CONTINUOUS
 62
               4
  5
26A
 10
586.21049820062558
 20
183.36059271512238
 30
0.0
 11
572.28416147400503
 21
193.36059271512238
 31
0.0
  0
POINT
  8
0
  6
CONTINUOUS
 62
               4
  5
26B
 10
-247.03776905046846
 20
-1029.0087881963127
 30
0.0
  0
POINT
  8
0
  6
CONTINUOUS
 62
               4
  5
26C
 10
-537.23776905046839
 20
-1029.0087881963125
 30
0.0
  0
POINT
  8
0
  6
CONTINUOUS
 62
               4
  5
26D
 10
-349.583726446235
 20
-920.94090412727769
 30
0.0
  0
POINT
  8
0
  6
CONTINUOUS
 62
               4
  5
26E
 10
242.83392368588125
 20
-1029.0087881963127
 30
0.0
  0
POINT
  8
0
  6
CONTINUOUS
 62
               4
  5
26F
 10
-1.0781087646046075
 20
-1029.0087881963127
 30
0.0
  0
POINT
  8
0
  6
CONTINUOUS
 62
               4
  5
270
 10
165.37790746063843
 20
-941.05277197106989
 30
0.0
  0
LINE
  8
0
  6
CONTINUOUS
 62
               4
  5
271
 10
686.28652321630807
 20
-1420.7881326202532
 30
0.0
 11
681.28652321630807
 21
-1415.7881326202532
 31
0.0
  0
ARC
  8
0
  6
CONTINUOUS
 62
               4
  5
272
 10
663.78652321630807
 20
-1431.323786373106
 30
0.0
 40
19.999999999999996
 50
0.0
 51
31.788330617027277
  0
LINE
  8
0
  6
CONTINUOUS
 62
               4
  5
273
 10
680.78652321630852
 20
-1420.7881326202532
 30
0.0
 11
680.78652321630852
 21
-1415.7881326202528
 31
0.0
  0
LINE
  8
0
  6
CONTINUOUS
 62
               4
  5
274
 10
681.28652321630807
 20
-1415.7881326202532
 30
0.0
 11
680.78652321630852
 21
-1415.7881326202532
 31
0.0
  0
LINE
  8
0
  6
CONTINUOUS
 62
               4
  5
275
 10
686.0365232163083
 20
-1421.0381326202532
 30
0.0
 11
680.78652321630852
 21
-1415.7881326202532
 31
0.0
  0
LINE
  8
0
  6
CONTINUOUS
 62
               4
  5
276
 10
686.0365232163083
 20
-1421.0381326202532
 30
0.0
 11
686.28652321630807
 21
-1420.7881326202532
 31
0.0
  0
LINE
  8
0
  6
CONTINUOUS
 62
               4
  5
277
 10
686.28652321630807
 20
-1420.7881326202532
 30
0.0
 11
686.28652321630807
 21
-1551.4768099702228
 31
0.0
  0
LINE
  8
0
  6
CONTINUOUS
 62
               4
  5
278
 10
686.0365232163083
 20
-1421.0381326202532
 30
0.0
 11
686.0365232163083
 21
-1551.1914528630873
 31
0.0
  0
LINE
  8
0
  6
CONTINUOUS
 62
               4
  5
279
 10
683.78652321630807
 20
-1431.1707627759888
 30
0.0
 11
683.78652321630807
 21
-1550.323786373106
 31
0.0
  0
POINT
  8
0
  6
CONTINUOUS
 62
               4
  5
27A
 10
653.78652321630807
 20
-1160.2243526245215
 30
0.0
  0
POINT
  8
0
  6
CONTINUOUS
 62
               4
  5
27B
 10
464.88652321630809
 20
-1445.823786373106
 30
0.0
  0
POINT
  8
0
  6
CONTINUOUS
 62
               4
  5
27C
 10
464.88652321630821
 20
-1060.3243526245215
 30
0.0
  0
LINE
  8
0
  6
DASHED2
 62
               4
  5
27D
 10
-557.00000000000023
 20
128.36059271512238
 30
0.0
 11
-443.00000000000045
 21
128.36059271512238
 31
0.0
  0
LINE
  8
0
  6
DASHED2
 62
               4
  5
27E
 10
-57.000000000000227
 20
128.36059271512238
 30
0.0
 11
56.999999999999545
 21
128.36059271512238
 31
0.0
  0
LINE
  8
0
  6
DASHED2
 62
               4
  5
27F
 10
443.00000000000028
 20
128.36059271512238
 30
0.0
 11
557.0
 21
128.36059271512238
 31
0.0
  0
LINE
  8
0
  6
DASHED2
 62
               4
  5
280
 10
57.000000000000142
 20
-311.63940728487762
 30
0.0
 11
57.000000000000142
 21
-411.63940728487762
 31
0.0
  0
LINE
  8
0
  6
DASHED2
 62
               4
  5
281
 10
-57.132845554130711
 20
-311.63940728487762
 30
0.0
 11
-57.132845554130711
 21
-411.73783503032882
 31
0.0
  0
LINE
  8
0
  6
DASHED2
 62
               4
  5
282
 10
-57.132845554130711
 20
-311.63940728487762
 30
0.0
 11
57.000000000000142
 21
-311.63940728487762
 31
0.0
  0
LINE
  8
0
  6
DASHED2
 62
               4
  5
283
 10
57.000000000000142
 20
-311.63940728487762
 30
0.0
 11
58.000000000000369
 21
-310.63940728487739
 31
0.0
  0
LINE
  8
0
  6
DASHED2
 62
               4
  5
284
 10
-57.132845554130711
 20
-311.63940728487762
 30
0.0
 11
-57.999999999999858
 21
-310.77225283900844
 31
0.0
  0
LINE
  8
0
  6
DASHED2
 62
               4
  5
285
 10
58.000000000000369
 20
-310.63940728487739
 30
0.0
 11
58.000000000000369
 21
-299.63940728487785
 31
0.0
  0
LINE
  8
0
  6
DASHED2
 62
               4
  5
286
 10
-57.999999999999858
 20
-310.77225283900844
 30
0.0
 11
-57.999999999999858
 21
-299.6394072848779
 31
0.0
  0
LINE
  8
0
  6
DASHED2
 62
               4
  5
287
 10
-57.500000000002728
 20
-426.63940728487876
 30
0.0
 11
-57.500000000002728
 21
-491.63940728487648
 31
0.0
  0
LINE
  8
0
  6
DASHED2
 62
               4
  5
288
 10
0.0000000000002558
 20
-411.63940728487762
 30
0.0
 11
-56.999999999999915
 21
-411.63940728487762
 31
0.0
  0
LINE
  8
0
  6
DASHED2
 62
               4
  5
289
 10
-57.500000000002728
 20
-426.63940728487876
 30
0.0
 11
-0.0000000000008811
 21
-426.63940728487762
 31
0.0
  0
LINE
  8
0
  6
DASHED2
 62
               4
  5
28A
 10
0.0000000000002558
 20
-411.63940728487762
 30
0.0
 11
57.000000000000142
 21
-411.63940728487762
 31
0.0
  0
LINE
  8
0
  6
DASHED2
 62
               4
  5
28B
 10
57.500000000001961
 20
-426.63940728487876
 30
0.0
 11
0.0000000000002558
 21
-426.63940728487762
 31
0.0
  0
LINE
  8
0
  6
DASHED2
 62
               4
  5
28C
 10
57.500000000001961
 20
-426.63940728487876
 30
0.0
 11
57.500000000001961
 21
-491.63940728487648
 31
0.0
  0
LINE
  8
0
  6
DASHED2
 62
               4
  5
28D
 10
-136.76000000000047
 20
-411.63940728487717
 30
0.0
 11
-136.76000000000047
 21
-403.11327878556995
 31
0.0
  0
LINE
  8
0
  6
DASHED2
 62
               4
  5
28E
 10
-130.87102725426607
 20
-403.11327878556995
 30
0.0
 11
-130.87102725426607
 21
-411.63940728487717
 31
0.0
  0
LINE
  8
0
  6
DASHED2
 62
               4
  5
28F
 10
-133.81551362713313
 20
-402.03940728487703
 30
0.0
 11
-116.18448637286721
 21
-402.03940728487703
 31
0.0
  0
LINE
  8
0
  6
DASHED2
 62
               4
  5
290
 10
-113.24000000000015
 20
-411.63940728487717
 30
0.0
 11
-113.24000000000015
 21
-403.11327878556995
 31
0.0
  0
LINE
  8
0
  6
DASHED2
 62
               4
  5
291
 10
-119.12897274573484
 20
-411.63940728487717
 30
0.0
 11
-119.12897274573484
 21
-403.11327878556995
 31
0.0
  0
ARC
  8
0
  6
DASHED2
 62
               4
  5
292
 10
-133.81551362713313
 20
-406.61313886899302
 30
0.0
 40
4.5737315841157447
 50
49.925579661602562
 51
130.07442033832857
  0
ARC
  8
0
  6
DASHED2
 62
               4
  5
293
 10
-116.18448637286721
 20
-406.61313886899302
 30
0.0
 40
4.5737315841157686
 50
49.925579661602882
 51
130.07442033832876
  0
ARC
  8
0
  6
DASHED2
 62
               4
  5
294
 10
-125.00000000000031
 20
-418.62526555439752
 30
0.0
 40
16.58585826952007
 50
69.269184858534402
 51
110.73081514139702
  0
LINE
  8
0
  6
DASHED2
 62
               4
  5
295
 10
-136.7600000000019
 20
-413.63940728487751
 30
0.0
 11
-136.7600000000019
 21
-422.16553578418473
 31
0.0
  0
LINE
  8
0
  6
DASHED2
 62
               4
  5
296
 10
-130.87102725426749
 20
-422.16553578418473
 30
0.0
 11
-130.87102725426749
 21
-413.63940728487751
 31
0.0
  0
LINE
  8
0
  6
DASHED2
 62
               4
  5
297
 10
-133.81551362713455
 20
-423.2394072848773
 30
0.0
 11
-116.18448637286892
 21
-423.2394072848773
 31
0.0
  0
LINE
  8
0
  6
DASHED2
 62
               4
  5
298
 10
-113.24000000000157
 20
-413.63940728487751
 30
0.0
 11
-113.24000000000157
 21
-422.16553578418473
 31
0.0
  0
LINE
  8
0
  6
DASHED2
 62
               4
  5
299
 10
-119.12897274573598
 20
-413.63940728487751
 30
0.0
 11
-119.12897274573598
 21
-422.16553578418473
 31
0.0
  0
ARC
  8
0
  6
DASHED2
 62
               4
  5
29A
 10
-133.81551362713455
 20
-418.66567570076188
 30
0.0
 40
4.5737315841157447
 50
229.92557966153424
 51
310.07442033826061
  0
ARC
  8
0
  6
DASHED2
 62
               4
  5
29B
 10
-116.18448637286892
 20
-418.66567570076188
 30
0.0
 40
4.5737315841157686
 50
229.92557966153441
 51
310.07442033826021
  0
ARC
  8
0
  6
DASHED2
 62
               4
  5
29C
 10
-125.00000000000173
 20
-406.65354901535738
 30
0.0
 40
16.58585826952007
 50
249.26918485846539
 51
290.73081514132792
  0
LINE
  8
0
  6
DASHED2
 62
               4
  5
29D
 10
-131.00000000000026
 20
-423.2394072848773
 30
0.0
 11
-131.00000000000026
 21
-433.75877352720192
 31
0.0
  0
LINE
  8
0
  6
DASHED2
 62
               4
  5
29E
 10
-119.00000000000037
 20
-423.2394072848773
 30
0.0
 11
-119.00000000000037
 21
-433.75877352720192
 31
0.0
  0
LINE
  8
0
  6
DASHED2
 62
               4
  5
29F
 10
-129.80000000000049
 20
-434.95877352720231
 30
0.0
 11
-120.20000000000041
 21
-434.95877352720231
 31
0.0
  0
LINE
  8
0
  6
DASHED2
 62
               4
  5
2A0
 10
-131.00000000000026
 20
-433.75877352720192
 30
0.0
 11
-129.80000000000049
 21
-434.95877352720231
 31
0.0
  0
LINE
  8
0
  6
DASHED2
 62
               4
  5
2A1
 10
-119.00000000000037
 20
-433.75877352720192
 30
0.0
 11
-120.20000000000041
 21
-434.95877352720231
 31
0.0
  0
LINE
  8
0
  6
DASHED2
 62
               4
  5
2A2
 10
-136.76000000000047
 20
-411.63940728487717
 30
0.0
 11
-113.24000000000015
 21
-411.63940728487717
 31
0.0
  0
LINE
  8
0
  6
DASHED2
 62
               4
  5
2A3
 10
-113.24000000000157
 20
-413.63940728487751
 30
0.0
 11
-136.7600000000019
 21
-413.63940728487751
 31
0.0
  0
LINE
  8
0
  6
DASHED2
 62
               4
  5
2A4
 10
-131.00000000000026
 20
-296.57582780894836
 30
0.0
 11
-131.00000000000026
 21
-402.03940728487703
 31
0.0
  0
LINE
  8
0
  6
DASHED2
 62
               4
  5
2A5
 10
-119.00000000000037
 20
-296.57582780894836
 30
0.0
 11
-119.00000000000037
 21
-402.03940728487703
 31
0.0
  0
LINE
  8
0
  6
DASHED2
 62
               4
  5
2A6
 10
-119.00000000000037
 20
-296.57582780894836
 30
0.0
 11
-131.00000000000026
 21
-296.57582780894836
 31
0.0
  0
LINE
  8
0
  6
DASHED2
 62
               4
  5
2A7
 10
136.75999999999982
 20
-411.63940728487717
 30
0.0
 11
136.75999999999982
 21
-403.11327878556995
 31
0.0
  0
LINE
  8
0
  6
DASHED2
 62
               4
  5
2A8
 10
130.87102725426541
 20
-403.11327878556995
 30
0.0
 11
130.87102725426541
 21
-411.63940728487717
 31
0.0
  0
LINE
  8
0
  6
DASHED2
 62
               4
  5
2A9
 10
133.81551362713247
 20
-402.03940728487703
 30
0.0
 11
116.18448637286656
 21
-402.03940728487703
 31
0.0
  0
LINE
  8
0
  6
DASHED2
 62
               4
  5
2AA
 10
113.2399999999995
 20
-411.63940728487717
 30
0.0
 11
113.2399999999995
 21
-403.11327878556995
 31
0.0
  0
LINE
  8
0
  6
DASHED2
 62
               4
  5
2AB
 10
119.12897274573419
 20
-411.63940728487717
 30
0.0
 11
119.12897274573419
 21
-403.11327878556995
 31
0.0
  0
ARC
  8
0
  6
DASHED2
 62
               4
  5
2AC
 10
133.81551362713247
 20
-406.61313886899302
 30
0.0
 40
4.5737315841157447
 50
49.925579661636654
 51
130.0744203383627
  0
ARC
  8
0
  6
DASHED2
 62
               4
  5
2AD
 10
116.18448637286656
 20
-406.61313886899302
 30
0.0
 40
4.5737315841157686
 50
49.925579661636384
 51
130.07442033836222
  0
ARC
  8
0
  6
DASHED2
 62
               4
  5
2AE
 10
124.99999999999966
 20
-418.62526555439752
 30
0.0
 40
16.58585826952007
 50
69.26918485856821
 51
110.73081514143077
  0
LINE
  8
0
  6
DASHED2
 62
               4
  5
2AF
 10
136.76000000000124
 20
-413.63940728487751
 30
0.0
 11
136.76000000000124
 21
-422.16553578418473
 31
0.0
  0
LINE
  8
0
  6
DASHED2
 62
               4
  5
2B0
 10
130.87102725426683
 20
-422.16553578418473
 30
0.0
 11
130.87102725426683
 21
-413.63940728487751
 31
0.0
  0
LINE
  8
0
  6
DASHED2
 62
               4
  5
2B1
 10
133.8155136271339
 20
-423.2394072848773
 30
0.0
 11
116.18448637286826
 21
-423.2394072848773
 31
0.0
  0
LINE
  8
0
  6
DASHED2
 62
               4
  5
2B2
 10
113.24000000000092
 20
-413.63940728487751
 30
0.0
 11
113.24000000000092
 21
-422.16553578418473
 31
0.0
  0
LINE
  8
0
  6
DASHED2
 62
               4
  5
2B3
 10
119.12897274573533
 20
-413.63940728487751
 30
0.0
 11
119.12897274573533
 21
-422.16553578418473
 31
0.0
  0
ARC
  8
0
  6
DASHED2
 62
               4
  5
2B4
 10
133.8155136271339
 20
-418.66567570076188
 30
0.0
 40
4.5737315841157447
 50
229.9255796616352
 51
310.07442033836156
  0
ARC
  8
0
  6
DASHED2
 62
               4
  5
2B5
 10
116.18448637286826
 20
-418.66567570076188
 30
0.0
 40
4.5737315841157686
 50
229.925579661635
 51
310.07442033836077
  0
ARC
  8
0
  6
DASHED2
 62
               4
  5
2B6
 10
125.00000000000108
 20
-406.65354901535738
 30
0.0
 40
16.58585826952007
 50
249.26918485856763
 51
290.7308151414303
  0
LINE
  8
0
  6
DASHED2
 62
               4
  5
2B7
 10
130.9999999999996
 20
-423.2394072848773
 30
0.0
 11
130.9999999999996
 21
-433.75877352720192
 31
0.0
  0
LINE
  8
0
  6
DASHED2
 62
               4
  5
2B8
 10
118.99999999999972
 20
-423.2394072848773
 30
0.0
 11
118.99999999999972
 21
-433.75877352720192
 31
0.0
  0
LINE
  8
0
  6
DASHED2
 62
               4
  5
2B9
 10
129.79999999999984
 20
-434.95877352720231
 30
0.0
 11
120.19999999999976
 21
-434.95877352720231
 31
0.0
  0
LINE
  8
0
  6
DASHED2
 62
               4
  5
2BA
 10
130.9999999999996
 20
-433.75877352720192
 30
0.0
 11
129.79999999999984
 21
-434.95877352720231
 31
0.0
  0
LINE
  8
0
  6
DASHED2
 62
               4
  5
2BB
 10
118.99999999999972
 20
-433.75877352720192
 30
0.0
 11
120.19999999999976
 21
-434.95877352720231
 31
0.0
  0
LINE
  8
0
  6
DASHED2
 62
               4
  5
2BC
 10
136.75999999999982
 20
-411.63940728487717
 30
0.0
 11
113.2399999999995
 21
-411.63940728487717
 31
0.0
  0
LINE
  8
0
  6
DASHED2
 62
               4
  5
2BD
 10
113.24000000000092
 20
-413.63940728487751
 30
0.0
 11
136.76000000000124
 21
-413.63940728487751
 31
0.0
  0
LINE
  8
0
  6
DASHED2
 62
               4
  5
2BE
 10
130.9999999999996
 20
-296.57582780894836
 30
0.0
 11
130.9999999999996
 21
-402.03940728487703
 31
0.0
  0
LINE
  8
0
  6
DASHED2
 62
               4
  5
2BF
 10
118.99999999999972
 20
-296.57582780894836
 30
0.0
 11
118.99999999999972
 21
-402.03940728487703
 31
0.0
  0
LINE
  8
0
  6
DASHED2
 62
               4
  5
2C0
 10
118.99999999999972
 20
-296.57582780894836
 30
0.0
 11
130.9999999999996
 21
-296.57582780894836
 31
0.0
  0
LINE
  8
0
  6
DASHED2
 62
               4
  5
2C1
 10
-556.99999999999886
 20
-311.7149687545496
 30
0.0
 11
-556.99999999999886
 21
-411.63940728487762
 31
0.0
  0
LINE
  8
0
  6
DASHED2
 62
               4
  5
2C2
 10
-557.50000000000216
 20
-426.63940728487876
 30
0.0
 11
-557.50000000000216
 21
-491.63940728487648
 31
0.0
  0
LINE
  8
0
  6
DASHED2
 62
               4
  5
2C3
 10
-499.9999999999992
 20
-411.63940728487762
 30
0.0
 11
-556.99999999999932
 21
-411.63940728487762
 31
0.0
  0
LINE
  8
0
  6
DASHED2
 62
               4
  5
2C4
 10
-557.50000000000216
 20
-426.63940728487876
 30
0.0
 11
-500.00000000000034
 21
-426.63940728487762
 31
0.0
  0
LINE
  8
0
  6
DASHED2
 62
               4
  5
2C5
 10
-442.99999999999989
 20
-311.7149687545496
 30
0.0
 11
-442.9999999999996
 21
-411.63940728487762
 31
0.0
  0
LINE
  8
0
  6
DASHED2
 62
               4
  5
2C6
 10
-499.9999999999992
 20
-411.63940728487762
 30
0.0
 11
-442.99999999999932
 21
-411.63940728487762
 31
0.0
  0
LINE
  8
0
  6
DASHED2
 62
               4
  5
2C7
 10
-442.4999999999975
 20
-426.63940728487876
 30
0.0
 11
-499.9999999999992
 21
-426.63940728487762
 31
0.0
  0
LINE
  8
0
  6
DASHED2
 62
               4
  5
2C8
 10
-442.4999999999975
 20
-426.63940728487876
 30
0.0
 11
-442.4999999999975
 21
-491.63940728487648
 31
0.0
  0
LINE
  8
0
  6
DASHED2
 62
               4
  5
2C9
 10
-511.75999999999999
 20
-411.63940728487762
 30
0.0
 11
-511.75999999999999
 21
-403.1132787855704
 31
0.0
  0
LINE
  8
0
  6
DASHED2
 62
               4
  5
2CA
 10
-505.87102725426553
 20
-403.1132787855704
 30
0.0
 11
-505.87102725426553
 21
-411.63940728487762
 31
0.0
  0
LINE
  8
0
  6
DASHED2
 62
               4
  5
2CB
 10
-508.81551362713265
 20
-402.03940728487748
 30
0.0
 11
-491.18448637286667
 21
-402.03940728487748
 31
0.0
  0
LINE
  8
0
  6
DASHED2
 62
               4
  5
2CC
 10
-488.23999999999967
 20
-411.63940728487762
 30
0.0
 11
-488.23999999999967
 21
-403.1132787855704
 31
0.0
  0
LINE
  8
0
  6
DASHED2
 62
               4
  5
2CD
 10
-494.12897274573436
 20
-411.63940728487762
 30
0.0
 11
-494.12897274573436
 21
-403.1132787855704
 31
0.0
  0
ARC
  8
0
  6
DASHED2
 62
               4
  5
2CE
 10
-508.81551362713265
 20
-406.61313886899347
 30
0.0
 40
4.5737315841157447
 50
49.925579661602832
 51
130.07442033832857
  0
ARC
  8
0
  6
DASHED2
 62
               4
  5
2CF
 10
-491.18448637286667
 20
-406.61313886899347
 30
0.0
 40
4.5737315841157686
 50
49.925579661602747
 51
130.07442033832857
  0
ARC
  8
0
  6
DASHED2
 62
               4
  5
2D0
 10
-499.99999999999977
 20
-418.62526555439797
 30
0.0
 40
16.58585826952007
 50
69.269184858534501
 51
110.73081514139706
  0
LINE
  8
0
  6
DASHED2
 62
               4
  5
2D1
 10
-511.76000000000136
 20
-413.63940728487796
 30
0.0
 11
-511.76000000000136
 21
-422.16553578418518
 31
0.0
  0
LINE
  8
0
  6
DASHED2
 62
               4
  5
2D2
 10
-505.87102725426701
 20
-422.16553578418518
 30
0.0
 11
-505.87102725426701
 21
-413.63940728487796
 31
0.0
  0
LINE
  8
0
  6
DASHED2
 62
               4
  5
2D3
 10
-508.81551362713401
 20
-423.23940728487776
 30
0.0
 11
-491.18448637286838
 21
-423.23940728487776
 31
0.0
  0
LINE
  8
0
  6
DASHED2
 62
               4
  5
2D4
 10
-488.24000000000103
 20
-413.63940728487796
 30
0.0
 11
-488.24000000000103
 21
-422.16553578418518
 31
0.0
  0
LINE
  8
0
  6
DASHED2
 62
               4
  5
2D5
 10
-494.1289727457355
 20
-413.63940728487796
 30
0.0
 11
-494.1289727457355
 21
-422.16553578418518
 31
0.0
  0
ARC
  8
0
  6
DASHED2
 62
               4
  5
2D6
 10
-508.81551362713401
 20
-418.66567570076234
 30
0.0
 40
4.5737315841157447
 50
229.92557966153416
 51
310.07442033826044
  0
ARC
  8
0
  6
DASHED2
 62
               4
  5
2D7
 10
-491.18448637286838
 20
-418.66567570076234
 30
0.0
 40
4.5737315841157686
 50
229.92557966153416
 51
310.07442033825998
  0
ARC
  8
0
  6
DASHED2
 62
               4
  5
2D8
 10
-500.00000000000125
 20
-406.65354901535784
 30
0.0
 40
16.58585826952007
 50
249.26918485846539
 51
290.73081514132798
  0
LINE
  8
0
  6
DASHED2
 62
               4
  5
2D9
 10
-505.99999999999977
 20
-423.23940728487776
 30
0.0
 11
-505.99999999999977
 21
-433.75877352720238
 31
0.0
  0
LINE
  8
0
  6
DASHED2
 62
               4
  5
2DA
 10
-493.99999999999989
 20
-423.23940728487776
 30
0.0
 11
-493.99999999999989
 21
-433.75877352720238
 31
0.0
  0
LINE
  8
0
  6
DASHED2
 62
               4
  5
2DB
 10
-504.79999999999995
 20
-434.95877352720277
 30
0.0
 11
-495.19999999999993
 21
-434.95877352720277
 31
0.0
  0
LINE
  8
0
  6
DASHED2
 62
               4
  5
2DC
 10
-505.99999999999977
 20
-433.75877352720238
 30
0.0
 11
-504.79999999999995
 21
-434.95877352720277
 31
0.0
  0
LINE
  8
0
  6
DASHED2
 62
               4
  5
2DD
 10
-493.99999999999989
 20
-433.75877352720238
 30
0.0
 11
-495.19999999999993
 21
-434.95877352720277
 31
0.0
  0
LINE
  8
0
  6
DASHED2
 62
               4
  5
2DE
 10
-511.75999999999999
 20
-411.63940728487762
 30
0.0
 11
-488.23999999999967
 21
-411.63940728487762
 31
0.0
  0
LINE
  8
0
  6
DASHED2
 62
               4
  5
2DF
 10
-488.24000000000103
 20
-413.63940728487796
 30
0.0
 11
-511.76000000000136
 21
-413.63940728487796
 31
0.0
  0
LINE
  8
0
  6
DASHED2
 62
               4
  5
2E0
 10
-505.99999999999977
 20
-296.57582780894882
 30
0.0
 11
-505.99999999999977
 21
-402.03940728487748
 31
0.0
  0
LINE
  8
0
  6
DASHED2
 62
               4
  5
2E1
 10
-493.99999999999989
 20
-296.57582780894882
 30
0.0
 11
-493.99999999999989
 21
-402.03940728487748
 31
0.0
  0
LINE
  8
0
  6
DASHED2
 62
               4
  5
2E2
 10
-493.99999999999989
 20
-296.57582780894882
 30
0.0
 11
-505.99999999999977
 21
-296.57582780894882
 31
0.0
  0
LINE
  8
0
  6
DASHED2
 62
               4
  5
2E3
 10
-557.13284555413065
 20
-311.7149687545496
 30
0.0
 11
-442.99999999999989
 21
-311.7149687545496
 31
0.0
  0
LINE
  8
0
  6
DASHED2
 62
               4
  5
2E4
 10
-442.99999999999989
 20
-311.7149687545496
 30
0.0
 11
-441.99999999999966
 21
-310.71496875454937
 31
0.0
  0
LINE
  8
0
  6
DASHED2
 62
               4
  5
2E5
 10
-557.13284555413065
 20
-311.7149687545496
 30
0.0
 11
-557.99999999999989
 21
-310.84781430868043
 31
0.0
  0
LINE
  8
0
  6
DASHED2
 62
               4
  5
2E6
 10
-557.99999999999989
 20
-310.84781430868043
 30
0.0
 11
-557.99999999999989
 21
-299.71496875454989
 31
0.0
  0
LINE
  8
0
  6
DASHED2
 62
               4
  5
2E7
 10
-441.99999999999966
 20
-310.71496875454937
 30
0.0
 11
-441.99999999999966
 21
-299.71496875454983
 31
0.0
  0
LINE
  8
0
  6
DASHED2
 62
               4
  5
2E8
 10
443.00000000000119
 20
-311.7149687545496
 30
0.0
 11
443.00000000000119
 21
-411.63940728487762
 31
0.0
  0
LINE
  8
0
  6
DASHED2
 62
               4
  5
2E9
 10
442.49999999999784
 20
-426.63940728487876
 30
0.0
 11
442.49999999999784
 21
-491.63940728487648
 31
0.0
  0
LINE
  8
0
  6
DASHED2
 62
               4
  5
2EA
 10
500.00000000000085
 20
-411.63940728487762
 30
0.0
 11
443.00000000000063
 21
-411.63940728487762
 31
0.0
  0
LINE
  8
0
  6
DASHED2
 62
               4
  5
2EB
 10
442.49999999999784
 20
-426.63940728487876
 30
0.0
 11
499.99999999999972
 21
-426.63940728487762
 31
0.0
  0
LINE
  8
0
  6
DASHED2
 62
               4
  5
2EC
 10
557.00000000000023
 20
-311.7149687545496
 30
0.0
 11
557.00000000000045
 21
-411.63940728487762
 31
0.0
  0
LINE
  8
0
  6
DASHED2
 62
               4
  5
2ED
 10
500.00000000000085
 20
-411.63940728487762
 30
0.0
 11
557.00000000000068
 21
-411.63940728487762
 31
0.0
  0
LINE
  8
0
  6
DASHED2
 62
               4
  5
2EE
 10
557.5000000000025
 20
-426.63940728487876
 30
0.0
 11
500.00000000000085
 21
-426.63940728487762
 31
0.0
  0
LINE
  8
0
  6
DASHED2
 62
               4
  5
2EF
 10
557.5000000000025
 20
-426.63940728487876
 30
0.0
 11
557.5000000000025
 21
-491.63940728487648
 31
0.0
  0
LINE
  8
0
  6
DASHED2
 62
               4
  5
2F0
 10
488.23999999999995
 20
-411.63940728487762
 30
0.0
 11
488.23999999999995
 21
-403.1132787855704
 31
0.0
  0
LINE
  8
0
  6
DASHED2
 62
               4
  5
2F1
 10
494.12897274573442
 20
-403.1132787855704
 30
0.0
 11
494.12897274573442
 21
-411.63940728487762
 31
0.0
  0
LINE
  8
0
  6
DASHED2
 62
               4
  5
2F2
 10
491.18448637286741
 20
-402.03940728487748
 30
0.0
 11
508.81551362713338
 21
-402.03940728487748
 31
0.0
  0
LINE
  8
0
  6
DASHED2
 62
               4
  5
2F3
 10
511.76000000000039
 20
-411.63940728487762
 30
0.0
 11
511.76000000000039
 21
-403.1132787855704
 31
0.0
  0
LINE
  8
0
  6
DASHED2
 62
               4
  5
2F4
 10
505.8710272542657
 20
-411.63940728487762
 30
0.0
 11
505.8710272542657
 21
-403.1132787855704
 31
0.0
  0
ARC
  8
0
  6
DASHED2
 62
               4
  5
2F5
 10
491.18448637286741
 20
-406.61313886899347
 30
0.0
 40
4.5737315841157447
 50
49.925579661602285
 51
130.07442033832857
  0
ARC
  8
0
  6
DASHED2
 62
               4
  5
2F6
 10
508.81551362713338
 20
-406.61313886899347
 30
0.0
 40
4.5737315841157686
 50
49.925579661602747
 51
130.07442033832857
  0
ARC
  8
0
  6
DASHED2
 62
               4
  5
2F7
 10
500.00000000000017
 20
-418.62526555439797
 30
0.0
 40
16.58585826952007
 50
69.269184858534302
 51
110.73081514139687
  0
LINE
  8
0
  6
DASHED2
 62
               4
  5
2F8
 10
488.23999999999859
 20
-413.63940728487796
 30
0.0
 11
488.23999999999859
 21
-422.16553578418518
 31
0.0
  0
LINE
  8
0
  6
DASHED2
 62
               4
  5
2F9
 10
494.12897274573305
 20
-422.16553578418518
 30
0.0
 11
494.12897274573305
 21
-413.63940728487796
 31
0.0
  0
LINE
  8
0
  6
DASHED2
 62
               4
  5
2FA
 10
491.18448637286605
 20
-423.23940728487776
 30
0.0
 11
508.81551362713157
 21
-423.23940728487776
 31
0.0
  0
LINE
  8
0
  6
DASHED2
 62
               4
  5
2FB
 10
511.75999999999902
 20
-413.63940728487796
 30
0.0
 11
511.75999999999902
 21
-422.16553578418518
 31
0.0
  0
LINE
  8
0
  6
DASHED2
 62
               4
  5
2FC
 10
505.87102725426456
 20
-413.63940728487796
 30
0.0
 11
505.87102725426456
 21
-422.16553578418518
 31
0.0
  0
ARC
  8
0
  6
DASHED2
 62
               4
  5
2FD
 10
491.18448637286605
 20
-418.66567570076234
 30
0.0
 40
4.5737315841157447
 50
229.92557966153464
 51
310.07442033826101
  0
ARC
  8
0
  6
DASHED2
 62
               4
  5
2FE
 10
508.81551362713157
 20
-418.66567570076234
 30
0.0
 40
4.5737315841157686
 50
229.92557966153464
 51
310.07442033826055
  0
ARC
  8
0
  6
DASHED2
 62
               4
  5
2FF
 10
499.99999999999881
 20
-406.65354901535784
 30
0.0
 40
16.58585826952007
 50
249.26918485846539
 51
290.73081514132798
  0
LINE
  8
0
  6
DASHED2
 62
               4
  5
300
 10
494.00000000000017
 20
-423.23940728487776
 30
0.0
 11
494.00000000000017
 21
-433.75877352720238
 31
0.0
  0
LINE
  8
0
  6
DASHED2
 62
               4
  5
301
 10
506.00000000000017
 20
-423.23940728487776
 30
0.0
 11
506.00000000000017
 21
-433.75877352720238
 31
0.0
  0
LINE
  8
0
  6
DASHED2
 62
               4
  5
302
 10
495.19999999999999
 20
-434.95877352720277
 30
0.0
 11
504.80000000000013
 21
-434.95877352720277
 31
0.0
  0
LINE
  8
0
  6
DASHED2
 62
               4
  5
303
 10
494.00000000000017
 20
-433.75877352720238
 30
0.0
 11
495.19999999999999
 21
-434.95877352720277
 31
0.0
  0
LINE
  8
0
  6
DASHED2
 62
               4
  5
304
 10
506.00000000000017
 20
-433.75877352720238
 30
0.0
 11
504.80000000000013
 21
-434.95877352720277
 31
0.0
  0
LINE
  8
0
  6
DASHED2
 62
               4
  5
305
 10
488.23999999999995
 20
-411.63940728487762
 30
0.0
 11
511.76000000000039
 21
-411.63940728487762
 31
0.0
  0
LINE
  8
0
  6
DASHED2
 62
               4
  5
306
 10
511.75999999999902
 20
-413.63940728487796
 30
0.0
 11
488.23999999999859
 21
-413.63940728487796
 31
0.0
  0
LINE
  8
0
  6
DASHED2
 62
               4
  5
307
 10
442.86715444586929
 20
-311.7149687545496
 30
0.0
 11
557.00000000000023
 21
-311.7149687545496
 31
0.0
  0
LINE
  8
0
  6
DASHED2
 62
               4
  5
308
 10
557.00000000000023
 20
-311.7149687545496
 30
0.0
 11
558.00000000000045
 21
-310.71496875454937
 31
0.0
  0
LINE
  8
0
  6
DASHED2
 62
               4
  5
309
 10
442.86715444586929
 20
-311.7149687545496
 30
0.0
 11
442.00000000000011
 21
-310.84781430868043
 31
0.0
  0
LINE
  8
0
  6
DASHED2
 62
               4
  5
30A
 10
494.00000000000017
 20
-296.57582780894882
 30
0.0
 11
494.00000000000017
 21
-402.03940728487748
 31
0.0
  0
LINE
  8
0
  6
DASHED2
 62
               4
  5
30B
 10
506.00000000000017
 20
-296.57582780894882
 30
0.0
 11
506.00000000000017
 21
-402.03940728487748
 31
0.0
  0
LINE
  8
0
  6
DASHED2
 62
               4
  5
30C
 10
506.00000000000017
 20
-296.57582780894882
 30
0.0
 11
494.00000000000017
 21
-296.57582780894882
 31
0.0
  0
LINE
  8
0
  6
DASHED2
 62
               4
  5
30D
 10
552.2865232163083
 20
-1389.323786373106
 30
0.0
 11
666.28652321630807
 21
-1389.323786373106
 31
0.0
  0
ARC
  8
0
  6
DIVIDE
 62
               4
  5
30E
 10
-28.500000000000256
 20
-658.57238858904611
 30
0.0
 40
55.0
 50
58.789629707478369
 51
121.21037029248673
  0
ARC
  8
0
  6
DIVIDE
 62
               4
  5
30F
 10
-28.500000000000256
 20
-564.49263518800853
 30
0.0
 40
55.0
 50
238.78962970744368
 51
301.21037029245184
  0
ARC
  8
0
  6
DIVIDE
 62
               4
  5
310
 10
-32.500000000000313
 20
-634.03500932432394
 30
0.0
 40
65.0
 50
59.999999999988269
 51
119.99999999997692
  0
ARC
  8
0
  6
DIVIDE
 62
               4
  5
311
 10
28.499999999999773
 20
-564.49263518800876
 30
0.0
 40
55.0
 50
238.78962970744377
 51
301.21037029245201
  0
ARC
  8
0
  6
DIVIDE
 62
               4
  5
312
 10
32.499999999999687
 20
-521.45170683234687
 30
0.0
 40
65.0
 50
239.99999999995379
 51
299.99999999994202
  0
LINE
  8
0
  6
DIVIDE
 62
               4
  5
313
 10
-57.000000000000199
 20
-573.82911260315541
 30
0.0
 11
-57.000000000000199
 21
-611.53251188852732
 31
0.0
  0
LINE
  8
0
  6
DIVIDE
 62
               4
  5
314
 10
56.999999999999858
 20
-581.6576035535154
 30
0.0
 11
56.999999999999858
 21
-611.53251188852732
 31
0.0
  0
ARC
  8
0
  6
DIVIDE
 62
               4
  5
315
 10
-32.500000000000313
 20
-521.4517068323471
 30
0.0
 40
65.0
 50
239.99999999995339
 51
247.85677929850399
  0
LINE
  8
0
  6
DIVIDE
 62
               4
  5
316
 10
64.999999999999659
 20
-491.63940728487648
 30
0.0
 11
64.999999999999659
 21
-577.7433580783354
 31
0.0
  0
LINE
  8
0
  6
DIVIDE
 62
               4
  5
317
 10
-65.000000000000313
 20
-491.63940728487648
 30
0.0
 11
-65.000000000000313
 21
-577.7433580783354
 31
0.0
  0
ARC
  8
0
  6
DIVIDE
 62
               4
  5
318
 10
-528.49999999999977
 20
-658.57238858904611
 30
0.0
 40
55.0
 50
58.789629707478369
 51
121.21037029248674
  0
ARC
  8
0
  6
DIVIDE
 62
               4
  5
319
 10
-528.49999999999977
 20
-564.49263518800853
 30
0.0
 40
55.0
 50
238.78962970744368
 51
301.21037029245184
  0
ARC
  8
0
  6
DIVIDE
 62
               4
  5
31A
 10
-532.49999999999977
 20
-634.03500932432394
 30
0.0
 40
65.0
 50
59.999999999988248
 51
119.99999999997692
  0
ARC
  8
0
  6
DIVIDE
 62
               4
  5
31B
 10
-471.49999999999966
 20
-564.49263518800876
 30
0.0
 40
55.0
 50
238.78962970744377
 51
301.21037029245201
  0
ARC
  8
0
  6
DIVIDE
 62
               4
  5
31C
 10
-467.49999999999977
 20
-521.45170683234687
 30
0.0
 40
65.0
 50
239.99999999995379
 51
299.99999999994202
  0
LINE
  8
0
  6
DIVIDE
 62
               4
  5
31D
 10
-556.99999999999966
 20
-573.82911260315541
 30
0.0
 11
-556.99999999999966
 21
-611.53251188852732
 31
0.0
  0
LINE
  8
0
  6
DIVIDE
 62
               4
  5
31E
 10
-442.9999999999996
 20
-581.6576035535154
 30
0.0
 11
-442.9999999999996
 21
-611.53251188852732
 31
0.0
  0
ARC
  8
0
  6
DIVIDE
 62
               4
  5
31F
 10
-532.49999999999977
 20
-521.4517068323471
 30
0.0
 40
65.0
 50
239.99999999995339
 51
247.85677929850399
  0
LINE
  8
0
  6
DIVIDE
 62
               4
  5
320
 10
-434.99999999999977
 20
-491.63940728487648
 30
0.0
 11
-434.99999999999977
 21
-577.7433580783354
 31
0.0
  0
LINE
  8
0
  6
DIVIDE
 62
               4
  5
321
 10
-564.99999999999977
 20
-491.63940728487648
 30
0.0
 11
-564.99999999999977
 21
-577.7433580783354
 31
0.0
  0
ARC
  8
0
  6
DIVIDE
 62
               4
  5
322
 10
471.50000000000028
 20
-658.57238858904611
 30
0.0
 40
55.0
 50
58.789629707478369
 51
121.21037029248674
  0
ARC
  8
0
  6
DIVIDE
 62
               4
  5
323
 10
471.50000000000028
 20
-564.49263518800853
 30
0.0
 40
55.0
 50
238.78962970744368
 51
301.21037029245184
  0
ARC
  8
0
  6
DIVIDE
 62
               4
  5
324
 10
467.50000000000017
 20
-634.03500932432394
 30
0.0
 40
65.0
 50
59.999999999988297
 51
119.99999999997692
  0
ARC
  8
0
  6
DIVIDE
 62
               4
  5
325
 10
528.50000000000045
 20
-564.49263518800876
 30
0.0
 40
55.0
 50
238.78962970744377
 51
301.21037029245201
  0
ARC
  8
0
  6
DIVIDE
 62
               4
  5
326
 10
532.50000000000023
 20
-521.45170683234687
 30
0.0
 40
65.0
 50
239.99999999995379
 51
299.99999999994196
  0
LINE
  8
0
  6
DIVIDE
 62
               4
  5
327
 10
443.00000000000034
 20
-573.82911260315541
 30
0.0
 11
443.00000000000034
 21
-611.53251188852732
 31
0.0
  0
LINE
  8
0
  6
DIVIDE
 62
               4
  5
328
 10
557.00000000000045
 20
-581.6576035535154
 30
0.0
 11
557.00000000000045
 21
-611.53251188852732
 31
0.0
  0
ARC
  8
0
  6
DIVIDE
 62
               4
  5
329
 10
467.50000000000017
 20
-521.4517068323471
 30
0.0
 40
65.0
 50
239.99999999995339
 51
247.85677929850399
  0
LINE
  8
0
  6
DIVIDE
 62
               4
  5
32A
 10
565.00000000000023
 20
-491.63940728487648
 30
0.0
 11
565.00000000000023
 21
-577.7433580783354
 31
0.0
  0
LINE
  8
0
  6
DIVIDE
 62
               4
  5
32B
 10
435.00000000000023
 20
-491.63940728487648
 30
0.0
 11
435.00000000000023
 21
-577.7433580783354
 31
0.0
  0
INSERT
  8
0
  6
CONTINUOUS
  5
32C
  2
GROUP_1
 10
0.0
 20
0.0
 30
0.0
  0
INSERT
  8
0
  6
CONTINUOUS
  5
32D
  2
GROUP_2
 10
0.0
 20
0.0
 30
0.0
  0
INSERT
  8
0
  6
CONTINUOUS
  5
32E
  2
GROUP_3
 10
0.0
 20
0.0
 30
0.0
  0
LINE
  8
0
  6
CONTINUOUS
 62
               3
  5
32F
 10
-433.49999999999966
 20
-295.71203187941012
 30
0.0
 11
-416.49999999999977
 21
-146.71199248146593
 31
0.0
  0
LINE
  8
0
  6
CONTINUOUS
 62
               3
  5
330
 10
-127.99999999999997
 20
609.67406989515825
 30
0.0
 11
-47.517615216234297
 21
612.4845767023387
 31
0.0
  0
LINE
  8
0
  6
CONTINUOUS
 62
               3
  5
331
 10
-127.99999999999997
 20
477.04711553508628
 30
0.0
 11
-46.804728350353173
 21
474.21171416998885
 31
0.0
  0
LINE
  8
0
  6
CONTINUOUS
 62
               3
  5
332
 10
-580.49999999999977
 20
162.86059271512283
 30
0.0
 11
-580.49999999999977
 21
106.452595654079
 31
0.0
  0
LINE
  8
0
  6
CONTINUOUS
 62
               3
  5
333
 10
-509.61594343595505
 20
-37.63940728487762
 30
0.0
 11
-582.99999999999955
 21
-37.63940728487762
 31
0.0
  0
CIRCLE
  8
0
  6
CONTINUOUS
 62
               3
  5
334
 10
-499.99999999999972
 20
27.360592715122152
 30
0.0
 40
66.099999999999994
  0
LINE
  8
0
  6
CONTINUOUS
 62
               3
  5
335
 10
128.00000000000034
 20
477.04711553508622
 30
0.0
 11
46.804728350353699
 21
474.21171416998885
 31
0.0
  0
LINE
  8
0
  6
CONTINUOUS
 62
               3
  5
336
 10
128.00000000000034
 20
609.67406989515825
 30
0.0
 11
47.517615216234617
 21
612.4845767023387
 31
0.0
  0
LINE
  8
0
  6
CONTINUOUS
 62
               3
  5
337
 10
433.50000000000011
 20
-295.71203187941001
 30
0.0
 11
416.50000000000028
 21
-146.71199248146627
 31
0.0
  0
LINE
  8
0
  6
CONTINUOUS
 62
               3
  5
338
 10
580.50000000000023
 20
162.86059271512283
 30
0.0
 11
580.50000000000023
 21
106.452595654079
 31
0.0
  0
LINE
  8
0
  6
CONTINUOUS
 62
               3
  5
339
 10
-83.499999999999716
 20
-55.760355865371139
 30
0.0
 11
-83.499999999999716
 21
-146.71199248146627
 31
0.0
  0
LINE
  8
0
  6
CONTINUOUS
 62
               3
  5
33A
 10
80.500000000000227
 20
162.86059271512283
 30
0.0
 11
80.500000000000227
 21
99.664727410772457
 31
0.0
  0
LINE
  8
0
  6
CONTINUOUS
 62
               3
  5
33B
 10
83.500000000000227
 20
-55.760355865371139
 30
0.0
 11
83.500000000000227
 21
-146.71199248146627
 31
0.0
  0
LINE
  8
0
  6
CONTINUOUS
 62
               3
  5
33C
 10
97.536089160791505
 20
-40.688732798647777
 30
0.0
 11
84.232233047033901
 21
-53.992588912404727
 31
0.0
  0
ARC
  8
0
  6
CONTINUOUS
 62
               3
  5
33D
 10
86.000000000000227
 20
-55.760355865371139
 30
0.0
 40
2.5
 50
134.99999999997252
 51
179.99999999996524
  0
LINE
  8
0
  6
CONTINUOUS
 62
               3
  5
33E
 10
86.736155520354032
 20
-37.63940728487762
 30
0.0
 11
94.684677581384108
 21
-43.540144378055061
 31
0.0
  0
ARC
  8
0
  6
CONTINUOUS
 62
               3
  5
33F
 10
99.303856113757831
 20
-42.456499751614189
 30
0.0
 40
2.5
 50
91.999999999981938
 51
134.99999999997252
  0
ARC
  8
0
  6
CONTINUOUS
 62
               3
  5
340
 10
83.000000000000227
 20
99.664727410772457
 30
0.0
 40
2.5
 50
179.99999999996507
 51
205.41462091512173
  0
ARC
  8
0
  6
CONTINUOUS
 62
               3
  5
341
 10
55.000000000000227
 20
86.36059271512238
 30
0.0
 40
28.499999999999996
 50
21.490858684564124
 51
25.414620915156053
  0
ARC
  8
0
  6
CONTINUOUS
 62
               3
  5
342
 10
55.000000000000227
 20
86.36059271512238
 30
0.0
 40
28.499999999999996
 50
0.0
 51
0.7284816623328361
  0
ARC
  8
0
  6
CONTINUOUS
 62
               3
  5
343
 10
83.844756928877416
 20
97.717528821044198
 30
0.0
 40
2.5
 50
201.49085868452966
 51
267.99999999994816
  0
LINE
  8
0
  6
CONTINUOUS
 62
               3
  5
344
 10
-9.615943435955046
 20
-37.63940728487762
 30
0.0
 11
-88.564599394389631
 21
-37.63940728487762
 31
0.0
  0
LINE
  8
0
  6
CONTINUOUS
 62
               3
  5
345
 10
86.736155520354032
 20
-37.63940728487762
 30
0.0
 11
-9.615943435955046
 21
-37.63940728487762
 31
0.0
  0
LINE
  8
0
  6
CONTINUOUS
 62
               3
  5
346
 10
-66.499999999999886
 20
-295.71203187941001
 30
0.0
 11
-83.499999999999716
 21
-146.71199248146627
 31
0.0
  0
LINE
  8
0
  6
CONTINUOUS
 62
               3
  5
347
 10
66.500000000000341
 20
-295.71203187941012
 30
0.0
 11
83.500000000000227
 21
-146.71199248146593
 31
0.0
  0
ARC
  8
0
  6
CONTINUOUS
 62
               3
  5
348
 10
-82.999999999999744
 20
99.664727410772457
 30
0.0
 40
2.5
 50
334.58537908477388
 51
359.99999999993048
  0
LINE
  8
0
  6
CONTINUOUS
 62
               3
  5
349
 10
-97.536089160791022
 20
-40.688732798647777
 30
0.0
 11
-84.232233047033418
 21
-53.992588912404727
 31
0.0
  0
ARC
  8
0
  6
CONTINUOUS
 62
               3
  5
34A
 10
-85.999999999999744
 20
-55.760355865371139
 30
0.0
 40
2.5
 50
0.0
 51
44.99999999999276
  0
LINE
  8
0
  6
CONTINUOUS
 62
               3
  5
34B
 10
-88.564599394389631
 20
-37.63940728487762
 30
0.0
 11
-95.46372045076626
 21
-42.761101508672425
 31
0.0
  0
ARC
  8
0
  6
CONTINUOUS
 62
               3
  5
34C
 10
-54.999999999999758
 20
86.36059271512238
 30
0.0
 40
28.499999999999996
 50
154.58537908480918
 51
158.50914131540105
  0
ARC
  8
0
  6
CONTINUOUS
 62
               3
  5
34D
 10
-54.999999999999758
 20
86.36059271512238
 30
0.0
 40
28.499999999999996
 50
179.27151833763236
 51
179.99999999996524
  0
ARC
  8
0
  6
CONTINUOUS
 62
               3
  5
34E
 10
-83.844756928876961
 20
97.717528821044198
 30
0.0
 40
2.5
 50
271.99999999994748
 51
338.50914131536575
  0
LINE
  8
0
  6
CONTINUOUS
 62
               3
  5
34F
 10
-83.757508187120706
 20
95.219051753496444
 30
0.0
 11
-127.99999999999991
 21
93.674069895158425
 31
0.0
  0
LINE
  8
0
  6
CONTINUOUS
 62
               3
  5
350
 10
-99.216607372001107
 20
-39.958022684066435
 30
0.0
 11
-127.99999999999991
 21
-38.952884464913666
 31
0.0
  0
ARC
  8
0
  6
CONTINUOUS
 62
               3
  5
351
 10
-99.303856113757348
 20
-42.456499751614189
 30
0.0
 40
2.5
 50
44.99999999999276
 51
87.999999999983288
  0
LINE
  8
0
  6
CONTINUOUS
 62
               3
  5
352
 10
-80.499999999999744
 20
162.86059271512283
 30
0.0
 11
-80.499999999999744
 21
99.664727410772457
 31
0.0
  0
LINE
  8
0
  6
CONTINUOUS
 62
               3
  5
353
 10
416.50000000000017
 20
101.58863462340008
 30
0.0
 11
416.50000000000017
 21
-146.71199248146627
 31
0.0
  0
LINE
  8
0
  6
CONTINUOUS
 62
               3
  5
354
 10
583.0
 20
-37.63940728487762
 30
0.0
 11
512.0087468122199
 21
-37.63940728487762
 31
0.0
  0
CIRCLE
  8
0
  6
CONTINUOUS
 62
               3
  5
355
 10
500.00000000000017
 20
27.360592715122138
 30
0.0
 40
66.099999999999994
  0
LINE
  8
0
  6
CONTINUOUS
 62
               3
  5
356
 10
566.50000000000023
 20
-295.71203187941012
 30
0.0
 11
583.50000000000023
 21
-146.71199248146542
 31
0.0
  0
ARC
  8
0
  6
CONTINUOUS
 62
               3
  5
357
 10
-582.99999999999977
 20
106.452595654079
 30
0.0
 40
2.5
 50
314.9999999999394
 51
359.99999999993048
  0
LINE
  8
0
  6
CONTINUOUS
 62
               3
  5
358
 10
-566.49999999999977
 20
-295.71203187941012
 30
0.0
 11
-582.99999999999955
 21
-151.09434658140663
 31
0.0
  0
LINE
  8
0
  6
CONTINUOUS
 62
               3
  5
359
 10
-418.76776695296627
 20
104.68482870111268
 30
0.0
 11
-417.08578643762684
 21
103.0028481857733
 31
0.0
  0
ARC
  8
0
  6
CONTINUOUS
 62
               3
  5
35A
 10
-416.99999999999983
 20
106.452595654079
 30
0.0
 40
2.5
 50
179.99999999996507
 51
224.99999999995526
  0
LINE
  8
0
  6
CONTINUOUS
 62
               3
  5
35B
 10
-416.99999999999994
 20
-37.63940728487762
 30
0.0
 11
-487.99125318777868
 21
-37.639407284877613
 31
0.0
  0
LINE
  8
0
  6
CONTINUOUS
 62
               3
  5
35C
 10
-419.49999999999977
 20
162.86059271512283
 30
0.0
 11
-419.49999999999977
 21
106.452595654079
 31
0.0
  0
LINE
  8
0
  6
CONTINUOUS
 62
               3
  5
35D
 10
417.08578643762701
 20
103.00284818577313
 30
0.0
 11
418.76776695296655
 21
104.68482870111268
 31
0.0
  0
ARC
  8
0
  6
CONTINUOUS
 62
               3
  5
35E
 10
417.00000000000017
 20
106.452595654079
 30
0.0
 40
2.5
 50
314.99999999994031
 51
359.99999999993048
  0
LINE
  8
0
  6
CONTINUOUS
 62
               3
  5
35F
 10
419.50000000000017
 20
162.86059271512283
 30
0.0
 11
419.50000000000017
 21
106.452595654079
 31
0.0
  0
ARC
  8
0
  6
CONTINUOUS
 62
               3
  5
360
 10
-418.49999999999994
 20
101.5886346234002
 30
0.0
 40
2.0
 50
0.0
 51
44.999999999990685
  0
LINE
  8
0
  6
CONTINUOUS
 62
               3
  5
361
 10
-416.49999999999994
 20
101.5886346234002
 30
0.0
 11
-416.49999999999994
 21
-146.71199248146769
 31
0.0
  0
LINE
  8
0
  6
CONTINUOUS
 62
               3
  5
362
 10
-581.23223304703333
 20
104.68482870111268
 30
0.0
 11
-582.91421356237265
 21
103.0028481857733
 31
0.0
  0
ARC
  8
0
  6
CONTINUOUS
 62
               3
  5
363
 10
-582.99999999999977
 20
106.452595654079
 30
0.0
 40
2.5
 50
314.9999999999394
 51
359.99999999993048
  0
ARC
  8
0
  6
CONTINUOUS
 62
               3
  5
364
 10
-581.49999999999955
 20
101.5886346234002
 30
0.0
 40
2.0
 50
134.9999999999732
 51
179.99999999996541
  0
LINE
  8
0
  6
CONTINUOUS
 62
               3
  5
365
 10
-583.49999999999955
 20
101.5886346234002
 30
0.0
 11
-583.49999999999955
 21
-146.71199248146769
 31
0.0
  0
ARC
  8
0
  6
CONTINUOUS
 62
               3
  5
366
 10
418.50000000000017
 20
101.58863462340008
 30
0.0
 40
2.0
 50
134.99999999997667
 51
179.99999999996541
  0
LINE
  8
0
  6
CONTINUOUS
 62
               3
  5
367
 10
487.99125318778039
 20
-37.63940728487762
 30
0.0
 11
416.50000000000017
 21
-37.63940728487762
 31
0.0
  0
LINE
  8
0
  6
CONTINUOUS
 62
               3
  5
368
 10
582.91421356237333
 20
103.00284818577313
 30
0.0
 11
581.23223304703379
 21
104.68482870111268
 31
0.0
  0
ARC
  8
0
  6
CONTINUOUS
 62
               3
  5
369
 10
581.50000000000023
 20
101.58863462340008
 30
0.0
 40
2.0
 50
0.0
 51
44.999999999989534
  0
ARC
  8
0
  6
CONTINUOUS
 62
               3
  5
36A
 10
583.00000000000023
 20
106.452595654079
 30
0.0
 40
2.5
 50
179.99999999996507
 51
224.9999999999562
  0
LINE
  8
0
  6
CONTINUOUS
 62
               3
  5
36B
 10
583.50000000000023
 20
101.58863462340008
 30
0.0
 11
583.50000000000023
 21
-146.71199248146542
 31
0.0
  0
LINE
  8
0
  6
CONTINUOUS
 62
               3
  5
36C
 10
-66.499999999999858
 20
-295.71203187941001
 30
0.0
 11
-66.499999999999858
 21
-331.63940728487762
 31
0.0
  0
LINE
  8
0
  6
CONTINUOUS
 62
               3
  5
36D
 10
66.500000000000341
 20
-295.71203187941012
 30
0.0
 11
66.500000000000341
 21
-331.63940728487762
 31
0.0
  0
LINE
  8
0
  6
CONTINUOUS
 62
               3
  5
36E
 10
-66.499999999999858
 20
-299.63940728487762
 30
0.0
 11
66.500000000000341
 21
-299.63940728487762
 31
0.0
  0
LINE
  8
0
  6
CONTINUOUS
 62
               3
  5
36F
 10
-66.499999999999858
 20
-331.63940728487762
 30
0.0
 11
66.500000000000341
 21
-331.63940728487762
 31
0.0
  0
LINE
  8
0
  6
CONTINUOUS
 62
               3
  5
370
 10
-566.49999999999989
 20
-299.7149687545496
 30
0.0
 11
-433.49999999999966
 21
-299.7149687545496
 31
0.0
  0
LINE
  8
0
  6
CONTINUOUS
 62
               3
  5
371
 10
433.50000000000006
 20
-299.7149687545496
 30
0.0
 11
566.50000000000023
 21
-299.7149687545496
 31
0.0
  0
LINE
  8
0
  6
CONTINUOUS
 62
               3
  5
372
 10
-62.000000000000483
 20
-491.63940728487648
 30
0.0
 11
-62.000000000000483
 21
-476.63940728487739
 31
0.0
  0
LINE
  8
0
  6
CONTINUOUS
 62
               3
  5
373
 10
-65.000000000000313
 20
-491.63940728487648
 30
0.0
 11
64.999999999999659
 21
-491.63940728487648
 31
0.0
  0
ARC
  8
0
  6
CONTINUOUS
 62
               3
  5
374
 10
-75.999999999999687
 20
-350.6394072848783
 30
0.0
 40
4.0
 50
89.999999999965041
 51
179.9999999999304
  0
ARC
  8
0
  6
CONTINUOUS
 62
               3
  5
375
 10
-78.999999999999659
 20
-347.6394072848783
 30
0.0
 40
1.0000000000000004
 50
89.999999999964274
 51
179.99999999993119
  0
ARC
  8
0
  6
CONTINUOUS
 62
               3
  5
376
 10
-78.999999999999659
 20
-347.6394072848783
 30
0.0
 40
1.9999999999999996
 50
89.999999999965809
 51
179.99999999993119
  0
LINE
  8
0
  6
CONTINUOUS
 62
               3
  5
377
 10
-80.999999999999687
 20
-347.6394072848783
 30
0.0
 11
-81.000000000000256
 21
-410.63940728487717
 31
0.0
  0
LINE
  8
0
  6
CONTINUOUS
 62
               3
  5
378
 10
-79.999999999999886
 20
-347.6394072848783
 30
0.0
 11
-80.000000000000455
 21
-410.63940728487717
 31
0.0
  0
ARC
  8
0
  6
CONTINUOUS
 62
               3
  5
379
 10
-82.000000000000199
 20
-410.63940728487717
 30
0.0
 40
1.9999999999999996
 50
269.99999999989586
 51
359.99999999986238
  0
ARC
  8
0
  6
CONTINUOUS
 62
               3
  5
37A
 10
-82.000000000000199
 20
-410.63940728487717
 30
0.0
 40
1.0000000000000004
 50
269.99999999989581
 51
359.99999999986238
  0
LINE
  8
0
  6
CONTINUOUS
 62
               3
  5
37B
 10
-82.000000000000199
 20
-412.63940728487717
 30
0.0
 11
-145.00000000000031
 21
-412.63940728487762
 31
0.0
  0
LINE
  8
0
  6
CONTINUOUS
 62
               3
  5
37C
 10
-82.000000000000199
 20
-411.63940728487717
 30
0.0
 11
-145.00000000000031
 21
-411.63940728487762
 31
0.0
  0
LINE
  8
0
  6
CONTINUOUS
 62
               3
  5
37D
 10
-64.999999999999886
 20
-345.6394072848783
 30
0.0
 11
-78.999999999999659
 21
-345.6394072848783
 31
0.0
  0
LINE
  8
0
  6
CONTINUOUS
 62
               3
  5
37E
 10
0.0000000000002558
 20
-346.63940728487762
 30
0.0
 11
-78.999999999999659
 21
-346.6394072848783
 31
0.0
  0
LINE
  8
0
  6
CONTINUOUS
 62
               3
  5
37F
 10
-64.999999999999886
 20
-345.6394072848783
 30
0.0
 11
-64.999999999999886
 21
-346.63940728487819
 31
0.0
  0
LINE
  8
0
  6
CONTINUOUS
 62
               3
  5
380
 10
-64.999999999999318
 20
-477.63940728487717
 30
0.0
 11
-78.999999999999233
 21
-477.63940728487739
 31
0.0
  0
ARC
  8
0
  6
CONTINUOUS
 62
               3
  5
381
 10
-78.999999999999233
 20
-475.63940728487739
 30
0.0
 40
1.0000000000000004
 50
179.99999999993119
 51
269.99999999989586
  0
ARC
  8
0
  6
CONTINUOUS
 62
               3
  5
382
 10
-78.999999999999233
 20
-475.63940728487739
 30
0.0
 40
1.9999999999999996
 50
179.99999999993119
 51
269.9999999998974
  0
ARC
  8
0
  6
CONTINUOUS
 62
               3
  5
383
 10
-75.999999999999403
 20
-472.63940728487739
 30
0.0
 40
4.0
 50
179.99999999993119
 51
269.9999999998974
  0
LINE
  8
0
  6
CONTINUOUS
 62
               3
  5
384
 10
-64.999999999999318
 20
-477.63940728487717
 30
0.0
 11
-64.999999999999318
 21
-476.63940728487739
 31
0.0
  0
LINE
  8
0
  6
CONTINUOUS
 62
               3
  5
385
 10
-80.999999999999403
 20
-475.63940728487739
 30
0.0
 11
-81.000000000000256
 21
-414.63940728487717
 31
0.0
  0
LINE
  8
0
  6
CONTINUOUS
 62
               3
  5
386
 10
-79.999999999999318
 20
-475.63940728487739
 30
0.0
 11
-80.000000000000313
 21
-414.63940728487717
 31
0.0
  0
LINE
  8
0
  6
CONTINUOUS
 62
               3
  5
387
 10
-0.0000000000003126
 20
-476.63940728487648
 30
0.0
 11
-78.999999999999233
 21
-476.63940728487739
 31
0.0
  0
LINE
  8
0
  6
CONTINUOUS
 62
               3
  5
388
 10
-0.0000000000003126
 20
-454.13940728487648
 30
0.0
 11
-79.99999999999946
 21
-454.13940728487717
 31
0.0
  0
ARC
  8
0
  6
CONTINUOUS
 62
               3
  5
389
 10
-82.000000000000199
 20
-414.63940728487717
 30
0.0
 40
1.9999999999999996
 50
0.0000000000016284
 51
89.999999999965809
  0
ARC
  8
0
  6
CONTINUOUS
 62
               3
  5
38A
 10
-82.000000000000199
 20
-414.63940728487717
 30
0.0
 40
1.0000000000000004
 50
0.0
 51
89.999999999967429
  0
LINE
  8
0
  6
CONTINUOUS
 62
               3
  5
38B
 10
-82.000000000000199
 20
-413.63940728487717
 30
0.0
 11
-145.00000000000031
 21
-413.63940728487762
 31
0.0
  0
LINE
  8
0
  6
CONTINUOUS
 62
               3
  5
38C
 10
-79.999999999999886
 20
-369.6394072848783
 30
0.0
 11
0.0000000000002558
 21
-369.6394072848783
 31
0.0
  0
LINE
  8
0
  6
CONTINUOUS
 62
               3
  5
38D
 10
-76.999999999999915
 20
-369.6394072848783
 30
0.0
 11
-77.000000000000483
 21
-454.13940728487717
 31
0.0
  0
LINE
  8
0
  6
CONTINUOUS
 62
               3
  5
38E
 10
-145.00000000000031
 20
-411.63940728487762
 30
0.0
 11
-145.00000000000031
 21
-412.63940728487762
 31
0.0
  0
LINE
  8
0
  6
CONTINUOUS
 62
               3
  5
38F
 10
-145.00000000000031
 20
-413.63940728487762
 30
0.0
 11
-145.00000000000031
 21
-412.63940728487762
 31
0.0
  0
LINE
  8
0
  6
CONTINUOUS
 62
               3
  5
390
 10
-87.250000000000256
 20
-410.13940728487717
 30
0.0
 11
-94.750000000000256
 21
-410.13940728487717
 31
0.0
  0
LINE
  8
0
  6
CONTINUOUS
 62
               3
  5
391
 10
-87.250000000000256
 20
-415.13940728487717
 30
0.0
 11
-94.750000000000256
 21
-415.13940728487739
 31
0.0
  0
LINE
  8
0
  6
CONTINUOUS
 62
               3
  5
392
 10
-87.250000000000256
 20
-410.13940728487717
 30
0.0
 11
-87.250000000000256
 21
-411.63940728487717
 31
0.0
  0
LINE
  8
0
  6
CONTINUOUS
 62
               3
  5
393
 10
-87.250000000000256
 20
-413.63940728487717
 30
0.0
 11
-87.250000000000256
 21
-415.13940728487717
 31
0.0
  0
LINE
  8
0
  6
CONTINUOUS
 62
               3
  5
394
 10
-94.750000000000256
 20
-410.13940728487717
 30
0.0
 11
-94.750000000000256
 21
-411.63940728487717
 31
0.0
  0
LINE
  8
0
  6
CONTINUOUS
 62
               3
  5
395
 10
-94.750000000000256
 20
-413.63940728487739
 30
0.0
 11
-94.750000000000256
 21
-415.13940728487739
 31
0.0
  0
ARC
  8
0
  6
CONTINUOUS
 62
               3
  5
396
 10
76.000000000000057
 20
-350.6394072848783
 30
0.0
 40
4.0
 50
0.0000000000341973
 51
90.000000000000199
  0
ARC
  8
0
  6
CONTINUOUS
 62
               3
  5
397
 10
79.0
 20
-347.6394072848783
 30
0.0
 40
1.0000000000000004
 50
0.0000000000358258
 51
90.000000000001421
  0
ARC
  8
0
  6
CONTINUOUS
 62
               3
  5
398
 10
79.0
 20
-347.6394072848783
 30
0.0
 40
1.9999999999999996
 50
0.0000000000341973
 51
89.999999999999801
  0
LINE
  8
0
  6
CONTINUOUS
 62
               3
  5
399
 10
81.000000000000057
 20
-347.6394072848783
 30
0.0
 11
80.999999999999488
 21
-410.63940728487717
 31
0.0
  0
LINE
  8
0
  6
CONTINUOUS
 62
               3
  5
39A
 10
80.000000000000227
 20
-347.6394072848783
 30
0.0
 11
79.999999999999659
 21
-410.63940728487717
 31
0.0
  0
ARC
  8
0
  6
CONTINUOUS
 62
               3
  5
39B
 10
81.999999999999545
 20
-410.63940728487717
 30
0.0
 40
1.9999999999999996
 50
180.00000000003379
 51
269.99999999999937
  0
ARC
  8
0
  6
CONTINUOUS
 62
               3
  5
39C
 10
81.999999999999545
 20
-410.63940728487717
 30
0.0
 40
1.0000000000000004
 50
180.00000000003541
 51
269.99999999999937
  0
LINE
  8
0
  6
CONTINUOUS
 62
               3
  5
39D
 10
81.999999999999545
 20
-412.63940728487717
 30
0.0
 11
144.99999999999966
 21
-412.63940728487762
 31
0.0
  0
LINE
  8
0
  6
CONTINUOUS
 62
               3
  5
39E
 10
81.999999999999545
 20
-411.63940728487717
 30
0.0
 11
144.99999999999966
 21
-411.63940728487762
 31
0.0
  0
LINE
  8
0
  6
CONTINUOUS
 62
               3
  5
39F
 10
65.000000000000227
 20
-345.6394072848783
 30
0.0
 11
79.0
 21
-345.6394072848783
 31
0.0
  0
LINE
  8
0
  6
CONTINUOUS
 62
               3
  5
3A0
 10
0.0000000000002558
 20
-346.63940728487762
 30
0.0
 11
79.0
 21
-346.6394072848783
 31
0.0
  0
LINE
  8
0
  6
CONTINUOUS
 62
               3
  5
3A1
 10
65.000000000000227
 20
-345.6394072848783
 30
0.0
 11
65.000000000000227
 21
-346.63940728487819
 31
0.0
  0
LINE
  8
0
  6
CONTINUOUS
 62
               3
  5
3A2
 10
64.999999999998522
 20
-477.63940728487717
 30
0.0
 11
78.999999999998579
 21
-477.63940728487739
 31
0.0
  0
ARC
  8
0
  6
CONTINUOUS
 62
               3
  5
3A3
 10
78.999999999998579
 20
-475.63940728487739
 30
0.0
 40
1.0000000000000004
 50
269.99999999999937
 51
359.99999999996339
  0
ARC
  8
0
  6
CONTINUOUS
 62
               3
  5
3A4
 10
78.999999999998579
 20
-475.63940728487739
 30
0.0
 40
1.9999999999999996
 50
269.99999999999858
 51
359.99999999996339
  0
ARC
  8
0
  6
CONTINUOUS
 62
               3
  5
3A5
 10
75.999999999998636
 20
-472.63940728487739
 30
0.0
 40
4.0
 50
269.99999999999818
 51
359.99999999996419
  0
LINE
  8
0
  6
CONTINUOUS
 62
               3
  5
3A6
 10
64.999999999998522
 20
-477.63940728487717
 30
0.0
 11
64.999999999998522
 21
-476.63940728487739
 31
0.0
  0
LINE
  8
0
  6
CONTINUOUS
 62
               3
  5
3A7
 10
80.999999999998465
 20
-475.63940728487739
 30
0.0
 11
80.999999999999488
 21
-414.63940728487717
 31
0.0
  0
LINE
  8
0
  6
CONTINUOUS
 62
               3
  5
3A8
 10
79.999999999998522
 20
-475.63940728487739
 30
0.0
 11
79.999999999999545
 21
-414.63940728487717
 31
0.0
  0
LINE
  8
0
  6
CONTINUOUS
 62
               3
  5
3A9
 10
-0.0000000000003126
 20
-476.63940728487648
 30
0.0
 11
78.999999999998579
 21
-476.63940728487739
 31
0.0
  0
LINE
  8
0
  6
CONTINUOUS
 62
               3
  5
3AA
 10
-0.0000000000003126
 20
-454.13940728487648
 30
0.0
 11
79.999999999998806
 21
-454.13940728487717
 31
0.0
  0
ARC
  8
0
  6
CONTINUOUS
 62
               3
  5
3AB
 10
81.999999999999545
 20
-414.63940728487717
 30
0.0
 40
1.9999999999999996
 50
89.999999999999801
 51
179.99999999996376
  0
ARC
  8
0
  6
CONTINUOUS
 62
               3
  5
3AC
 10
81.999999999999545
 20
-414.63940728487717
 30
0.0
 40
1.0000000000000004
 50
89.999999999998167
 51
179.99999999996376
  0
LINE
  8
0
  6
CONTINUOUS
 62
               3
  5
3AD
 10
81.999999999999545
 20
-413.63940728487717
 30
0.0
 11
144.99999999999966
 21
-413.63940728487762
 31
0.0
  0
LINE
  8
0
  6
CONTINUOUS
 62
               3
  5
3AE
 10
80.000000000000227
 20
-369.6394072848783
 30
0.0
 11
0.0000000000002558
 21
-369.6394072848783
 31
0.0
  0
LINE
  8
0
  6
CONTINUOUS
 62
               3
  5
3AF
 10
77.000000000000114
 20
-369.6394072848783
 30
0.0
 11
76.999999999999545
 21
-454.13940728487717
 31
0.0
  0
LINE
  8
0
  6
CONTINUOUS
 62
               3
  5
3B0
 10
144.99999999999966
 20
-411.63940728487762
 30
0.0
 11
144.99999999999966
 21
-412.63940728487762
 31
0.0
  0
LINE
  8
0
  6
CONTINUOUS
 62
               3
  5
3B1
 10
144.99999999999966
 20
-413.63940728487762
 30
0.0
 11
144.99999999999966
 21
-412.63940728487762
 31
0.0
  0
LINE
  8
0
  6
CONTINUOUS
 62
               3
  5
3B2
 10
87.249999999999488
 20
-410.13940728487717
 30
0.0
 11
94.749999999999488
 21
-410.13940728487717
 31
0.0
  0
LINE
  8
0
  6
CONTINUOUS
 62
               3
  5
3B3
 10
87.249999999999488
 20
-415.13940728487717
 30
0.0
 11
94.749999999999488
 21
-415.13940728487739
 31
0.0
  0
LINE
  8
0
  6
CONTINUOUS
 62
               3
  5
3B4
 10
87.249999999999488
 20
-410.13940728487717
 30
0.0
 11
87.249999999999488
 21
-411.63940728487717
 31
0.0
  0
LINE
  8
0
  6
CONTINUOUS
 62
               3
  5
3B5
 10
87.249999999999488
 20
-413.63940728487717
 30
0.0
 11
87.249999999999488
 21
-415.13940728487717
 31
0.0
  0
LINE
  8
0
  6
CONTINUOUS
 62
               3
  5
3B6
 10
94.749999999999488
 20
-410.13940728487717
 30
0.0
 11
94.749999999999488
 21
-411.63940728487717
 31
0.0
  0
LINE
  8
0
  6
CONTINUOUS
 62
               3
  5
3B7
 10
94.749999999999488
 20
-413.63940728487739
 30
0.0
 11
94.749999999999488
 21
-415.13940728487739
 31
0.0
  0
LINE
  8
0
  6
CONTINUOUS
 62
               3
  5
3B8
 10
61.999999999999574
 20
-491.63940728487648
 30
0.0
 11
61.999999999999574
 21
-476.63940728487739
 31
0.0
  0
LINE
  8
0
  6
CONTINUOUS
 62
               3
  5
3B9
 10
-562.0
 20
-491.63940728487648
 30
0.0
 11
-562.0
 21
-476.63940728487739
 31
0.0
  0
LINE
  8
0
  6
CONTINUOUS
 62
               3
  5
3BA
 10
-564.99999999999977
 20
-491.63940728487648
 30
0.0
 11
-434.99999999999977
 21
-491.63940728487648
 31
0.0
  0
ARC
  8
0
  6
CONTINUOUS
 62
               3
  5
3BB
 10
-575.99999999999909
 20
-350.6394072848783
 30
0.0
 40
4.0
 50
89.999999999964786
 51
179.9999999999304
  0
LINE
  8
0
  6
CONTINUOUS
 62
               3
  5
3BC
 10
-579.99999999999909
 20
-350.63940728487592
 30
0.0
 11
-579.99999999999932
 21
-369.6394072848783
 31
0.0
  0
LINE
  8
0
  6
CONTINUOUS
 62
               3
  5
3BD
 10
-515.9999999999992
 20
-346.63940728487773
 30
0.0
 11
-575.9999999999992
 21
-346.6394072848783
 31
0.0
  0
LINE
  8
0
  6
CONTINUOUS
 62
               3
  5
3BE
 10
-515.9999999999992
 20
-477.63940728487637
 30
0.0
 11
-483.99999999999869
 21
-477.63940728487592
 31
0.0
  0
ARC
  8
0
  6
CONTINUOUS
 62
               3
  5
3BF
 10
-575.99999999999886
 20
-472.63940728487739
 30
0.0
 40
4.0
 50
179.99999999993119
 51
269.99999999989763
  0
LINE
  8
0
  6
CONTINUOUS
 62
               3
  5
3C0
 10
-579.99999999999886
 20
-472.63940728487739
 30
0.0
 11
-579.99999999999886
 21
-454.13940728487717
 31
0.0
  0
LINE
  8
0
  6
CONTINUOUS
 62
               3
  5
3C1
 10
-515.9999999999992
 20
-476.63940728487671
 30
0.0
 11
-576.00000000000239
 21
-476.63940728487739
 31
0.0
  0
LINE
  8
0
  6
CONTINUOUS
 62
               3
  5
3C2
 10
-515.9999999999992
 20
-454.1394072848766
 30
0.0
 11
-579.99999999999886
 21
-454.13940728487717
 31
0.0
  0
LINE
  8
0
  6
CONTINUOUS
 62
               3
  5
3C3
 10
-579.99999999999932
 20
-369.6394072848783
 30
0.0
 11
-515.9999999999992
 21
-369.6394072848783
 31
0.0
  0
LINE
  8
0
  6
CONTINUOUS
 62
               3
  5
3C4
 10
-576.99999999999932
 20
-369.6394072848783
 30
0.0
 11
-577.0
 21
-454.13940728487717
 31
0.0
  0
LINE
  8
0
  6
CONTINUOUS
 62
               3
  5
3C5
 10
-483.9999999999992
 20
-346.63940728487773
 30
0.0
 11
-420.99999999999943
 21
-346.6394072848783
 31
0.0
  0
LINE
  8
0
  6
CONTINUOUS
 62
               3
  5
3C6
 10
-483.99999999999869
 20
-476.63940728487671
 30
0.0
 11
-424.00000000000074
 21
-476.63940728487739
 31
0.0
  0
LINE
  8
0
  6
CONTINUOUS
 62
               3
  5
3C7
 10
-483.99999999999869
 20
-454.13940728487671
 30
0.0
 11
-420.00000000000063
 21
-454.13940728487717
 31
0.0
  0
LINE
  8
0
  6
CONTINUOUS
 62
               3
  5
3C8
 10
-419.9999999999992
 20
-369.6394072848783
 30
0.0
 11
-483.9999999999992
 21
-369.6394072848783
 31
0.0
  0
LINE
  8
0
  6
CONTINUOUS
 62
               3
  5
3C9
 10
-437.99999999999989
 20
-491.63940728487648
 30
0.0
 11
-437.99999999999989
 21
-476.63940728487739
 31
0.0
  0
LINE
  8
0
  6
CONTINUOUS
 62
               3
  5
3CA
 10
-515.9999999999992
 20
-345.6394072848783
 30
0.0
 11
-515.9999999999992
 21
-477.63940728487637
 31
0.0
  0
LINE
  8
0
  6
CONTINUOUS
 62
               3
  5
3CB
 10
-483.99999999999869
 20
-477.63940728487592
 30
0.0
 11
-483.9999999999992
 21
-345.6394072848783
 31
0.0
  0
LINE
  8
0
  6
CONTINUOUS
 62
               3
  5
3CC
 10
-515.99999999999977
 20
-345.6394072848783
 30
0.0
 11
-483.99999999999977
 21
-345.6394072848783
 31
0.0
  0
LINE
  8
0
  6
CONTINUOUS
 62
               3
  5
3CD
 10
-515.9999999999992
 20
-412.63940728487717
 30
0.0
 11
-483.99999999999869
 21
-412.63940728487717
 31
0.0
  0
LINE
  8
0
  6
CONTINUOUS
 62
               3
  5
3CE
 10
-515.9999999999992
 20
-411.63940728487739
 30
0.0
 11
-483.99999999999869
 21
-411.63940728487739
 31
0.0
  0
LINE
  8
0
  6
CONTINUOUS
 62
               3
  5
3CF
 10
-515.9999999999992
 20
-413.63940728487739
 30
0.0
 11
-483.99999999999869
 21
-413.63940728487739
 31
0.0
  0
ARC
  8
0
  6
CONTINUOUS
 62
               3
  5
3D0
 10
-424.0000000000004
 20
-350.6394072848783
 30
0.0
 40
4.0
 50
0.0000000000341973
 51
89.999999999999801
  0
LINE
  8
0
  6
CONTINUOUS
 62
               3
  5
3D1
 10
-420.0000000000004
 20
-350.63940728487592
 30
0.0
 11
-420.00000000000017
 21
-369.6394072848783
 31
0.0
  0
ARC
  8
0
  6
CONTINUOUS
 62
               3
  5
3D2
 10
-424.00000000000068
 20
-472.63940728487739
 30
0.0
 40
4.0
 50
269.99999999999858
 51
359.99999999996419
  0
LINE
  8
0
  6
CONTINUOUS
 62
               3
  5
3D3
 10
-420.00000000000063
 20
-472.63940728487739
 30
0.0
 11
-420.00000000000074
 21
-454.13940728487717
 31
0.0
  0
LINE
  8
0
  6
CONTINUOUS
 62
               3
  5
3D4
 10
-423.00000000000017
 20
-369.6394072848783
 30
0.0
 11
-422.9999999999996
 21
-454.13940728487717
 31
0.0
  0
LINE
  8
0
  6
CONTINUOUS
 62
               3
  5
3D5
 10
-566.49999999999989
 20
-331.7149687545496
 30
0.0
 11
-433.49999999999966
 21
-331.7149687545496
 31
0.0
  0
LINE
  8
0
  6
CONTINUOUS
 62
               3
  5
3D6
 10
-566.49999999999989
 20
-295.78759334908199
 30
0.0
 11
-566.49999999999989
 21
-331.7149687545496
 31
0.0
  0
LINE
  8
0
  6
CONTINUOUS
 62
               3
  5
3D7
 10
-433.49999999999966
 20
-295.7875933490821
 30
0.0
 11
-433.49999999999966
 21
-331.7149687545496
 31
0.0
  0
LINE
  8
0
  6
CONTINUOUS
 62
               3
  5
3D8
 10
438.00000000000006
 20
-491.63940728487648
 30
0.0
 11
438.00000000000006
 21
-476.63940728487739
 31
0.0
  0
LINE
  8
0
  6
CONTINUOUS
 62
               3
  5
3D9
 10
435.00000000000023
 20
-491.63940728487648
 30
0.0
 11
565.00000000000023
 21
-491.63940728487648
 31
0.0
  0
ARC
  8
0
  6
CONTINUOUS
 62
               3
  5
3DA
 10
424.00000000000085
 20
-350.6394072848783
 30
0.0
 40
4.0
 50
89.999999999964786
 51
179.9999999999304
  0
LINE
  8
0
  6
CONTINUOUS
 62
               3
  5
3DB
 10
420.00000000000085
 20
-350.63940728487592
 30
0.0
 11
420.00000000000063
 21
-369.6394072848783
 31
0.0
  0
LINE
  8
0
  6
CONTINUOUS
 62
               3
  5
3DC
 10
484.00000000000085
 20
-346.63940728487773
 30
0.0
 11
424.0000000000008
 21
-346.6394072848783
 31
0.0
  0
LINE
  8
0
  6
CONTINUOUS
 62
               3
  5
3DD
 10
484.00000000000085
 20
-477.63940728487637
 30
0.0
 11
516.00000000000136
 21
-477.63940728487592
 31
0.0
  0
ARC
  8
0
  6
CONTINUOUS
 62
               3
  5
3DE
 10
424.00000000000114
 20
-472.63940728487739
 30
0.0
 40
4.0
 50
179.99999999993119
 51
269.99999999989763
  0
LINE
  8
0
  6
CONTINUOUS
 62
               3
  5
3DF
 10
420.00000000000108
 20
-472.63940728487739
 30
0.0
 11
420.00000000000119
 21
-454.13940728487717
 31
0.0
  0
LINE
  8
0
  6
CONTINUOUS
 62
               3
  5
3E0
 10
484.00000000000085
 20
-476.63940728487671
 30
0.0
 11
423.99999999999761
 21
-476.63940728487739
 31
0.0
  0
LINE
  8
0
  6
CONTINUOUS
 62
               3
  5
3E1
 10
484.00000000000085
 20
-454.1394072848766
 30
0.0
 11
420.00000000000108
 21
-454.13940728487717
 31
0.0
  0
LINE
  8
0
  6
CONTINUOUS
 62
               3
  5
3E2
 10
420.00000000000063
 20
-369.6394072848783
 30
0.0
 11
484.00000000000085
 21
-369.6394072848783
 31
0.0
  0
LINE
  8
0
  6
CONTINUOUS
 62
               3
  5
3E3
 10
423.00000000000063
 20
-369.6394072848783
 30
0.0
 11
423.00000000000006
 21
-454.13940728487717
 31
0.0
  0
LINE
  8
0
  6
CONTINUOUS
 62
               3
  5
3E4
 10
516.00000000000091
 20
-346.63940728487773
 30
0.0
 11
579.00000000000068
 21
-346.6394072848783
 31
0.0
  0
LINE
  8
0
  6
CONTINUOUS
 62
               3
  5
3E5
 10
516.00000000000136
 20
-476.63940728487671
 30
0.0
 11
575.99999999999932
 21
-476.63940728487739
 31
0.0
  0
LINE
  8
0
  6
CONTINUOUS
 62
               3
  5
3E6
 10
516.00000000000136
 20
-454.13940728487671
 30
0.0
 11
579.99999999999932
 21
-454.13940728487717
 31
0.0
  0
LINE
  8
0
  6
CONTINUOUS
 62
               3
  5
3E7
 10
580.00000000000091
 20
-369.6394072848783
 30
0.0
 11
516.00000000000091
 21
-369.6394072848783
 31
0.0
  0
LINE
  8
0
  6
CONTINUOUS
 62
               3
  5
3E8
 10
562.00000000000023
 20
-491.63940728487648
 30
0.0
 11
562.00000000000023
 21
-476.63940728487739
 31
0.0
  0
LINE
  8
0
  6
CONTINUOUS
 62
               3
  5
3E9
 10
484.00000000000085
 20
-345.6394072848783
 30
0.0
 11
484.00000000000085
 21
-477.63940728487637
 31
0.0
  0
LINE
  8
0
  6
CONTINUOUS
 62
               3
  5
3EA
 10
516.00000000000136
 20
-477.63940728487592
 30
0.0
 11
516.00000000000091
 21
-345.6394072848783
 31
0.0
  0
LINE
  8
0
  6
CONTINUOUS
 62
               3
  5
3EB
 10
484.00000000000017
 20
-345.6394072848783
 30
0.0
 11
516.00000000000023
 21
-345.6394072848783
 31
0.0
  0
LINE
  8
0
  6
CONTINUOUS
 62
               3
  5
3EC
 10
484.00000000000085
 20
-412.63940728487717
 30
0.0
 11
516.00000000000136
 21
-412.63940728487717
 31
0.0
  0
LINE
  8
0
  6
CONTINUOUS
 62
               3
  5
3ED
 10
484.00000000000085
 20
-411.63940728487739
 30
0.0
 11
516.00000000000136
 21
-411.63940728487739
 31
0.0
  0
LINE
  8
0
  6
CONTINUOUS
 62
               3
  5
3EE
 10
484.00000000000085
 20
-413.63940728487739
 30
0.0
 11
516.00000000000136
 21
-413.63940728487739
 31
0.0
  0
ARC
  8
0
  6
CONTINUOUS
 62
               3
  5
3EF
 10
575.99999999999955
 20
-350.6394072848783
 30
0.0
 40
4.0
 50
0.0000000000341973
 51
89.999999999999801
  0
LINE
  8
0
  6
CONTINUOUS
 62
               3
  5
3F0
 10
579.99999999999955
 20
-350.63940728487592
 30
0.0
 11
579.99999999999977
 21
-369.6394072848783
 31
0.0
  0
ARC
  8
0
  6
CONTINUOUS
 62
               3
  5
3F1
 10
575.99999999999932
 20
-472.63940728487739
 30
0.0
 40
4.0
 50
269.99999999999778
 51
359.99999999996419
  0
LINE
  8
0
  6
CONTINUOUS
 62
               3
  5
3F2
 10
579.99999999999932
 20
-472.63940728487739
 30
0.0
 11
579.99999999999932
 21
-454.13940728487717
 31
0.0
  0
LINE
  8
0
  6
CONTINUOUS
 62
               3
  5
3F3
 10
576.99999999999977
 20
-369.6394072848783
 30
0.0
 11
577.00000000000045
 21
-454.13940728487717
 31
0.0
  0
LINE
  8
0
  6
CONTINUOUS
 62
               3
  5
3F4
 10
433.50000000000011
 20
-331.7149687545496
 30
0.0
 11
566.50000000000045
 21
-331.7149687545496
 31
0.0
  0
LINE
  8
0
  6
CONTINUOUS
 62
               3
  5
3F5
 10
433.50000000000011
 20
-295.78759334908199
 30
0.0
 11
433.50000000000011
 21
-331.7149687545496
 31
0.0
  0
LINE
  8
0
  6
CONTINUOUS
 62
               3
  5
3F6
 10
566.50000000000045
 20
-295.7875933490821
 30
0.0
 11
566.50000000000045
 21
-331.7149687545496
 31
0.0
  0
LINE
  8
0
  6
CONTINUOUS
 62
               3
  5
3F7
 10
-127.99999999999991
 20
-30.447703338373714
 30
0.0
 11
-127.99999999999991
 21
-38.952884464913666
 31
0.0
  0
LINE
  8
0
  6
CONTINUOUS
 62
               3
  5
3F8
 10
-127.99999999999991
 20
93.674069895158425
 30
0.0
 11
-127.99999999999991
 21
-30.447703338373714
 31
0.0
  0
LINE
  8
0
  6
CONTINUOUS
 62
               3
  5
3F9
 10
99.21660737200159
 20
-39.958022684066435
 30
0.0
 11
128.0000000000004
 21
-38.952884464913666
 31
0.0
  0
LINE
  8
0
  6
CONTINUOUS
 62
               3
  5
3FA
 10
128.0000000000004
 20
-30.447703338373714
 30
0.0
 11
128.0000000000004
 21
-38.952884464913666
 31
0.0
  0
LINE
  8
0
  6
CONTINUOUS
 62
               3
  5
3FB
 10
128.0000000000004
 20
-30.447703338373707
 30
0.0
 11
128.0000000000004
 21
93.674069895158425
 31
0.0
  0
LINE
  8
0
  6
CONTINUOUS
 62
               3
  5
3FC
 10
83.757508187121175
 20
95.219051753496444
 30
0.0
 11
128.0000000000004
 21
93.674069895158425
 31
0.0
  0
LINE
  8
0
  6
CONTINUOUS
 62
               3
  5
3FD
 10
-127.99999999999997
 20
485.55229666162626
 30
0.0
 11
-127.99999999999997
 21
477.04711553508633
 31
0.0
  0
LINE
  8
0
  6
CONTINUOUS
 62
               3
  5
3FE
 10
-127.99999999999997
 20
485.55229666162631
 30
0.0
 11
-127.99999999999997
 21
609.67406989515848
 31
0.0
  0
LINE
  8
0
  6
CONTINUOUS
 62
               3
  5
3FF
 10
128.00000000000034
 20
485.55229666162626
 30
0.0
 11
128.00000000000034
 21
477.04711553508633
 31
0.0
  0
LINE
  8
0
  6
CONTINUOUS
 62
               3
  5
400
 10
128.00000000000034
 20
485.55229666162637
 30
0.0
 11
128.00000000000034
 21
609.67406989515848
 31
0.0
  0
CIRCLE
  8
0
  6
CONTINUOUS
 62
               3
  5
401
 10
0.0000000000001705
 20
543.36059271512227
 30
0.0
 40
75.0
  0
ARC
  8
0
  6
CONTINUOUS
 62
               3
  5
402
 10
0.0000000000001705
 20
543.36059271512227
 30
0.0
 40
88.5
 50
346.93897588503427
 51
373.06102411462018
  0
ARC
  8
0
  6
CONTINUOUS
 62
               3
  5
403
 10
0.0000000000001705
 20
543.36059271512227
 30
0.0
 40
88.5
 50
76.938975885051988
 51
103.06102411463802
  0
ARC
  8
0
  6
CONTINUOUS
 62
               3
  5
404
 10
0.0000000000001705
 20
543.36059271512227
 30
0.0
 40
88.5
 50
166.93897588513781
 51
193.06102411472381
  0
ARC
  8
0
  6
CONTINUOUS
 62
               3
  5
405
 10
0.0000000000001705
 20
543.36059271512227
 30
0.0
 40
88.5
 50
256.93897588508594
 51
283.06102411467197
  0
ARC
  8
0
  6
CONTINUOUS
 62
               3
  5
406
 10
0.0000000000001705
 20
543.36059271512227
 30
0.0
 40
83.499999999999901
 50
56.850626456651632
 51
76.141731344809685
  0
ARC
  8
0
  6
CONTINUOUS
 62
               3
  5
407
 10
0.0000000000001705
 20
543.36059271512227
 30
0.0
 40
83.499999999999901
 50
103.85826865515553
 51
123.14937354331356
  0
ARC
  8
0
  6
CONTINUOUS
 62
               3
  5
408
 10
-35.000000000000057
 20
626.27621247400725
 30
0.0
 40
15.0
 50
292.88538047610245
 51
359.99999999993059
  0
ARC
  8
0
  6
CONTINUOUS
 62
               3
  5
409
 10
35.000000000000227
 20
626.27621247400725
 30
0.0
 40
15.0
 50
179.9999999999653
 51
247.11461952379301
  0
ARC
  8
0
  6
CONTINUOUS
 62
               3
  5
40A
 10
82.915619758885157
 20
578.36059271512227
 30
0.0
 40
15.0
 50
202.88538047611956
 51
269.99999999994782
  0
ARC
  8
0
  6
CONTINUOUS
 62
               3
  5
40B
 10
82.915619758885157
 20
508.36059271512232
 30
0.0
 40
15.0
 50
89.999999999982649
 51
157.11461952381123
  0
ARC
  8
0
  6
CONTINUOUS
 62
               3
  5
40C
 10
35.000000000000114
 20
460.44497295623734
 30
0.0
 40
15.0
 50
112.88538047613694
 51
179.9999999999653
  0
ARC
  8
0
  6
CONTINUOUS
 62
               3
  5
40D
 10
-34.999999999999829
 20
460.44497295623734
 30
0.0
 40
15.0
 50
359.99999999993037
 51
427.11461952375919
  0
ARC
  8
0
  6
CONTINUOUS
 62
               3
  5
40E
 10
-82.915619758884816
 20
508.36059271512232
 30
0.0
 40
15.0
 50
22.885380476153955
 51
89.999999999982606
  0
ARC
  8
0
  6
CONTINUOUS
 62
               3
  5
40F
 10
-82.915619758884816
 20
578.36059271512227
 30
0.0
 40
15.0
 50
269.99999999994782
 51
337.11461952377596
  0
LINE
  8
0
  6
CONTINUOUS
 62
               3
  5
410
 10
-86.210498200625409
 20
523.36059271512227
 30
0.0
 11
-82.915619758884816
 21
523.36059271512227
 31
0.0
  0
LINE
  8
0
  6
CONTINUOUS
 62
               3
  5
411
 10
-86.210498200625409
 20
563.36059271512227
 30
0.0
 11
-81.069414701229732
 21
563.36059271512227
 31
0.0
  0
LINE
  8
0
  6
CONTINUOUS
 62
               3
  5
412
 10
-19.999999999999829
 20
624.43000741635228
 30
0.0
 11
-19.999999999999829
 21
629.57109091574694
 31
0.0
  0
LINE
  8
0
  6
CONTINUOUS
 62
               3
  5
413
 10
20.000000000000171
 20
626.27621247400725
 30
0.0
 11
20.000000000000171
 21
629.57109091574694
 31
0.0
  0
LINE
  8
0
  6
CONTINUOUS
 62
               3
  5
414
 10
82.915619758885157
 20
523.36059271512227
 30
0.0
 11
86.210498200625068
 21
523.36059271512227
 31
0.0
  0
LINE
  8
0
  6
CONTINUOUS
 62
               3
  5
415
 10
82.915619758885157
 20
563.36059271512227
 30
0.0
 11
86.210498200625068
 21
563.36059271512227
 31
0.0
  0
LINE
  8
0
  6
CONTINUOUS
 62
               3
  5
416
 10
20.000000000000171
 20
457.15009451449703
 30
0.0
 11
20.000000000000171
 21
460.44497295623734
 31
0.0
  0
LINE
  8
0
  6
CONTINUOUS
 62
               3
  5
417
 10
-19.999999999999829
 20
457.15009451449703
 30
0.0
 11
-19.999999999999829
 21
460.44497295623734
 31
0.0
  0
ARC
  8
0
  6
CONTINUOUS
 62
               3
  5
418
 10
0.0000000000001705
 20
543.36059271512227
 30
0.0
 40
80.500000000000043
 50
285.06541275404408
 51
344.93458724583411
  0
ARC
  8
0
  6
CONTINUOUS
 62
               3
  5
419
 10
0.0000000000001705
 20
543.36059271512227
 30
0.0
 40
80.500000000000043
 50
15.065412754096313
 51
74.934587245886235
  0
ARC
  8
0
  6
CONTINUOUS
 62
               3
  5
41A
 10
0.0000000000001705
 20
543.36059271512227
 30
0.0
 40
80.500000000000043
 50
105.06541275407906
 51
165.61435521392212
  0
ARC
  8
0
  6
CONTINUOUS
 62
               3
  5
41B
 10
0.0000000000001705
 20
543.36059271512227
 30
0.0
 40
80.500000000000043
 50
195.06541275406153
 51
254.93458724585153
  0
ARC
  8
0
  6
CONTINUOUS
 62
               3
  5
41C
 10
-48.393892694184309
 20
617.45702414001448
 30
0.0
 40
5.0
 50
271.99999999994753
 51
303.14937354327935
  0
ARC
  8
0
  6
CONTINUOUS
 62
               3
  5
41D
 10
48.393892694184657
 20
617.45702414001448
 30
0.0
 40
5.0
 50
236.85062645661665
 51
267.99999999994782
  0
ARC
  8
0
  6
CONTINUOUS
 62
               3
  5
41E
 10
0.0000000000001705
 20
543.36059271512227
 30
0.0
 40
83.499999999999901
 50
236.85062645661685
 51
256.14173134477488
  0
ARC
  8
0
  6
CONTINUOUS
 62
               3
  5
41F
 10
0.0000000000001705
 20
543.36059271512227
 30
0.0
 40
83.499999999999901
 50
283.8582686551207
 51
303.14937354327878
  0
ARC
  8
0
  6
CONTINUOUS
 62
               3
  5
420
 10
48.393892694184657
 20
469.26416129023022
 30
0.0
 40
5.0
 50
91.99999999998245
 51
123.14937354331362
  0
ARC
  8
0
  6
CONTINUOUS
 62
               3
  5
421
 10
-48.393892694184309
 20
469.26416129023022
 30
0.0
 40
5.0
 50
56.850626456651355
 51
87.999999999982933
  0
LINE
  8
0
  6
CONTINUOUS
 62
               3
  5
422
 10
-574.99999999999977
 20
193.36059271512238
 30
0.0
 11
-425.00000000000034
 21
193.36059271512238
 31
0.0
  0
LINE
  8
0
  6
CONTINUOUS
 62
               3
  5
423
 10
-588.5
 20
183.36059271512238
 30
0.0
 11
-588.5
 21
176.36059271512272
 31
0.0
  0
LINE
  8
0
  6
CONTINUOUS
 62
               3
  5
424
 10
-588.5
 20
183.36059271512238
 30
0.0
 11
-574.99999999999977
 21
193.36059271512238
 31
0.0
  0
LINE
  8
0
  6
CONTINUOUS
 62
               3
  5
425
 10
-411.50000000000011
 20
183.36059271512238
 30
0.0
 11
-411.50000000000011
 21
176.36059271512272
 31
0.0
  0
LINE
  8
0
  6
CONTINUOUS
 62
               3
  5
426
 10
-411.50000000000011
 20
183.36059271512238
 30
0.0
 11
-425.00000000000034
 21
193.36059271512238
 31
0.0
  0
ARC
  8
0
  6
CONTINUOUS
 62
               3
  5
427
 10
-585.49999999999977
 20
171.36059271512272
 30
0.0
 40
5.0
 50
0.0
 51
89.999999999982862
  0
LINE
  8
0
  6
CONTINUOUS
 62
               3
  5
428
 10
-588.5
 20
176.36059271512272
 30
0.0
 11
-585.49999999999977
 21
176.36059271512272
 31
0.0
  0
ARC
  8
0
  6
CONTINUOUS
 62
               3
  5
429
 10
-414.49999999999977
 20
171.36059271512272
 30
0.0
 40
5.0
 50
89.999999999982862
 51
179.99999999996507
  0
LINE
  8
0
  6
CONTINUOUS
 62
               3
  5
42A
 10
-411.50000000000011
 20
176.36059271512272
 30
0.0
 11
-414.49999999999977
 21
176.36059271512272
 31
0.0
  0
LINE
  8
0
  6
CONTINUOUS
 62
               3
  5
42B
 10
-74.999999999999773
 20
193.36059271512238
 30
0.0
 11
74.999999999999659
 21
193.36059271512238
 31
0.0
  0
LINE
  8
0
  6
CONTINUOUS
 62
               3
  5
42C
 10
-88.499999999999943
 20
183.36059271512238
 30
0.0
 11
-88.499999999999943
 21
176.36059271512272
 31
0.0
  0
LINE
  8
0
  6
CONTINUOUS
 62
               3
  5
42D
 10
-88.499999999999943
 20
183.36059271512238
 30
0.0
 11
-74.999999999999773
 21
193.36059271512238
 31
0.0
  0
LINE
  8
0
  6
CONTINUOUS
 62
               3
  5
42E
 10
88.499999999999886
 20
183.36059271512238
 30
0.0
 11
88.499999999999886
 21
176.36059271512272
 31
0.0
  0
LINE
  8
0
  6
CONTINUOUS
 62
               3
  5
42F
 10
88.499999999999886
 20
183.36059271512238
 30
0.0
 11
74.999999999999659
 21
193.36059271512238
 31
0.0
  0
ARC
  8
0
  6
CONTINUOUS
 62
               3
  5
430
 10
-85.499999999999716
 20
171.36059271512272
 30
0.0
 40
5.0
 50
0.0
 51
89.99999999998262
  0
LINE
  8
0
  6
CONTINUOUS
 62
               3
  5
431
 10
-88.499999999999943
 20
176.36059271512272
 30
0.0
 11
-85.499999999999716
 21
176.36059271512272
 31
0.0
  0
ARC
  8
0
  6
CONTINUOUS
 62
               3
  5
432
 10
85.500000000000227
 20
171.36059271512272
 30
0.0
 40
5.0
 50
89.999999999982535
 51
179.99999999996507
  0
LINE
  8
0
  6
CONTINUOUS
 62
               3
  5
433
 10
88.499999999999886
 20
176.36059271512272
 30
0.0
 11
85.500000000000227
 21
176.36059271512272
 31
0.0
  0
LINE
  8
0
  6
CONTINUOUS
 62
               3
  5
434
 10
425.00000000000023
 20
193.36059271512238
 30
0.0
 11
574.99999999999977
 21
193.36059271512238
 31
0.0
  0
LINE
  8
0
  6
CONTINUOUS
 62
               3
  5
435
 10
411.50000000000006
 20
183.36059271512238
 30
0.0
 11
411.50000000000006
 21
176.36059271512272
 31
0.0
  0
LINE
  8
0
  6
CONTINUOUS
 62
               3
  5
436
 10
411.50000000000006
 20
183.36059271512238
 30
0.0
 11
425.00000000000023
 21
193.36059271512238
 31
0.0
  0
LINE
  8
0
  6
CONTINUOUS
 62
               3
  5
437
 10
588.5
 20
183.36059271512238
 30
0.0
 11
588.5
 21
176.36059271512272
 31
0.0
  0
LINE
  8
0
  6
CONTINUOUS
 62
               3
  5
438
 10
588.5
 20
183.36059271512238
 30
0.0
 11
574.99999999999977
 21
193.36059271512238
 31
0.0
  0
ARC
  8
0
  6
CONTINUOUS
 62
               3
  5
439
 10
414.50000000000028
 20
171.36059271512272
 30
0.0
 40
5.0
 50
0.0
 51
89.999999999982862
  0
LINE
  8
0
  6
CONTINUOUS
 62
               3
  5
43A
 10
411.50000000000006
 20
176.36059271512272
 30
0.0
 11
414.50000000000028
 21
176.36059271512272
 31
0.0
  0
ARC
  8
0
  6
CONTINUOUS
 62
               3
  5
43B
 10
585.50000000000023
 20
171.36059271512272
 30
0.0
 40
5.0
 50
89.999999999982862
 51
179.99999999996507
  0
LINE
  8
0
  6
CONTINUOUS
 62
               3
  5
43C
 10
588.5
 20
176.36059271512272
 30
0.0
 11
585.50000000000023
 21
176.36059271512272
 31
0.0
  0
LINE
  8
0
  6
CONTINUOUS
 62
               3
  5
43D
 10
-580.49999999999977
 20
171.36059271512272
 30
0.0
 11
-580.49999999999977
 21
162.86059271512283
 31
0.0
  0
LINE
  8
0
  6
CONTINUOUS
 62
               3
  5
43E
 10
-419.49999999999977
 20
171.36059271512272
 30
0.0
 11
-419.49999999999977
 21
162.86059271512283
 31
0.0
  0
LINE
  8
0
  6
CONTINUOUS
 62
               3
  5
43F
 10
-80.499999999999716
 20
171.36059271512272
 30
0.0
 11
-80.499999999999829
 21
162.86059271512283
 31
0.0
  0
LINE
  8
0
  6
CONTINUOUS
 62
               3
  5
440
 10
80.500000000000227
 20
171.36059271512272
 30
0.0
 11
80.500000000000227
 21
162.86059271512283
 31
0.0
  0
LINE
  8
0
  6
CONTINUOUS
 62
               3
  5
441
 10
419.50000000000028
 20
171.36059271512272
 30
0.0
 11
419.50000000000017
 21
162.86059271512283
 31
0.0
  0
LINE
  8
0
  6
CONTINUOUS
 62
               3
  5
442
 10
580.50000000000023
 20
171.36059271512272
 30
0.0
 11
580.50000000000023
 21
162.86059271512283
 31
0.0
  0
CIRCLE
  8
0
  6
CONTINUOUS
 62
               3
  5
443
 10
609.28652321630807
 20
-1015.8243526245217
 30
0.0
 40
75.0
  0
CIRCLE
  8
0
  6
CONTINUOUS
 62
               3
  5
444
 10
609.28652321630807
 20
-1015.8243526245217
 30
0.0
 40
52.5
  0
LINE
  8
0
  6
CONTINUOUS
 62
               3
  5
445
 10
523.07602501568283
 20
-995.82435262452168
 30
0.0
 11
537.00236174230281
 21
-995.82435262452168
 31
0.0
  0
LINE
  8
0
  6
CONTINUOUS
 62
               3
  5
446
 10
537.00236174230281
 20
-1035.8243526245217
 30
0.0
 11
523.07602501568283
 21
-1035.8243526245217
 31
0.0
  0
ARC
  8
0
  6
CONTINUOUS
 62
               3
  5
447
 10
609.28652321630807
 20
-1015.8243526245217
 30
0.0
 40
88.5
 50
166.93897588507147
 51
193.06102411465253
  0
LINE
  8
0
  6
CONTINUOUS
 62
               3
  5
448
 10
589.28652321630807
 20
-1102.0348508251466
 30
0.0
 11
589.28652321630807
 21
-1088.1085140985267
 31
0.0
  0
LINE
  8
0
  6
CONTINUOUS
 62
               3
  5
449
 10
629.28652321630807
 20
-1088.1085140985267
 30
0.0
 11
629.28652321630807
 21
-1102.0348508251466
 31
0.0
  0
ARC
  8
0
  6
CONTINUOUS
 62
               3
  5
44A
 10
609.28652321630807
 20
-1015.8243526245217
 30
0.0
 40
88.5
 50
256.93897588500261
 51
283.06102411458357
  0
LINE
  8
0
  6
CONTINUOUS
 62
               3
  5
44B
 10
695.49702141693274
 20
-1035.8243526245217
 30
0.0
 11
681.57068469031242
 21
-1035.8243526245217
 31
0.0
  0
LINE
  8
0
  6
CONTINUOUS
 62
               3
  5
44C
 10
681.57068469031242
 20
-995.82435262452168
 30
0.0
 11
695.49702141693274
 21
-995.82435262452168
 31
0.0
  0
ARC
  8
0
  6
CONTINUOUS
 62
               3
  5
44D
 10
609.28652321630807
 20
-1015.8243526245217
 30
0.0
 40
88.5
 50
346.93897588493354
 51
373.06102411451457
  0
LINE
  8
0
  6
CONTINUOUS
 62
               3
  5
44E
 10
629.28652321630807
 20
-929.6138544238961
 30
0.0
 11
629.28652321630807
 21
-943.54019115051665
 31
0.0
  0
LINE
  8
0
  6
CONTINUOUS
 62
               3
  5
44F
 10
589.28652321630807
 20
-943.54019115051665
 30
0.0
 11
589.28652321630807
 21
-929.6138544238961
 31
0.0
  0
ARC
  8
0
  6
CONTINUOUS
 62
               3
  5
450
 10
609.28652321630807
 20
-1015.8243526245217
 30
0.0
 40
88.5
 50
76.938975885140493
 51
103.06102411472152
  0
LINE
  8
0
  6
CONTINUOUS
 62
               3
  5
451
 10
561.61839969544712
 20
-1037.8243526245221
 30
0.0
 11
656.9546467371681
 21
-1037.8243526245221
 31
0.0
  0
ARC
  8
0
  6
CONTINUOUS
 62
               3
  5
452
 10
621.7901348656892
 20
-1007.1179549969027
 30
0.0
 40
54.763804151667173
 50
141.3859176367296
 51
145.15009542084252
  0
ARC
  8
0
  6
CONTINUOUS
 62
               3
  5
453
 10
609.28652321630807
 20
-1015.8243526245217
 30
0.0
 40
51.5
 50
334.7109884732011
 51
410.95932736332554
  0
ARC
  8
0
  6
CONTINUOUS
 62
               3
  5
454
 10
609.28652321630807
 20
-1015.8243526245217
 30
0.0
 40
51.5
 50
129.04067263626098
 51
205.289011526385
  0
ARC
  8
0
  6
CONTINUOUS
 62
               3
  5
455
 10
609.28652321630807
 20
-1015.8243526245217
 30
0.0
 40
77.5
 50
104.9552483165629
 51
128.57288309093474
  0
ARC
  8
0
  6
CONTINUOUS
 62
               3
  5
456
 10
609.28652321630807
 20
-1015.8243526245217
 30
0.0
 40
77.5
 50
14.95524831663182
 51
75.044751683299182
  0
ARC
  8
0
  6
CONTINUOUS
 62
               3
  5
457
 10
609.28652321630807
 20
-1015.8243526245217
 30
0.0
 40
77.5
 50
321.42711690871977
 51
345.04475168309216
  0
LINE
  8
0
  6
CONTINUOUS
 62
               3
  5
458
 10
469.28652321630807
 20
-1070.8243526245217
 30
0.0
 11
469.9580793422723
 21
-1070.8243526245217
 31
0.0
  0
LINE
  8
0
  6
CONTINUOUS
 62
               3
  5
459
 10
472.45807934227275
 20
-1073.3243526245217
 30
0.0
 11
469.9580793422723
 21
-1070.8243526245217
 31
0.0
  0
LINE
  8
0
  6
CONTINUOUS
 62
               3
  5
45A
 10
469.28652321630807
 20
-960.82435262452168
 30
0.0
 11
469.9580793422723
 21
-960.82435262452168
 31
0.0
  0
LINE
  8
0
  6
CONTINUOUS
 62
               3
  5
45B
 10
472.4580793422723
 20
-958.32435262452168
 30
0.0
 11
469.9580793422723
 21
-960.82435262452168
 31
0.0
  0
LINE
  8
0
  6
CONTINUOUS
 62
               3
  5
45C
 10
469.9580793422723
 20
-960.82435262452168
 30
0.0
 11
469.9580793422723
 21
-1070.8243526245217
 31
0.0
  0
LINE
  8
0
  6
CONTINUOUS
 62
               3
  5
45D
 10
563.79618742993011
 20
-955.13475560618008
 30
0.0
 11
472.4580793422723
 21
-958.32435262452168
 31
0.0
  0
LINE
  8
0
  6
CONTINUOUS
 62
               3
  5
45E
 10
544.45005149975714
 20
-1075.8383676894894
 30
0.0
 11
472.45807934227287
 21
-1073.3243526245217
 31
0.0
  0
LINE
  8
0
  6
CONTINUOUS
 62
               3
  5
45F
 10
464.28652321630807
 20
-960.9959087504858
 30
0.0
 11
464.28652321630807
 21
-1070.9243526245218
 31
0.0
  0
LINE
  8
0
  6
CONTINUOUS
 62
               3
  5
460
 10
469.28652321630807
 20
-1073.4243526245218
 30
0.0
 11
469.28652321630807
 21
-958.22435262452166
 31
0.0
  0
LINE
  8
0
  6
CONTINUOUS
 62
               3
  5
461
 10
469.28652321630807
 20
-958.22435262452166
 30
0.0
 11
466.78652321630807
 21
-958.22435262452166
 31
0.0
  0
LINE
  8
0
  6
CONTINUOUS
 62
               3
  5
462
 10
469.28652321630807
 20
-1073.4243526245218
 30
0.0
 11
466.78652321630807
 21
-1073.4243526245218
 31
0.0
  0
ARC
  8
0
  6
CONTINUOUS
 62
               3
  5
463
 10
466.78652321630807
 20
-1070.9243526245218
 30
0.0
 40
2.5
 50
179.9999999998615
 51
269.99999999979229
  0
ARC
  8
0
  6
CONTINUOUS
 62
               3
  5
464
 10
466.78652321630807
 20
-960.72435262452166
 30
0.0
 40
2.5
 50
89.999999999932058
 51
179.9999999998615
  0
LINE
  8
0
  6
CONTINUOUS
 62
               3
  5
465
 10
576.84812004969058
 20
-975.82435262452191
 30
0.0
 11
609.28652321630807
 21
-975.82435262452191
 31
0.0
  0
LINE
  8
0
  6
CONTINUOUS
 62
               3
  5
466
 10
609.28652321630807
 20
-975.82435262452191
 30
0.0
 11
643.29019948814675
 21
-975.82435262452191
 31
0.0
  0
LINE
  8
0
  6
CONTINUOUS
 62
               3
  5
467
 10
472.45807934227275
 20
-1073.3243526245217
 30
0.0
 11
472.4580793422723
 21
-958.32435262452168
 31
0.0
  0
ARC
  8
0
  6
CONTINUOUS
 62
               3
  5
468
 10
563.62168994641775
 20
-950.13780147108457
 30
0.0
 40
5.0
 50
271.9999999997919
 51
304.80675787019305
  0
LINE
  8
0
  6
CONTINUOUS
 62
               3
  5
469
 10
664.28652321630807
 20
-1155.8243526245215
 30
0.0
 11
664.28652321630807
 21
-1155.1527964985571
 31
0.0
  0
LINE
  8
0
  6
CONTINUOUS
 62
               3
  5
46A
 10
666.78652321630807
 20
-1152.6527964985567
 30
0.0
 11
664.28652321630807
 21
-1155.1527964985571
 31
0.0
  0
LINE
  8
0
  6
CONTINUOUS
 62
               3
  5
46B
 10
554.28652321630807
 20
-1155.8243526245215
 30
0.0
 11
554.28652321630807
 21
-1155.1527964985571
 31
0.0
  0
LINE
  8
0
  6
CONTINUOUS
 62
               3
  5
46C
 10
551.78652321630807
 20
-1152.6527964985571
 30
0.0
 11
554.28652321630807
 21
-1155.1527964985571
 31
0.0
  0
LINE
  8
0
  6
CONTINUOUS
 62
               3
  5
46D
 10
554.28652321630807
 20
-1155.1527964985571
 30
0.0
 11
664.28652321630807
 21
-1155.1527964985571
 31
0.0
  0
LINE
  8
0
  6
CONTINUOUS
 62
               3
  5
46E
 10
554.45807934227219
 20
-1160.8243526245215
 30
0.0
 11
664.38652321630798
 21
-1160.8243526245215
 31
0.0
  0
LINE
  8
0
  6
CONTINUOUS
 62
               3
  5
46F
 10
666.88652321630798
 20
-1155.8243526245215
 30
0.0
 11
551.68652321630793
 21
-1155.8243526245215
 31
0.0
  0
LINE
  8
0
  6
CONTINUOUS
 62
               3
  5
470
 10
551.68652321630793
 20
-1155.8243526245215
 30
0.0
 11
551.68652321630793
 21
-1158.3243526245215
 31
0.0
  0
LINE
  8
0
  6
CONTINUOUS
 62
               3
  5
471
 10
666.88652321630798
 20
-1155.8243526245215
 30
0.0
 11
666.88652321630798
 21
-1158.3243526245215
 31
0.0
  0
ARC
  8
0
  6
CONTINUOUS
 62
               3
  5
472
 10
664.38652321630798
 20
-1158.3243526245215
 30
0.0
 40
2.5
 50
269.99999999979354
 51
359.999999999723
  0
ARC
  8
0
  6
CONTINUOUS
 62
               3
  5
473
 10
554.18652321630793
 20
-1158.3243526245215
 30
0.0
 40
2.5
 50
179.99999999985891
 51
269.99999999979354
  0
LINE
  8
0
  6
CONTINUOUS
 62
               3
  5
474
 10
666.78652321630807
 20
-1152.6527964985567
 30
0.0
 11
551.78652321630807
 21
-1152.6527964985571
 31
0.0
  0
LINE
  8
0
  6
CONTINUOUS
 62
               3
  5
475
 10
669.97612023464922
 20
-1061.3146884109001
 30
0.0
 11
666.78652321630807
 21
-1152.6527964985567
 31
0.0
  0
ARC
  8
0
  6
CONTINUOUS
 62
               3
  5
476
 10
674.97307436974461
 20
-1061.4891858944127
 30
0.0
 40
5.0
 50
145.19324212946151
 51
177.99999999986429
  0
LINE
  8
0
  6
CONTINUOUS
 62
               3
  5
477
 10
549.27250815133993
 20
-1080.6608243410726
 30
0.0
 11
551.78652321630807
 21
-1152.6527964985571
 31
0.0
  0
ARC
  8
0
  6
CONTINUOUS
 62
               3
  5
478
 10
544.27555401624454
 20
-1080.8353218245848
 30
0.0
 40
5.0
 50
1.9999999999958187
 51
87.999999999932285
  0
LINE
  8
0
  6
CONTINUOUS
 62
               3
  5
479
 10
534.28652321630807
 20
-1324.323786373106
 30
0.0
 11
684.28652321630807
 21
-1324.323786373106
 31
0.0
  0
LINE
  8
0
  6
CONTINUOUS
 62
               3
  5
47A
 10
520.78652321630784
 20
-1334.323786373106
 30
0.0
 11
520.78652321630784
 21
-1341.3237863731056
 31
0.0
  0
LINE
  8
0
  6
CONTINUOUS
 62
               3
  5
47B
 10
520.78652321630784
 20
-1334.323786373106
 30
0.0
 11
534.28652321630807
 21
-1324.323786373106
 31
0.0
  0
ARC
  8
0
  6
CONTINUOUS
 62
               3
  5
47C
 10
532.2865232163083
 20
-1345.9063620680613
 30
0.0
 40
4.9999999999999991
 50
0.0
 51
66.421821521747205
  0
LINE
  8
0
  6
CONTINUOUS
 62
               3
  5
47D
 10
520.78652321630784
 20
-1341.3237863731056
 30
0.0
 11
697.78652321630784
 21
-1341.3237863731056
 31
0.0
  0
ARC
  8
0
  6
CONTINUOUS
 62
               3
  5
47E
 10
554.28652321630807
 20
-1431.323786373106
 30
0.0
 40
19.999999999999996
 50
148.2116693828344
 51
167.26981986155914
  0
LINE
  8
0
  6
CONTINUOUS
 62
               3
  5
47F
 10
537.2865232163083
 20
-1345.9063620680613
 30
0.0
 11
537.2865232163083
 21
-1420.7881326202532
 31
0.0
  0
LINE
  8
0
  6
CONTINUOUS
 62
               3
  5
480
 10
681.28652321630807
 20
-1415.7881326202528
 30
0.0
 11
681.28652321630807
 21
-1345.9063620680613
 31
0.0
  0
LINE
  8
0
  6
CONTINUOUS
 62
               3
  5
481
 10
537.2865232163083
 20
-1420.7881326202532
 30
0.0
 11
680.78652321630852
 21
-1420.7881326202532
 31
0.0
  0
LINE
  8
0
  6
CONTINUOUS
 62
               3
  5
482
 10
589.28652321630807
 20
-1341.3237863731056
 30
0.0
 11
589.28652321630807
 21
-1324.323786373106
 31
0.0
  0
LINE
  8
0
  6
CONTINUOUS
 62
               3
  5
483
 10
629.28652321630807
 20
-1324.323786373106
 30
0.0
 11
629.28652321630807
 21
-1341.3237863731056
 31
0.0
  0
LINE
  8
0
  6
CONTINUOUS
 62
               3
  5
484
 10
589.28652321630807
 20
-1334.323786373106
 30
0.0
 11
629.28652321630807
 21
-1334.323786373106
 31
0.0
  0
LINE
  8
0
  6
CONTINUOUS
 62
               3
  5
485
 10
537.00236174230281
 20
-1324.323786373106
 30
0.0
 11
537.00236174230281
 21
-1341.3237863731056
 31
0.0
  0
LINE
  8
0
  6
CONTINUOUS
 62
               3
  5
486
 10
523.07602501568283
 20
-1334.323786373106
 30
0.0
 11
523.07602501568283
 21
-1341.3237863731056
 31
0.0
  0
LINE
  8
0
  6
CONTINUOUS
 62
               3
  5
487
 10
520.78652321630784
 20
-1334.323786373106
 30
0.0
 11
523.07602501568283
 21
-1334.323786373106
 31
0.0
  0
LINE
  8
0
  6
CONTINUOUS
 62
               3
  5
488
 10
523.07602501568283
 20
-1334.323786373106
 30
0.0
 11
537.00236174230281
 21
-1324.323786373106
 31
0.0
  0
LINE
  8
0
  6
CONTINUOUS
 62
               3
  5
489
 10
697.78652321630784
 20
-1334.323786373106
 30
0.0
 11
697.78652321630784
 21
-1341.3237863731056
 31
0.0
  0
LINE
  8
0
  6
CONTINUOUS
 62
               3
  5
48A
 10
697.78652321630784
 20
-1334.323786373106
 30
0.0
 11
684.28652321630807
 21
-1324.323786373106
 31
0.0
  0
ARC
  8
0
  6
CONTINUOUS
 62
               3
  5
48B
 10
686.28652321630807
 20
-1345.9063620680613
 30
0.0
 40
4.9999999999999991
 50
113.5781784781135
 51
179.9999999998615
  0
LINE
  8
0
  6
CONTINUOUS
 62
               3
  5
48C
 10
681.57068469031242
 20
-1324.323786373106
 30
0.0
 11
681.57068469031242
 21
-1341.3237863731056
 31
0.0
  0
LINE
  8
0
  6
CONTINUOUS
 62
               3
  5
48D
 10
695.49702141693342
 20
-1334.323786373106
 30
0.0
 11
695.49702141693342
 21
-1341.3237863731056
 31
0.0
  0
LINE
  8
0
  6
CONTINUOUS
 62
               3
  5
48E
 10
697.78652321630784
 20
-1334.323786373106
 30
0.0
 11
695.49702141693342
 21
-1334.323786373106
 31
0.0
  0
LINE
  8
0
  6
CONTINUOUS
 62
               3
  5
48F
 10
695.49702141693342
 20
-1334.323786373106
 30
0.0
 11
681.57068469031242
 21
-1324.323786373106
 31
0.0
  0
ARC
  8
0
  6
CONTINUOUS
 62
               3
  5
490
 10
544.28652321630807
 20
-1552.823786373106
 30
0.0
 40
2.4999999999999996
 50
89.999999999929457
 51
269.99999999979354
  0
ARC
  8
0
  6
CONTINUOUS
 62
               3
  5
491
 10
684.28652321630807
 20
-1552.823786373106
 30
0.0
 40
2.4999999999999996
 50
269.99999999979354
 51
449.99999999965507
  0
LINE
  8
0
  6
CONTINUOUS
 62
               3
  5
492
 10
469.28652321630807
 20
-1545.323786373106
 30
0.0
 11
469.95807934227241
 21
-1545.323786373106
 31
0.0
  0
LINE
  8
0
  6
CONTINUOUS
 62
               3
  5
493
 10
472.45807934227253
 20
-1547.8237863731051
 30
0.0
 11
469.95807934227241
 21
-1545.323786373106
 31
0.0
  0
LINE
  8
0
  6
CONTINUOUS
 62
               3
  5
494
 10
472.45807934227332
 20
-1547.823786373106
 30
0.0
 11
514.62318959855065
 21
-1549.2962244689602
 31
0.0
  0
LINE
  8
0
  6
CONTINUOUS
 62
               3
  5
495
 10
532.82205712224072
 20
-1565.5954757993918
 30
0.0
 11
517.98422602097082
 21
-1550.7576446981225
 31
0.0
  0
ARC
  8
0
  6
CONTINUOUS
 62
               3
  5
496
 10
529.28652321630807
 20
-1569.1310097053251
 30
0.0
 40
4.9999999999999991
 50
0.0
 51
44.999999999964892
  0
LINE
  8
0
  6
CONTINUOUS
 62
               3
  5
497
 10
469.28652321630807
 20
-1435.323786373106
 30
0.0
 11
469.95807934227241
 21
-1435.323786373106
 31
0.0
  0
LINE
  8
0
  6
CONTINUOUS
 62
               3
  5
498
 10
472.45807934227253
 20
-1432.823786373106
 30
0.0
 11
469.95807934227241
 21
-1435.323786373106
 31
0.0
  0
LINE
  8
0
  6
CONTINUOUS
 62
               3
  5
499
 10
472.45807934227241
 20
-1432.823786373106
 30
0.0
 11
530.07555554444684
 21
-1430.8117397679534
 31
0.0
  0
LINE
  8
0
  6
CONTINUOUS
 62
               3
  5
49A
 10
469.95807934227241
 20
-1435.323786373106
 30
0.0
 11
469.95807934227241
 21
-1545.323786373106
 31
0.0
  0
LINE
  8
0
  6
CONTINUOUS
 62
               3
  5
49B
 10
469.28652321630807
 20
-1547.9237863731059
 30
0.0
 11
469.28652321630807
 21
-1432.7237863731061
 31
0.0
  0
LINE
  8
0
  6
CONTINUOUS
 62
               3
  5
49C
 10
469.28652321630807
 20
-1432.7237863731061
 30
0.0
 11
466.78652321630807
 21
-1432.7237863731061
 31
0.0
  0
ARC
  8
0
  6
CONTINUOUS
 62
               3
  5
49D
 10
466.78652321630807
 20
-1435.2237863731061
 30
0.0
 40
2.5
 50
89.999999999932058
 51
179.99999999985891
  0
LINE
  8
0
  6
CONTINUOUS
 62
               3
  5
49E
 10
464.28652321630807
 20
-1435.2237863731061
 30
0.0
 11
464.28652321630807
 21
-1545.4237863731059
 31
0.0
  0
LINE
  8
0
  6
CONTINUOUS
 62
               3
  5
49F
 10
469.28652321630807
 20
-1547.9237863731059
 30
0.0
 11
466.78652321630807
 21
-1547.9237863731059
 31
0.0
  0
ARC
  8
0
  6
CONTINUOUS
 62
               3
  5
4A0
 10
466.78652321630807
 20
-1545.4237863731059
 30
0.0
 40
2.5
 50
179.99999999985891
 51
269.99999999979229
  0
LINE
  8
0
  6
CONTINUOUS
 62
               3
  5
4A1
 10
472.45807934227253
 20
-1432.823786373106
 30
0.0
 11
472.45807934227332
 21
-1547.823786373106
 31
0.0
  0
ARC
  8
0
  6
CONTINUOUS
 62
               3
  5
4A2
 10
514.44869211503817
 20
-1554.2931786040554
 30
0.0
 40
5.0
 50
44.999999999968587
 51
87.999999999932243
  0
ARC
  8
0
  6
CONTINUOUS
 62
               3
  5
4A3
 10
529.90105806093425
 20
-1425.8147856328583
 30
0.0
 40
5.0
 50
271.9999999997919
 51
347.26981986141988
  0
CIRCLE
  8
0
  6
CONTINUOUS
 62
               3
  5
4A4
 10
609.28652321630807
 20
-1490.323786373106
 30
0.0
 40
48.5
  0
CIRCLE
  8
0
  6
CONTINUOUS
 62
               3
  5
4A5
 10
609.28652321630807
 20
-1490.323786373106
 30
0.0
 40
47.299999999999997
  0
LINE
  8
0
  6
CONTINUOUS
 62
               3
  5
4A6
 10
577.46671806291351
 20
-1522.1435915265006
 30
0.0
 11
575.84037246618436
 21
-1523.7699371232297
 31
0.0
  0
LINE
  8
0
  6
CONTINUOUS
 62
               3
  5
4A7
 10
641.10632836970285
 20
-1522.1435915265006
 30
0.0
 11
642.73267396643178
 21
-1523.7699371232297
 31
0.0
  0
ARC
  8
0
  6
CONTINUOUS
 62
               3
  5
4A8
 10
609.28652321630807
 20
-1490.323786373106
 30
0.0
 40
45.0
 50
224.99999999982745
 51
314.99999999975864
  0
CIRCLE
  8
0
  6
CONTINUOUS
 62
               3
  5
4A9
 10
609.28652321630807
 20
-1490.323786373106
 30
0.0
 40
57.600000000000001
  0
ARC
  8
0
  6
CONTINUOUS
 62
               3
  5
4AA
 10
586.78652321630875
 20
-1552.823786373106
 30
0.0
 40
2.4999999999999996
 50
269.99999999979354
 51
449.99999999965507
  0
ARC
  8
0
  6
CONTINUOUS
 62
               3
  5
4AB
 10
631.78652321630875
 20
-1552.823786373106
 30
0.0
 40
2.4999999999999996
 50
89.999999999929457
 51
269.99999999979354
  0
LINE
  8
0
  6
CONTINUOUS
 62
               3
  5
4AC
 10
544.28652321630807
 20
-1555.323786373106
 30
0.0
 11
586.78652321630875
 21
-1555.323786373106
 31
0.0
  0
LINE
  8
0
  6
CONTINUOUS
 62
               3
  5
4AD
 10
544.28652321630807
 20
-1550.323786373106
 30
0.0
 11
586.78652321630875
 21
-1550.323786373106
 31
0.0
  0
LINE
  8
0
  6
CONTINUOUS
 62
               3
  5
4AE
 10
631.78652321630875
 20
-1550.323786373106
 30
0.0
 11
684.28652321630807
 21
-1550.323786373106
 31
0.0
  0
LINE
  8
0
  6
CONTINUOUS
 62
               3
  5
4AF
 10
631.78652321630875
 20
-1555.323786373106
 30
0.0
 11
684.28652321630807
 21
-1555.323786373106
 31
0.0
  0
CIRCLE
  8
0
  6
CONTINUOUS
 62
               3
  5
4B0
 10
609.28652321630807
 20
-1015.8243526245217
 30
0.0
 40
59.0
  0
POINT
  8
0
  6
DASHDOT
 62
               5
  5
4B1
 10
500.00000000000017
 20
128.36059271512238
 30
0.0
  0
POINT
  8
0
  6
CONTINUOUS
 62
               5
  5
4B2
 10
-392.13776905046848
 20
-1073.5087881963127
 30
0.0
  0
POINT
  8
0
  6
CONTINUOUS
 62
               5
  5
4B3
 10
-218.90769754050814
 20
-1074.7995822712016
 30
0.0
  0
POINT
  8
0
  6
CONTINUOUS
 62
               5
  5
4B4
 10
-565.3678405604287
 20
-1074.7995822712014
 30
0.0
  0
POINT
  8
0
  6
CONTINUOUS
 62
               5
  5
4B5
 10
-395.37452052112405
 20
-892.81083261731737
 30
0.0
  0
POINT
  8
0
  6
CONTINUOUS
 62
               5
  5
4B6
 10
493.01659472626841
 20
-1491.6145804479947
 30
0.0
  0
POINT
  8
0
  6
CONTINUOUS
 62
               5
  5
4B7
 10
493.01659472626852
 20
-1014.5335585496325
 30
0.0
  0
LINE
  8
LAYER001
  6
CONTINUOUS
 62
               3
  5
4B8
 10
-60.269964753300684
 20
-331.63940728487762
 30
0.0
 11
-60.269964753300684
 21
-346.63940728487762
 31
0.0
  0
LINE
  8
LAYER001
  6
CONTINUOUS
 62
               3
  5
4B9
 10
60.269964753301082
 20
-331.63940728487762
 30
0.0
 11
60.269964753301082
 21
-346.63940728487762
 31
0.0
  0
LINE
  8
LAYER001
  6
CONTINUOUS
 62
               3
  5
4BA
 10
-439.73003524669895
 20
-331.7149687545496
 30
0.0
 11
-439.73003524669895
 21
-346.7149687545496
 31
0.0
  0
LINE
  8
LAYER001
  6
CONTINUOUS
 62
               3
  5
4BB
 10
-560.26996475330066
 20
-331.7149687545496
 30
0.0
 11
-560.26996475330066
 21
-346.7149687545496
 31
0.0
  0
LINE
  8
LAYER001
  6
CONTINUOUS
 62
               3
  5
4BC
 10
560.26996475330111
 20
-331.7149687545496
 30
0.0
 11
560.26996475330111
 21
-346.7149687545496
 31
0.0
  0
LINE
  8
LAYER001
  6
CONTINUOUS
 62
               3
  5
4BD
 10
439.73003524669929
 20
-331.7149687545496
 30
0.0
 11
439.73003524669929
 21
-346.7149687545496
 31
0.0
  0
CIRCLE
  8
0
  6
CONTINUOUS
 62
               7
  5
4BE
 10
-392.13776905046848
 20
-1080.0087881963127
 30
0.0
 40
38.0
  0
CIRCLE
  8
0
  6
CONTINUOUS
 62
               7
  5
4BF
 10
-392.13776905046848
 20
-1080.0087881963127
 30
0.0
 40
33.5
  0
LINE
  8
0
  6
CONTINUOUS
 62
               7
  5
4C0
 10
-247.63776905046848
 20
-1029.0087881963127
 30
0.0
 11
-247.63776905046848
 21
-1118.0035520756383
 31
0.0
  0
LINE
  8
0
  6
CONTINUOUS
 62
               7
  5
4C1
 10
-247.03776905046846
 20
-1029.0087881963127
 30
0.0
 11
-247.63776905046848
 21
-1029.0087881963127
 31
0.0
  0
LINE
  8
0
  6
CONTINUOUS
 62
               7
  5
4C2
 10
-282.63776905046848
 20
-1117.0087881963127
 30
0.0
 11
-282.63776905046848
 21
-1043.0087881963127
 31
0.0
  0
LINE
  8
0
  6
CONTINUOUS
 62
               7
  5
4C3
 10
-189.63776905046848
 20
-1117.0087881963127
 30
0.0
 11
-189.63776905046848
 21
-1030.0087881963127
 31
0.0
  0
LINE
  8
0
  6
CONTINUOUS
 62
               7
  5
4C4
 10
-247.63776905046848
 20
-1029.0087881963127
 30
0.0
 11
-190.63776905046848
 21
-1029.0087881963127
 31
0.0
  0
LINE
  8
0
  6
CONTINUOUS
 62
               7
  5
4C5
 10
-281.63776905046848
 20
-1118.0087881963127
 30
0.0
 11
-190.63776905046848
 21
-1118.0087881963127
 31
0.0
  0
LINE
  8
0
  6
CONTINUOUS
 62
               7
  5
4C6
 10
-190.63776905046848
 20
-1029.0087881963127
 30
0.0
 11
-189.63776905046848
 21
-1030.0087881963127
 31
0.0
  0
LINE
  8
0
  6
CONTINUOUS
 62
               7
  5
4C7
 10
-189.63776905046848
 20
-1117.0087881963127
 30
0.0
 11
-190.63776905046848
 21
-1118.0087881963127
 31
0.0
  0
LINE
  8
0
  6
CONTINUOUS
 62
               7
  5
4C8
 10
-281.63776905046848
 20
-1042.0087881963127
 30
0.0
 11
-247.63776905046848
 21
-1042.0087881963127
 31
0.0
  0
CIRCLE
  8
0
  6
CONTINUOUS
 62
               7
  5
4C9
 10
-392.13776905046848
 20
-1073.5087881963127
 30
0.0
 40
44.5
  0
LINE
  8
0
  6
CONTINUOUS
 62
               7
  5
4CA
 10
-281.63776905046848
 20
-1042.0087881963127
 30
0.0
 11
-282.63776905046848
 21
-1043.0087881963127
 31
0.0
  0
LINE
  8
0
  6
CONTINUOUS
 62
               7
  5
4CB
 10
-282.63776905046848
 20
-1117.0087881963127
 30
0.0
 11
-281.63776905046848
 21
-1118.0087881963127
 31
0.0
  0
LINE
  8
0
  6
CONTINUOUS
 62
               7
  5
4CC
 10
-536.63776905046825
 20
-1029.0087881963125
 30
0.0
 11
-536.63776905046848
 21
-1118.003552075638
 31
0.0
  0
LINE
  8
0
  6
CONTINUOUS
 62
               7
  5
4CD
 10
-537.23776905046839
 20
-1029.0087881963125
 30
0.0
 11
-536.63776905046825
 21
-1029.0087881963125
 31
0.0
  0
LINE
  8
0
  6
CONTINUOUS
 62
               7
  5
4CE
 10
-501.63776905046853
 20
-1117.0087881963125
 30
0.0
 11
-501.63776905046831
 21
-1043.0087881963125
 31
0.0
  0
LINE
  8
0
  6
CONTINUOUS
 62
               7
  5
4CF
 10
-594.63776905046848
 20
-1117.0087881963125
 30
0.0
 11
-594.63776905046825
 21
-1030.0087881963125
 31
0.0
  0
LINE
  8
0
  6
CONTINUOUS
 62
               7
  5
4D0
 10
-536.63776905046825
 20
-1029.0087881963125
 30
0.0
 11
-593.63776905046825
 21
-1029.0087881963125
 31
0.0
  0
LINE
  8
0
  6
CONTINUOUS
 62
               7
  5
4D1
 10
-502.63776905046853
 20
-1118.0087881963125
 30
0.0
 11
-593.63776905046848
 21
-1118.0087881963125
 31
0.0
  0
LINE
  8
0
  6
CONTINUOUS
 62
               7
  5
4D2
 10
-593.63776905046825
 20
-1029.0087881963125
 30
0.0
 11
-594.63776905046825
 21
-1030.0087881963125
 31
0.0
  0
LINE
  8
0
  6
CONTINUOUS
 62
               7
  5
4D3
 10
-594.63776905046848
 20
-1117.0087881963125
 30
0.0
 11
-593.63776905046848
 21
-1118.0087881963125
 31
0.0
  0
LINE
  8
0
  6
CONTINUOUS
 62
               7
  5
4D4
 10
-502.63776905046831
 20
-1042.0087881963125
 30
0.0
 11
-536.63776905046825
 21
-1042.0087881963125
 31
0.0
  0
LINE
  8
0
  6
CONTINUOUS
 62
               7
  5
4D5
 10
-502.63776905046831
 20
-1042.0087881963125
 30
0.0
 11
-501.63776905046831
 21
-1043.0087881963125
 31
0.0
  0
LINE
  8
0
  6
CONTINUOUS
 62
               7
  5
4D6
 10
-501.63776905046853
 20
-1117.0087881963125
 30
0.0
 11
-502.63776905046853
 21
-1118.0087881963125
 31
0.0
  0
LINE
  8
0
  6
CONTINUOUS
 62
               7
  5
4D7
 10
-349.583726446235
 20
-921.54090412727783
 30
0.0
 11
-438.57849032556055
 21
-921.5409041272776
 31
0.0
  0
LINE
  8
0
  6
CONTINUOUS
 62
               7
  5
4D8
 10
-349.583726446235
 20
-920.94090412727769
 30
0.0
 11
-349.583726446235
 21
-921.54090412727783
 31
0.0
  0
LINE
  8
0
  6
CONTINUOUS
 62
               7
  5
4D9
 10
-431.083726446235
 20
-956.5409041272776
 30
0.0
 11
-357.083726446235
 21
-956.54090412727783
 31
0.0
  0
LINE
  8
0
  6
CONTINUOUS
 62
               7
  5
4DA
 10
-437.58372644623489
 20
-863.5409041272776
 30
0.0
 11
-350.583726446235
 21
-863.54090412727783
 31
0.0
  0
LINE
  8
0
  6
CONTINUOUS
 62
               7
  5
4DB
 10
-349.583726446235
 20
-921.54090412727783
 30
0.0
 11
-349.583726446235
 21
-864.54090412727783
 31
0.0
  0
LINE
  8
0
  6
CONTINUOUS
 62
               7
  5
4DC
 10
-432.083726446235
 20
-955.5409041272776
 30
0.0
 11
-432.083726446235
 21
-921.5409041272776
 31
0.0
  0
LINE
  8
0
  6
CONTINUOUS
 62
               7
  5
4DD
 10
-349.583726446235
 20
-864.54090412727783
 30
0.0
 11
-350.583726446235
 21
-863.54090412727783
 31
0.0
  0
LINE
  8
0
  6
CONTINUOUS
 62
               7
  5
4DE
 10
-437.58372644623489
 20
-863.5409041272776
 30
0.0
 11
-438.58372644623489
 21
-864.5409041272776
 31
0.0
  0
LINE
  8
0
  6
CONTINUOUS
 62
               7
  5
4DF
 10
-356.083726446235
 20
-955.54090412727783
 30
0.0
 11
-356.083726446235
 21
-921.5409041272776
 31
0.0
  0
LINE
  8
0
  6
CONTINUOUS
 62
               7
  5
4E0
 10
-356.083726446235
 20
-955.54090412727783
 30
0.0
 11
-357.083726446235
 21
-956.54090412727783
 31
0.0
  0
LINE
  8
0
  6
CONTINUOUS
 62
               7
  5
4E1
 10
-431.083726446235
 20
-956.5409041272776
 30
0.0
 11
-432.083726446235
 21
-955.5409041272776
 31
0.0
  0
LINE
  8
0
  6
CONTINUOUS
 62
               7
  5
4E2
 10
-438.583726446235
 20
-921.5409041272776
 30
0.0
 11
-438.583726446235
 21
-864.5409041272776
 31
0.0
  0
LINE
  8
0
  6
CONTINUOUS
 62
               7
  5
4E3
 10
216.6339236858812
 20
-1117.0087881963127
 30
0.0
 11
216.6339236858812
 21
-1059.0087881963127
 31
0.0
  0
LINE
  8
0
  6
CONTINUOUS
 62
               7
  5
4E4
 10
242.23392368588111
 20
-1029.0087881963127
 30
0.0
 11
242.23392368588111
 21
-1118.0087881963127
 31
0.0
  0
LINE
  8
0
  6
CONTINUOUS
 62
               7
  5
4E5
 10
242.83392368588125
 20
-1029.0087881963127
 30
0.0
 11
242.23392368588111
 21
-1029.0087881963127
 31
0.0
  0
LINE
  8
0
  6
CONTINUOUS
 62
               7
  5
4E6
 10
300.23392368588134
 20
-1117.0087881963127
 30
0.0
 11
300.23392368588134
 21
-1030.0087881963127
 31
0.0
  0
CIRCLE
  8
0
  6
CONTINUOUS
 62
               7
  5
4E7
 10
120.87790746063821
 20
-1088.0087881963127
 30
0.0
 40
30.0
  0
CIRCLE
  8
0
  6
CONTINUOUS
 62
               7
  5
4E8
 10
120.87790746063821
 20
-1088.0087881963127
 30
0.0
 40
25.5
  0
CIRCLE
  8
0
  6
CONTINUOUS
 62
               7
  5
4E9
 10
120.87790746063821
 20
-1073.5087881963127
 30
0.0
 40
44.5
  0
LINE
  8
0
  6
CONTINUOUS
 62
               7
  5
4EA
 10
242.36837543136153
 20
-1029.0087881963127
 30
0.0
 11
299.23392368588134
 21
-1029.0087881963127
 31
0.0
  0
LINE
  8
0
  6
CONTINUOUS
 62
               7
  5
4EB
 10
217.6339236858812
 20
-1118.0087881963127
 30
0.0
 11
299.23392368588134
 21
-1118.0087881963127
 31
0.0
  0
LINE
  8
0
  6
CONTINUOUS
 62
               7
  5
4EC
 10
217.6339236858812
 20
-1058.0087881963127
 30
0.0
 11
242.23392368588111
 21
-1058.0087881963127
 31
0.0
  0
LINE
  8
0
  6
CONTINUOUS
 62
               7
  5
4ED
 10
217.6339236858812
 20
-1058.0087881963127
 30
0.0
 11
216.6339236858812
 21
-1059.0087881963127
 31
0.0
  0
LINE
  8
0
  6
CONTINUOUS
 62
               7
  5
4EE
 10
299.23392368588134
 20
-1029.0087881963127
 30
0.0
 11
300.23392368588134
 21
-1030.0087881963127
 31
0.0
  0
LINE
  8
0
  6
CONTINUOUS
 62
               7
  5
4EF
 10
216.6339236858812
 20
-1117.0087881963127
 30
0.0
 11
217.6339236858812
 21
-1118.0087881963127
 31
0.0
  0
LINE
  8
0
  6
CONTINUOUS
 62
               7
  5
4F0
 10
300.23392368588134
 20
-1117.0087881963127
 30
0.0
 11
299.23392368588134
 21
-1118.0087881963127
 31
0.0
  0
LINE
  8
0
  6
CONTINUOUS
 62
               7
  5
4F1
 10
25.121891235395438
 20
-1117.0087881963127
 30
0.0
 11
25.121891235395438
 21
-1059.0087881963127
 31
0.0
  0
LINE
  8
0
  6
CONTINUOUS
 62
               7
  5
4F2
 10
-0.4781087646045847
 20
-1029.0087881963127
 30
0.0
 11
-0.4781087646045847
 21
-1118.0087881963127
 31
0.0
  0
LINE
  8
0
  6
CONTINUOUS
 62
               7
  5
4F3
 10
-1.0781087646046075
 20
-1029.0087881963127
 30
0.0
 11
-0.4781087646045847
 21
-1029.0087881963127
 31
0.0
  0
LINE
  8
0
  6
CONTINUOUS
 62
               7
  5
4F4
 10
-58.478108764604585
 20
-1117.0087881963127
 30
0.0
 11
-58.478108764604585
 21
-1030.0087881963127
 31
0.0
  0
LINE
  8
0
  6
CONTINUOUS
 62
               7
  5
4F5
 10
-0.6125605100848901
 20
-1029.0087881963127
 30
0.0
 11
-57.478108764604585
 21
-1029.0087881963127
 31
0.0
  0
LINE
  8
0
  6
CONTINUOUS
 62
               7
  5
4F6
 10
24.121891235395438
 20
-1118.0087881963127
 30
0.0
 11
-57.478108764604585
 21
-1118.0087881963127
 31
0.0
  0
LINE
  8
0
  6
CONTINUOUS
 62
               7
  5
4F7
 10
24.121891235395438
 20
-1058.0087881963127
 30
0.0
 11
-0.4781087646045847
 21
-1058.0087881963127
 31
0.0
  0
LINE
  8
0
  6
CONTINUOUS
 62
               7
  5
4F8
 10
24.121891235395438
 20
-1058.0087881963127
 30
0.0
 11
25.121891235395438
 21
-1059.0087881963127
 31
0.0
  0
LINE
  8
0
  6
CONTINUOUS
 62
               7
  5
4F9
 10
-57.478108764604585
 20
-1029.0087881963127
 30
0.0
 11
-58.478108764604585
 21
-1030.0087881963127
 31
0.0
  0
LINE
  8
0
  6
CONTINUOUS
 62
               7
  5
4FA
 10
25.121891235395438
 20
-1117.0087881963127
 30
0.0
 11
24.121891235395438
 21
-1118.0087881963127
 31
0.0
  0
LINE
  8
0
  6
CONTINUOUS
 62
               7
  5
4FB
 10
-58.478108764604585
 20
-1117.0087881963127
 30
0.0
 11
-57.478108764604585
 21
-1118.0087881963127
 31
0.0
  0
LINE
  8
0
  6
CONTINUOUS
 62
               7
  5
4FC
 10
91.87790746063844
 20
-967.25277197106993
 30
0.0
 11
149.87790746063843
 21
-967.25277197106993
 31
0.0
  0
LINE
  8
0
  6
CONTINUOUS
 62
               7
  5
4FD
 10
165.37790746063843
 20
-941.6527719710698
 30
0.0
 11
76.37790746063844
 21
-941.6527719710698
 31
0.0
  0
LINE
  8
0
  6
CONTINUOUS
 62
               7
  5
4FE
 10
165.37790746063843
 20
-941.05277197106989
 30
0.0
 11
165.37790746063843
 21
-941.6527719710698
 31
0.0
  0
LINE
  8
0
  6
CONTINUOUS
 62
               7
  5
4FF
 10
77.37790746063844
 20
-883.6527719710698
 30
0.0
 11
164.37790746063843
 21
-883.6527719710698
 31
0.0
  0
LINE
  8
0
  6
CONTINUOUS
 62
               7
  5
500
 10
165.37790746063843
 20
-941.5183202255896
 30
0.0
 11
165.37790746063843
 21
-884.6527719710698
 31
0.0
  0
LINE
  8
0
  6
CONTINUOUS
 62
               7
  5
501
 10
90.87790746063844
 20
-966.25277197106993
 30
0.0
 11
90.87790746063844
 21
-941.6527719710698
 31
0.0
  0
LINE
  8
0
  6
CONTINUOUS
 62
               7
  5
502
 10
150.87790746063843
 20
-966.25277197106993
 30
0.0
 11
150.87790746063843
 21
-941.6527719710698
 31
0.0
  0
LINE
  8
0
  6
CONTINUOUS
 62
               7
  5
503
 10
150.87790746063843
 20
-966.25277197106993
 30
0.0
 11
149.87790746063843
 21
-967.25277197106993
 31
0.0
  0
LINE
  8
0
  6
CONTINUOUS
 62
               7
  5
504
 10
165.37790746063843
 20
-884.6527719710698
 30
0.0
 11
164.37790746063843
 21
-883.6527719710698
 31
0.0
  0
LINE
  8
0
  6
CONTINUOUS
 62
               7
  5
505
 10
91.87790746063844
 20
-967.25277197106993
 30
0.0
 11
90.87790746063844
 21
-966.25277197106993
 31
0.0
  0
LINE
  8
0
  6
CONTINUOUS
 62
               7
  5
506
 10
77.37790746063844
 20
-883.6527719710698
 30
0.0
 11
76.37790746063844
 21
-884.6527719710698
 31
0.0
  0
LINE
  8
0
  6
CONTINUOUS
 62
               7
  5
507
 10
76.37790746063844
 20
-941.51832022558938
 30
0.0
 11
76.37790746063844
 21
-884.6527719710698
 31
0.0
  0
CIRCLE
  8
0
  6
CONTINUOUS
 62
               7
  5
508
 10
609.28652321630807
 20
-1504.823786373106
 30
0.0
 40
25.5
  0
CIRCLE
  8
0
  6
CONTINUOUS
 62
               7
  5
509
 10
609.28652321630807
 20
-1490.323786373106
 30
0.0
 40
44.5
  0
CIRCLE
  8
0
  6
CONTINUOUS
 62
               7
  5
50A
 10
609.28652321630807
 20
-1504.823786373106
 30
0.0
 40
30.0
  0
LINE
  8
0
  6
CONTINUOUS
 62
               7
  5
50B
 10
580.28652321630807
 20
-1186.4243526245214
 30
0.0
 11
638.28652321630807
 21
-1186.4243526245214
 31
0.0
  0
LINE
  8
0
  6
CONTINUOUS
 62
               7
  5
50C
 10
653.78652321630807
 20
-1160.8243526245215
 30
0.0
 11
564.78652321630807
 21
-1160.8243526245215
 31
0.0
  0
LINE
  8
0
  6
CONTINUOUS
 62
               7
  5
50D
 10
653.78652321630807
 20
-1160.2243526245215
 30
0.0
 11
653.78652321630807
 21
-1160.8243526245215
 31
0.0
  0
LINE
  8
0
  6
CONTINUOUS
 62
               7
  5
50E
 10
565.78652321630807
 20
-1102.8243526245215
 30
0.0
 11
652.78652321630807
 21
-1102.8243526245215
 31
0.0
  0
LINE
  8
0
  6
CONTINUOUS
 62
               7
  5
50F
 10
653.78652321630807
 20
-1160.689900879041
 30
0.0
 11
653.78652321630807
 21
-1103.8243526245215
 31
0.0
  0
LINE
  8
0
  6
CONTINUOUS
 62
               7
  5
510
 10
579.28652321630807
 20
-1185.4243526245214
 30
0.0
 11
579.28652321630807
 21
-1160.8243526245215
 31
0.0
  0
LINE
  8
0
  6
CONTINUOUS
 62
               7
  5
511
 10
639.28652321630807
 20
-1185.4243526245214
 30
0.0
 11
639.28652321630807
 21
-1160.8243526245215
 31
0.0
  0
LINE
  8
0
  6
CONTINUOUS
 62
               7
  5
512
 10
639.28652321630807
 20
-1185.4243526245214
 30
0.0
 11
638.28652321630807
 21
-1186.4243526245214
 31
0.0
  0
LINE
  8
0
  6
CONTINUOUS
 62
               7
  5
513
 10
653.78652321630807
 20
-1103.8243526245215
 30
0.0
 11
652.78652321630807
 21
-1102.8243526245215
 31
0.0
  0
LINE
  8
0
  6
CONTINUOUS
 62
               7
  5
514
 10
580.28652321630807
 20
-1186.4243526245214
 30
0.0
 11
579.28652321630807
 21
-1185.4243526245214
 31
0.0
  0
LINE
  8
0
  6
CONTINUOUS
 62
               7
  5
515
 10
565.78652321630807
 20
-1102.8243526245215
 30
0.0
 11
564.78652321630807
 21
-1103.8243526245215
 31
0.0
  0
LINE
  8
0
  6
CONTINUOUS
 62
               7
  5
516
 10
564.78652321630807
 20
-1160.689900879041
 30
0.0
 11
564.78652321630807
 21
-1103.8243526245215
 31
0.0
  0
LINE
  8
0
  6
CONTINUOUS
 62
               7
  5
517
 10
464.28652321630807
 20
-1445.823786373106
 30
0.0
 11
464.28652321630807
 21
-1534.8185502524316
 31
0.0
  0
LINE
  8
0
  6
CONTINUOUS
 62
               7
  5
518
 10
464.88652321630809
 20
-1445.823786373106
 30
0.0
 11
464.28652321630807
 21
-1445.823786373106
 31
0.0
  0
LINE
  8
0
  6
CONTINUOUS
 62
               7
  5
519
 10
429.28652321630807
 20
-1533.823786373106
 30
0.0
 11
429.28652321630807
 21
-1459.823786373106
 31
0.0
  0
LINE
  8
0
  6
CONTINUOUS
 62
               7
  5
51A
 10
522.28652321630807
 20
-1533.823786373106
 30
0.0
 11
522.28652321630807
 21
-1446.823786373106
 31
0.0
  0
LINE
  8
0
  6
CONTINUOUS
 62
               7
  5
51B
 10
464.28652321630807
 20
-1445.823786373106
 30
0.0
 11
521.28652321630807
 21
-1445.823786373106
 31
0.0
  0
LINE
  8
0
  6
CONTINUOUS
 62
               7
  5
51C
 10
430.28652321630807
 20
-1534.823786373106
 30
0.0
 11
521.28652321630807
 21
-1534.823786373106
 31
0.0
  0
LINE
  8
0
  6
CONTINUOUS
 62
               7
  5
51D
 10
521.28652321630807
 20
-1445.823786373106
 30
0.0
 11
522.28652321630807
 21
-1446.823786373106
 31
0.0
  0
LINE
  8
0
  6
CONTINUOUS
 62
               7
  5
51E
 10
522.28652321630807
 20
-1533.823786373106
 30
0.0
 11
521.28652321630807
 21
-1534.823786373106
 31
0.0
  0
LINE
  8
0
  6
CONTINUOUS
 62
               7
  5
51F
 10
430.28652321630807
 20
-1458.823786373106
 30
0.0
 11
464.28652321630807
 21
-1458.823786373106
 31
0.0
  0
LINE
  8
0
  6
CONTINUOUS
 62
               7
  5
520
 10
430.28652321630807
 20
-1458.823786373106
 30
0.0
 11
429.28652321630807
 21
-1459.823786373106
 31
0.0
  0
LINE
  8
0
  6
CONTINUOUS
 62
               7
  5
521
 10
429.28652321630807
 20
-1533.823786373106
 30
0.0
 11
430.28652321630807
 21
-1534.823786373106
 31
0.0
  0
LINE
  8
0
  6
CONTINUOUS
 62
               7
  5
522
 10
464.28652321630807
 20
-1060.3243526245215
 30
0.0
 11
464.2865232163083
 21
-971.32958874519591
 31
0.0
  0
LINE
  8
0
  6
CONTINUOUS
 62
               7
  5
523
 10
464.88652321630821
 20
-1060.3243526245215
 30
0.0
 11
464.28652321630807
 21
-1060.3243526245215
 31
0.0
  0
LINE
  8
0
  6
CONTINUOUS
 62
               7
  5
524
 10
429.2865232163083
 20
-978.82435262452145
 30
0.0
 11
429.28652321630807
 21
-1052.8243526245215
 31
0.0
  0
LINE
  8
0
  6
CONTINUOUS
 62
               7
  5
525
 10
522.2865232163083
 20
-972.32435262452168
 30
0.0
 11
522.28652321630807
 21
-1059.3243526245215
 31
0.0
  0
LINE
  8
0
  6
CONTINUOUS
 62
               7
  5
526
 10
464.28652321630807
 20
-1060.3243526245215
 30
0.0
 11
521.28652321630807
 21
-1060.3243526245215
 31
0.0
  0
LINE
  8
0
  6
CONTINUOUS
 62
               7
  5
527
 10
430.2865232163083
 20
-977.82435262452145
 30
0.0
 11
464.2865232163083
 21
-977.82435262452145
 31
0.0
  0
LINE
  8
0
  6
CONTINUOUS
 62
               7
  5
528
 10
521.28652321630807
 20
-1060.3243526245215
 30
0.0
 11
522.28652321630807
 21
-1059.3243526245215
 31
0.0
  0
LINE
  8
0
  6
CONTINUOUS
 62
               7
  5
529
 10
522.2865232163083
 20
-972.32435262452168
 30
0.0
 11
521.2865232163083
 21
-971.32435262452168
 31
0.0
  0
LINE
  8
0
  6
CONTINUOUS
 62
               7
  5
52A
 10
430.28652321630807
 20
-1053.8243526245215
 30
0.0
 11
464.2865232163083
 21
-1053.8243526245215
 31
0.0
  0
LINE
  8
0
  6
CONTINUOUS
 62
               7
  5
52B
 10
430.28652321630807
 20
-1053.8243526245215
 30
0.0
 11
429.28652321630807
 21
-1052.8243526245215
 31
0.0
  0
LINE
  8
0
  6
CONTINUOUS
 62
               7
  5
52C
 10
429.2865232163083
 20
-978.82435262452145
 30
0.0
 11
430.2865232163083
 21
-977.82435262452145
 31
0.0
  0
LINE
  8
0
  6
CONTINUOUS
 62
               7
  5
52D
 10
464.2865232163083
 20
-971.32435262452145
 30
0.0
 11
521.2865232163083
 21
-971.32435262452145
 31
0.0
  0
CIRCLE
  8
0
  6
DASHED
 62
               7
  5
52E
 10
-392.13776905046848
 20
-1073.5087881963127
 30
0.0
 40
40.0
  0
CIRCLE
  8
0
  6
DASHED
 62
               7
  5
52F
 10
120.87790746063821
 20
-1073.5087881963127
 30
0.0
 40
40.0
  0
CIRCLE
  8
0
  6
DASHED
 62
               7
  5
530
 10
609.28652321630807
 20
-1490.323786373106
 30
0.0
 40
40.0
  0
TEXT
  8
0
 62
               3
  5
531
 10
-392.13776905046848
 20
-1158.0087881963123
 30
0.0
 40
40.0
  1
EMB_80×65
 41
0.8
 72
               1
 11
-392.13776905046848
 21
-1158.0087881963123
 31
0.0
 73
               3
  0
TEXT
  8
0
 62
               3
  5
532
 10
120.87790746063821
 20
-1158.0087881963127
 30
0.0
 40
40.0
  1
EMB_80×50
 41
0.8
 72
               1
 11
120.87790746063821
 21
-1158.0087881963127
 31
0.0
 73
               3
  0
TEXT
  8
0
 62
               3
  5
533
 10
605.58911923866776
 20
-836.37798411930237
 30
0.0
 40
40.0
  1
EMB使用例
 41
0.8
 72
               1
 11
605.58911923866776
 21
-836.37798411930237
 31
0.0
 73
               3
  0
TEXT
  8
0
 62
               3
  5
534
 10
-123.74270409089065
 20
-782.01784821896285
 30
0.0
 40
35.0
  1
横枝管に呼び６５、５０の管を接続するときは、EMBをご使用ください。
 41
0.8
 72
               1
 11
-123.74270409089065
 21
-782.01784821896285
 31
0.0
 73
               3
  0
ENDSEC
  0
EOF
