  0
SECTION
  2
HEADER
  9
$ACADVER
  1
AC1009
  9
$INSBASE
 10
0.0
 20
0.0
 30
0.0
  9
$EXTMIN
 10
-745.95966558996815
 20
-837.26254328527102
 30
0.0
  9
$EXTMAX
 10
706.92033441003286
 20
881.9955414149515
 30
0.0
  9
$LIMMIN
 10
-791.36216558996819
 20
-890.98935843215293
  9
$LIMMAX
 10
752.3228344100329
 20
935.72235656183341
  9
$ORTHOMODE
 70
               0
  9
$REGENMODE
 70
               1
  9
$FILLMODE
 70
               1
  9
$QTEXTMODE
 70
               0
  9
$MIRRTEXT
 70
               1
  9
$DRAGMODE
 70
               2
  9
$LTSCALE
 40
1.0
  9
$OSMODE
 70
               0
  9
$ATTMODE
 70
               1
  9
$TEXTSIZE
 40
0.2
  9
$TRACEWID
 40
0.05
  9
$TEXTSTYLE
  7
STANDARD
  9
$CLAYER
  8
0
  9
$CELTYPE
  6
CONTINUOUS
  9
$CECOLOR
 62
             256
  9
$DIMSCALE
 40
1.0
  9
$DIMASZ
 40
0.18
  9
$DIMEXO
 40
0.0625
  9
$DIMDLI
 40
0.38
  9
$DIMRND
 40
0.0
  9
$DIMDLE
 40
0.0
  9
$DIMEXE
 40
0.18
  9
$DIMTP
 40
0.0
  9
$DIMTM
 40
0.0
  9
$DIMTXT
 40
0.18
  9
$DIMCEN
 40
0.09
  9
$DIMTSZ
 40
0.0
  9
$DIMTOL
 70
               0
  9
$DIMLIM
 70
               0
  9
$DIMTIH
 70
               1
  9
$DIMTOH
 70
               1
  9
$DIMSE1
 70
               0
  9
$DIMSE2
 70
               0
  9
$DIMTAD
 70
               0
  9
$DIMZIN
 70
               0
  9
$DIMBLK
  1

  9
$DIMASO
 70
               1
  9
$DIMSHO
 70
               1
  9
$DIMPOST
  1

  9
$DIMAPOST
  1

  9
$DIMALT
 70
               0
  9
$DIMALTD
 70
               2
  9
$DIMALTF
 40
25.399999999999999
  9
$DIMLFAC
 40
1.0
  9
$DIMTOFL
 70
               0
  9
$DIMTVP
 40
0.0
  9
$DIMTIX
 70
               0
  9
$DIMSOXD
 70
               0
  9
$DIMSAH
 70
               0
  9
$DIMBLK1
  1

  9
$DIMBLK2
  1

  9
$DIMSTYLE
  2
STANDARD
  9
$DIMCLRD
 70
               0
  9
$DIMCLRE
 70
               0
  9
$DIMCLRT
 70
               0
  9
$DIMTFAC
 40
1.0
  9
$DIMGAP
 40
0.09
  9
$LUNITS
 70
               2
  9
$LUPREC
 70
               4
  9
$AXISMODE
 70
               0
  9
$AXISUNIT
 10
0.0
 20
0.0
  9
$SKETCHINC
 40
0.1
  9
$FILLETRAD
 40
0.0
  9
$AUNITS
 70
               0
  9
$AUPREC
 70
               0
  9
$MENU
  1
acad
  9
$ELEVATION
 40
0.0
  9
$PELEVATION
 40
0.0
  9
$THICKNESS
 40
0.0
  9
$LIMCHECK
 70
               0
  9
$BLIPMODE
 70
               1
  9
$CHAMFERA
 40
0.0
  9
$CHAMFERB
 40
0.0
  9
$SKPOLY
 70
               0
  9
$TDCREATE
 40
0.000000000
  9
$TDUPDATE
 40
0.000000000
  9
$TDINDWG
 40
0.0000000000
  9
$TDUSRTIMER
 40
0.0000000000
  9
$USRTIMER
 70
               1
  9
$ANGBASE
 50
0.0
  9
$ANGDIR
 70
               0
  9
$PDMODE
 70
               0
  9
$PDSIZE
 40
1.0
  9
$PLINEWID
 40
0.0
  9
$COORDS
 70
               1
  9
$SPLFRAME
 70
               0
  9
$SPLINETYPE
 70
               6
  9
$SPLINESEGS
 70
               8
  9
$ATTDIA
 70
               0
  9
$ATTREQ
 70
               1
  9
$HANDLING
 70
               1
  9
$HANDSEED
  5
53C
  9
$SURFTAB1
 70
               6
  9
$SURFTAB2
 70
               6
  9
$SURFTYPE
 70
               6
  9
$SURFU
 70
               6
  9
$SURFV
 70
               6
  9
$UCSNAME
  2

  9
$UCSORG
 10
0.0
 20
0.0
 30
0.0
  9
$UCSXDIR
 10
1.0
 20
0.0
 30
0.0
  9
$UCSYDIR
 10
0.0
 20
1.0
 30
0.0
  9
$PUCSNAME
  2

  9
$PUCSORG
 10
0.0
 20
0.0
 30
0.0
  9
$PUCSXDIR
 10
1.0
 20
0.0
 30
0.0
  9
$PUCSYDIR
 10
0.0
 20
1.0
 30
0.0
  9
$USERI1
 70
               0
  9
$USERI2
 70
               0
  9
$USERI3
 70
               0
  9
$USERI4
 70
               0
  9
$USERI5
 70
               0
  9
$USERR1
 40
0.0
  9
$USERR2
 40
0.0
  9
$USERR3
 40
0.0
  9
$USERR4
 40
0.0
  9
$USERR5
 40
0.0
  9
$WORLDVIEW
 70
               1
  9
$SHADEDGE
 70
               3
  9
$SHADEDIF
 70
              70
  9
$TILEMODE
 70
               1
  9
$MAXACTVP
 70
              16
  9
$PINSBASE
 10
0.0
 20
0.0
 30
0.0
  9
$PLIMCHECK
 70
               0
  9
$PEXTMIN
 10
1.0000000000000000E+20
 20
1.0000000000000000E+20
 30
1.0000000000000000E+20
  9
$PEXTMAX
 10
-1.0000000000000000E+20
 20
-1.0000000000000000E+20
 30
-1.0000000000000000E+20
  9
$PLIMMIN
 10
0.0
 20
0.0
  9
$PLIMMAX
 10
12.0
 20
9.0
  9
$UNITMODE
 70
               0
  9
$VISRETAIN
 70
               0
  9
$PLINEGEN
 70
               1
  9
$PSLTSCALE
 70
               0
  9
$TREEDEPTH
 70
            3020
  9
$DWGCODEPAGE
  3
dos932
  0
ENDSEC
  0
SECTION
  2
TABLES
  0
TABLE
  2
VPORT
 70
               1
  0
VPORT
  2
*ACTIVE
 70
               0
 10
0.0
 20
0.0
 11
1.0
 21
1.0
 12
-19.519665589967644
 22
22.366499064840241
 13
0.0
 23
0.0
 14
1.0
 24
1.0
 15
0.0
 25
0.0
 16
0.0
 26
0.0
 36
1.0
 17
0.0
 27
0.0
 37
0.0
 40
1826.7117149939863
 41
0.8450621887017804
 42
50.0
 43
0.0
 44
0.0
 50
0.0
 51
0.0
 71
               0
 72
             100
 73
               1
 74
               1
 75
               0
 76
               0
 77
               0
 78
               0
  0
ENDTAB
  0
TABLE
  2
LTYPE
 70
              26
  0
LTYPE
  2
CONTINUOUS
 70
               0
  3
Solid line
 72
              65
 73
               0
 40
0.0
  0
LTYPE
  2
HIDDENX2
 70
               0
  3
CADPAC FUSION LINETYPE
 72
              65
 73
               2
 40
80.0
 49
60.0
 49
-20.0
  0
LTYPE
  2
HIDDEN
 70
               0
  3
CADPAC FUSION LINETYPE
 72
              65
 73
               2
 40
60.0
 49
40.0
 49
-20.0
  0
LTYPE
  2
HIDDEN2
 70
               0
  3
CADPAC FUSION LINETYPE
 72
              65
 73
               2
 40
50.0
 49
30.0
 49
-20.0
  0
LTYPE
  2
DASHED
 70
               0
  3
CADPAC FUSION LINETYPE
 72
              65
 73
               2
 40
60.0
 49
40.0
 49
-20.0
  0
LTYPE
  2
DASHED2
 70
               0
  3
CADPAC FUSION LINETYPE
 72
              65
 73
               2
 40
45.0
 49
30.0
 49
-15.0
  0
LTYPE
  2
DASHEDX2
 70
               0
  3
CADPAC FUSION LINETYPE
 72
              65
 73
               2
 40
90.0
 49
60.0
 49
-30.0
  0
LTYPE
  2
DOTX2
 70
               0
  3
CADPAC FUSION LINETYPE
 72
              65
 73
               2
 40
25.0
 49
0.0
 49
-25.0
  0
LTYPE
  2
DOT
 70
               0
  3
CADPAC FUSION LINETYPE
 72
              65
 73
               2
 40
20.0
 49
0.0
 49
-20.0
  0
LTYPE
  2
DOTS
 70
               0
  3
CADPAC FUSION LINETYPE
 72
              65
 73
               2
 40
20.0
 49
0.0
 49
-20.0
  0
LTYPE
  2
DOT2
 70
               0
  3
CADPAC FUSION LINETYPE
 72
              65
 73
               2
 40
15.0
 49
0.0
 49
-15.0
  0
LTYPE
  2
CENTERX2
 70
               0
  3
CADPAC FUSION LINETYPE
 72
              65
 73
               4
 40
120.0
 49
50.0
 49
-25.0
 49
20.0
 49
-25.0
  0
LTYPE
  2
CENTER
 70
               0
  3
CADPAC FUSION LINETYPE
 72
              65
 73
               4
 40
92.0
 49
40.0
 49
-20.0
 49
12.0
 49
-20.0
  0
LTYPE
  2
CENTER2
 70
               0
  3
CADPAC FUSION LINETYPE
 72
              65
 73
               4
 40
64.0
 49
30.0
 49
-15.0
 49
4.0
 49
-15.0
  0
LTYPE
  2
DASHDOTX2
 70
               0
  3
CADPAC FUSION LINETYPE
 72
              65
 73
               4
 40
100.0
 49
50.0
 49
-25.0
 49
0.0
 49
-25.0
  0
LTYPE
  2
DASHDOT
 70
               0
  3
CADPAC FUSION LINETYPE
 72
              65
 73
               4
 40
80.0
 49
40.0
 49
-20.0
 49
0.0
 49
-20.0
  0
LTYPE
  2
DASHDOT2
 70
               0
  3
CADPAC FUSION LINETYPE
 72
              65
 73
               4
 40
60.0
 49
30.0
 49
-15.0
 49
0.0
 49
-15.0
  0
LTYPE
  2
DIVIDEX2
 70
               0
  3
CADPAC FUSION LINETYPE
 72
              65
 73
               6
 40
125.0
 49
50.0
 49
-25.0
 49
0.0
 49
-25.0
 49
0.0
 49
-25.0
  0
LTYPE
  2
DIVIDE
 70
               0
  3
CADPAC FUSION LINETYPE
 72
              65
 73
               6
 40
100.0
 49
40.0
 49
-20.0
 49
0.0
 49
-20.0
 49
0.0
 49
-20.0
  0
LTYPE
  2
DIVIDE2
 70
               0
  3
CADPAC FUSION LINETYPE
 72
              65
 73
               6
 40
75.0
 49
30.0
 49
-15.0
 49
0.0
 49
-15.0
 49
0.0
 49
-15.0
  0
LTYPE
  2
BORDERX2
 70
               0
  3
CADPAC FUSION LINETYPE
 72
              65
 73
               6
 40
175.0
 49
50.0
 49
-25.0
 49
50.0
 49
-25.0
 49
0.0
 49
-25.0
  0
LTYPE
  2
BORDER
 70
               0
  3
CADPAC FUSION LINETYPE
 72
              65
 73
               6
 40
140.0
 49
40.0
 49
-20.0
 49
40.0
 49
-20.0
 49
0.0
 49
-20.0
  0
LTYPE
  2
BORDER2
 70
               0
  3
CADPAC FUSION LINETYPE
 72
              65
 73
               6
 40
105.0
 49
30.0
 49
-15.0
 49
30.0
 49
-15.0
 49
0.0
 49
-15.0
  0
LTYPE
  2
PHANTOMX2
 70
               0
  3
CADPAC FUSION LINETYPE
 72
              65
 73
               6
 40
150.0
 49
50.0
 49
-20.0
 49
20.0
 49
-20.0
 49
20.0
 49
-20.0
  0
LTYPE
  2
PHANTOM
 70
               0
  3
CADPAC FUSION LINETYPE
 72
              65
 73
               6
 40
124.0
 49
40.0
 49
-20.0
 49
12.0
 49
-20.0
 49
12.0
 49
-20.0
  0
LTYPE
  2
PHANTOM2
 70
               0
  3
CADPAC FUSION LINETYPE
 72
              65
 73
               6
 40
106.0
 49
30.0
 49
-20.0
 49
8.0
 49
-20.0
 49
8.0
 49
-20.0
  0
ENDTAB
  0
TABLE
  2
LAYER
 70
             256
  0
LAYER
  2
0
 70
               0
 62
               7
  6
CONTINUOUS
  0
LAYER
  2
LAYER001
 70
               0
 62
               7
  6
CONTINUOUS
  0
LAYER
  2
LAYER002
 70
               0
 62
               7
  6
CONTINUOUS
  0
LAYER
  2
LAYER003
 70
               0
 62
               7
  6
CONTINUOUS
  0
LAYER
  2
LAYER004
 70
               0
 62
               7
  6
CONTINUOUS
  0
LAYER
  2
LAYER005
 70
               0
 62
               7
  6
CONTINUOUS
  0
LAYER
  2
LAYER006
 70
               0
 62
               7
  6
CONTINUOUS
  0
LAYER
  2
LAYER007
 70
               0
 62
               7
  6
CONTINUOUS
  0
LAYER
  2
LAYER008
 70
               0
 62
               7
  6
CONTINUOUS
  0
LAYER
  2
LAYER009
 70
               0
 62
               7
  6
CONTINUOUS
  0
LAYER
  2
LAYER010
 70
               0
 62
               7
  6
CONTINUOUS
  0
LAYER
  2
LAYER011
 70
               0
 62
               7
  6
CONTINUOUS
  0
LAYER
  2
LAYER012
 70
               0
 62
               7
  6
CONTINUOUS
  0
LAYER
  2
LAYER013
 70
               0
 62
               7
  6
CONTINUOUS
  0
LAYER
  2
LAYER014
 70
               0
 62
               7
  6
CONTINUOUS
  0
LAYER
  2
LAYER015
 70
               0
 62
               7
  6
CONTINUOUS
  0
LAYER
  2
LAYER016
 70
               0
 62
               7
  6
CONTINUOUS
  0
LAYER
  2
LAYER017
 70
               0
 62
               7
  6
CONTINUOUS
  0
LAYER
  2
LAYER018
 70
               0
 62
               7
  6
CONTINUOUS
  0
LAYER
  2
LAYER019
 70
               0
 62
               7
  6
CONTINUOUS
  0
LAYER
  2
LAYER020
 70
               0
 62
               7
  6
CONTINUOUS
  0
LAYER
  2
LAYER021
 70
               0
 62
               7
  6
CONTINUOUS
  0
LAYER
  2
LAYER022
 70
               0
 62
               7
  6
CONTINUOUS
  0
LAYER
  2
LAYER023
 70
               0
 62
               7
  6
CONTINUOUS
  0
LAYER
  2
LAYER024
 70
               0
 62
               7
  6
CONTINUOUS
  0
LAYER
  2
LAYER025
 70
               0
 62
               7
  6
CONTINUOUS
  0
LAYER
  2
LAYER026
 70
               0
 62
               7
  6
CONTINUOUS
  0
LAYER
  2
LAYER027
 70
               0
 62
               7
  6
CONTINUOUS
  0
LAYER
  2
LAYER028
 70
               0
 62
               7
  6
CONTINUOUS
  0
LAYER
  2
LAYER029
 70
               0
 62
               7
  6
CONTINUOUS
  0
LAYER
  2
LAYER030
 70
               0
 62
               7
  6
CONTINUOUS
  0
LAYER
  2
LAYER031
 70
               0
 62
               7
  6
CONTINUOUS
  0
LAYER
  2
LAYER032
 70
               0
 62
               7
  6
CONTINUOUS
  0
LAYER
  2
LAYER033
 70
               0
 62
               7
  6
CONTINUOUS
  0
LAYER
  2
LAYER034
 70
               0
 62
               7
  6
CONTINUOUS
  0
LAYER
  2
LAYER035
 70
               0
 62
               7
  6
CONTINUOUS
  0
LAYER
  2
LAYER036
 70
               0
 62
               7
  6
CONTINUOUS
  0
LAYER
  2
LAYER037
 70
               0
 62
               7
  6
CONTINUOUS
  0
LAYER
  2
LAYER038
 70
               0
 62
               7
  6
CONTINUOUS
  0
LAYER
  2
LAYER039
 70
               0
 62
               7
  6
CONTINUOUS
  0
LAYER
  2
LAYER040
 70
               0
 62
               7
  6
CONTINUOUS
  0
LAYER
  2
LAYER041
 70
               0
 62
               7
  6
CONTINUOUS
  0
LAYER
  2
LAYER042
 70
               0
 62
               7
  6
CONTINUOUS
  0
LAYER
  2
LAYER043
 70
               0
 62
               7
  6
CONTINUOUS
  0
LAYER
  2
LAYER044
 70
               0
 62
               7
  6
CONTINUOUS
  0
LAYER
  2
LAYER045
 70
               0
 62
               7
  6
CONTINUOUS
  0
LAYER
  2
LAYER046
 70
               0
 62
               7
  6
CONTINUOUS
  0
LAYER
  2
LAYER047
 70
               0
 62
               7
  6
CONTINUOUS
  0
LAYER
  2
LAYER048
 70
               0
 62
               7
  6
CONTINUOUS
  0
LAYER
  2
LAYER049
 70
               0
 62
               7
  6
CONTINUOUS
  0
LAYER
  2
LAYER050
 70
               0
 62
               7
  6
CONTINUOUS
  0
LAYER
  2
LAYER051
 70
               0
 62
               7
  6
CONTINUOUS
  0
LAYER
  2
LAYER052
 70
               0
 62
               7
  6
CONTINUOUS
  0
LAYER
  2
LAYER053
 70
               0
 62
               7
  6
CONTINUOUS
  0
LAYER
  2
LAYER054
 70
               0
 62
               7
  6
CONTINUOUS
  0
LAYER
  2
LAYER055
 70
               0
 62
               7
  6
CONTINUOUS
  0
LAYER
  2
LAYER056
 70
               0
 62
               7
  6
CONTINUOUS
  0
LAYER
  2
LAYER057
 70
               0
 62
               7
  6
CONTINUOUS
  0
LAYER
  2
LAYER058
 70
               0
 62
               7
  6
CONTINUOUS
  0
LAYER
  2
LAYER059
 70
               0
 62
               7
  6
CONTINUOUS
  0
LAYER
  2
LAYER060
 70
               0
 62
               7
  6
CONTINUOUS
  0
LAYER
  2
LAYER061
 70
               0
 62
               7
  6
CONTINUOUS
  0
LAYER
  2
LAYER062
 70
               0
 62
               7
  6
CONTINUOUS
  0
LAYER
  2
LAYER063
 70
               0
 62
               7
  6
CONTINUOUS
  0
LAYER
  2
LAYER064
 70
               0
 62
               7
  6
CONTINUOUS
  0
LAYER
  2
LAYER065
 70
               0
 62
               7
  6
CONTINUOUS
  0
LAYER
  2
LAYER066
 70
               0
 62
               7
  6
CONTINUOUS
  0
LAYER
  2
LAYER067
 70
               0
 62
               7
  6
CONTINUOUS
  0
LAYER
  2
LAYER068
 70
               0
 62
               7
  6
CONTINUOUS
  0
LAYER
  2
LAYER069
 70
               0
 62
               7
  6
CONTINUOUS
  0
LAYER
  2
LAYER070
 70
               0
 62
               7
  6
CONTINUOUS
  0
LAYER
  2
LAYER071
 70
               0
 62
               7
  6
CONTINUOUS
  0
LAYER
  2
LAYER072
 70
               0
 62
               7
  6
CONTINUOUS
  0
LAYER
  2
LAYER073
 70
               0
 62
               7
  6
CONTINUOUS
  0
LAYER
  2
LAYER074
 70
               0
 62
               7
  6
CONTINUOUS
  0
LAYER
  2
LAYER075
 70
               0
 62
               7
  6
CONTINUOUS
  0
LAYER
  2
LAYER076
 70
               0
 62
               7
  6
CONTINUOUS
  0
LAYER
  2
LAYER077
 70
               0
 62
               7
  6
CONTINUOUS
  0
LAYER
  2
LAYER078
 70
               0
 62
               7
  6
CONTINUOUS
  0
LAYER
  2
LAYER079
 70
               0
 62
               7
  6
CONTINUOUS
  0
LAYER
  2
LAYER080
 70
               0
 62
               7
  6
CONTINUOUS
  0
LAYER
  2
LAYER081
 70
               0
 62
               7
  6
CONTINUOUS
  0
LAYER
  2
LAYER082
 70
               0
 62
               7
  6
CONTINUOUS
  0
LAYER
  2
LAYER083
 70
               0
 62
               7
  6
CONTINUOUS
  0
LAYER
  2
LAYER084
 70
               0
 62
               7
  6
CONTINUOUS
  0
LAYER
  2
LAYER085
 70
               0
 62
               7
  6
CONTINUOUS
  0
LAYER
  2
LAYER086
 70
               0
 62
               7
  6
CONTINUOUS
  0
LAYER
  2
LAYER087
 70
               0
 62
               7
  6
CONTINUOUS
  0
LAYER
  2
LAYER088
 70
               0
 62
               7
  6
CONTINUOUS
  0
LAYER
  2
LAYER089
 70
               0
 62
               7
  6
CONTINUOUS
  0
LAYER
  2
LAYER090
 70
               0
 62
               7
  6
CONTINUOUS
  0
LAYER
  2
LAYER091
 70
               0
 62
               7
  6
CONTINUOUS
  0
LAYER
  2
LAYER092
 70
               0
 62
               7
  6
CONTINUOUS
  0
LAYER
  2
LAYER093
 70
               0
 62
               7
  6
CONTINUOUS
  0
LAYER
  2
LAYER094
 70
               0
 62
               7
  6
CONTINUOUS
  0
LAYER
  2
LAYER095
 70
               0
 62
               7
  6
CONTINUOUS
  0
LAYER
  2
LAYER096
 70
               0
 62
               7
  6
CONTINUOUS
  0
LAYER
  2
LAYER097
 70
               0
 62
               7
  6
CONTINUOUS
  0
LAYER
  2
LAYER098
 70
               0
 62
               7
  6
CONTINUOUS
  0
LAYER
  2
LAYER099
 70
               0
 62
               7
  6
CONTINUOUS
  0
LAYER
  2
LAYER100
 70
               0
 62
               7
  6
CONTINUOUS
  0
LAYER
  2
LAYER101
 70
               0
 62
               7
  6
CONTINUOUS
  0
LAYER
  2
LAYER102
 70
               0
 62
               7
  6
CONTINUOUS
  0
LAYER
  2
LAYER103
 70
               0
 62
               7
  6
CONTINUOUS
  0
LAYER
  2
LAYER104
 70
               0
 62
               7
  6
CONTINUOUS
  0
LAYER
  2
LAYER105
 70
               0
 62
               7
  6
CONTINUOUS
  0
LAYER
  2
LAYER106
 70
               0
 62
               7
  6
CONTINUOUS
  0
LAYER
  2
LAYER107
 70
               0
 62
               7
  6
CONTINUOUS
  0
LAYER
  2
LAYER108
 70
               0
 62
               7
  6
CONTINUOUS
  0
LAYER
  2
LAYER109
 70
               0
 62
               7
  6
CONTINUOUS
  0
LAYER
  2
LAYER110
 70
               0
 62
               7
  6
CONTINUOUS
  0
LAYER
  2
LAYER111
 70
               0
 62
               7
  6
CONTINUOUS
  0
LAYER
  2
LAYER112
 70
               0
 62
               7
  6
CONTINUOUS
  0
LAYER
  2
LAYER113
 70
               0
 62
               7
  6
CONTINUOUS
  0
LAYER
  2
LAYER114
 70
               0
 62
               7
  6
CONTINUOUS
  0
LAYER
  2
LAYER115
 70
               0
 62
               7
  6
CONTINUOUS
  0
LAYER
  2
LAYER116
 70
               0
 62
               7
  6
CONTINUOUS
  0
LAYER
  2
LAYER117
 70
               0
 62
               7
  6
CONTINUOUS
  0
LAYER
  2
LAYER118
 70
               0
 62
               7
  6
CONTINUOUS
  0
LAYER
  2
LAYER119
 70
               0
 62
               7
  6
CONTINUOUS
  0
LAYER
  2
LAYER120
 70
               0
 62
               7
  6
CONTINUOUS
  0
LAYER
  2
LAYER121
 70
               0
 62
               7
  6
CONTINUOUS
  0
LAYER
  2
LAYER122
 70
               0
 62
               7
  6
CONTINUOUS
  0
LAYER
  2
LAYER123
 70
               0
 62
               7
  6
CONTINUOUS
  0
LAYER
  2
LAYER124
 70
               0
 62
               7
  6
CONTINUOUS
  0
LAYER
  2
LAYER125
 70
               0
 62
               7
  6
CONTINUOUS
  0
LAYER
  2
LAYER126
 70
               0
 62
               7
  6
CONTINUOUS
  0
LAYER
  2
LAYER127
 70
               0
 62
               7
  6
CONTINUOUS
  0
LAYER
  2
LAYER128
 70
               0
 62
               7
  6
CONTINUOUS
  0
LAYER
  2
LAYER129
 70
               0
 62
               7
  6
CONTINUOUS
  0
LAYER
  2
LAYER130
 70
               0
 62
               7
  6
CONTINUOUS
  0
LAYER
  2
LAYER131
 70
               0
 62
               7
  6
CONTINUOUS
  0
LAYER
  2
LAYER132
 70
               0
 62
               7
  6
CONTINUOUS
  0
LAYER
  2
LAYER133
 70
               0
 62
               7
  6
CONTINUOUS
  0
LAYER
  2
LAYER134
 70
               0
 62
               7
  6
CONTINUOUS
  0
LAYER
  2
LAYER135
 70
               0
 62
               7
  6
CONTINUOUS
  0
LAYER
  2
LAYER136
 70
               0
 62
               7
  6
CONTINUOUS
  0
LAYER
  2
LAYER137
 70
               0
 62
               7
  6
CONTINUOUS
  0
LAYER
  2
LAYER138
 70
               0
 62
               7
  6
CONTINUOUS
  0
LAYER
  2
LAYER139
 70
               0
 62
               7
  6
CONTINUOUS
  0
LAYER
  2
LAYER140
 70
               0
 62
               7
  6
CONTINUOUS
  0
LAYER
  2
LAYER141
 70
               0
 62
               7
  6
CONTINUOUS
  0
LAYER
  2
LAYER142
 70
               0
 62
               7
  6
CONTINUOUS
  0
LAYER
  2
LAYER143
 70
               0
 62
               7
  6
CONTINUOUS
  0
LAYER
  2
LAYER144
 70
               0
 62
               7
  6
CONTINUOUS
  0
LAYER
  2
LAYER145
 70
               0
 62
               7
  6
CONTINUOUS
  0
LAYER
  2
LAYER146
 70
               0
 62
               7
  6
CONTINUOUS
  0
LAYER
  2
LAYER147
 70
               0
 62
               7
  6
CONTINUOUS
  0
LAYER
  2
LAYER148
 70
               0
 62
               7
  6
CONTINUOUS
  0
LAYER
  2
LAYER149
 70
               0
 62
               7
  6
CONTINUOUS
  0
LAYER
  2
LAYER150
 70
               0
 62
               7
  6
CONTINUOUS
  0
LAYER
  2
LAYER151
 70
               0
 62
               7
  6
CONTINUOUS
  0
LAYER
  2
LAYER152
 70
               0
 62
               7
  6
CONTINUOUS
  0
LAYER
  2
LAYER153
 70
               0
 62
               7
  6
CONTINUOUS
  0
LAYER
  2
LAYER154
 70
               0
 62
               7
  6
CONTINUOUS
  0
LAYER
  2
LAYER155
 70
               0
 62
               7
  6
CONTINUOUS
  0
LAYER
  2
LAYER156
 70
               0
 62
               7
  6
CONTINUOUS
  0
LAYER
  2
LAYER157
 70
               0
 62
               7
  6
CONTINUOUS
  0
LAYER
  2
LAYER158
 70
               0
 62
               7
  6
CONTINUOUS
  0
LAYER
  2
LAYER159
 70
               0
 62
               7
  6
CONTINUOUS
  0
LAYER
  2
LAYER160
 70
               0
 62
               7
  6
CONTINUOUS
  0
LAYER
  2
LAYER161
 70
               0
 62
               7
  6
CONTINUOUS
  0
LAYER
  2
LAYER162
 70
               0
 62
               7
  6
CONTINUOUS
  0
LAYER
  2
LAYER163
 70
               0
 62
               7
  6
CONTINUOUS
  0
LAYER
  2
LAYER164
 70
               0
 62
               7
  6
CONTINUOUS
  0
LAYER
  2
LAYER165
 70
               0
 62
               7
  6
CONTINUOUS
  0
LAYER
  2
LAYER166
 70
               0
 62
               7
  6
CONTINUOUS
  0
LAYER
  2
LAYER167
 70
               0
 62
               7
  6
CONTINUOUS
  0
LAYER
  2
LAYER168
 70
               0
 62
               7
  6
CONTINUOUS
  0
LAYER
  2
LAYER169
 70
               0
 62
               7
  6
CONTINUOUS
  0
LAYER
  2
LAYER170
 70
               0
 62
               7
  6
CONTINUOUS
  0
LAYER
  2
LAYER171
 70
               0
 62
               7
  6
CONTINUOUS
  0
LAYER
  2
LAYER172
 70
               0
 62
               7
  6
CONTINUOUS
  0
LAYER
  2
LAYER173
 70
               0
 62
               7
  6
CONTINUOUS
  0
LAYER
  2
LAYER174
 70
               0
 62
               7
  6
CONTINUOUS
  0
LAYER
  2
LAYER175
 70
               0
 62
               7
  6
CONTINUOUS
  0
LAYER
  2
LAYER176
 70
               0
 62
               7
  6
CONTINUOUS
  0
LAYER
  2
LAYER177
 70
               0
 62
               7
  6
CONTINUOUS
  0
LAYER
  2
LAYER178
 70
               0
 62
               7
  6
CONTINUOUS
  0
LAYER
  2
LAYER179
 70
               0
 62
               7
  6
CONTINUOUS
  0
LAYER
  2
LAYER180
 70
               0
 62
               7
  6
CONTINUOUS
  0
LAYER
  2
LAYER181
 70
               0
 62
               7
  6
CONTINUOUS
  0
LAYER
  2
LAYER182
 70
               0
 62
               7
  6
CONTINUOUS
  0
LAYER
  2
LAYER183
 70
               0
 62
               7
  6
CONTINUOUS
  0
LAYER
  2
LAYER184
 70
               0
 62
               7
  6
CONTINUOUS
  0
LAYER
  2
LAYER185
 70
               0
 62
               7
  6
CONTINUOUS
  0
LAYER
  2
LAYER186
 70
               0
 62
               7
  6
CONTINUOUS
  0
LAYER
  2
LAYER187
 70
               0
 62
               7
  6
CONTINUOUS
  0
LAYER
  2
LAYER188
 70
               0
 62
               7
  6
CONTINUOUS
  0
LAYER
  2
LAYER189
 70
               0
 62
               7
  6
CONTINUOUS
  0
LAYER
  2
LAYER190
 70
               0
 62
               7
  6
CONTINUOUS
  0
LAYER
  2
LAYER191
 70
               0
 62
               7
  6
CONTINUOUS
  0
LAYER
  2
LAYER192
 70
               0
 62
               7
  6
CONTINUOUS
  0
LAYER
  2
LAYER193
 70
               0
 62
               7
  6
CONTINUOUS
  0
LAYER
  2
LAYER194
 70
               0
 62
               7
  6
CONTINUOUS
  0
LAYER
  2
LAYER195
 70
               0
 62
               7
  6
CONTINUOUS
  0
LAYER
  2
LAYER196
 70
               0
 62
               7
  6
CONTINUOUS
  0
LAYER
  2
LAYER197
 70
               0
 62
               7
  6
CONTINUOUS
  0
LAYER
  2
LAYER198
 70
               0
 62
               7
  6
CONTINUOUS
  0
LAYER
  2
LAYER199
 70
               0
 62
               7
  6
CONTINUOUS
  0
LAYER
  2
LAYER200
 70
               0
 62
               7
  6
CONTINUOUS
  0
LAYER
  2
LAYER201
 70
               0
 62
               7
  6
CONTINUOUS
  0
LAYER
  2
LAYER202
 70
               0
 62
               7
  6
CONTINUOUS
  0
LAYER
  2
LAYER203
 70
               0
 62
               7
  6
CONTINUOUS
  0
LAYER
  2
LAYER204
 70
               0
 62
               7
  6
CONTINUOUS
  0
LAYER
  2
LAYER205
 70
               0
 62
               7
  6
CONTINUOUS
  0
LAYER
  2
LAYER206
 70
               0
 62
               7
  6
CONTINUOUS
  0
LAYER
  2
LAYER207
 70
               0
 62
               7
  6
CONTINUOUS
  0
LAYER
  2
LAYER208
 70
               0
 62
               7
  6
CONTINUOUS
  0
LAYER
  2
LAYER209
 70
               0
 62
               7
  6
CONTINUOUS
  0
LAYER
  2
LAYER210
 70
               0
 62
               7
  6
CONTINUOUS
  0
LAYER
  2
LAYER211
 70
               0
 62
               7
  6
CONTINUOUS
  0
LAYER
  2
LAYER212
 70
               0
 62
               7
  6
CONTINUOUS
  0
LAYER
  2
LAYER213
 70
               0
 62
               7
  6
CONTINUOUS
  0
LAYER
  2
LAYER214
 70
               0
 62
               7
  6
CONTINUOUS
  0
LAYER
  2
LAYER215
 70
               0
 62
               7
  6
CONTINUOUS
  0
LAYER
  2
LAYER216
 70
               0
 62
               7
  6
CONTINUOUS
  0
LAYER
  2
LAYER217
 70
               0
 62
               7
  6
CONTINUOUS
  0
LAYER
  2
LAYER218
 70
               0
 62
               7
  6
CONTINUOUS
  0
LAYER
  2
LAYER219
 70
               0
 62
               7
  6
CONTINUOUS
  0
LAYER
  2
LAYER220
 70
               0
 62
               7
  6
CONTINUOUS
  0
LAYER
  2
LAYER221
 70
               0
 62
               7
  6
CONTINUOUS
  0
LAYER
  2
LAYER222
 70
               0
 62
               7
  6
CONTINUOUS
  0
LAYER
  2
LAYER223
 70
               0
 62
               7
  6
CONTINUOUS
  0
LAYER
  2
LAYER224
 70
               0
 62
               7
  6
CONTINUOUS
  0
LAYER
  2
LAYER225
 70
               0
 62
               7
  6
CONTINUOUS
  0
LAYER
  2
LAYER226
 70
               0
 62
               7
  6
CONTINUOUS
  0
LAYER
  2
LAYER227
 70
               0
 62
               7
  6
CONTINUOUS
  0
LAYER
  2
LAYER228
 70
               0
 62
               7
  6
CONTINUOUS
  0
LAYER
  2
LAYER229
 70
               0
 62
               7
  6
CONTINUOUS
  0
LAYER
  2
LAYER230
 70
               0
 62
               7
  6
CONTINUOUS
  0
LAYER
  2
LAYER231
 70
               0
 62
               7
  6
CONTINUOUS
  0
LAYER
  2
LAYER232
 70
               0
 62
               7
  6
CONTINUOUS
  0
LAYER
  2
LAYER233
 70
               0
 62
               7
  6
CONTINUOUS
  0
LAYER
  2
LAYER234
 70
               0
 62
               7
  6
CONTINUOUS
  0
LAYER
  2
LAYER235
 70
               0
 62
               7
  6
CONTINUOUS
  0
LAYER
  2
LAYER236
 70
               0
 62
               7
  6
CONTINUOUS
  0
LAYER
  2
LAYER237
 70
               0
 62
               7
  6
CONTINUOUS
  0
LAYER
  2
LAYER238
 70
               0
 62
               7
  6
CONTINUOUS
  0
LAYER
  2
LAYER239
 70
               0
 62
               7
  6
CONTINUOUS
  0
LAYER
  2
LAYER240
 70
               0
 62
               7
  6
CONTINUOUS
  0
LAYER
  2
LAYER241
 70
               0
 62
               7
  6
CONTINUOUS
  0
LAYER
  2
LAYER242
 70
               0
 62
               7
  6
CONTINUOUS
  0
LAYER
  2
LAYER243
 70
               0
 62
               7
  6
CONTINUOUS
  0
LAYER
  2
LAYER244
 70
               0
 62
               7
  6
CONTINUOUS
  0
LAYER
  2
LAYER245
 70
               0
 62
               7
  6
CONTINUOUS
  0
LAYER
  2
LAYER246
 70
               0
 62
               7
  6
CONTINUOUS
  0
LAYER
  2
LAYER247
 70
               0
 62
               7
  6
CONTINUOUS
  0
LAYER
  2
LAYER248
 70
               0
 62
               7
  6
CONTINUOUS
  0
LAYER
  2
LAYER249
 70
               0
 62
               7
  6
CONTINUOUS
  0
LAYER
  2
LAYER250
 70
               0
 62
               7
  6
CONTINUOUS
  0
LAYER
  2
LAYER251
 70
               0
 62
               7
  6
CONTINUOUS
  0
LAYER
  2
LAYER252
 70
               0
 62
               7
  6
CONTINUOUS
  0
LAYER
  2
LAYER253
 70
               0
 62
               7
  6
CONTINUOUS
  0
LAYER
  2
LAYER254
 70
               0
 62
               7
  6
CONTINUOUS
  0
LAYER
  2
LAYER255
 70
               0
 62
               7
  6
CONTINUOUS
  0
ENDTAB
  0
TABLE
  2
STYLE
 70
               1
  0
STYLE
  2
STANDARD
 70
               0
 40
0.0
 41
1.0
 50
0.0
 71
               0
 42
0.0
  3
txt
  4

  0
ENDTAB
  0
TABLE
  2
VIEW
 70
               0
  0
VIEW
  2
QQQQ
 70
               0
 40
1826.7117149939863
 10
-19.519665589967644
 20
22.366499064840241
 41
1543.6850000000011
 11
0.0
 21
0.0
 31
1.0
 12
100.0
 22
100.0
 32
0.0
 42
50.0
 43
0.0
 44
0.0
 50
0.0
 71
               0
  0
ENDTAB
  0
TABLE
  2
UCS
 70
               0
  0
ENDTAB
  0
TABLE
  2
APPID
 70
               1
  0
APPID
  2
ACAD
 70
               0
  0
ENDTAB
  0
TABLE
  2
DIMSTYLE
 70
               1
  0
DIMSTYLE
  2
STANDARD
 70
               0
  3

  4

  5

  6

  7

 40
1.0
 41
0.18
 42
0.0625
 43
0.38
 44
0.18
 45
0.0
 46
0.0
 47
0.0
 48
0.0
140
0.18
141
0.09
142
0.0
143
25.399999999999999
144
1.0
145
0.0
146
1.0
147
0.09
 71
               0
 72
               0
 73
               1
 74
               1
 75
               0
 76
               0
 77
               0
 78
               0
170
               0
171
               2
172
               0
173
               0
174
               0
175
               0
176
               0
177
               0
178
               0
  0
ENDTAB
  0
ENDSEC
  0
SECTION
  2
BLOCKS
  0
BLOCK
  8
0
  5
143
  2
GROUP_1
 70
               0
 10
0.0
 20
0.0
 30
0.0
  3
GROUP_1
  0
LINE
  8
0
  6
CONTINUOUS
 62
               4
  5
144
 10
635.33033441003226
 20
77.187326619799023
 30
0.0
 11
654.33033441003226
 21
77.187326619799023
 31
0.0
  0
LINE
  8
0
  6
CONTINUOUS
 62
               4
  5
145
 10
654.33033441003226
 20
77.187326619799023
 30
0.0
 11
654.33033441003226
 21
67.187326619799023
 31
0.0
  0
LINE
  8
0
  6
CONTINUOUS
 62
               4
  5
146
 10
654.33033441003226
 20
67.187326619799023
 30
0.0
 11
635.33033441003226
 21
67.187326619799023
 31
0.0
  0
LINE
  8
0
  6
CONTINUOUS
 62
               4
  5
147
 10
635.33033441003226
 20
67.187326619799023
 30
0.0
 11
635.33033441003226
 21
77.187326619799023
 31
0.0
  0
LINE
  8
0
  6
CONTINUOUS
 62
               4
  5
148
 10
644.83033441003226
 20
67.187326619799023
 30
0.0
 11
644.83033441003226
 21
76.061493594879266
 31
0.0
  0
ARC
  8
0
  6
CONTINUOUS
 62
               4
  5
149
 10
649.58033441003226
 20
66.71042401385921
 30
0.0
 40
10.488326954718639
 50
63.071102706951748
 51
116.92889729304785
  0
ARC
  8
0
  6
CONTINUOUS
 62
               4
  5
14A
 10
640.08033441003226
 20
66.71042401385921
 30
0.0
 40
10.488326954718639
 50
63.071102706951748
 51
116.92889729304785
  0
ARC
  8
0
  6
CONTINUOUS
 62
               4
  5
14B
 10
640.08033441003226
 20
66.71042401385921
 30
0.0
 40
10.488326954718639
 50
63.071102706951748
 51
116.92889729304785
  0
ARC
  8
0
  6
CONTINUOUS
 62
               4
  5
14C
 10
640.08033441003226
 20
66.71042401385921
 30
0.0
 40
10.488326954718639
 50
63.071102706951748
 51
116.92889729304785
  0
ENDBLK
  8
0
  5
14D
  0
BLOCK
  8
0
  5
14E
  2
GROUP_2
 70
               0
 10
0.0
 20
0.0
 30
0.0
  3
GROUP_2
  0
LINE
  8
0
  6
CONTINUOUS
 62
               4
  5
14F
 10
506.63033441003199
 20
77.187326619798228
 30
0.0
 11
525.63033441003199
 21
77.187326619798228
 31
0.0
  0
LINE
  8
0
  6
CONTINUOUS
 62
               4
  5
150
 10
525.63033441003199
 20
77.187326619798228
 30
0.0
 11
525.63033441003199
 21
67.187326619798228
 31
0.0
  0
LINE
  8
0
  6
CONTINUOUS
 62
               4
  5
151
 10
525.63033441003199
 20
67.187326619798228
 30
0.0
 11
506.63033441003199
 21
67.187326619798228
 31
0.0
  0
LINE
  8
0
  6
CONTINUOUS
 62
               4
  5
152
 10
506.63033441003199
 20
67.187326619798228
 30
0.0
 11
506.63033441003199
 21
77.187326619798228
 31
0.0
  0
LINE
  8
0
  6
CONTINUOUS
 62
               4
  5
153
 10
516.13033441003199
 20
67.187326619798228
 30
0.0
 11
516.13033441003199
 21
76.061493594878471
 31
0.0
  0
ARC
  8
0
  6
CONTINUOUS
 62
               4
  5
154
 10
520.88033441003199
 20
66.710424013858415
 30
0.0
 40
10.488326954718639
 50
63.071102706951748
 51
116.92889729304785
  0
ARC
  8
0
  6
CONTINUOUS
 62
               4
  5
155
 10
511.38033441003199
 20
66.710424013858415
 30
0.0
 40
10.488326954718639
 50
63.071102706951748
 51
116.92889729304785
  0
ARC
  8
0
  6
CONTINUOUS
 62
               4
  5
156
 10
511.38033441003199
 20
66.710424013858415
 30
0.0
 40
10.488326954718639
 50
63.071102706951748
 51
116.92889729304785
  0
ARC
  8
0
  6
CONTINUOUS
 62
               4
  5
157
 10
511.38033441003199
 20
66.710424013858415
 30
0.0
 40
10.488326954718639
 50
63.071102706951748
 51
116.92889729304785
  0
ENDBLK
  8
0
  5
158
  0
BLOCK
  8
0
  5
159
  2
GROUP_3
 70
               0
 10
0.0
 20
0.0
 30
0.0
  3
GROUP_3
  0
LINE
  8
0
  6
CONTINUOUS
 62
               4
  5
15A
 10
-564.66966558996774
 20
77.187326619799023
 30
0.0
 11
-545.66966558996774
 21
77.187326619799023
 31
0.0
  0
LINE
  8
0
  6
CONTINUOUS
 62
               4
  5
15B
 10
-545.66966558996774
 20
77.187326619799023
 30
0.0
 11
-545.66966558996774
 21
67.187326619799023
 31
0.0
  0
LINE
  8
0
  6
CONTINUOUS
 62
               4
  5
15C
 10
-545.66966558996774
 20
67.187326619799023
 30
0.0
 11
-564.66966558996774
 21
67.187326619799023
 31
0.0
  0
LINE
  8
0
  6
CONTINUOUS
 62
               4
  5
15D
 10
-564.66966558996774
 20
67.187326619799023
 30
0.0
 11
-564.66966558996774
 21
77.187326619799023
 31
0.0
  0
LINE
  8
0
  6
CONTINUOUS
 62
               4
  5
15E
 10
-555.16966558996774
 20
67.187326619799023
 30
0.0
 11
-555.16966558996774
 21
76.061493594879266
 31
0.0
  0
ARC
  8
0
  6
CONTINUOUS
 62
               4
  5
15F
 10
-550.41966558996774
 20
66.71042401385921
 30
0.0
 40
10.488326954718639
 50
63.071102706951748
 51
116.92889729304785
  0
ARC
  8
0
  6
CONTINUOUS
 62
               4
  5
160
 10
-559.91966558996774
 20
66.71042401385921
 30
0.0
 40
10.488326954718639
 50
63.071102706951748
 51
116.92889729304785
  0
ARC
  8
0
  6
CONTINUOUS
 62
               4
  5
161
 10
-559.91966558996774
 20
66.71042401385921
 30
0.0
 40
10.488326954718639
 50
63.071102706951748
 51
116.92889729304785
  0
ARC
  8
0
  6
CONTINUOUS
 62
               4
  5
162
 10
-559.91966558996774
 20
66.71042401385921
 30
0.0
 40
10.488326954718639
 50
63.071102706951748
 51
116.92889729304785
  0
ENDBLK
  8
0
  5
163
  0
BLOCK
  8
0
  5
164
  2
GROUP_4
 70
               0
 10
0.0
 20
0.0
 30
0.0
  3
GROUP_4
  0
LINE
  8
0
  6
CONTINUOUS
 62
               4
  5
165
 10
-693.36966558996801
 20
77.187326619798228
 30
0.0
 11
-674.36966558996801
 21
77.187326619798228
 31
0.0
  0
LINE
  8
0
  6
CONTINUOUS
 62
               4
  5
166
 10
-674.36966558996801
 20
77.187326619798228
 30
0.0
 11
-674.36966558996801
 21
67.187326619798228
 31
0.0
  0
LINE
  8
0
  6
CONTINUOUS
 62
               4
  5
167
 10
-674.36966558996801
 20
67.187326619798228
 30
0.0
 11
-693.36966558996801
 21
67.187326619798228
 31
0.0
  0
LINE
  8
0
  6
CONTINUOUS
 62
               4
  5
168
 10
-693.36966558996801
 20
67.187326619798228
 30
0.0
 11
-693.36966558996801
 21
77.187326619798228
 31
0.0
  0
LINE
  8
0
  6
CONTINUOUS
 62
               4
  5
169
 10
-683.86966558996801
 20
67.187326619798228
 30
0.0
 11
-683.86966558996801
 21
76.061493594878471
 31
0.0
  0
ARC
  8
0
  6
CONTINUOUS
 62
               4
  5
16A
 10
-679.11966558996801
 20
66.710424013858415
 30
0.0
 40
10.488326954718639
 50
63.071102706951748
 51
116.92889729304785
  0
ARC
  8
0
  6
CONTINUOUS
 62
               4
  5
16B
 10
-688.61966558996801
 20
66.710424013858415
 30
0.0
 40
10.488326954718639
 50
63.071102706951748
 51
116.92889729304785
  0
ARC
  8
0
  6
CONTINUOUS
 62
               4
  5
16C
 10
-688.61966558996801
 20
66.710424013858415
 30
0.0
 40
10.488326954718639
 50
63.071102706951748
 51
116.92889729304785
  0
ARC
  8
0
  6
CONTINUOUS
 62
               4
  5
16D
 10
-688.61966558996801
 20
66.710424013858415
 30
0.0
 40
10.488326954718639
 50
63.071102706951748
 51
116.92889729304785
  0
ENDBLK
  8
0
  5
16E
  0
BLOCK
  8
0
  5
16F
  2
GROUP_5
 70
               0
 10
0.0
 20
0.0
 30
0.0
  3
GROUP_5
  0
CIRCLE
  8
0
  6
CONTINUOUS
 62
               4
  5
170
 10
44.827051498008828
 20
794.69988781026677
 30
0.0
 40
9.5
  0
LINE
  8
0
  6
CONTINUOUS
 62
               4
  5
171
 10
55.796706612611857
 20
794.69988781026677
 30
0.0
 11
50.311879055310115
 21
804.19988781026677
 31
0.0
  0
LINE
  8
0
  6
CONTINUOUS
 62
               4
  5
172
 10
50.311879055310115
 20
804.19988781026677
 30
0.0
 11
39.342223940707143
 21
804.19988781026677
 31
0.0
  0
LINE
  8
0
  6
CONTINUOUS
 62
               4
  5
173
 10
39.342223940707143
 20
804.19988781026677
 30
0.0
 11
33.857396383405799
 21
794.69988781026677
 31
0.0
  0
LINE
  8
0
  6
CONTINUOUS
 62
               4
  5
174
 10
33.857396383405799
 20
794.69988781026677
 30
0.0
 11
39.342223940707143
 21
785.199887810267
 31
0.0
  0
LINE
  8
0
  6
CONTINUOUS
 62
               4
  5
175
 10
39.342223940707143
 20
785.199887810267
 30
0.0
 11
50.311879055310115
 21
785.199887810267
 31
0.0
  0
LINE
  8
0
  6
CONTINUOUS
 62
               4
  5
176
 10
50.311879055310115
 20
785.199887810267
 30
0.0
 11
55.796706612611857
 21
794.69988781026677
 31
0.0
  0
CIRCLE
  8
0
  6
CONTINUOUS
 62
               4
  5
177
 10
44.827051498008828
 20
794.69988781026677
 30
0.0
 40
5.1250000000000009
  0
CIRCLE
  8
0
  6
CONTINUOUS
 62
               4
  5
178
 10
44.827051498008828
 20
794.69988781026677
 30
0.0
 40
6.0000000000000009
  0
ENDBLK
  8
0
  5
179
  0
BLOCK
  8
0
  5
17A
  2
GROUP_6
 70
               0
 10
0.0
 20
0.0
 30
0.0
  3
GROUP_6
  0
CIRCLE
  8
0
  6
CONTINUOUS
 62
               4
  5
17B
 10
44.827051498008828
 20
666.00645363431568
 30
0.0
 40
9.5
  0
LINE
  8
0
  6
CONTINUOUS
 62
               4
  5
17C
 10
55.796706612611857
 20
666.00645363431568
 30
0.0
 11
50.311879055310115
 21
656.50645363431568
 31
0.0
  0
LINE
  8
0
  6
CONTINUOUS
 62
               4
  5
17D
 10
50.311879055310115
 20
656.50645363431568
 30
0.0
 11
39.342223940707143
 21
656.50645363431568
 31
0.0
  0
LINE
  8
0
  6
CONTINUOUS
 62
               4
  5
17E
 10
39.342223940707143
 20
656.50645363431568
 30
0.0
 11
33.857396383405799
 21
666.00645363431568
 31
0.0
  0
LINE
  8
0
  6
CONTINUOUS
 62
               4
  5
17F
 10
33.857396383405799
 20
666.00645363431568
 30
0.0
 11
39.342223940707143
 21
675.50645363431545
 31
0.0
  0
LINE
  8
0
  6
CONTINUOUS
 62
               4
  5
180
 10
39.342223940707143
 20
675.50645363431545
 30
0.0
 11
50.311879055310115
 21
675.50645363431545
 31
0.0
  0
LINE
  8
0
  6
CONTINUOUS
 62
               4
  5
181
 10
50.311879055310115
 20
675.50645363431545
 30
0.0
 11
55.796706612611857
 21
666.00645363431568
 31
0.0
  0
CIRCLE
  8
0
  6
CONTINUOUS
 62
               4
  5
182
 10
44.827051498008828
 20
666.00645363431568
 30
0.0
 40
5.1250000000000009
  0
CIRCLE
  8
0
  6
CONTINUOUS
 62
               4
  5
183
 10
44.827051498008828
 20
666.00645363431568
 30
0.0
 40
6.0000000000000009
  0
ENDBLK
  8
0
  5
184
  0
BLOCK
  8
0
  5
185
  2
GROUP_7
 70
               0
 10
0.0
 20
0.0
 30
0.0
  3
GROUP_7
  0
LINE
  8
0
  6
CONTINUOUS
 62
               4
  5
186
 10
-93.369665589967951
 20
77.187326619798256
 30
0.0
 11
-74.369665589968008
 21
77.187326619798256
 31
0.0
  0
LINE
  8
0
  6
CONTINUOUS
 62
               4
  5
187
 10
-74.369665589968008
 20
77.187326619798256
 30
0.0
 11
-74.369665589968008
 21
67.187326619798256
 31
0.0
  0
LINE
  8
0
  6
CONTINUOUS
 62
               4
  5
188
 10
-74.369665589968008
 20
67.187326619798256
 30
0.0
 11
-93.369665589967951
 21
67.187326619798256
 31
0.0
  0
LINE
  8
0
  6
CONTINUOUS
 62
               4
  5
189
 10
-93.369665589967951
 20
67.187326619798256
 30
0.0
 11
-93.369665589967951
 21
77.187326619798256
 31
0.0
  0
LINE
  8
0
  6
CONTINUOUS
 62
               4
  5
18A
 10
-83.869665589968008
 20
67.187326619798256
 30
0.0
 11
-83.869665589968008
 21
76.061493594878499
 31
0.0
  0
ARC
  8
0
  6
CONTINUOUS
 62
               4
  5
18B
 10
-79.119665589968008
 20
66.710424013858443
 30
0.0
 40
10.488326954718639
 50
63.071102706951748
 51
116.92889729304785
  0
ARC
  8
0
  6
CONTINUOUS
 62
               4
  5
18C
 10
-88.619665589968008
 20
66.710424013858443
 30
0.0
 40
10.488326954718639
 50
63.071102706951748
 51
116.92889729304785
  0
ARC
  8
0
  6
CONTINUOUS
 62
               4
  5
18D
 10
-88.619665589968008
 20
66.710424013858443
 30
0.0
 40
10.488326954718639
 50
63.071102706951748
 51
116.92889729304785
  0
ARC
  8
0
  6
CONTINUOUS
 62
               4
  5
18E
 10
-88.619665589968008
 20
66.710424013858443
 30
0.0
 40
10.488326954718639
 50
63.071102706951748
 51
116.92889729304785
  0
ENDBLK
  8
0
  5
18F
  0
BLOCK
  8
0
  5
190
  2
GROUP_8
 70
               0
 10
0.0
 20
0.0
 30
0.0
  3
GROUP_8
  0
LINE
  8
0
  6
CONTINUOUS
 62
               4
  5
191
 10
35.330334410032208
 20
77.187326619799052
 30
0.0
 11
54.330334410032251
 21
77.187326619799052
 31
0.0
  0
LINE
  8
0
  6
CONTINUOUS
 62
               4
  5
192
 10
54.330334410032251
 20
77.187326619799052
 30
0.0
 11
54.330334410032251
 21
67.187326619799052
 31
0.0
  0
LINE
  8
0
  6
CONTINUOUS
 62
               4
  5
193
 10
54.330334410032251
 20
67.187326619799052
 30
0.0
 11
35.330334410032208
 21
67.187326619799052
 31
0.0
  0
LINE
  8
0
  6
CONTINUOUS
 62
               4
  5
194
 10
35.330334410032208
 20
67.187326619799052
 30
0.0
 11
35.330334410032208
 21
77.187326619799052
 31
0.0
  0
LINE
  8
0
  6
CONTINUOUS
 62
               4
  5
195
 10
44.830334410032251
 20
67.187326619799052
 30
0.0
 11
44.830334410032251
 21
76.061493594879295
 31
0.0
  0
ARC
  8
0
  6
CONTINUOUS
 62
               4
  5
196
 10
49.580334410032307
 20
66.710424013859239
 30
0.0
 40
10.488326954718639
 50
63.071102706951748
 51
116.92889729304785
  0
ARC
  8
0
  6
CONTINUOUS
 62
               4
  5
197
 10
40.080334410032322
 20
66.710424013859239
 30
0.0
 40
10.488326954718639
 50
63.071102706951748
 51
116.92889729304785
  0
ARC
  8
0
  6
CONTINUOUS
 62
               4
  5
198
 10
40.080334410032322
 20
66.710424013859239
 30
0.0
 40
10.488326954718639
 50
63.071102706951748
 51
116.92889729304785
  0
ARC
  8
0
  6
CONTINUOUS
 62
               4
  5
199
 10
40.080334410032322
 20
66.710424013859239
 30
0.0
 40
10.488326954718639
 50
63.071102706951748
 51
116.92889729304785
  0
ENDBLK
  8
0
  5
19A
  0
BLOCK
  8
0
  5
19B
  2
GROUP_9
 70
               0
 10
0.0
 20
0.0
 30
0.0
  3
GROUP_9
  0
CIRCLE
  8
0
  6
CONTINUOUS
 62
               4
  5
19C
 10
-83.866382677943534
 20
666.00645363431568
 30
0.0
 40
9.5
  0
LINE
  8
0
  6
CONTINUOUS
 62
               4
  5
19D
 10
-94.836037792546563
 20
666.00645363431568
 30
0.0
 11
-89.351210235244835
 21
656.50645363431568
 31
0.0
  0
LINE
  8
0
  6
CONTINUOUS
 62
               4
  5
19E
 10
-89.351210235244835
 20
656.50645363431568
 30
0.0
 11
-78.381555120641863
 21
656.50645363431568
 31
0.0
  0
LINE
  8
0
  6
CONTINUOUS
 62
               4
  5
19F
 10
-78.381555120641863
 20
656.50645363431568
 30
0.0
 11
-72.896727563340505
 21
666.00645363431568
 31
0.0
  0
LINE
  8
0
  6
CONTINUOUS
 62
               4
  5
1A0
 10
-72.896727563340505
 20
666.00645363431568
 30
0.0
 11
-78.381555120641849
 21
675.50645363431545
 31
0.0
  0
LINE
  8
0
  6
CONTINUOUS
 62
               4
  5
1A1
 10
-78.381555120641849
 20
675.50645363431545
 30
0.0
 11
-89.351210235244821
 21
675.50645363431545
 31
0.0
  0
LINE
  8
0
  6
CONTINUOUS
 62
               4
  5
1A2
 10
-89.351210235244821
 20
675.50645363431545
 30
0.0
 11
-94.836037792546563
 21
666.00645363431568
 31
0.0
  0
CIRCLE
  8
0
  6
CONTINUOUS
 62
               4
  5
1A3
 10
-83.866382677943534
 20
666.00645363431568
 30
0.0
 40
5.1250000000000009
  0
CIRCLE
  8
0
  6
CONTINUOUS
 62
               4
  5
1A4
 10
-83.866382677943534
 20
666.00645363431568
 30
0.0
 40
6.0000000000000009
  0
ENDBLK
  8
0
  5
1A5
  0
BLOCK
  8
0
  5
1A6
  2
GROUP_10
 70
               0
 10
0.0
 20
0.0
 30
0.0
  3
GROUP_10
  0
CIRCLE
  8
0
  6
CONTINUOUS
 62
               4
  5
1A7
 10
-83.866382677943434
 20
794.69988781026677
 30
0.0
 40
9.5
  0
LINE
  8
0
  6
CONTINUOUS
 62
               4
  5
1A8
 10
-94.836037792546463
 20
794.69988781026677
 30
0.0
 11
-89.351210235244707
 21
804.19988781026677
 31
0.0
  0
LINE
  8
0
  6
CONTINUOUS
 62
               4
  5
1A9
 10
-89.351210235244707
 20
804.19988781026677
 30
0.0
 11
-78.381555120641735
 21
804.19988781026677
 31
0.0
  0
LINE
  8
0
  6
CONTINUOUS
 62
               4
  5
1AA
 10
-78.381555120641735
 20
804.19988781026677
 30
0.0
 11
-72.896727563340406
 21
794.69988781026677
 31
0.0
  0
LINE
  8
0
  6
CONTINUOUS
 62
               4
  5
1AB
 10
-72.896727563340406
 20
794.69988781026677
 30
0.0
 11
-78.381555120641764
 21
785.199887810267
 31
0.0
  0
LINE
  8
0
  6
CONTINUOUS
 62
               4
  5
1AC
 10
-78.381555120641764
 20
785.199887810267
 30
0.0
 11
-89.351210235244736
 21
785.199887810267
 31
0.0
  0
LINE
  8
0
  6
CONTINUOUS
 62
               4
  5
1AD
 10
-89.351210235244736
 20
785.199887810267
 30
0.0
 11
-94.836037792546463
 21
794.69988781026677
 31
0.0
  0
CIRCLE
  8
0
  6
CONTINUOUS
 62
               4
  5
1AE
 10
-83.866382677943434
 20
794.69988781026677
 30
0.0
 40
5.1250000000000009
  0
CIRCLE
  8
0
  6
CONTINUOUS
 62
               4
  5
1AF
 10
-83.866382677943434
 20
794.69988781026677
 30
0.0
 40
6.0000000000000009
  0
ENDBLK
  8
0
  5
1B0
  0
BLOCK
  8
0
  5
1B1
  2
GROUP_11
 70
               0
 10
0.0
 20
0.0
 30
0.0
  3
GROUP_11
  0
LINE
  8
0
  6
CONTINUOUS
 62
               4
  5
1B2
 10
-103.01966558996719
 20
-110.50767570409569
 30
0.0
 11
-90.62466326607364
 21
-98.112673380201983
 31
0.0
  0
LINE
  8
0
  6
CONTINUOUS
 62
               4
  5
1B3
 10
-98.096773468284368
 20
-247.00613978358464
 30
0.0
 11
50.796692935098235
 21
-98.112673380202153
 31
0.0
  0
LINE
  8
0
  6
CONTINUOUS
 62
               4
  5
1B4
 10
-103.01966558996764
 20
-181.21835380468204
 30
0.0
 11
-19.913985165488157
 21
-98.112673380202182
 31
0.0
  0
LINE
  8
0
  6
CONTINUOUS
 62
               4
  5
1B5
 10
-28.492628964315941
 20
-248.11267338020227
 30
0.0
 11
63.980334410032356
 21
-155.6397100058538
 31
0.0
  0
LINE
  8
0
  6
CONTINUOUS
 62
               4
  5
1B6
 10
42.218049136269997
 20
-248.11267338020227
 30
0.0
 11
61.584865761818605
 21
-228.74585675465366
 31
0.0
  0
ENDBLK
  8
0
  5
1B7
  0
BLOCK
  8
0
  5
1B8
  2
GROUP_12
 70
               0
 10
0.0
 20
0.0
 30
0.0
  3
GROUP_12
  0
LINE
  8
0
  6
CONTINUOUS
 62
               4
  5
1B9
 10
-703.01966558996764
 20
-110.50767570409619
 30
0.0
 11
-690.62466326607364
 21
-98.112673380202011
 31
0.0
  0
LINE
  8
0
  6
CONTINUOUS
 62
               4
  5
1BA
 10
-698.09677346828437
 20
-247.00613978358467
 30
0.0
 11
-549.20330706490176
 21
-98.112673380202182
 31
0.0
  0
LINE
  8
0
  6
CONTINUOUS
 62
               4
  5
1BB
 10
-703.01966558996764
 20
-181.21835380468207
 30
0.0
 11
-619.91398516548816
 21
-98.11267338020221
 31
0.0
  0
LINE
  8
0
  6
CONTINUOUS
 62
               4
  5
1BC
 10
-628.49262896431594
 20
-248.1126733802023
 30
0.0
 11
-536.01966558996764
 21
-155.63971000585383
 31
0.0
  0
LINE
  8
0
  6
CONTINUOUS
 62
               4
  5
1BD
 10
-557.78195086373
 20
-248.1126733802023
 30
0.0
 11
-538.41513423818139
 21
-228.74585675465369
 31
0.0
  0
ENDBLK
  8
0
  5
1BE
  0
BLOCK
  8
0
  5
1BF
  2
GROUP_13
 70
               0
 10
0.0
 20
0.0
 30
0.0
  3
GROUP_13
  0
LINE
  8
0
  6
CONTINUOUS
 62
               4
  5
1C0
 10
496.98033441003281
 20
-110.50767570409573
 30
0.0
 11
509.37533673392636
 21
-98.112673380202011
 31
0.0
  0
LINE
  8
0
  6
CONTINUOUS
 62
               4
  5
1C1
 10
501.90322653171563
 20
-247.00613978358467
 30
0.0
 11
650.79669293509824
 21
-98.112673380202182
 31
0.0
  0
LINE
  8
0
  6
CONTINUOUS
 62
               4
  5
1C2
 10
496.98033441003236
 20
-181.21835380468207
 30
0.0
 11
580.08601483451184
 21
-98.11267338020221
 31
0.0
  0
LINE
  8
0
  6
CONTINUOUS
 62
               4
  5
1C3
 10
571.50737103568406
 20
-248.1126733802023
 30
0.0
 11
663.98033441003236
 21
-155.63971000585383
 31
0.0
  0
LINE
  8
0
  6
CONTINUOUS
 62
               4
  5
1C4
 10
642.21804913627
 20
-248.1126733802023
 30
0.0
 11
661.58486576181861
 21
-228.74585675465369
 31
0.0
  0
ENDBLK
  8
0
  5
1C5
  0
ENDSEC
  0
SECTION
  2
ENTITIES
  0
LINE
  8
0
  6
DASHDOT
 62
               4
  5
1C6
 10
-19.519665589967644
 20
316.90751619785442
 30
0.0
 11
-19.519665589967463
 21
-794.00577798385234
 31
0.0
  0
LINE
  8
0
  6
DASHDOT
 62
               4
  5
1C7
 10
580.48033441003236
 20
316.90751619785465
 30
0.0
 11
580.48033441003247
 21
-794.00577798385234
 31
0.0
  0
LINE
  8
0
  6
DASHDOT
 62
               4
  5
1C8
 10
-619.51966558996764
 20
316.90751619785465
 30
0.0
 11
-619.51966558996753
 21
-794.00577798385234
 31
0.0
  0
LINE
  8
0
  6
DASHDOT
 62
               4
  5
1C9
 10
-82.519665589966962
 20
-460.31975844698945
 30
0.0
 11
-82.519665589966962
 21
-512.11267338020195
 31
0.0
  0
LINE
  8
0
  6
DASHDOT
 62
               4
  5
1CA
 10
-82.519665589967531
 20
-460.31975844698945
 30
0.0
 11
43.480334410032526
 21
-460.31975844698945
 31
0.0
  0
LINE
  8
0
  6
DASHDOT
 62
               4
  5
1CB
 10
43.480334410032469
 20
-455.31975844698945
 30
0.0
 11
43.480334410032469
 21
-512.11267338020195
 31
0.0
  0
LINE
  8
0
  6
DASHDOT
 62
               4
  5
1CC
 10
-144.51966558996759
 20
-453.12257138219718
 30
0.0
 11
-144.51966558996759
 21
-617.50093300168749
 31
0.0
  0
LINE
  8
0
  6
DASHDOT
 62
               4
  5
1CD
 10
105.48033441003236
 20
-453.12257138219718
 30
0.0
 11
105.48033441003236
 21
-617.50093300168749
 31
0.0
  0
LINE
  8
0
  6
DASHDOT
 62
               4
  5
1CE
 10
-138.94342428869601
 20
730.35317072229122
 30
0.0
 11
99.060049627688684
 21
730.35317072229122
 31
0.0
  0
LINE
  8
0
  6
DASHDOT
 62
               4
  5
1CF
 10
-19.5196655899673
 20
611.77345550463519
 30
0.0
 11
-19.519665589967214
 21
848.93288593994725
 31
0.0
  0
LINE
  8
0
  6
CONTINUOUS
 62
               4
  5
1D0
 10
505.48033441003236
 20
292.88732661979839
 30
0.0
 11
655.48033441003236
 21
292.88732661979839
 31
0.0
  0
LINE
  8
0
  6
CONTINUOUS
 62
               4
  5
1D1
 10
491.9803344100319
 20
282.88732661979839
 30
0.0
 11
491.9803344100319
 21
275.88732661979873
 31
0.0
  0
LINE
  8
0
  6
CONTINUOUS
 62
               4
  5
1D2
 10
491.9803344100319
 20
282.88732661979839
 30
0.0
 11
505.48033441003236
 21
292.88732661979839
 31
0.0
  0
ARC
  8
0
  6
CONTINUOUS
 62
               4
  5
1D3
 10
503.48033441003236
 20
271.30475092484301
 30
0.0
 40
4.9999999999999991
 50
0.0
 51
66.421821521798009
  0
LINE
  8
0
  6
CONTINUOUS
 62
               4
  5
1D4
 10
491.9803344100319
 20
275.88732661979873
 30
0.0
 11
668.9803344100319
 21
275.88732661979873
 31
0.0
  0
LINE
  8
0
  6
CONTINUOUS
 62
               4
  5
1D5
 10
560.48033441003236
 20
275.88732661979873
 30
0.0
 11
560.48033441003236
 21
292.88732661979839
 31
0.0
  0
LINE
  8
0
  6
CONTINUOUS
 62
               4
  5
1D6
 10
600.48033441003236
 20
292.88732661979839
 30
0.0
 11
600.48033441003236
 21
275.88732661979873
 31
0.0
  0
LINE
  8
0
  6
CONTINUOUS
 62
               4
  5
1D7
 10
560.48033441003236
 20
282.88732661979839
 30
0.0
 11
600.48033441003236
 21
282.88732661979839
 31
0.0
  0
LINE
  8
0
  6
CONTINUOUS
 62
               4
  5
1D8
 10
508.19617293602687
 20
292.88732661979839
 30
0.0
 11
508.19617293602687
 21
275.88732661979873
 31
0.0
  0
LINE
  8
0
  6
CONTINUOUS
 62
               4
  5
1D9
 10
494.269836209407
 20
282.88732661979839
 30
0.0
 11
494.269836209407
 21
275.88732661979873
 31
0.0
  0
LINE
  8
0
  6
CONTINUOUS
 62
               4
  5
1DA
 10
491.9803344100319
 20
282.88732661979839
 30
0.0
 11
494.269836209407
 21
282.88732661979839
 31
0.0
  0
LINE
  8
0
  6
CONTINUOUS
 62
               4
  5
1DB
 10
494.269836209407
 20
282.88732661979839
 30
0.0
 11
508.19617293602687
 21
292.88732661979839
 31
0.0
  0
LINE
  8
0
  6
CONTINUOUS
 62
               4
  5
1DC
 10
668.9803344100319
 20
282.88732661979839
 30
0.0
 11
668.9803344100319
 21
275.88732661979873
 31
0.0
  0
LINE
  8
0
  6
CONTINUOUS
 62
               4
  5
1DD
 10
668.9803344100319
 20
282.88732661979839
 30
0.0
 11
655.48033441003236
 21
292.88732661979839
 31
0.0
  0
ARC
  8
0
  6
CONTINUOUS
 62
               4
  5
1DE
 10
657.48033441003236
 20
271.30475092484301
 30
0.0
 40
4.9999999999999991
 50
113.57817847820161
 51
179.9999999999996
  0
LINE
  8
0
  6
CONTINUOUS
 62
               4
  5
1DF
 10
652.76449588403648
 20
292.88732661979839
 30
0.0
 11
652.76449588403648
 21
275.88732661979873
 31
0.0
  0
LINE
  8
0
  6
CONTINUOUS
 62
               4
  5
1E0
 10
666.69083261065771
 20
282.88732661979839
 30
0.0
 11
666.69083261065771
 21
275.88732661979873
 31
0.0
  0
LINE
  8
0
  6
CONTINUOUS
 62
               4
  5
1E1
 10
668.9803344100319
 20
282.88732661979839
 30
0.0
 11
666.69083261065771
 21
282.88732661979839
 31
0.0
  0
LINE
  8
0
  6
CONTINUOUS
 62
               4
  5
1E2
 10
666.69083261065771
 20
282.88732661979839
 30
0.0
 11
652.76449588403648
 21
292.88732661979839
 31
0.0
  0
LINE
  8
0
  6
CONTINUOUS
 62
               4
  5
1E3
 10
670.48033441003281
 20
38.887326619798159
 30
0.0
 11
670.48033441003281
 21
20.887326619798273
 31
0.0
  0
LINE
  8
0
  6
CONTINUOUS
 62
               4
  5
1E4
 10
635.48033441003236
 20
41.887326619798159
 30
0.0
 11
635.48033441003236
 21
38.887326619798159
 31
0.0
  0
LINE
  8
0
  6
CONTINUOUS
 62
               4
  5
1E5
 10
635.48033441003236
 20
41.887326619798159
 30
0.0
 11
663.78033441003276
 21
41.887326619798159
 31
0.0
  0
LINE
  8
0
  6
CONTINUOUS
 62
               4
  5
1E6
 10
663.78033441003276
 20
38.887326619798159
 30
0.0
 11
663.78033441003276
 21
41.887326619798159
 31
0.0
  0
LINE
  8
0
  6
CONTINUOUS
 62
               4
  5
1E7
 10
663.78033441003276
 20
38.887326619798159
 30
0.0
 11
670.48033441003281
 21
38.887326619798159
 31
0.0
  0
LINE
  8
0
  6
CONTINUOUS
 62
               4
  5
1E8
 10
525.48033441003236
 20
41.887326619798159
 30
0.0
 11
525.48033441003236
 21
38.887326619798159
 31
0.0
  0
LINE
  8
0
  6
CONTINUOUS
 62
               4
  5
1E9
 10
525.48033441003236
 20
41.887326619798159
 30
0.0
 11
497.18033441003195
 21
41.887326619798159
 31
0.0
  0
LINE
  8
0
  6
CONTINUOUS
 62
               4
  5
1EA
 10
525.48033441003236
 20
38.887326619798159
 30
0.0
 11
635.48033441003236
 21
38.887326619798159
 31
0.0
  0
LINE
  8
0
  6
CONTINUOUS
 62
               4
  5
1EB
 10
670.48033441003236
 20
46.887326619798159
 30
0.0
 11
670.48033441003236
 21
64.887326619798159
 31
0.0
  0
LINE
  8
0
  6
CONTINUOUS
 62
               4
  5
1EC
 10
670.48033441003281
 20
46.887326619798159
 30
0.0
 11
490.48033441003281
 21
46.887326619798159
 31
0.0
  0
LINE
  8
0
  6
CONTINUOUS
 62
               4
  5
1ED
 10
670.4803344100319
 20
64.887326619799296
 30
0.0
 11
490.48033441003201
 21
64.887326619798159
 31
0.0
  0
LINE
  8
0
  6
CONTINUOUS
 62
               4
  5
1EE
 10
631.83033441003226
 20
64.887326619799182
 30
0.0
 11
631.83033441003226
 21
67.187326619799023
 31
0.0
  0
LINE
  8
0
  6
CONTINUOUS
 62
               4
  5
1EF
 10
631.83033441003226
 20
67.187326619799023
 30
0.0
 11
657.83033441003226
 21
67.187326619799023
 31
0.0
  0
LINE
  8
0
  6
CONTINUOUS
 62
               4
  5
1F0
 10
657.83033441003226
 20
67.187326619799023
 30
0.0
 11
657.83033441003226
 21
64.887326619799182
 31
0.0
  0
LINE
  8
0
  6
CONTINUOUS
 62
               4
  5
1F1
 10
657.83033441003226
 20
64.887326619799182
 30
0.0
 11
631.83033441003226
 21
64.887326619799182
 31
0.0
  0
LINE
  8
0
  6
CONTINUOUS
 62
               4
  5
1F2
 10
529.13033441003199
 20
67.187326619798228
 30
0.0
 11
529.13033441003199
 21
64.887326619798273
 31
0.0
  0
LINE
  8
0
  6
CONTINUOUS
 62
               4
  5
1F3
 10
529.13033441003199
 20
64.887326619798273
 30
0.0
 11
503.13033441003199
 21
64.887326619798273
 31
0.0
  0
LINE
  8
0
  6
CONTINUOUS
 62
               4
  5
1F4
 10
503.13033441003199
 20
64.887326619798273
 30
0.0
 11
503.13033441003199
 21
67.187326619798228
 31
0.0
  0
LINE
  8
0
  6
CONTINUOUS
 62
               4
  5
1F5
 10
503.13033441003199
 20
67.187326619798228
 30
0.0
 11
529.13033441003199
 21
67.187326619798228
 31
0.0
  0
ARC
  8
0
  6
CONTINUOUS
 62
               4
  5
1F6
 10
500.98033441003236
 20
69.887326619798159
 30
0.0
 40
5.0
 50
327.31636115374278
 51
359.9999999999992
  0
ARC
  8
0
  6
CONTINUOUS
 62
               4
  5
1F7
 10
500.98033441003236
 20
69.887326619798159
 30
0.0
 40
5.0
 50
269.99999999999937
 51
295.46756014246705
  0
LINE
  8
0
  6
CONTINUOUS
 62
               4
  5
1F8
 10
650.83033441003226
 20
77.187326619799023
 30
0.0
 11
650.83033441003226
 21
85.887326619798841
 31
0.0
  0
LINE
  8
0
  6
CONTINUOUS
 62
               4
  5
1F9
 10
638.83033441003226
 20
85.887326619798841
 30
0.0
 11
638.83033441003226
 21
77.187326619799023
 31
0.0
  0
LINE
  8
0
  6
CONTINUOUS
 62
               4
  5
1FA
 10
638.83033441003226
 20
85.887326619798841
 30
0.0
 11
650.83033441003226
 21
85.887326619798841
 31
0.0
  0
LINE
  8
0
  6
CONTINUOUS
 62
               4
  5
1FB
 10
522.13033441003199
 20
77.187326619798228
 30
0.0
 11
522.13033441003199
 21
85.887326619798273
 31
0.0
  0
LINE
  8
0
  6
CONTINUOUS
 62
               4
  5
1FC
 10
510.13033441003199
 20
85.887326619798273
 30
0.0
 11
510.13033441003199
 21
77.187326619798228
 31
0.0
  0
LINE
  8
0
  6
CONTINUOUS
 62
               4
  5
1FD
 10
510.13033441003199
 20
85.887326619798273
 30
0.0
 11
522.13033441003199
 21
85.887326619798273
 31
0.0
  0
LINE
  8
0
  6
CONTINUOUS
 62
               4
  5
1FE
 10
666.48033441003281
 20
46.887326619798159
 30
0.0
 11
666.48033441003281
 21
38.887326619798159
 31
0.0
  0
LINE
  8
0
  6
CONTINUOUS
 62
               4
  5
1FF
 10
524.6303344100329
 20
13.887326619798273
 30
0.0
 11
524.6303344100329
 21
20.887326619798273
 31
0.0
  0
LINE
  8
0
  6
CONTINUOUS
 62
               4
  5
200
 10
524.6303344100329
 20
13.887326619798273
 30
0.0
 11
508.13033441003279
 21
13.887326619798273
 31
0.0
  0
LINE
  8
0
  6
CONTINUOUS
 62
               4
  5
201
 10
502.25386040867102
 20
17.287326619798364
 30
0.0
 11
508.13033441003279
 21
13.887326619798273
 31
0.0
  0
LINE
  8
0
  6
CONTINUOUS
 62
               4
  5
202
 10
524.6303344100329
 20
20.887326619798273
 30
0.0
 11
499.30327294355516
 21
20.887326619798273
 31
0.0
  0
LINE
  8
0
  6
CONTINUOUS
 62
               4
  5
203
 10
499.30327294355516
 20
20.887326619798273
 30
0.0
 11
499.30327294355516
 21
17.287326619798364
 31
0.0
  0
LINE
  8
0
  6
CONTINUOUS
 62
               4
  5
204
 10
499.30327294355516
 20
17.287326619798364
 30
0.0
 11
502.25386040867102
 21
17.287326619798364
 31
0.0
  0
LINE
  8
0
  6
CONTINUOUS
 62
               4
  5
205
 10
628.00327294355543
 20
20.887326619798273
 30
0.0
 11
628.00327294355543
 21
17.287326619798364
 31
0.0
  0
LINE
  8
0
  6
CONTINUOUS
 62
               4
  5
206
 10
628.00327294355543
 20
17.287326619798364
 30
0.0
 11
642.97467568884258
 21
17.287326619798364
 31
0.0
  0
LINE
  8
0
  6
CONTINUOUS
 62
               4
  5
207
 10
630.95386040867129
 20
17.287326619798364
 30
0.0
 11
636.83033441003317
 21
13.887326619798273
 31
0.0
  0
LINE
  8
0
  6
CONTINUOUS
 62
               4
  5
208
 10
640.02408822372672
 20
20.887326619798273
 30
0.0
 11
640.02408822372672
 21
17.287326619798364
 31
0.0
  0
LINE
  8
0
  6
CONTINUOUS
 62
               4
  5
209
 10
650.48718865952537
 20
13.887326619798273
 30
0.0
 11
642.97467568884258
 21
17.287326619798364
 31
0.0
  0
LINE
  8
0
  6
CONTINUOUS
 62
               4
  5
20A
 10
653.33033441003317
 20
13.887326619798273
 30
0.0
 11
636.83033441003317
 21
13.887326619798273
 31
0.0
  0
LINE
  8
0
  6
CONTINUOUS
 62
               4
  5
20B
 10
653.33033441003317
 20
13.887326619798273
 30
0.0
 11
653.33033441003317
 21
20.887326619798273
 31
0.0
  0
LINE
  8
0
  6
CONTINUOUS
 62
               4
  5
20C
 10
653.33033441003317
 20
20.887326619798273
 30
0.0
 11
628.00327294355543
 21
20.887326619798273
 31
0.0
  0
ARC
  8
0
  6
CONTINUOUS
 62
               4
  5
20D
 10
659.98033441003236
 20
69.887326619798188
 30
0.0
 40
5.0
 50
179.9999999999996
 51
212.68363884625603
  0
ARC
  8
0
  6
CONTINUOUS
 62
               4
  5
20E
 10
659.98033441003236
 20
69.887326619798188
 30
0.0
 40
5.0
 50
244.5324398575259
 51
269.99999999999937
  0
LINE
  8
0
  6
CONTINUOUS
 62
               4
  5
20F
 10
507.63033441003165
 20
13.887326619798387
 30
0.0
 11
507.63033441003165
 21
20.887326619798387
 31
0.0
  0
LINE
  8
0
  6
CONTINUOUS
 62
               4
  5
210
 10
490.4803344100319
 20
38.887326619798216
 30
0.0
 11
490.4803344100319
 21
20.88732661979833
 31
0.0
  0
LINE
  8
0
  6
CONTINUOUS
 62
               4
  5
211
 10
497.18033441003206
 20
38.887326619798216
 30
0.0
 11
497.18033441003206
 21
41.887326619798216
 31
0.0
  0
LINE
  8
0
  6
CONTINUOUS
 62
               4
  5
212
 10
497.18033441003206
 20
38.887326619798216
 30
0.0
 11
490.4803344100319
 21
38.887326619798216
 31
0.0
  0
LINE
  8
0
  6
CONTINUOUS
 62
               4
  5
213
 10
490.48033441003236
 20
46.887326619798216
 30
0.0
 11
490.48033441003236
 21
64.887326619798216
 31
0.0
  0
LINE
  8
0
  6
CONTINUOUS
 62
               4
  5
214
 10
494.48033441003201
 20
46.887326619798216
 30
0.0
 11
494.48033441003201
 21
38.887326619798216
 31
0.0
  0
LINE
  8
0
  6
CONTINUOUS
 62
               4
  5
215
 10
655.4803344100319
 20
-98.112673380201983
 30
0.0
 11
655.48033441003236
 21
-211.11267338020198
 31
0.0
  0
LINE
  8
0
  6
CONTINUOUS
 62
               4
  5
216
 10
-694.51966558996764
 20
292.88732661979839
 30
0.0
 11
-544.51966558996764
 21
292.88732661979839
 31
0.0
  0
LINE
  8
0
  6
CONTINUOUS
 62
               4
  5
217
 10
-708.0196655899681
 20
282.88732661979839
 30
0.0
 11
-708.0196655899681
 21
275.88732661979873
 31
0.0
  0
LINE
  8
0
  6
CONTINUOUS
 62
               4
  5
218
 10
-708.0196655899681
 20
282.88732661979839
 30
0.0
 11
-694.51966558996764
 21
292.88732661979839
 31
0.0
  0
ARC
  8
0
  6
CONTINUOUS
 62
               4
  5
219
 10
-696.51966558996764
 20
271.30475092484301
 30
0.0
 40
4.9999999999999991
 50
0.0
 51
66.421821521798009
  0
LINE
  8
0
  6
CONTINUOUS
 62
               4
  5
21A
 10
-708.0196655899681
 20
275.88732661979873
 30
0.0
 11
-531.01966558996787
 21
275.88732661979873
 31
0.0
  0
LINE
  8
0
  6
CONTINUOUS
 62
               4
  5
21B
 10
-639.51966558996764
 20
275.88732661979873
 30
0.0
 11
-639.51966558996764
 21
292.88732661979839
 31
0.0
  0
LINE
  8
0
  6
CONTINUOUS
 62
               4
  5
21C
 10
-599.51966558996764
 20
292.88732661979839
 30
0.0
 11
-599.51966558996764
 21
275.88732661979873
 31
0.0
  0
LINE
  8
0
  6
CONTINUOUS
 62
               4
  5
21D
 10
-639.51966558996764
 20
282.88732661979839
 30
0.0
 11
-599.51966558996764
 21
282.88732661979839
 31
0.0
  0
LINE
  8
0
  6
CONTINUOUS
 62
               4
  5
21E
 10
-691.80382706397313
 20
292.88732661979839
 30
0.0
 11
-691.80382706397313
 21
275.88732661979873
 31
0.0
  0
LINE
  8
0
  6
CONTINUOUS
 62
               4
  5
21F
 10
-705.730163790593
 20
282.88732661979839
 30
0.0
 11
-705.730163790593
 21
275.88732661979873
 31
0.0
  0
LINE
  8
0
  6
CONTINUOUS
 62
               4
  5
220
 10
-708.0196655899681
 20
282.88732661979839
 30
0.0
 11
-705.730163790593
 21
282.88732661979839
 31
0.0
  0
LINE
  8
0
  6
CONTINUOUS
 62
               4
  5
221
 10
-705.730163790593
 20
282.88732661979839
 30
0.0
 11
-691.80382706397313
 21
292.88732661979839
 31
0.0
  0
LINE
  8
0
  6
CONTINUOUS
 62
               4
  5
222
 10
-531.01966558996787
 20
282.88732661979839
 30
0.0
 11
-531.01966558996787
 21
275.88732661979873
 31
0.0
  0
LINE
  8
0
  6
CONTINUOUS
 62
               4
  5
223
 10
-531.01966558996787
 20
282.88732661979839
 30
0.0
 11
-544.51966558996764
 21
292.88732661979839
 31
0.0
  0
ARC
  8
0
  6
CONTINUOUS
 62
               4
  5
224
 10
-542.51966558996764
 20
271.30475092484301
 30
0.0
 40
4.9999999999999991
 50
113.57817847820161
 51
179.9999999999996
  0
LINE
  8
0
  6
CONTINUOUS
 62
               4
  5
225
 10
-547.23550411596352
 20
292.88732661979839
 30
0.0
 11
-547.23550411596352
 21
275.88732661979873
 31
0.0
  0
LINE
  8
0
  6
CONTINUOUS
 62
               4
  5
226
 10
-533.30916738934229
 20
282.88732661979839
 30
0.0
 11
-533.30916738934229
 21
275.88732661979873
 31
0.0
  0
LINE
  8
0
  6
CONTINUOUS
 62
               4
  5
227
 10
-531.01966558996787
 20
282.88732661979839
 30
0.0
 11
-533.30916738934229
 21
282.88732661979839
 31
0.0
  0
LINE
  8
0
  6
CONTINUOUS
 62
               4
  5
228
 10
-533.30916738934229
 20
282.88732661979839
 30
0.0
 11
-547.23550411596352
 21
292.88732661979839
 31
0.0
  0
LINE
  8
0
  6
CONTINUOUS
 62
               4
  5
229
 10
-529.51966558996719
 20
38.887326619798159
 30
0.0
 11
-529.51966558996719
 21
20.887326619798273
 31
0.0
  0
LINE
  8
0
  6
CONTINUOUS
 62
               4
  5
22A
 10
-564.51966558996764
 20
41.887326619798159
 30
0.0
 11
-564.51966558996764
 21
38.887326619798159
 31
0.0
  0
LINE
  8
0
  6
CONTINUOUS
 62
               4
  5
22B
 10
-564.51966558996764
 20
41.887326619798159
 30
0.0
 11
-536.21966558996724
 21
41.887326619798159
 31
0.0
  0
LINE
  8
0
  6
CONTINUOUS
 62
               4
  5
22C
 10
-536.21966558996724
 20
38.887326619798159
 30
0.0
 11
-536.21966558996724
 21
41.887326619798159
 31
0.0
  0
LINE
  8
0
  6
CONTINUOUS
 62
               4
  5
22D
 10
-536.21966558996724
 20
38.887326619798159
 30
0.0
 11
-529.51966558996719
 21
38.887326619798159
 31
0.0
  0
LINE
  8
0
  6
CONTINUOUS
 62
               4
  5
22E
 10
-709.5196655899681
 20
38.887326619798159
 30
0.0
 11
-709.5196655899681
 21
20.887326619798273
 31
0.0
  0
LINE
  8
0
  6
CONTINUOUS
 62
               4
  5
22F
 10
-674.51966558996764
 20
41.887326619798159
 30
0.0
 11
-674.51966558996764
 21
38.887326619798159
 31
0.0
  0
LINE
  8
0
  6
CONTINUOUS
 62
               4
  5
230
 10
-674.51966558996764
 20
41.887326619798159
 30
0.0
 11
-702.81966558996805
 21
41.887326619798159
 31
0.0
  0
LINE
  8
0
  6
CONTINUOUS
 62
               4
  5
231
 10
-702.81966558996805
 20
38.887326619798159
 30
0.0
 11
-702.81966558996805
 21
41.887326619798159
 31
0.0
  0
LINE
  8
0
  6
CONTINUOUS
 62
               4
  5
232
 10
-702.81966558996805
 20
38.887326619798159
 30
0.0
 11
-709.5196655899681
 21
38.887326619798159
 31
0.0
  0
LINE
  8
0
  6
CONTINUOUS
 62
               4
  5
233
 10
-674.51966558996764
 20
38.887326619798159
 30
0.0
 11
-564.51966558996764
 21
38.887326619798159
 31
0.0
  0
LINE
  8
0
  6
CONTINUOUS
 62
               4
  5
234
 10
-709.51966558996764
 20
46.887326619798159
 30
0.0
 11
-709.51966558996764
 21
64.887326619798159
 31
0.0
  0
LINE
  8
0
  6
CONTINUOUS
 62
               4
  5
235
 10
-529.51966558996764
 20
46.887326619798159
 30
0.0
 11
-529.51966558996764
 21
64.887326619798159
 31
0.0
  0
LINE
  8
0
  6
CONTINUOUS
 62
               4
  5
236
 10
-529.51966558996719
 20
46.887326619798159
 30
0.0
 11
-709.51966558996719
 21
46.887326619798159
 31
0.0
  0
LINE
  8
0
  6
CONTINUOUS
 62
               4
  5
237
 10
-529.51966558996787
 20
64.887326619799296
 30
0.0
 11
-709.5196655899681
 21
64.887326619798159
 31
0.0
  0
LINE
  8
0
  6
CONTINUOUS
 62
               4
  5
238
 10
-568.16966558996774
 20
64.887326619799182
 30
0.0
 11
-568.16966558996774
 21
67.187326619799023
 31
0.0
  0
LINE
  8
0
  6
CONTINUOUS
 62
               4
  5
239
 10
-568.16966558996774
 20
67.187326619799023
 30
0.0
 11
-542.16966558996774
 21
67.187326619799023
 31
0.0
  0
LINE
  8
0
  6
CONTINUOUS
 62
               4
  5
23A
 10
-542.16966558996774
 20
67.187326619799023
 30
0.0
 11
-542.16966558996774
 21
64.887326619799182
 31
0.0
  0
LINE
  8
0
  6
CONTINUOUS
 62
               4
  5
23B
 10
-542.16966558996774
 20
64.887326619799182
 30
0.0
 11
-568.16966558996774
 21
64.887326619799182
 31
0.0
  0
LINE
  8
0
  6
CONTINUOUS
 62
               4
  5
23C
 10
-670.86966558996801
 20
67.187326619798228
 30
0.0
 11
-670.86966558996801
 21
64.887326619798273
 31
0.0
  0
LINE
  8
0
  6
CONTINUOUS
 62
               4
  5
23D
 10
-670.86966558996801
 20
64.887326619798273
 30
0.0
 11
-696.86966558996801
 21
64.887326619798273
 31
0.0
  0
LINE
  8
0
  6
CONTINUOUS
 62
               4
  5
23E
 10
-696.86966558996801
 20
64.887326619798273
 30
0.0
 11
-696.86966558996801
 21
67.187326619798228
 31
0.0
  0
LINE
  8
0
  6
CONTINUOUS
 62
               4
  5
23F
 10
-696.86966558996801
 20
67.187326619798228
 30
0.0
 11
-670.86966558996801
 21
67.187326619798228
 31
0.0
  0
LINE
  8
0
  6
CONTINUOUS
 62
               4
  5
240
 10
-549.16966558996774
 20
77.187326619799023
 30
0.0
 11
-549.16966558996774
 21
85.887326619798841
 31
0.0
  0
LINE
  8
0
  6
CONTINUOUS
 62
               4
  5
241
 10
-561.16966558996774
 20
85.887326619798841
 30
0.0
 11
-561.16966558996774
 21
77.187326619799023
 31
0.0
  0
LINE
  8
0
  6
CONTINUOUS
 62
               4
  5
242
 10
-561.16966558996774
 20
85.887326619798841
 30
0.0
 11
-549.16966558996774
 21
85.887326619798841
 31
0.0
  0
LINE
  8
0
  6
CONTINUOUS
 62
               4
  5
243
 10
-677.86966558996801
 20
77.187326619798228
 30
0.0
 11
-677.86966558996801
 21
85.887326619798273
 31
0.0
  0
LINE
  8
0
  6
CONTINUOUS
 62
               4
  5
244
 10
-689.86966558996801
 20
85.887326619798273
 30
0.0
 11
-689.86966558996801
 21
77.187326619798228
 31
0.0
  0
LINE
  8
0
  6
CONTINUOUS
 62
               4
  5
245
 10
-689.86966558996801
 20
85.887326619798273
 30
0.0
 11
-677.86966558996801
 21
85.887326619798273
 31
0.0
  0
LINE
  8
0
  6
CONTINUOUS
 62
               4
  5
246
 10
-533.51966558996719
 20
46.887326619798159
 30
0.0
 11
-533.51966558996719
 21
38.887326619798159
 31
0.0
  0
LINE
  8
0
  6
CONTINUOUS
 62
               4
  5
247
 10
-705.5196655899681
 20
46.887326619798159
 30
0.0
 11
-705.5196655899681
 21
38.887326619798159
 31
0.0
  0
LINE
  8
0
  6
CONTINUOUS
 62
               4
  5
248
 10
-675.3696655899671
 20
13.887326619798273
 30
0.0
 11
-675.3696655899671
 21
20.887326619798273
 31
0.0
  0
LINE
  8
0
  6
CONTINUOUS
 62
               4
  5
249
 10
-675.3696655899671
 20
13.887326619798273
 30
0.0
 11
-691.8696655899671
 21
13.887326619798273
 31
0.0
  0
LINE
  8
0
  6
CONTINUOUS
 62
               4
  5
24A
 10
-697.74613959132898
 20
17.287326619798364
 30
0.0
 11
-691.8696655899671
 21
13.887326619798273
 31
0.0
  0
LINE
  8
0
  6
CONTINUOUS
 62
               4
  5
24B
 10
-675.3696655899671
 20
20.887326619798273
 30
0.0
 11
-700.69672705644484
 21
20.887326619798273
 31
0.0
  0
LINE
  8
0
  6
CONTINUOUS
 62
               4
  5
24C
 10
-700.69672705644484
 20
20.887326619798273
 30
0.0
 11
-700.69672705644484
 21
17.287326619798364
 31
0.0
  0
LINE
  8
0
  6
CONTINUOUS
 62
               4
  5
24D
 10
-700.69672705644484
 20
17.287326619798364
 30
0.0
 11
-697.74613959132898
 21
17.287326619798364
 31
0.0
  0
LINE
  8
0
  6
CONTINUOUS
 62
               4
  5
24E
 10
-571.99672705644457
 20
20.887326619798273
 30
0.0
 11
-571.99672705644457
 21
17.287326619798364
 31
0.0
  0
LINE
  8
0
  6
CONTINUOUS
 62
               4
  5
24F
 10
-571.99672705644457
 20
17.287326619798364
 30
0.0
 11
-557.02532431115742
 21
17.287326619798364
 31
0.0
  0
LINE
  8
0
  6
CONTINUOUS
 62
               4
  5
250
 10
-569.04613959132871
 20
17.287326619798364
 30
0.0
 11
-563.16966558996683
 21
13.887326619798273
 31
0.0
  0
LINE
  8
0
  6
CONTINUOUS
 62
               4
  5
251
 10
-559.97591177627328
 20
20.887326619798273
 30
0.0
 11
-559.97591177627328
 21
17.287326619798364
 31
0.0
  0
LINE
  8
0
  6
CONTINUOUS
 62
               4
  5
252
 10
-549.51281134047463
 20
13.887326619798273
 30
0.0
 11
-557.02532431115742
 21
17.287326619798364
 31
0.0
  0
LINE
  8
0
  6
CONTINUOUS
 62
               4
  5
253
 10
-546.66966558996683
 20
13.887326619798273
 30
0.0
 11
-563.16966558996683
 21
13.887326619798273
 31
0.0
  0
LINE
  8
0
  6
CONTINUOUS
 62
               4
  5
254
 10
-546.66966558996683
 20
13.887326619798273
 30
0.0
 11
-546.66966558996683
 21
20.887326619798273
 31
0.0
  0
LINE
  8
0
  6
CONTINUOUS
 62
               4
  5
255
 10
-546.66966558996683
 20
20.887326619798273
 30
0.0
 11
-571.99672705644457
 21
20.887326619798273
 31
0.0
  0
LINE
  8
0
  6
CONTINUOUS
 62
               4
  5
256
 10
-694.51966558996696
 20
15.420558962511279
 30
0.0
 11
-694.51966558996696
 21
-93.112673380201869
 31
0.0
  0
LINE
  8
0
  6
CONTINUOUS
 62
               4
  5
257
 10
-94.519665589967659
 20
292.88732661979839
 30
0.0
 11
55.480334410032341
 21
292.88732661979839
 31
0.0
  0
LINE
  8
0
  6
CONTINUOUS
 62
               4
  5
258
 10
-108.01966558996811
 20
282.88732661979839
 30
0.0
 11
-108.01966558996811
 21
275.88732661979873
 31
0.0
  0
LINE
  8
0
  6
CONTINUOUS
 62
               4
  5
259
 10
-108.01966558996811
 20
282.88732661979839
 30
0.0
 11
-94.519665589967659
 21
292.88732661979839
 31
0.0
  0
ARC
  8
0
  6
CONTINUOUS
 62
               4
  5
25A
 10
-96.519665589967659
 20
271.30475092484301
 30
0.0
 40
4.9999999999999991
 50
0.0
 51
66.421821521798009
  0
LINE
  8
0
  6
CONTINUOUS
 62
               4
  5
25B
 10
-108.01966558996811
 20
275.88732661979873
 30
0.0
 11
68.980334410031944
 21
275.88732661979873
 31
0.0
  0
LINE
  8
0
  6
CONTINUOUS
 62
               4
  5
25C
 10
-39.519665589967659
 20
275.88732661979873
 30
0.0
 11
-39.519665589967659
 21
292.88732661979839
 31
0.0
  0
LINE
  8
0
  6
CONTINUOUS
 62
               4
  5
25D
 10
0.4803344100323379
 20
292.88732661979839
 30
0.0
 11
0.4803344100323379
 21
275.88732661979873
 31
0.0
  0
LINE
  8
0
  6
CONTINUOUS
 62
               4
  5
25E
 10
-39.519665589967659
 20
282.88732661979839
 30
0.0
 11
0.4803344100323379
 21
282.88732661979839
 31
0.0
  0
LINE
  8
0
  6
CONTINUOUS
 62
               4
  5
25F
 10
-91.803827063973145
 20
292.88732661979839
 30
0.0
 11
-91.803827063973145
 21
275.88732661979873
 31
0.0
  0
LINE
  8
0
  6
CONTINUOUS
 62
               4
  5
260
 10
-105.73016379059301
 20
282.88732661979839
 30
0.0
 11
-105.73016379059301
 21
275.88732661979873
 31
0.0
  0
LINE
  8
0
  6
CONTINUOUS
 62
               4
  5
261
 10
-108.01966558996811
 20
282.88732661979839
 30
0.0
 11
-105.73016379059301
 21
282.88732661979839
 31
0.0
  0
LINE
  8
0
  6
CONTINUOUS
 62
               4
  5
262
 10
-105.73016379059301
 20
282.88732661979839
 30
0.0
 11
-91.803827063973145
 21
292.88732661979839
 31
0.0
  0
LINE
  8
0
  6
CONTINUOUS
 62
               4
  5
263
 10
68.980334410031944
 20
282.88732661979839
 30
0.0
 11
68.980334410031944
 21
275.88732661979873
 31
0.0
  0
LINE
  8
0
  6
CONTINUOUS
 62
               4
  5
264
 10
68.980334410031944
 20
282.88732661979839
 30
0.0
 11
55.480334410032341
 21
292.88732661979839
 31
0.0
  0
ARC
  8
0
  6
CONTINUOUS
 62
               4
  5
265
 10
57.480334410032398
 20
271.30475092484301
 30
0.0
 40
4.9999999999999991
 50
113.57817847820161
 51
179.9999999999996
  0
LINE
  8
0
  6
CONTINUOUS
 62
               4
  5
266
 10
52.764495884036521
 20
292.88732661979839
 30
0.0
 11
52.764495884036521
 21
275.88732661979873
 31
0.0
  0
LINE
  8
0
  6
CONTINUOUS
 62
               4
  5
267
 10
66.69083261065775
 20
282.88732661979839
 30
0.0
 11
66.69083261065775
 21
275.88732661979873
 31
0.0
  0
LINE
  8
0
  6
CONTINUOUS
 62
               4
  5
268
 10
68.980334410031944
 20
282.88732661979839
 30
0.0
 11
66.69083261065775
 21
282.88732661979839
 31
0.0
  0
LINE
  8
0
  6
CONTINUOUS
 62
               4
  5
269
 10
66.69083261065775
 20
282.88732661979839
 30
0.0
 11
52.764495884036521
 21
292.88732661979839
 31
0.0
  0
LINE
  8
0
  6
CONTINUOUS
 62
               4
  5
26A
 10
-91.519665589967659
 20
271.30475092484301
 30
0.0
 11
-91.519665589967659
 21
196.42298037265118
 31
0.0
  0
LINE
  8
0
  6
CONTINUOUS
 62
               4
  5
26B
 10
52.480334410025293
 20
196.42298037265959
 30
0.0
 11
52.480334410032398
 21
271.30475092484301
 31
0.0
  0
LINE
  8
0
  6
CONTINUOUS
 62
               4
  5
26C
 10
-94.519665589967872
 20
185.88732661979839
 30
0.0
 11
-94.519665589968156
 21
69.887326619798159
 31
0.0
  0
CIRCLE
  8
0
  6
CONTINUOUS
 62
               4
  5
26D
 10
-19.519665589967399
 20
730.35317072229122
 30
0.0
 40
75.0
  0
LINE
  8
0
  6
CONTINUOUS
 62
               4
  5
26E
 10
-105.73016379059275
 20
750.35317072229122
 30
0.0
 11
-91.803827063972889
 21
750.35317072229122
 31
0.0
  0
LINE
  8
0
  6
CONTINUOUS
 62
               4
  5
26F
 10
-91.803827063972889
 20
710.35317072229122
 30
0.0
 11
-105.73016379059275
 21
710.35317072229122
 31
0.0
  0
ARC
  8
0
  6
CONTINUOUS
 62
               4
  5
270
 10
-19.519665589967399
 20
730.35317072229122
 30
0.0
 40
88.5
 50
166.93897588519908
 51
193.06102411480012
  0
LINE
  8
0
  6
CONTINUOUS
 62
               4
  5
271
 10
-39.519665589967403
 20
644.14267252166633
 30
0.0
 11
-39.519665589967403
 21
658.06900924828619
 31
0.0
  0
LINE
  8
0
  6
CONTINUOUS
 62
               4
  5
272
 10
0.4803344100326008
 20
658.06900924828619
 30
0.0
 11
0.4803344100326008
 21
644.14267252166633
 31
0.0
  0
ARC
  8
0
  6
CONTINUOUS
 62
               4
  5
273
 10
-19.519665589967399
 20
730.35317072229122
 30
0.0
 40
88.5
 50
256.93897588519889
 51
283.06102411479992
  0
LINE
  8
0
  6
CONTINUOUS
 62
               4
  5
274
 10
66.69083261065704
 20
710.35317072229122
 30
0.0
 11
52.764495884036776
 21
710.35317072229122
 31
0.0
  0
LINE
  8
0
  6
CONTINUOUS
 62
               4
  5
275
 10
52.764495884036776
 20
750.35317072229122
 30
0.0
 11
66.69083261065704
 21
750.35317072229122
 31
0.0
  0
ARC
  8
0
  6
CONTINUOUS
 62
               4
  5
276
 10
-19.519665589967399
 20
730.35317072229122
 30
0.0
 40
88.5
 50
346.93897588519866
 51
373.06102411479969
  0
LINE
  8
0
  6
CONTINUOUS
 62
               4
  5
277
 10
0.4803344100326008
 20
816.56366892291658
 30
0.0
 11
0.4803344100326008
 21
802.63733219629603
 31
0.0
  0
LINE
  8
0
  6
CONTINUOUS
 62
               4
  5
278
 10
-39.519665589967403
 20
802.63733219629603
 30
0.0
 11
-39.519665589967403
 21
816.56366892291658
 31
0.0
  0
ARC
  8
0
  6
CONTINUOUS
 62
               4
  5
279
 10
-19.519665589967399
 20
730.35317072229122
 30
0.0
 40
88.5
 50
76.938975885199284
 51
103.06102411480033
  0
ARC
  8
0
  6
CONTINUOUS
 62
               4
  5
27A
 10
-19.519665589967399
 20
730.35317072229122
 30
0.0
 40
77.5
 50
104.95524831664311
 51
165.04475168335631
  0
ARC
  8
0
  6
CONTINUOUS
 62
               4
  5
27B
 10
-19.519665589967399
 20
730.35317072229122
 30
0.0
 40
77.5
 50
14.955248316643299
 51
75.044751683356509
  0
ARC
  8
0
  6
CONTINUOUS
 62
               4
  5
27C
 10
-83.866382677942724
 20
794.69988781026677
 30
0.0
 40
17.5
 50
97.816433606470909
 51
172.18356639352851
  0
ARC
  8
0
  6
CONTINUOUS
 62
               4
  5
27D
 10
44.827051498008828
 20
794.69988781026677
 30
0.0
 40
17.5
 50
7.8164336064711222
 51
82.183566393528707
  0
ARC
  8
0
  6
CONTINUOUS
 62
               4
  5
27E
 10
44.827051498008828
 20
666.00645363431545
 30
0.0
 40
17.5
 50
277.81643360647053
 51
352.18356639352811
  0
ARC
  8
0
  6
CONTINUOUS
 62
               4
  5
27F
 10
-83.866382677942724
 20
666.00645363431545
 30
0.0
 40
17.5
 50
187.81643360647072
 51
262.18356639352828
  0
LINE
  8
0
  6
CONTINUOUS
 62
               4
  5
280
 10
62.164456787857276
 20
663.62645829492385
 30
0.0
 11
69.64413304354072
 21
718.11319469113459
 31
0.0
  0
ARC
  8
0
  6
CONTINUOUS
 62
               4
  5
281
 10
-19.519665589967399
 20
730.35317072229122
 30
0.0
 40
90.0
 50
352.18356639352805
 51
367.81643360647035
  0
LINE
  8
0
  6
CONTINUOUS
 62
               4
  5
282
 10
62.164456787857276
 20
797.07988314965837
 30
0.0
 11
69.64413304354072
 21
742.59314675344763
 31
0.0
  0
LINE
  8
0
  6
CONTINUOUS
 62
               4
  5
283
 10
47.207046837400199
 20
812.0372931001159
 30
0.0
 11
-7.2796895588105421
 21
819.51696935579866
 31
0.0
  0
ARC
  8
0
  6
CONTINUOUS
 62
               4
  5
284
 10
-19.519665589967399
 20
730.35317072229122
 30
0.0
 40
90.0
 50
82.183566393528665
 51
97.816433606470952
  0
LINE
  8
0
  6
CONTINUOUS
 62
               4
  5
285
 10
-86.246378017334493
 20
812.0372931001159
 30
0.0
 11
-31.759641621123802
 21
819.51696935579866
 31
0.0
  0
LINE
  8
0
  6
CONTINUOUS
 62
               4
  5
286
 10
47.207046837400199
 20
648.66904834446632
 30
0.0
 11
-7.2796895588108832
 21
641.18937208878356
 31
0.0
  0
LINE
  8
0
  6
CONTINUOUS
 62
               4
  5
287
 10
-86.246378017334493
 20
648.66904834446632
 30
0.0
 11
-31.759641621123858
 21
641.18937208878356
 31
0.0
  0
ARC
  8
0
  6
CONTINUOUS
 62
               4
  5
288
 10
-19.519665589967399
 20
730.35317072229122
 30
0.0
 40
90.0
 50
262.18356639352828
 51
277.81643360647053
  0
ARC
  8
0
  6
CONTINUOUS
 62
               4
  5
289
 10
-19.519665589967399
 20
730.35317072229122
 30
0.0
 40
77.5
 50
194.95524831664289
 51
255.04475168335611
  0
ARC
  8
0
  6
CONTINUOUS
 62
               4
  5
28A
 10
-19.519665589967399
 20
730.35317072229122
 30
0.0
 40
77.5
 50
284.95524831664267
 51
345.04475168335591
  0
CIRCLE
  8
0
  6
CONTINUOUS
 62
               4
  5
28B
 10
44.827051498008828
 20
794.69988781026677
 30
0.0
 40
13.0
  0
CIRCLE
  8
0
  6
CONTINUOUS
 62
               4
  5
28C
 10
44.827051498008828
 20
666.00645363431568
 30
0.0
 40
13.0
  0
CIRCLE
  8
0
  6
CONTINUOUS
 62
               4
  5
28D
 10
-19.519665589967371
 20
730.35317072229122
 30
0.0
 40
52.5
  0
LINE
  8
0
  6
CONTINUOUS
 62
               4
  5
28E
 10
-109.51966558996816
 20
38.887326619798188
 30
0.0
 11
-109.51966558996816
 21
20.887326619798301
 31
0.0
  0
LINE
  8
0
  6
CONTINUOUS
 62
               4
  5
28F
 10
-74.519665589967644
 20
41.887326619798188
 30
0.0
 11
-74.519665589967644
 21
38.887326619798188
 31
0.0
  0
LINE
  8
0
  6
CONTINUOUS
 62
               4
  5
290
 10
-74.519665589967644
 20
41.887326619798188
 30
0.0
 11
-102.81966558996805
 21
41.887326619798188
 31
0.0
  0
LINE
  8
0
  6
CONTINUOUS
 62
               4
  5
291
 10
-102.81966558996805
 20
38.887326619798188
 30
0.0
 11
-102.81966558996805
 21
41.887326619798188
 31
0.0
  0
LINE
  8
0
  6
CONTINUOUS
 62
               4
  5
292
 10
-102.81966558996805
 20
38.887326619798188
 30
0.0
 11
-109.51966558996816
 21
38.887326619798188
 31
0.0
  0
LINE
  8
0
  6
CONTINUOUS
 62
               4
  5
293
 10
-74.519665589967644
 20
38.887326619798188
 30
0.0
 11
35.48033441003237
 21
38.887326619798188
 31
0.0
  0
LINE
  8
0
  6
CONTINUOUS
 62
               4
  5
294
 10
-109.5196655899677
 20
46.887326619798188
 30
0.0
 11
-109.5196655899677
 21
64.887326619798188
 31
0.0
  0
LINE
  8
0
  6
CONTINUOUS
 62
               4
  5
295
 10
70.48033441003281
 20
46.887326619798188
 30
0.0
 11
-109.51966558996725
 21
46.887326619798188
 31
0.0
  0
LINE
  8
0
  6
CONTINUOUS
 62
               4
  5
296
 10
70.480334410031958
 20
64.887326619799325
 30
0.0
 11
-109.51966558996804
 21
64.887326619798188
 31
0.0
  0
LINE
  8
0
  6
CONTINUOUS
 62
               4
  5
297
 10
-70.869665589967951
 20
67.187326619798256
 30
0.0
 11
-70.869665589967951
 21
64.887326619798301
 31
0.0
  0
LINE
  8
0
  6
CONTINUOUS
 62
               4
  5
298
 10
-70.869665589967951
 20
64.887326619798301
 30
0.0
 11
-96.869665589968008
 21
64.887326619798301
 31
0.0
  0
LINE
  8
0
  6
CONTINUOUS
 62
               4
  5
299
 10
-96.869665589968008
 20
64.887326619798301
 30
0.0
 11
-96.869665589968008
 21
67.187326619798256
 31
0.0
  0
LINE
  8
0
  6
CONTINUOUS
 62
               4
  5
29A
 10
-96.869665589968008
 20
67.187326619798256
 30
0.0
 11
-70.869665589967951
 21
67.187326619798256
 31
0.0
  0
ARC
  8
0
  6
CONTINUOUS
 62
               4
  5
29B
 10
-99.519665589968042
 20
69.887326619798188
 30
0.0
 40
5.0
 50
327.31636115374278
 51
359.9999999999992
  0
ARC
  8
0
  6
CONTINUOUS
 62
               4
  5
29C
 10
-99.519665589968042
 20
69.887326619798188
 30
0.0
 40
5.0
 50
269.99999999999937
 51
302.00545482776477
  0
LINE
  8
0
  6
CONTINUOUS
 62
               4
  5
29D
 10
-77.869665589968008
 20
77.187326619798256
 30
0.0
 11
-77.869665589968008
 21
85.887326619798301
 31
0.0
  0
LINE
  8
0
  6
CONTINUOUS
 62
               4
  5
29E
 10
-89.869665589967951
 20
85.887326619798301
 30
0.0
 11
-89.869665589967951
 21
77.187326619798256
 31
0.0
  0
LINE
  8
0
  6
CONTINUOUS
 62
               4
  5
29F
 10
-89.869665589967951
 20
85.887326619798301
 30
0.0
 11
-77.869665589968008
 21
85.887326619798301
 31
0.0
  0
LINE
  8
0
  6
CONTINUOUS
 62
               4
  5
2A0
 10
-105.5196655899681
 20
46.887326619798188
 30
0.0
 11
-105.5196655899681
 21
38.887326619798188
 31
0.0
  0
LINE
  8
0
  6
CONTINUOUS
 62
               4
  5
2A1
 10
-75.369665589967155
 20
13.887326619798301
 30
0.0
 11
-75.369665589967155
 21
20.887326619798301
 31
0.0
  0
LINE
  8
0
  6
CONTINUOUS
 62
               4
  5
2A2
 10
-75.369665589967155
 20
13.887326619798301
 30
0.0
 11
-91.869665589967212
 21
13.887326619798301
 31
0.0
  0
LINE
  8
0
  6
CONTINUOUS
 62
               4
  5
2A3
 10
-97.746139591328983
 20
17.287326619798392
 30
0.0
 11
-91.869665589967212
 21
13.887326619798301
 31
0.0
  0
LINE
  8
0
  6
CONTINUOUS
 62
               4
  5
2A4
 10
-75.369665589967155
 20
20.887326619798301
 30
0.0
 11
-100.69672705644484
 21
20.887326619798301
 31
0.0
  0
LINE
  8
0
  6
CONTINUOUS
 62
               4
  5
2A5
 10
-100.69672705644484
 20
20.887326619798301
 30
0.0
 11
-100.69672705644484
 21
17.287326619798392
 31
0.0
  0
LINE
  8
0
  6
CONTINUOUS
 62
               4
  5
2A6
 10
-100.69672705644484
 20
17.287326619798392
 30
0.0
 11
-97.746139591328983
 21
17.287326619798392
 31
0.0
  0
LINE
  8
0
  6
CONTINUOUS
 62
               4
  5
2A7
 10
70.480334410032796
 20
38.887326619798188
 30
0.0
 11
70.480334410032796
 21
20.887326619798301
 31
0.0
  0
LINE
  8
0
  6
CONTINUOUS
 62
               4
  5
2A8
 10
35.480334410032356
 20
41.887326619798188
 30
0.0
 11
35.480334410032356
 21
38.887326619798188
 31
0.0
  0
LINE
  8
0
  6
CONTINUOUS
 62
               4
  5
2A9
 10
35.480334410032356
 20
41.887326619798188
 30
0.0
 11
63.780334410032751
 21
41.887326619798188
 31
0.0
  0
LINE
  8
0
  6
CONTINUOUS
 62
               4
  5
2AA
 10
63.780334410032751
 20
38.887326619798188
 30
0.0
 11
63.780334410032751
 21
41.887326619798188
 31
0.0
  0
LINE
  8
0
  6
CONTINUOUS
 62
               4
  5
2AB
 10
63.780334410032751
 20
38.887326619798188
 30
0.0
 11
70.480334410032796
 21
38.887326619798188
 31
0.0
  0
LINE
  8
0
  6
CONTINUOUS
 62
               4
  5
2AC
 10
70.480334410032341
 20
46.887326619798188
 30
0.0
 11
70.480334410032341
 21
64.887326619798188
 31
0.0
  0
LINE
  8
0
  6
CONTINUOUS
 62
               4
  5
2AD
 10
31.830334410032261
 20
64.887326619799211
 30
0.0
 11
31.830334410032261
 21
67.187326619799052
 31
0.0
  0
LINE
  8
0
  6
CONTINUOUS
 62
               4
  5
2AE
 10
31.830334410032261
 20
67.187326619799052
 30
0.0
 11
57.830334410032194
 21
67.187326619799052
 31
0.0
  0
LINE
  8
0
  6
CONTINUOUS
 62
               4
  5
2AF
 10
57.830334410032194
 20
67.187326619799052
 30
0.0
 11
57.830334410032194
 21
64.887326619799211
 31
0.0
  0
LINE
  8
0
  6
CONTINUOUS
 62
               4
  5
2B0
 10
57.830334410032194
 20
64.887326619799211
 30
0.0
 11
31.830334410032261
 21
64.887326619799211
 31
0.0
  0
LINE
  8
0
  6
CONTINUOUS
 62
               4
  5
2B1
 10
50.830334410032307
 20
77.187326619799052
 30
0.0
 11
50.830334410032307
 21
85.88732661979887
 31
0.0
  0
LINE
  8
0
  6
CONTINUOUS
 62
               4
  5
2B2
 10
38.830334410032322
 20
85.88732661979887
 30
0.0
 11
38.830334410032322
 21
77.187326619799052
 31
0.0
  0
LINE
  8
0
  6
CONTINUOUS
 62
               4
  5
2B3
 10
38.830334410032322
 20
85.88732661979887
 30
0.0
 11
50.830334410032307
 21
85.88732661979887
 31
0.0
  0
LINE
  8
0
  6
CONTINUOUS
 62
               4
  5
2B4
 10
66.480334410032796
 20
46.887326619798188
 30
0.0
 11
66.480334410032796
 21
38.887326619798188
 31
0.0
  0
LINE
  8
0
  6
CONTINUOUS
 62
               4
  5
2B5
 10
28.003272943555427
 20
20.887326619798301
 30
0.0
 11
28.003272943555427
 21
17.287326619798392
 31
0.0
  0
LINE
  8
0
  6
CONTINUOUS
 62
               4
  5
2B6
 10
28.003272943555427
 20
17.287326619798392
 30
0.0
 11
42.974675688842567
 21
17.287326619798392
 31
0.0
  0
LINE
  8
0
  6
CONTINUOUS
 62
               4
  5
2B7
 10
30.953860408671286
 20
17.287326619798392
 30
0.0
 11
36.830334410033061
 21
13.887326619798301
 31
0.0
  0
LINE
  8
0
  6
CONTINUOUS
 62
               4
  5
2B8
 10
40.024088223726721
 20
20.887326619798301
 30
0.0
 11
40.024088223726721
 21
17.287326619798392
 31
0.0
  0
LINE
  8
0
  6
CONTINUOUS
 62
               4
  5
2B9
 10
50.487188659525359
 20
13.887326619798301
 30
0.0
 11
42.974675688842567
 21
17.287326619798392
 31
0.0
  0
LINE
  8
0
  6
CONTINUOUS
 62
               4
  5
2BA
 10
53.330334410033046
 20
13.887326619798301
 30
0.0
 11
36.830334410033061
 21
13.887326619798301
 31
0.0
  0
LINE
  8
0
  6
CONTINUOUS
 62
               4
  5
2BB
 10
53.330334410033046
 20
13.887326619798301
 30
0.0
 11
53.330334410033046
 21
20.887326619798301
 31
0.0
  0
LINE
  8
0
  6
CONTINUOUS
 62
               4
  5
2BC
 10
53.330334410033046
 20
20.887326619798301
 30
0.0
 11
28.003272943555427
 21
20.887326619798301
 31
0.0
  0
ARC
  8
0
  6
CONTINUOUS
 62
               4
  5
2BD
 10
-74.519665589965825
 20
185.88732661979839
 30
0.0
 40
19.999999999999996
 50
148.21166938291952
 51
179.9999999999996
  0
ARC
  8
0
  6
CONTINUOUS
 62
               4
  5
2BE
 10
6.2643002220002018
 20
185.88732661979856
 30
0.0
 40
17.566965811965957
 50
143.14855134076873
 51
179.9999999999996
  0
LINE
  8
0
  6
CONTINUOUS
 62
               4
  5
2BF
 10
-31.246665589966142
 20
201.42298037265124
 30
0.0
 11
-7.7926655899655088
 21
201.42298037265124
 31
0.0
  0
ARC
  8
0
  6
CONTINUOUS
 62
               4
  5
2C0
 10
-45.303631401931398
 20
185.88732661979856
 30
0.0
 40
17.566965811965957
 50
0.0
 51
36.851448659230869
  0
LINE
  8
0
  6
CONTINUOUS
 62
               4
  5
2C1
 10
-7.7926655899655088
 20
196.42298037265124
 30
0.0
 11
-7.7926655899655088
 21
201.42298037265124
 31
0.0
  0
LINE
  8
0
  6
CONTINUOUS
 62
               4
  5
2C2
 10
-31.246665589966142
 20
196.42298037265124
 30
0.0
 11
-31.246665589966142
 21
201.42298037265124
 31
0.0
  0
LINE
  8
0
  6
CONTINUOUS
 62
               4
  5
2C3
 10
-7.7926655899655088
 20
201.42298037265124
 30
0.0
 11
-13.519665589965598
 21
196.42298037265124
 31
0.0
  0
LINE
  8
0
  6
CONTINUOUS
 62
               4
  5
2C4
 10
-25.519665589965371
 20
196.42298037265124
 30
0.0
 11
-31.246665589966142
 21
201.42298037265124
 31
0.0
  0
LINE
  8
0
  6
CONTINUOUS
 62
               4
  5
2C5
 10
-13.519665589965598
 20
196.42298037265124
 30
0.0
 11
-25.519665589965371
 21
196.42298037265124
 31
0.0
  0
LINE
  8
0
  6
CONTINUOUS
 62
               4
  5
2C6
 10
-13.519665589965598
 20
196.42298037265124
 30
0.0
 11
-13.519665589965598
 21
64.887326619798785
 31
0.0
  0
LINE
  8
0
  6
CONTINUOUS
 62
               4
  5
2C7
 10
-11.302665589965727
 20
185.88732661979856
 30
0.0
 11
-11.302665589965727
 21
64.887326619798785
 31
0.0
  0
LINE
  8
0
  6
CONTINUOUS
 62
               4
  5
2C8
 10
-25.519665589966053
 20
64.887326619798699
 30
0.0
 11
-25.519665589965371
 21
196.42298037265124
 31
0.0
  0
LINE
  8
0
  6
CONTINUOUS
 62
               4
  5
2C9
 10
-27.736665589965469
 20
185.88732661979856
 30
0.0
 11
-27.736665589965469
 21
64.887326619798699
 31
0.0
  0
LINE
  8
0
  6
CONTINUOUS
 62
               4
  5
2CA
 10
-31.246665589965318
 20
196.42298037265118
 30
0.0
 11
-91.519665589967659
 21
196.42298037265118
 31
0.0
  0
LINE
  8
0
  6
CONTINUOUS
 62
               4
  5
2CB
 10
-7.7926655899655088
 20
196.42298037265118
 30
0.0
 11
52.4803344100253
 21
196.42298037265959
 31
0.0
  0
LINE
  8
0
  6
CONTINUOUS
 62
               4
  5
2CC
 10
55.480334410032597
 20
185.88732661979839
 30
0.0
 11
55.480334410032896
 21
69.887326619798174
 31
0.0
  0
ARC
  8
0
  6
CONTINUOUS
 62
               4
  5
2CD
 10
35.480334410030551
 20
185.88732661979839
 30
0.0
 40
19.999999999999996
 50
0.000000000000008
 51
31.788330617080092
  0
ARC
  8
0
  6
CONTINUOUS
 62
               4
  5
2CE
 10
60.480334410032782
 20
69.887326619798202
 30
0.0
 40
5.0
 50
179.9999999999996
 51
212.68363884625603
  0
ARC
  8
0
  6
CONTINUOUS
 62
               4
  5
2CF
 10
60.480334410032782
 20
69.887326619798202
 30
0.0
 40
5.0
 50
237.99454517223401
 51
269.99999999999937
  0
LINE
  8
0
  6
CONTINUOUS
 62
               4
  5
2D0
 10
508.48033441003236
 20
201.42298037265181
 30
0.0
 11
508.48033441003236
 21
271.30475092484295
 31
0.0
  0
LINE
  8
0
  6
CONTINUOUS
 62
               4
  5
2D1
 10
651.98033441003281
 20
196.42298037265112
 30
0.0
 11
508.9803344100319
 21
196.42298037265112
 31
0.0
  0
LINE
  8
0
  6
CONTINUOUS
 62
               4
  5
2D2
 10
503.48033441003236
 20
196.42298037265112
 30
0.0
 11
508.48033441003236
 21
201.42298037265112
 31
0.0
  0
ARC
  8
0
  6
CONTINUOUS
 62
               4
  5
2D3
 10
525.98033441003236
 20
185.88732661979839
 30
0.0
 40
19.999999999999996
 50
148.21166938294789
 51
179.9999999999996
  0
LINE
  8
0
  6
CONTINUOUS
 62
               4
  5
2D4
 10
508.9803344100319
 20
196.42298037265112
 30
0.0
 11
508.9803344100319
 21
201.42298037265181
 31
0.0
  0
LINE
  8
0
  6
CONTINUOUS
 62
               4
  5
2D5
 10
508.48033441003236
 20
201.42298037265112
 30
0.0
 11
508.9803344100319
 21
201.42298037265112
 31
0.0
  0
LINE
  8
0
  6
CONTINUOUS
 62
               4
  5
2D6
 10
657.48033441003236
 20
196.42298037265112
 30
0.0
 11
652.48033441003236
 21
201.42298037265112
 31
0.0
  0
ARC
  8
0
  6
CONTINUOUS
 62
               4
  5
2D7
 10
634.98033441003236
 20
185.88732661979839
 30
0.0
 40
19.999999999999996
 50
0.0
 51
31.788330617051724
  0
LINE
  8
0
  6
CONTINUOUS
 62
               4
  5
2D8
 10
651.98033441003281
 20
196.42298037265112
 30
0.0
 11
651.98033441003281
 21
201.42298037265181
 31
0.0
  0
LINE
  8
0
  6
CONTINUOUS
 62
               4
  5
2D9
 10
652.48033441003236
 20
201.42298037265112
 30
0.0
 11
651.98033441003281
 21
201.42298037265112
 31
0.0
  0
LINE
  8
0
  6
CONTINUOUS
 62
               4
  5
2DA
 10
652.48033441003236
 20
271.30475092484295
 30
0.0
 11
652.48033441003236
 21
201.42298037265112
 31
0.0
  0
LINE
  8
0
  6
CONTINUOUS
 62
               4
  5
2DB
 10
654.98033441003236
 20
185.88732661979839
 30
0.0
 11
654.98033441003236
 21
69.887326619798188
 31
0.0
  0
LINE
  8
0
  6
CONTINUOUS
 62
               4
  5
2DC
 10
657.48033441003236
 20
196.42298037265112
 30
0.0
 11
657.48033441003236
 21
69.887326619797861
 31
0.0
  0
LINE
  8
0
  6
CONTINUOUS
 62
               4
  5
2DD
 10
503.48033441003236
 20
196.42298037265112
 30
0.0
 11
503.48033441003236
 21
69.887326619797861
 31
0.0
  0
LINE
  8
0
  6
CONTINUOUS
 62
               4
  5
2DE
 10
505.98033441003236
 20
185.88732661979839
 30
0.0
 11
505.98033441003236
 21
69.887326619798159
 31
0.0
  0
ARC
  8
0
  6
CONTINUOUS
 62
               4
  5
2DF
 10
498.48033441003236
 20
69.887326619797861
 30
0.0
 40
5.0
 50
269.99999999999937
 51
359.9999999999992
  0
ARC
  8
0
  6
CONTINUOUS
 62
               4
  5
2E0
 10
662.48033441003236
 20
69.887326619797861
 30
0.0
 40
5.0
 50
179.9999999999996
 51
269.99999999999937
  0
LINE
  8
0
  6
CONTINUOUS
 62
               4
  5
2E1
 10
-542.51966558996764
 20
196.42298037265107
 30
0.0
 11
-547.51966558996764
 21
201.42298037265107
 31
0.0
  0
ARC
  8
0
  6
CONTINUOUS
 62
               4
  5
2E2
 10
-565.01966558996764
 20
185.8873266197983
 30
0.0
 40
19.999999999999996
 50
0.000000000000008
 51
31.788330617051731
  0
LINE
  8
0
  6
CONTINUOUS
 62
               4
  5
2E3
 10
-548.01966558996719
 20
196.42298037265107
 30
0.0
 11
-548.01966558996719
 21
201.42298037265175
 31
0.0
  0
LINE
  8
0
  6
CONTINUOUS
 62
               4
  5
2E4
 10
-547.51966558996764
 20
201.42298037265107
 30
0.0
 11
-548.01966558996719
 21
201.42298037265107
 31
0.0
  0
LINE
  8
0
  6
CONTINUOUS
 62
               4
  5
2E5
 10
-691.0196655899681
 20
196.42298037265104
 30
0.0
 11
-548.01966558996719
 21
196.42298037265107
 31
0.0
  0
LINE
  8
0
  6
CONTINUOUS
 62
               4
  5
2E6
 10
-696.51966558996764
 20
196.42298037265104
 30
0.0
 11
-691.51966558996764
 21
201.42298037265104
 31
0.0
  0
ARC
  8
0
  6
CONTINUOUS
 62
               4
  5
2E7
 10
-674.01966558996764
 20
185.8873266197983
 30
0.0
 40
19.999999999999996
 50
148.21166938294789
 51
179.9999999999996
  0
LINE
  8
0
  6
CONTINUOUS
 62
               4
  5
2E8
 10
-691.0196655899681
 20
196.42298037265104
 30
0.0
 11
-691.0196655899681
 21
201.42298037265172
 31
0.0
  0
LINE
  8
0
  6
CONTINUOUS
 62
               4
  5
2E9
 10
-691.51966558996764
 20
201.42298037265104
 30
0.0
 11
-691.0196655899681
 21
201.42298037265104
 31
0.0
  0
LINE
  8
0
  6
CONTINUOUS
 62
               4
  5
2EA
 10
-691.51966558996764
 20
271.30475092484284
 30
0.0
 11
-691.51966558996764
 21
201.42298037265104
 31
0.0
  0
LINE
  8
0
  6
CONTINUOUS
 62
               4
  5
2EB
 10
-547.51966558996764
 20
201.42298037265175
 30
0.0
 11
-547.51966558996764
 21
271.30475092484289
 31
0.0
  0
LINE
  8
0
  6
CONTINUOUS
 62
               4
  5
2EC
 10
-545.01966558996764
 20
185.88732661979833
 30
0.0
 11
-545.01966558996764
 21
69.887326619798088
 31
0.0
  0
LINE
  8
0
  6
CONTINUOUS
 62
               4
  5
2ED
 10
-542.51966558996764
 20
196.42298037265107
 30
0.0
 11
-542.51966558996764
 21
69.88732661979779
 31
0.0
  0
LINE
  8
0
  6
CONTINUOUS
 62
               4
  5
2EE
 10
-694.01966558996764
 20
185.8873266197983
 30
0.0
 11
-694.01966558996764
 21
69.887326619798102
 31
0.0
  0
LINE
  8
0
  6
CONTINUOUS
 62
               4
  5
2EF
 10
-696.51966558996764
 20
196.42298037265104
 30
0.0
 11
-696.51966558996764
 21
69.887326619797776
 31
0.0
  0
ARC
  8
0
  6
CONTINUOUS
 62
               4
  5
2F0
 10
-699.01966558996764
 20
69.887326619798102
 30
0.0
 40
5.0
 50
327.31636115374278
 51
359.9999999999992
  0
ARC
  8
0
  6
CONTINUOUS
 62
               4
  5
2F1
 10
-699.01966558996764
 20
69.887326619798102
 30
0.0
 40
5.0
 50
269.99999999999937
 51
295.46756014247291
  0
ARC
  8
0
  6
CONTINUOUS
 62
               4
  5
2F2
 10
-701.51966558996764
 20
69.887326619797776
 30
0.0
 40
5.0
 50
269.99999999999937
 51
359.9999999999992
  0
ARC
  8
0
  6
CONTINUOUS
 62
               4
  5
2F3
 10
-540.01966558996764
 20
69.887326619798088
 30
0.0
 40
5.0
 50
179.9999999999996
 51
212.68363884625603
  0
ARC
  8
0
  6
CONTINUOUS
 62
               4
  5
2F4
 10
-540.01966558996764
 20
69.887326619798088
 30
0.0
 40
5.0
 50
244.53243985753176
 51
269.99999999999937
  0
ARC
  8
0
  6
CONTINUOUS
 62
               4
  5
2F5
 10
-537.51966558996764
 20
69.88732661979779
 30
0.0
 40
5.0
 50
179.9999999999996
 51
269.99999999999937
  0
LINE
  8
0
  6
CONTINUOUS
 62
               4
  5
2F6
 10
-53.523341861805918
 20
770.35317072229122
 30
0.0
 11
14.484010681871336
 21
770.353170722291
 31
0.0
  0
LINE
  8
0
  6
CONTINUOUS
 62
               4
  5
2F7
 10
-41.519665589967914
 20
730.35317072229122
 30
0.0
 11
-64.390156956453367
 21
757.60916097269524
 31
0.0
  0
LINE
  8
0
  6
CONTINUOUS
 62
               4
  5
2F8
 10
-41.519665589967914
 20
708.35317072229077
 30
0.0
 11
28.148457930892459
 21
708.35317072229077
 31
0.0
  0
LINE
  8
0
  6
CONTINUOUS
 62
               4
  5
2F9
 10
-41.519665589967914
 20
730.35317072229122
 30
0.0
 11
-41.519665589967914
 21
682.68504720143142
 31
0.0
  0
CIRCLE
  8
0
  6
CONTINUOUS
 62
               4
  5
2FA
 10
-83.866382677943534
 20
666.00645363431568
 30
0.0
 40
13.0
  0
CIRCLE
  8
0
  6
CONTINUOUS
 62
               4
  5
2FB
 10
-83.866382677943434
 20
794.69988781026677
 30
0.0
 40
13.0
  0
LINE
  8
0
  6
CONTINUOUS
 62
               4
  5
2FC
 10
-101.20378796779163
 20
797.07988314965849
 30
0.0
 11
-108.68346422347507
 21
742.59314675344774
 31
0.0
  0
LINE
  8
0
  6
CONTINUOUS
 62
               4
  5
2FD
 10
-101.20378796779163
 20
663.62645829492396
 30
0.0
 11
-108.68346422347513
 21
718.11319469113482
 31
0.0
  0
ARC
  8
0
  6
CONTINUOUS
 62
               4
  5
2FE
 10
-19.519665589967403
 20
730.35317072229122
 30
0.0
 40
90.0
 50
172.18356639352845
 51
187.81643360647072
  0
LINE
  8
0
  6
CONTINUOUS
 62
               4
  5
2FF
 10
70.48033441003281
 20
20.887326619798301
 30
0.0
 11
-109.51966558996816
 21
20.887326619798301
 31
0.0
  0
LINE
  8
0
  6
CONTINUOUS
 62
               4
  5
300
 10
-103.01966558996719
 20
-98.11267338020204
 30
0.0
 11
63.980334410031872
 21
-98.112673380201826
 31
0.0
  0
LINE
  8
0
  6
CONTINUOUS
 62
               4
  5
301
 10
496.98033441003281
 20
-98.112673380202054
 30
0.0
 11
663.9803344100319
 21
-98.112673380201855
 31
0.0
  0
LINE
  8
0
  6
CONTINUOUS
 62
               4
  5
302
 10
-703.01966558996708
 20
-98.112673380201898
 30
0.0
 11
-532.66497754076556
 21
-98.112673380201727
 31
0.0
  0
ARC
  8
0
  6
CONTINUOUS
 62
               4
  5
303
 10
655.48033441003179
 20
-95.61267338020194
 30
0.0
 40
2.4999999999999996
 50
269.99999999999937
 51
449.99999999999898
  0
LINE
  8
0
  6
CONTINUOUS
 62
               4
  5
304
 10
655.4803344100319
 20
20.887326619798273
 30
0.0
 11
655.4803344100319
 21
-93.11267338020194
 31
0.0
  0
ARC
  8
0
  6
CONTINUOUS
 62
               4
  5
305
 10
-694.51966558996708
 20
-95.612673380201954
 30
0.0
 40
2.4999999999999996
 50
89.999999999999801
 51
269.99999999999937
  0
LINE
  8
0
  6
CONTINUOUS
 62
               4
  5
306
 10
-694.51966558996708
 20
-98.112673380201954
 30
0.0
 11
-694.51966558996708
 21
-211.11267338020207
 31
0.0
  0
LINE
  8
0
  6
CONTINUOUS
 62
               4
  5
307
 10
-76.519665589967587
 20
-472.11267338020139
 30
0.0
 11
-77.519665589967587
 21
-471.11267338020139
 31
0.0
  0
LINE
  8
0
  6
CONTINUOUS
 62
               4
  5
308
 10
-94.519665589967076
 20
-211.11267338020204
 30
0.0
 11
55.480334410031787
 21
-211.11267338020204
 31
0.0
  0
LINE
  8
0
  6
CONTINUOUS
 62
               4
  5
309
 10
40.759046576065373
 20
-340.31975844699139
 30
0.0
 11
55.480334410031787
 21
-211.11267338021744
 31
0.0
  0
LINE
  8
0
  6
CONTINUOUS
 62
               4
  5
30A
 10
-79.798377756000548
 20
-340.31975844699139
 30
0.0
 11
-94.519665589967076
 21
-211.11267338020204
 31
0.0
  0
LINE
  8
0
  6
CONTINUOUS
 62
               4
  5
30B
 10
40.759046576065316
 20
-340.31975844699093
 30
0.0
 11
-79.798377756000548
 21
-340.31975844699093
 31
0.0
  0
LINE
  8
0
  6
CONTINUOUS
 62
               4
  5
30C
 10
-80.280875394531733
 20
-358.16910970364211
 30
0.0
 11
-81.999299360772284
 21
-343.0866961206026
 31
0.0
  0
ARC
  8
0
  6
CONTINUOUS
 62
               4
  5
30D
 10
-79.515369721580839
 20
-342.80368808618277
 30
0.0
 40
2.5
 50
96.499999999999815
 51
186.4999999999998
  0
ARC
  8
0
  6
CONTINUOUS
 62
               4
  5
30E
 10
-77.802673624387467
 20
-357.83582880779977
 30
0.0
 40
2.5
 50
186.4999999999998
 51
276.5000000000008
  0
LINE
  8
0
  6
CONTINUOUS
 62
               4
  5
30F
 10
-77.519665589967587
 20
-360.31975844699082
 30
0.0
 11
38.480334410032413
 21
-360.31975844699116
 31
0.0
  0
LINE
  8
0
  6
CONTINUOUS
 62
               4
  5
310
 10
41.241544214596445
 20
-358.16910970364211
 30
0.0
 11
42.959968180837052
 21
-343.0866961206026
 31
0.0
  0
ARC
  8
0
  6
CONTINUOUS
 62
               4
  5
311
 10
40.476038541645607
 20
-342.80368808618277
 30
0.0
 40
2.5
 50
353.49999999999898
 51
443.49999999999903
  0
ARC
  8
0
  6
CONTINUOUS
 62
               4
  5
312
 10
38.763342444452235
 20
-357.83582880779977
 30
0.0
 40
2.5
 50
263.49999999999801
 51
353.49999999999898
  0
LINE
  8
0
  6
CONTINUOUS
 62
               4
  5
313
 10
38.480334410032413
 20
-471.11267338020139
 30
0.0
 11
38.480334410032413
 21
-360.31975844699116
 31
0.0
  0
LINE
  8
0
  6
CONTINUOUS
 62
               4
  5
314
 10
-77.519665589967587
 20
-360.31975844699116
 30
0.0
 11
-77.519665589967587
 21
-471.11267338020139
 31
0.0
  0
LINE
  8
0
  6
CONTINUOUS
 62
               4
  5
315
 10
37.480334410032413
 20
-472.11267338020139
 30
0.0
 11
38.480334410032413
 21
-471.11267338020139
 31
0.0
  0
LINE
  8
0
  6
CONTINUOUS
 62
               4
  5
316
 10
37.480334410032413
 20
-472.11267338020139
 30
0.0
 11
-76.519665589967644
 21
-472.11267338020139
 31
0.0
  0
LINE
  8
0
  6
CONTINUOUS
 62
               4
  5
317
 10
38.480334410032413
 20
-471.11267338020139
 30
0.0
 11
-77.519665589967587
 21
-471.11267338020139
 31
0.0
  0
LINE
  8
0
  6
CONTINUOUS
 62
               4
  5
318
 10
-110.51966558996759
 20
-579.85789516752493
 30
0.0
 11
-110.51966558996759
 21
-569.98360896046927
 31
0.0
  0
LINE
  8
0
  6
CONTINUOUS
 62
               4
  5
319
 10
71.480334410032185
 20
-579.85789516752493
 30
0.0
 11
71.480334410032185
 21
-569.98360896046927
 31
0.0
  0
LINE
  8
0
  6
CONTINUOUS
 62
               4
  5
31A
 10
-85.019665589968611
 20
-684.11267338020082
 30
0.0
 11
45.980334410033322
 21
-684.11267338020082
 31
0.0
  0
LINE
  8
0
  6
CONTINUOUS
 62
               4
  5
31B
 10
-92.240953423934457
 20
-231.11267338020198
 30
0.0
 11
53.201622244000433
 21
-231.11267338020221
 31
0.0
  0
LINE
  8
0
  6
CONTINUOUS
 62
               4
  5
31C
 10
-97.944453721331826
 20
-248.11267338020227
 30
0.0
 11
58.916894402446729
 21
-248.11267338020227
 31
0.0
  0
LINE
  8
0
  6
CONTINUOUS
 62
               4
  5
31D
 10
-694.51966558996708
 20
-211.11267338020204
 30
0.0
 11
-544.51966558996821
 21
-211.11267338020204
 31
0.0
  0
LINE
  8
0
  6
CONTINUOUS
 62
               4
  5
31E
 10
-559.24095342393468
 20
-340.31975844699139
 30
0.0
 11
-544.51966558996821
 21
-211.11267338021722
 31
0.0
  0
LINE
  8
0
  6
CONTINUOUS
 62
               4
  5
31F
 10
-679.7983777560006
 20
-340.31975844699139
 30
0.0
 11
-694.51966558996708
 21
-211.11267338020204
 31
0.0
  0
LINE
  8
0
  6
CONTINUOUS
 62
               4
  5
320
 10
-559.24095342393468
 20
-340.31975844699093
 30
0.0
 11
-679.7983777560006
 21
-340.31975844699093
 31
0.0
  0
LINE
  8
0
  6
CONTINUOUS
 62
               4
  5
321
 10
-680.28087539453179
 20
-358.16910970364211
 30
0.0
 11
-681.99929936077228
 21
-343.0866961206026
 31
0.0
  0
ARC
  8
0
  6
CONTINUOUS
 62
               4
  5
322
 10
-679.5153697215809
 20
-342.80368808618277
 30
0.0
 40
2.5
 50
96.499999999999815
 51
186.4999999999998
  0
ARC
  8
0
  6
CONTINUOUS
 62
               4
  5
323
 10
-677.80267362438747
 20
-357.83582880779977
 30
0.0
 40
2.5
 50
186.4999999999998
 51
276.5000000000008
  0
LINE
  8
0
  6
CONTINUOUS
 62
               4
  5
324
 10
-677.51966558996764
 20
-360.31975844699082
 30
0.0
 11
-561.51966558996764
 21
-360.31975844699116
 31
0.0
  0
LINE
  8
0
  6
CONTINUOUS
 62
               4
  5
325
 10
-558.75845578540361
 20
-358.16910970364211
 30
0.0
 11
-557.040031819163
 21
-343.0866961206026
 31
0.0
  0
ARC
  8
0
  6
CONTINUOUS
 62
               4
  5
326
 10
-559.52396145835439
 20
-342.80368808618277
 30
0.0
 40
2.5
 50
353.49999999999898
 51
443.49999999999903
  0
ARC
  8
0
  6
CONTINUOUS
 62
               4
  5
327
 10
-561.23665755554782
 20
-357.83582880779977
 30
0.0
 40
2.5
 50
263.49999999999801
 51
353.49999999999898
  0
LINE
  8
0
  6
CONTINUOUS
 62
               4
  5
328
 10
-561.51966558996764
 20
-471.11267338020139
 30
0.0
 11
-561.51966558996764
 21
-360.31975844699116
 31
0.0
  0
LINE
  8
0
  6
CONTINUOUS
 62
               4
  5
329
 10
-677.51966558996764
 20
-360.31975844699116
 30
0.0
 11
-677.51966558996764
 21
-471.11267338020139
 31
0.0
  0
LINE
  8
0
  6
CONTINUOUS
 62
               4
  5
32A
 10
-692.24095342393446
 20
-231.11267338020198
 30
0.0
 11
-546.79837775599958
 21
-231.11267338020176
 31
0.0
  0
LINE
  8
0
  6
CONTINUOUS
 62
               4
  5
32B
 10
-697.9444537213318
 20
-248.11267338020227
 30
0.0
 11
-541.0831055975533
 21
-248.11267338020227
 31
0.0
  0
LINE
  8
0
  6
CONTINUOUS
 62
               4
  5
32C
 10
-562.5196655899673
 20
-472.11267338020195
 30
0.0
 11
-561.5196655899673
 21
-471.11267338020195
 31
0.0
  0
LINE
  8
0
  6
CONTINUOUS
 62
               4
  5
32D
 10
-562.5196655899673
 20
-472.11267338020195
 30
0.0
 11
-676.51966558996742
 21
-472.11267338020195
 31
0.0
  0
LINE
  8
0
  6
CONTINUOUS
 62
               4
  5
32E
 10
-561.5196655899673
 20
-471.11267338020195
 30
0.0
 11
-677.5196655899673
 21
-471.11267338020195
 31
0.0
  0
LINE
  8
0
  6
CONTINUOUS
 62
               4
  5
32F
 10
-676.51966558996742
 20
-472.11267338020195
 30
0.0
 11
-677.5196655899673
 21
-471.11267338020195
 31
0.0
  0
LINE
  8
0
  6
CONTINUOUS
 62
               4
  5
330
 10
-682.5196655899673
 20
-460.31975844698957
 30
0.0
 11
-556.5196655899673
 21
-460.31975844698957
 31
0.0
  0
LINE
  8
0
  6
CONTINUOUS
 62
               4
  5
331
 10
-685.0196655899698
 20
-682.11267338020059
 30
0.0
 11
-554.01966558996787
 21
-682.11267338020059
 31
0.0
  0
LINE
  8
0
  6
CONTINUOUS
 62
               4
  5
332
 10
655.48033441003179
 20
-211.11267338020204
 30
0.0
 11
505.48033441003292
 21
-211.11267338020207
 31
0.0
  0
LINE
  8
0
  6
CONTINUOUS
 62
               4
  5
333
 10
640.75904657606532
 20
-340.31975844699139
 30
0.0
 11
655.48033441003179
 21
-211.11267338021722
 31
0.0
  0
LINE
  8
0
  6
CONTINUOUS
 62
               4
  5
334
 10
520.2016222439994
 20
-340.31975844699139
 30
0.0
 11
505.48033441003292
 21
-211.11267338020204
 31
0.0
  0
LINE
  8
0
  6
CONTINUOUS
 62
               4
  5
335
 10
640.75904657606532
 20
-340.31975844699093
 30
0.0
 11
520.2016222439994
 21
-340.31975844699093
 31
0.0
  0
LINE
  8
0
  6
CONTINUOUS
 62
               4
  5
336
 10
519.71912460546821
 20
-358.16910970364211
 30
0.0
 11
518.00070063922772
 21
-343.0866961206026
 31
0.0
  0
ARC
  8
0
  6
CONTINUOUS
 62
               4
  5
337
 10
520.4846302784191
 20
-342.80368808618277
 30
0.0
 40
2.5
 50
96.499999999999815
 51
186.4999999999998
  0
ARC
  8
0
  6
CONTINUOUS
 62
               4
  5
338
 10
522.19732637561253
 20
-357.83582880779977
 30
0.0
 40
2.5
 50
186.4999999999998
 51
276.5000000000008
  0
LINE
  8
0
  6
CONTINUOUS
 62
               4
  5
339
 10
522.48033441003236
 20
-360.31975844699082
 30
0.0
 11
638.48033441003236
 21
-360.31975844699116
 31
0.0
  0
LINE
  8
0
  6
CONTINUOUS
 62
               4
  5
33A
 10
641.24154421459639
 20
-358.16910970364211
 30
0.0
 11
642.959968180837
 21
-343.0866961206026
 31
0.0
  0
ARC
  8
0
  6
CONTINUOUS
 62
               4
  5
33B
 10
640.47603854164561
 20
-342.80368808618277
 30
0.0
 40
2.5
 50
353.49999999999898
 51
443.49999999999903
  0
ARC
  8
0
  6
CONTINUOUS
 62
               4
  5
33C
 10
638.76334244445218
 20
-357.83582880779977
 30
0.0
 40
2.5
 50
263.49999999999801
 51
353.49999999999898
  0
LINE
  8
0
  6
CONTINUOUS
 62
               4
  5
33D
 10
638.48033441003236
 20
-471.11267338020139
 30
0.0
 11
638.48033441003236
 21
-360.31975844699116
 31
0.0
  0
LINE
  8
0
  6
CONTINUOUS
 62
               4
  5
33E
 10
522.48033441003236
 20
-360.31975844699116
 30
0.0
 11
522.48033441003236
 21
-471.11267338020139
 31
0.0
  0
LINE
  8
0
  6
CONTINUOUS
 62
               4
  5
33F
 10
653.20162224399917
 20
-231.11267338020198
 30
0.0
 11
507.75904657606429
 21
-231.11267338020178
 31
0.0
  0
LINE
  8
0
  6
CONTINUOUS
 62
               4
  5
340
 10
502.0555462786682
 20
-248.11267338020227
 30
0.0
 11
658.9168944024467
 21
-248.11267338020227
 31
0.0
  0
LINE
  8
0
  6
CONTINUOUS
 62
               4
  5
341
 10
637.4803344100327
 20
-472.11267338020195
 30
0.0
 11
638.4803344100327
 21
-471.11267338020195
 31
0.0
  0
LINE
  8
0
  6
CONTINUOUS
 62
               4
  5
342
 10
637.4803344100327
 20
-472.11267338020195
 30
0.0
 11
523.48033441003258
 21
-472.11267338020195
 31
0.0
  0
LINE
  8
0
  6
CONTINUOUS
 62
               4
  5
343
 10
638.4803344100327
 20
-471.11267338020195
 30
0.0
 11
522.4803344100327
 21
-471.11267338020195
 31
0.0
  0
LINE
  8
0
  6
CONTINUOUS
 62
               4
  5
344
 10
523.48033441003258
 20
-472.11267338020195
 30
0.0
 11
522.4803344100327
 21
-471.11267338020195
 31
0.0
  0
LINE
  8
0
  6
CONTINUOUS
 62
               4
  5
345
 10
517.4803344100327
 20
-460.31975844698957
 30
0.0
 11
643.4803344100327
 21
-460.31975844698957
 31
0.0
  0
LINE
  8
0
  6
CONTINUOUS
 62
               4
  5
346
 10
514.9803344100302
 20
-682.11267338020059
 30
0.0
 11
645.98033441003213
 21
-682.11267338020059
 31
0.0
  0
LINE
  8
0
  6
CONTINUOUS
 62
               4
  5
347
 10
670.48033441003281
 20
20.887326619798273
 30
0.0
 11
490.48033441003304
 21
20.887326619798273
 31
0.0
  0
LINE
  8
0
  6
CONTINUOUS
 62
               4
  5
348
 10
505.48033441003281
 20
-93.112673380201656
 30
0.0
 11
655.48033441003236
 21
-93.112673380201656
 31
0.0
  0
LINE
  8
0
  6
CONTINUOUS
 62
               4
  5
349
 10
-694.51966558996708
 20
-93.112673380201954
 30
0.0
 11
-642.01966558996719
 21
-93.112673380202239
 31
0.0
  0
LINE
  8
0
  6
CONTINUOUS
 62
               4
  5
34A
 10
-597.01966558996719
 20
-93.112673380202239
 30
0.0
 11
-544.51966558996833
 21
-93.112673380201954
 31
0.0
  0
LINE
  8
0
  6
CONTINUOUS
 62
               4
  5
34B
 10
-94.519665589967474
 20
-93.112673380202111
 30
0.0
 11
55.480334410031787
 21
-93.112673380201926
 31
0.0
  0
LINE
  8
0
  6
CONTINUOUS
 62
               4
  5
34C
 10
55.48033441003254
 20
-98.112673380201841
 30
0.0
 11
55.480334410032555
 21
-211.11267338020193
 31
0.0
  0
LINE
  8
0
  6
CONTINUOUS
 62
               4
  5
34D
 10
-529.51966558996719
 20
20.887326619798273
 30
0.0
 11
-709.5196655899681
 21
20.887326619798309
 31
0.0
  0
ARC
  8
0
  6
CONTINUOUS
 62
               4
  5
34E
 10
55.480334410032526
 20
-95.612673380201983
 30
0.0
 40
2.4999999999999996
 50
269.99999999999937
 51
449.99999999999898
  0
LINE
  8
0
  6
CONTINUOUS
 62
               4
  5
34F
 10
55.480334410031773
 20
20.887326619798301
 30
0.0
 11
55.480334410031801
 21
-93.112673380201812
 31
0.0
  0
ARC
  8
0
  6
CONTINUOUS
 62
               4
  5
350
 10
-94.519665589967474
 20
-95.612673380202111
 30
0.0
 40
2.4999999999999996
 50
89.999999999999787
 51
269.99999999999937
  0
LINE
  8
0
  6
CONTINUOUS
 62
               4
  5
351
 10
-94.51966558996881
 20
-113.91989671242109
 30
0.0
 11
-94.519665589967758
 21
-211.11267338021125
 31
0.0
  0
LINE
  8
0
  6
CONTINUOUS
 62
               4
  5
352
 10
-544.51966558996821
 20
-98.112673380201926
 30
0.0
 11
-544.51966558996821
 21
-211.11267338020204
 31
0.0
  0
ARC
  8
0
  6
CONTINUOUS
 62
               4
  5
353
 10
-544.51966558996821
 20
-95.612673380201926
 30
0.0
 40
2.4999999999999996
 50
269.99999999999937
 51
449.99999999999898
  0
LINE
  8
0
  6
CONTINUOUS
 62
               4
  5
354
 10
-544.51966558996833
 20
20.887326619798273
 30
0.0
 11
-544.51966558996833
 21
-93.112673380201841
 31
0.0
  0
ARC
  8
0
  6
CONTINUOUS
 62
               4
  5
355
 10
505.48033441003292
 20
-95.612673380201954
 30
0.0
 40
2.4999999999999996
 50
89.999999999999801
 51
269.99999999999937
  0
LINE
  8
0
  6
CONTINUOUS
 62
               4
  5
356
 10
505.48033441003281
 20
20.887326619798252
 30
0.0
 11
505.48033441003281
 21
-93.112673380201954
 31
0.0
  0
LINE
  8
0
  6
CONTINUOUS
 62
               4
  5
357
 10
505.48033441003281
 20
-98.112673380201997
 30
0.0
 11
505.48033441003236
 21
-211.11267338020201
 31
0.0
  0
ARC
  8
0
  6
CONTINUOUS
 62
               4
  5
358
 10
-642.01966558996719
 20
-95.612673380202239
 30
0.0
 40
2.4999999999999996
 50
269.99999999999937
 51
449.99999999999898
  0
ARC
  8
0
  6
CONTINUOUS
 62
               4
  5
359
 10
-597.01966558996719
 20
-95.612673380202239
 30
0.0
 40
2.4999999999999996
 50
89.999999999999801
 51
269.99999999999937
  0
LINE
  8
0
  6
CONTINUOUS
 62
               4
  5
35A
 10
-94.519665589967474
 20
15.420558962511222
 30
0.0
 11
-94.519665589967474
 21
-93.112673380202111
 31
0.0
  0
CIRCLE
  8
0
  6
CONTINUOUS
 62
               4
  5
35B
 10
-19.51966558996736
 20
730.35317072229122
 30
0.0
 40
59.0
  0
LINE
  8
0
  6
DASHED2
 62
               4
  5
35C
 10
580.48033441003236
 20
227.88732661979839
 30
0.0
 11
523.48033441003236
 21
227.88732661979839
 31
0.0
  0
LINE
  8
0
  6
DASHED2
 62
               4
  5
35D
 10
580.48033441003236
 20
227.88732661979839
 30
0.0
 11
637.48033441003236
 21
227.88732661979839
 31
0.0
  0
LINE
  8
0
  6
DASHED2
 62
               4
  5
35E
 10
-619.51966558996764
 20
227.88732661979839
 30
0.0
 11
-676.51966558996764
 21
227.88732661979839
 31
0.0
  0
LINE
  8
0
  6
DASHED2
 62
               4
  5
35F
 10
-619.51966558996764
 20
227.88732661979839
 30
0.0
 11
-562.51966558996764
 21
227.88732661979839
 31
0.0
  0
LINE
  8
0
  6
DASHED2
 62
               4
  5
360
 10
-19.519665589967698
 20
227.88732661979839
 30
0.0
 11
-76.519665589967701
 21
227.88732661979839
 31
0.0
  0
LINE
  8
0
  6
DASHED2
 62
               4
  5
361
 10
-19.519665589967676
 20
227.88732661979839
 30
0.0
 11
37.480334410032327
 21
227.88732661979839
 31
0.0
  0
LINE
  8
0
  6
DASHED2
 62
               4
  5
362
 10
-74.519665589967644
 20
-572.11267338020139
 30
0.0
 11
35.480334410032356
 21
-572.11267338020139
 31
0.0
  0
LINE
  8
0
  6
DASHED2
 62
               4
  5
363
 10
-156.27966558996781
 20
-574.11267338020195
 30
0.0
 11
-156.27966558996781
 21
-565.58654488089485
 31
0.0
  0
LINE
  8
0
  6
DASHED2
 62
               4
  5
364
 10
-150.39069284423334
 20
-565.58654488089485
 30
0.0
 11
-150.39069284423334
 21
-574.11267338020195
 31
0.0
  0
LINE
  8
0
  6
DASHED2
 62
               4
  5
365
 10
-153.33517921710046
 20
-564.51267338020205
 30
0.0
 11
-135.70415196283449
 21
-564.51267338020205
 31
0.0
  0
LINE
  8
0
  6
DASHED2
 62
               4
  5
366
 10
-132.75966558996748
 20
-574.11267338020195
 30
0.0
 11
-132.75966558996748
 21
-565.58654488089485
 31
0.0
  0
LINE
  8
0
  6
DASHED2
 62
               4
  5
367
 10
-138.64863833570217
 20
-574.11267338020195
 30
0.0
 11
-138.64863833570217
 21
-565.58654488089485
 31
0.0
  0
ARC
  8
0
  6
DASHED2
 62
               4
  5
368
 10
-153.33517921710046
 20
-569.08640496431792
 30
0.0
 40
4.5737315841157447
 50
49.925579661612304
 51
130.07442033835341
  0
ARC
  8
0
  6
DASHED2
 62
               4
  5
369
 10
-135.70415196283449
 20
-569.08640496431792
 30
0.0
 40
4.5737315841157686
 50
49.925579661612304
 51
130.07442033835341
  0
ARC
  8
0
  6
DASHED2
 62
               4
  5
36A
 10
-144.51966558996759
 20
-581.09853164972253
 30
0.0
 40
16.58585826952007
 50
69.269184858547646
 51
110.73081514141818
  0
LINE
  8
0
  6
DASHED2
 62
               4
  5
36B
 10
-156.27966558996917
 20
-576.11267338020241
 30
0.0
 11
-156.27966558996917
 21
-584.63880187950963
 31
0.0
  0
LINE
  8
0
  6
DASHED2
 62
               4
  5
36C
 10
-150.39069284423482
 20
-584.63880187950963
 30
0.0
 11
-150.39069284423482
 21
-576.11267338020241
 31
0.0
  0
LINE
  8
0
  6
DASHED2
 62
               4
  5
36D
 10
-153.33517921710182
 20
-585.7126733802022
 30
0.0
 11
-135.70415196283619
 21
-585.7126733802022
 31
0.0
  0
LINE
  8
0
  6
DASHED2
 62
               4
  5
36E
 10
-132.75966558996885
 20
-576.11267338020241
 30
0.0
 11
-132.75966558996885
 21
-584.63880187950963
 31
0.0
  0
LINE
  8
0
  6
DASHED2
 62
               4
  5
36F
 10
-138.64863833570331
 20
-576.11267338020241
 30
0.0
 11
-138.64863833570331
 21
-584.63880187950963
 31
0.0
  0
ARC
  8
0
  6
DASHED2
 62
               4
  5
370
 10
-153.33517921710182
 20
-581.13894179608678
 30
0.0
 40
4.5737315841157447
 50
229.92557966157796
 51
310.07442033831961
  0
ARC
  8
0
  6
DASHED2
 62
               4
  5
371
 10
-135.70415196283619
 20
-581.13894179608678
 30
0.0
 40
4.5737315841157686
 50
229.92557966157852
 51
310.07442033831961
  0
ARC
  8
0
  6
DASHED2
 62
               4
  5
372
 10
-144.51966558996907
 20
-569.12681511068229
 30
0.0
 40
16.58585826952007
 50
249.26918485851303
 51
290.73081514138352
  0
LINE
  8
0
  6
DASHED2
 62
               4
  5
373
 10
-150.51966558996759
 20
-585.7126733802022
 30
0.0
 11
-150.51966558996759
 21
-596.23203962252694
 31
0.0
  0
LINE
  8
0
  6
DASHED2
 62
               4
  5
374
 10
-138.5196655899677
 20
-585.7126733802022
 30
0.0
 11
-138.5196655899677
 21
-596.23203962252694
 31
0.0
  0
LINE
  8
0
  6
DASHED2
 62
               4
  5
375
 10
-149.31966558996777
 20
-597.43203962252721
 30
0.0
 11
-139.71966558996775
 21
-597.43203962252721
 31
0.0
  0
LINE
  8
0
  6
DASHED2
 62
               4
  5
376
 10
-150.51966558996759
 20
-596.23203962252694
 30
0.0
 11
-149.31966558996777
 21
-597.43203962252721
 31
0.0
  0
LINE
  8
0
  6
DASHED2
 62
               4
  5
377
 10
-138.5196655899677
 20
-596.23203962252694
 30
0.0
 11
-139.71966558996775
 21
-597.43203962252721
 31
0.0
  0
LINE
  8
0
  6
DASHED2
 62
               4
  5
378
 10
-156.27966558996781
 20
-574.11267338020195
 30
0.0
 11
-132.75966558996748
 21
-574.11267338020195
 31
0.0
  0
LINE
  8
0
  6
DASHED2
 62
               4
  5
379
 10
-132.75966558996885
 20
-576.11267338020241
 30
0.0
 11
-156.27966558996917
 21
-576.11267338020241
 31
0.0
  0
LINE
  8
0
  6
DASHED2
 62
               4
  5
37A
 10
-150.51966558996759
 20
-459.04909390427338
 30
0.0
 11
-150.51966558996759
 21
-564.51267338020205
 31
0.0
  0
LINE
  8
0
  6
DASHED2
 62
               4
  5
37B
 10
-138.5196655899677
 20
-459.04909390427338
 30
0.0
 11
-138.5196655899677
 21
-564.51267338020205
 31
0.0
  0
LINE
  8
0
  6
DASHED2
 62
               4
  5
37C
 10
-138.5196655899677
 20
-459.04909390427338
 30
0.0
 11
-150.51966558996759
 21
-459.04909390427338
 31
0.0
  0
LINE
  8
0
  6
DASHED2
 62
               4
  5
37D
 10
-77.019665589970032
 20
-589.11267338020377
 30
0.0
 11
-77.019665589970032
 21
-654.1126733802015
 31
0.0
  0
LINE
  8
0
  6
DASHED2
 62
               4
  5
37E
 10
-77.019665589970032
 20
-589.11267338020377
 30
0.0
 11
-19.519665589968213
 21
-589.11267338020264
 31
0.0
  0
LINE
  8
0
  6
DASHED2
 62
               4
  5
37F
 10
37.980334410034629
 20
-589.11267338020377
 30
0.0
 11
-19.519665589967076
 21
-589.11267338020264
 31
0.0
  0
LINE
  8
0
  6
DASHED2
 62
               4
  5
380
 10
37.980334410034629
 20
-589.11267338020377
 30
0.0
 11
37.980334410034629
 21
-654.1126733802015
 31
0.0
  0
LINE
  8
0
  6
DASHED2
 62
               4
  5
381
 10
117.2403344100325
 20
-574.11267338020195
 30
0.0
 11
117.2403344100325
 21
-565.58654488089485
 31
0.0
  0
LINE
  8
0
  6
DASHED2
 62
               4
  5
382
 10
111.3513616642981
 20
-565.58654488089485
 30
0.0
 11
111.3513616642981
 21
-574.11267338020195
 31
0.0
  0
LINE
  8
0
  6
DASHED2
 62
               4
  5
383
 10
114.29584803716516
 20
-564.51267338020205
 30
0.0
 11
96.664820782899255
 21
-564.51267338020205
 31
0.0
  0
LINE
  8
0
  6
DASHED2
 62
               4
  5
384
 10
93.720334410032194
 20
-574.11267338020195
 30
0.0
 11
93.720334410032194
 21
-565.58654488089485
 31
0.0
  0
LINE
  8
0
  6
DASHED2
 62
               4
  5
385
 10
99.609307155766885
 20
-574.11267338020195
 30
0.0
 11
99.609307155766885
 21
-565.58654488089485
 31
0.0
  0
ARC
  8
0
  6
DASHED2
 62
               4
  5
386
 10
114.29584803716516
 20
-569.08640496431792
 30
0.0
 40
4.5737315841157447
 50
49.925579661646204
 51
130.07442033838728
  0
ARC
  8
0
  6
DASHED2
 62
               4
  5
387
 10
96.664820782899255
 20
-569.08640496431792
 30
0.0
 40
4.5737315841157686
 50
49.925579661646204
 51
130.07442033838728
  0
ARC
  8
0
  6
DASHED2
 62
               4
  5
388
 10
105.48033441003236
 20
-581.09853164972253
 30
0.0
 40
16.58585826952007
 50
69.269184858581426
 51
110.73081514145197
  0
LINE
  8
0
  6
DASHED2
 62
               4
  5
389
 10
117.24033441003392
 20
-576.11267338020241
 30
0.0
 11
117.24033441003392
 21
-584.63880187950963
 31
0.0
  0
LINE
  8
0
  6
DASHED2
 62
               4
  5
38A
 10
111.35136166429952
 20
-584.63880187950963
 30
0.0
 11
111.35136166429952
 21
-576.11267338020241
 31
0.0
  0
LINE
  8
0
  6
DASHED2
 62
               4
  5
38B
 10
114.29584803716658
 20
-585.7126733802022
 30
0.0
 11
96.664820782900961
 21
-585.7126733802022
 31
0.0
  0
LINE
  8
0
  6
DASHED2
 62
               4
  5
38C
 10
93.720334410033615
 20
-576.11267338020241
 30
0.0
 11
93.720334410033615
 21
-584.63880187950963
 31
0.0
  0
LINE
  8
0
  6
DASHED2
 62
               4
  5
38D
 10
99.609307155768022
 20
-576.11267338020241
 30
0.0
 11
99.609307155768022
 21
-584.63880187950963
 31
0.0
  0
ARC
  8
0
  6
DASHED2
 62
               4
  5
38E
 10
114.29584803716658
 20
-581.13894179608678
 30
0.0
 40
4.5737315841157447
 50
229.92557966167917
 51
310.07442033842085
  0
ARC
  8
0
  6
DASHED2
 62
               4
  5
38F
 10
96.664820782900961
 20
-581.13894179608678
 30
0.0
 40
4.5737315841157686
 50
229.92557966167917
 51
310.07442033842028
  0
ARC
  8
0
  6
DASHED2
 62
               4
  5
390
 10
105.48033441003378
 20
-569.12681511068229
 30
0.0
 40
16.58585826952007
 50
249.26918485861526
 51
290.73081514148578
  0
LINE
  8
0
  6
DASHED2
 62
               4
  5
391
 10
111.48033441003228
 20
-585.7126733802022
 30
0.0
 11
111.48033441003228
 21
-596.23203962252694
 31
0.0
  0
LINE
  8
0
  6
DASHED2
 62
               4
  5
392
 10
99.480334410032413
 20
-585.7126733802022
 30
0.0
 11
99.480334410032413
 21
-596.23203962252694
 31
0.0
  0
LINE
  8
0
  6
DASHED2
 62
               4
  5
393
 10
110.28033441003252
 20
-597.43203962252721
 30
0.0
 11
100.68033441003246
 21
-597.43203962252721
 31
0.0
  0
LINE
  8
0
  6
DASHED2
 62
               4
  5
394
 10
111.48033441003228
 20
-596.23203962252694
 30
0.0
 11
110.28033441003252
 21
-597.43203962252721
 31
0.0
  0
LINE
  8
0
  6
DASHED2
 62
               4
  5
395
 10
99.480334410032413
 20
-596.23203962252694
 30
0.0
 11
100.68033441003246
 21
-597.43203962252721
 31
0.0
  0
LINE
  8
0
  6
DASHED2
 62
               4
  5
396
 10
117.2403344100325
 20
-574.11267338020195
 30
0.0
 11
93.720334410032194
 21
-574.11267338020195
 31
0.0
  0
LINE
  8
0
  6
DASHED2
 62
               4
  5
397
 10
93.720334410033615
 20
-576.11267338020241
 30
0.0
 11
117.24033441003392
 21
-576.11267338020241
 31
0.0
  0
LINE
  8
0
  6
DASHED2
 62
               4
  5
398
 10
111.48033441003228
 20
-459.04909390427338
 30
0.0
 11
111.48033441003228
 21
-564.51267338020205
 31
0.0
  0
LINE
  8
0
  6
DASHED2
 62
               4
  5
399
 10
99.480334410032413
 20
-459.04909390427338
 30
0.0
 11
99.480334410032413
 21
-564.51267338020205
 31
0.0
  0
LINE
  8
0
  6
DASHED2
 62
               4
  5
39A
 10
99.480334410032413
 20
-459.04909390427338
 30
0.0
 11
111.48033441003228
 21
-459.04909390427338
 31
0.0
  0
LINE
  8
0
  6
DASHED2
 62
               4
  5
39B
 10
37.480334410032413
 20
-570.11267338020139
 30
0.0
 11
37.480334410032413
 21
-512.11267338020195
 31
0.0
  0
LINE
  8
0
  6
DASHED2
 62
               4
  5
39C
 10
35.480334410032356
 20
-572.11267338020139
 30
0.0
 11
37.480334410032413
 21
-570.11267338020139
 31
0.0
  0
LINE
  8
0
  6
DASHED2
 62
               4
  5
39D
 10
-76.519665589967644
 20
-570.11267338020139
 30
0.0
 11
-76.519665589967644
 21
-512.11267338020184
 31
0.0
  0
LINE
  8
0
  6
DASHED2
 62
               4
  5
39E
 10
-74.519665589967644
 20
-572.11267338020139
 30
0.0
 11
-76.519665589967644
 21
-570.11267338020139
 31
0.0
  0
LINE
  8
0
  6
DASHED2
 62
               4
  5
39F
 10
-631.27966558996775
 20
-577.11267338020173
 30
0.0
 11
-631.27966558996775
 21
-568.58654488089462
 31
0.0
  0
LINE
  8
0
  6
DASHED2
 62
               4
  5
3A0
 10
-625.39069284423329
 20
-568.58654488089462
 30
0.0
 11
-625.39069284423329
 21
-577.11267338020173
 31
0.0
  0
LINE
  8
0
  6
DASHED2
 62
               4
  5
3A1
 10
-628.33517921710029
 20
-567.51267338020159
 30
0.0
 11
-610.70415196283432
 21
-567.51267338020159
 31
0.0
  0
LINE
  8
0
  6
DASHED2
 62
               4
  5
3A2
 10
-607.75966558996731
 20
-577.11267338020173
 30
0.0
 11
-607.75966558996731
 21
-568.58654488089462
 31
0.0
  0
LINE
  8
0
  6
DASHED2
 62
               4
  5
3A3
 10
-613.648638335702
 20
-577.11267338020173
 30
0.0
 11
-613.648638335702
 21
-568.58654488089462
 31
0.0
  0
ARC
  8
0
  6
DASHED2
 62
               4
  5
3A4
 10
-628.33517921710029
 20
-572.08640496431769
 30
0.0
 40
4.5737315841157447
 50
49.925579661612304
 51
130.07442033835341
  0
ARC
  8
0
  6
DASHED2
 62
               4
  5
3A5
 10
-610.70415196283432
 20
-572.08640496431769
 30
0.0
 40
4.5737315841157686
 50
49.925579661612304
 51
130.07442033835341
  0
ARC
  8
0
  6
DASHED2
 62
               4
  5
3A6
 10
-619.51966558996753
 20
-584.09853164972208
 30
0.0
 40
16.58585826952007
 50
69.269184858547646
 51
110.73081514141818
  0
LINE
  8
0
  6
DASHED2
 62
               4
  5
3A7
 10
-631.27966558996911
 20
-579.11267338020218
 30
0.0
 11
-631.27966558996911
 21
-587.63880187950929
 31
0.0
  0
LINE
  8
0
  6
DASHED2
 62
               4
  5
3A8
 10
-625.39069284423465
 20
-587.63880187950929
 30
0.0
 11
-625.39069284423465
 21
-579.11267338020218
 31
0.0
  0
LINE
  8
0
  6
DASHED2
 62
               4
  5
3A9
 10
-628.33517921710165
 20
-588.71267338020186
 30
0.0
 11
-610.70415196283614
 21
-588.71267338020186
 31
0.0
  0
LINE
  8
0
  6
DASHED2
 62
               4
  5
3AA
 10
-607.75966558996868
 20
-579.11267338020218
 30
0.0
 11
-607.75966558996868
 21
-587.63880187950929
 31
0.0
  0
LINE
  8
0
  6
DASHED2
 62
               4
  5
3AB
 10
-613.64863833570314
 20
-579.11267338020218
 30
0.0
 11
-613.64863833570314
 21
-587.63880187950929
 31
0.0
  0
ARC
  8
0
  6
DASHED2
 62
               4
  5
3AC
 10
-628.33517921710165
 20
-584.13894179608644
 30
0.0
 40
4.5737315841157447
 50
229.92557966157796
 51
310.07442033831961
  0
ARC
  8
0
  6
DASHED2
 62
               4
  5
3AD
 10
-610.70415196283614
 20
-584.13894179608644
 30
0.0
 40
4.5737315841157686
 50
229.92557966157852
 51
310.07442033831961
  0
ARC
  8
0
  6
DASHED2
 62
               4
  5
3AE
 10
-619.51966558996889
 20
-572.12681511068206
 30
0.0
 40
16.58585826952007
 50
249.26918485851303
 51
290.73081514138352
  0
LINE
  8
0
  6
DASHED2
 62
               4
  5
3AF
 10
-625.51966558996753
 20
-588.71267338020186
 30
0.0
 11
-625.51966558996753
 21
-599.23203962252649
 31
0.0
  0
LINE
  8
0
  6
DASHED2
 62
               4
  5
3B0
 10
-613.51966558996753
 20
-588.71267338020186
 30
0.0
 11
-613.51966558996753
 21
-599.23203962252649
 31
0.0
  0
LINE
  8
0
  6
DASHED2
 62
               4
  5
3B1
 10
-624.31966558996771
 20
-600.43203962252699
 30
0.0
 11
-614.71966558996758
 21
-600.43203962252699
 31
0.0
  0
LINE
  8
0
  6
DASHED2
 62
               4
  5
3B2
 10
-625.51966558996753
 20
-599.23203962252649
 30
0.0
 11
-624.31966558996771
 21
-600.43203962252699
 31
0.0
  0
LINE
  8
0
  6
DASHED2
 62
               4
  5
3B3
 10
-613.51966558996753
 20
-599.23203962252649
 30
0.0
 11
-614.71966558996758
 21
-600.43203962252699
 31
0.0
  0
LINE
  8
0
  6
DASHED2
 62
               4
  5
3B4
 10
-631.27966558996775
 20
-577.11267338020173
 30
0.0
 11
-607.75966558996731
 21
-577.11267338020173
 31
0.0
  0
LINE
  8
0
  6
DASHED2
 62
               4
  5
3B5
 10
-607.75966558996868
 20
-579.11267338020218
 30
0.0
 11
-631.27966558996911
 21
-579.11267338020218
 31
0.0
  0
LINE
  8
0
  6
DASHED2
 62
               4
  5
3B6
 10
-625.51966558996753
 20
-462.04909390427304
 30
0.0
 11
-625.51966558996753
 21
-567.51267338020159
 31
0.0
  0
LINE
  8
0
  6
DASHED2
 62
               4
  5
3B7
 10
-613.51966558996753
 20
-462.04909390427304
 30
0.0
 11
-613.51966558996753
 21
-567.51267338020159
 31
0.0
  0
LINE
  8
0
  6
DASHED2
 62
               4
  5
3B8
 10
-613.51966558996753
 20
-462.04909390427304
 30
0.0
 11
-625.51966558996753
 21
-462.04909390427304
 31
0.0
  0
LINE
  8
0
  6
DASHED2
 62
               4
  5
3B9
 10
-676.51966558996708
 20
-512.1126733802015
 30
0.0
 11
-676.51966558996708
 21
-572.11267338020195
 31
0.0
  0
LINE
  8
0
  6
DASHED2
 62
               4
  5
3BA
 10
-619.51966558996753
 20
-572.11267338020195
 30
0.0
 11
-676.51966558996764
 21
-572.11267338020195
 31
0.0
  0
LINE
  8
0
  6
DASHED2
 62
               4
  5
3BB
 10
-562.51966558996787
 20
-512.11267338020252
 30
0.0
 11
-562.51966558996787
 21
-572.11267338020195
 31
0.0
  0
LINE
  8
0
  6
DASHED2
 62
               4
  5
3BC
 10
-619.51966558996753
 20
-572.11267338020195
 30
0.0
 11
-562.51966558996753
 21
-572.11267338020195
 31
0.0
  0
LINE
  8
0
  6
DASHED2
 62
               4
  5
3BD
 10
-677.01966558997128
 20
-592.1126733802015
 30
0.0
 11
-677.01966558997128
 21
-657.11267338020059
 31
0.0
  0
LINE
  8
0
  6
DASHED2
 62
               4
  5
3BE
 10
-562.01966558996662
 20
-592.1126733802015
 30
0.0
 11
-562.01966558996662
 21
-657.11267338020059
 31
0.0
  0
LINE
  8
0
  6
DASHED2
 62
               4
  5
3BF
 10
-677.01966558997128
 20
-592.1126733802015
 30
0.0
 11
-562.01966558996662
 21
-592.1126733802015
 31
0.0
  0
LINE
  8
0
  6
DASHED2
 62
               4
  5
3C0
 10
568.72033441003225
 20
-577.11267338020173
 30
0.0
 11
568.72033441003225
 21
-568.58654488089462
 31
0.0
  0
LINE
  8
0
  6
DASHED2
 62
               4
  5
3C1
 10
574.60930715576671
 20
-568.58654488089462
 30
0.0
 11
574.60930715576671
 21
-577.11267338020173
 31
0.0
  0
LINE
  8
0
  6
DASHED2
 62
               4
  5
3C2
 10
571.66482078289971
 20
-567.51267338020159
 30
0.0
 11
589.29584803716568
 21
-567.51267338020159
 31
0.0
  0
LINE
  8
0
  6
DASHED2
 62
               4
  5
3C3
 10
592.24033441003269
 20
-577.11267338020173
 30
0.0
 11
592.24033441003269
 21
-568.58654488089462
 31
0.0
  0
LINE
  8
0
  6
DASHED2
 62
               4
  5
3C4
 10
586.351361664298
 20
-577.11267338020173
 30
0.0
 11
586.351361664298
 21
-568.58654488089462
 31
0.0
  0
ARC
  8
0
  6
DASHED2
 62
               4
  5
3C5
 10
571.66482078289971
 20
-572.08640496431769
 30
0.0
 40
4.5737315841157447
 50
49.925579661612304
 51
130.07442033835341
  0
ARC
  8
0
  6
DASHED2
 62
               4
  5
3C6
 10
589.29584803716568
 20
-572.08640496431769
 30
0.0
 40
4.5737315841157686
 50
49.925579661612304
 51
130.07442033835341
  0
ARC
  8
0
  6
DASHED2
 62
               4
  5
3C7
 10
580.48033441003247
 20
-584.09853164972208
 30
0.0
 40
16.58585826952007
 50
69.269184858547646
 51
110.73081514141818
  0
LINE
  8
0
  6
DASHED2
 62
               4
  5
3C8
 10
568.72033441003089
 20
-579.11267338020218
 30
0.0
 11
568.72033441003089
 21
-587.63880187950929
 31
0.0
  0
LINE
  8
0
  6
DASHED2
 62
               4
  5
3C9
 10
574.60930715576535
 20
-587.63880187950929
 30
0.0
 11
574.60930715576535
 21
-579.11267338020218
 31
0.0
  0
LINE
  8
0
  6
DASHED2
 62
               4
  5
3CA
 10
571.66482078289835
 20
-588.71267338020186
 30
0.0
 11
589.29584803716386
 21
-588.71267338020186
 31
0.0
  0
LINE
  8
0
  6
DASHED2
 62
               4
  5
3CB
 10
592.24033441003132
 20
-579.11267338020218
 30
0.0
 11
592.24033441003132
 21
-587.63880187950929
 31
0.0
  0
LINE
  8
0
  6
DASHED2
 62
               4
  5
3CC
 10
586.35136166429686
 20
-579.11267338020218
 30
0.0
 11
586.35136166429686
 21
-587.63880187950929
 31
0.0
  0
ARC
  8
0
  6
DASHED2
 62
               4
  5
3CD
 10
571.66482078289835
 20
-584.13894179608644
 30
0.0
 40
4.5737315841157447
 50
229.92557966157796
 51
310.07442033831961
  0
ARC
  8
0
  6
DASHED2
 62
               4
  5
3CE
 10
589.29584803716386
 20
-584.13894179608644
 30
0.0
 40
4.5737315841157686
 50
229.92557966157852
 51
310.07442033831961
  0
ARC
  8
0
  6
DASHED2
 62
               4
  5
3CF
 10
580.48033441003111
 20
-572.12681511068206
 30
0.0
 40
16.58585826952007
 50
249.26918485851303
 51
290.73081514138352
  0
LINE
  8
0
  6
DASHED2
 62
               4
  5
3D0
 10
574.48033441003247
 20
-588.71267338020186
 30
0.0
 11
574.48033441003247
 21
-599.23203962252649
 31
0.0
  0
LINE
  8
0
  6
DASHED2
 62
               4
  5
3D1
 10
586.48033441003247
 20
-588.71267338020186
 30
0.0
 11
586.48033441003247
 21
-599.23203962252649
 31
0.0
  0
LINE
  8
0
  6
DASHED2
 62
               4
  5
3D2
 10
575.68033441003229
 20
-600.43203962252699
 30
0.0
 11
585.28033441003242
 21
-600.43203962252699
 31
0.0
  0
LINE
  8
0
  6
DASHED2
 62
               4
  5
3D3
 10
574.48033441003247
 20
-599.23203962252649
 30
0.0
 11
575.68033441003229
 21
-600.43203962252699
 31
0.0
  0
LINE
  8
0
  6
DASHED2
 62
               4
  5
3D4
 10
586.48033441003247
 20
-599.23203962252649
 30
0.0
 11
585.28033441003242
 21
-600.43203962252699
 31
0.0
  0
LINE
  8
0
  6
DASHED2
 62
               4
  5
3D5
 10
568.72033441003225
 20
-577.11267338020173
 30
0.0
 11
592.24033441003269
 21
-577.11267338020173
 31
0.0
  0
LINE
  8
0
  6
DASHED2
 62
               4
  5
3D6
 10
592.24033441003132
 20
-579.11267338020218
 30
0.0
 11
568.72033441003089
 21
-579.11267338020218
 31
0.0
  0
LINE
  8
0
  6
DASHED2
 62
               4
  5
3D7
 10
574.48033441003247
 20
-462.04909390427304
 30
0.0
 11
574.48033441003247
 21
-567.51267338020159
 31
0.0
  0
LINE
  8
0
  6
DASHED2
 62
               4
  5
3D8
 10
586.48033441003247
 20
-462.04909390427304
 30
0.0
 11
586.48033441003247
 21
-567.51267338020159
 31
0.0
  0
LINE
  8
0
  6
DASHED2
 62
               4
  5
3D9
 10
586.48033441003247
 20
-462.04909390427304
 30
0.0
 11
574.48033441003247
 21
-462.04909390427304
 31
0.0
  0
LINE
  8
0
  6
DASHED2
 62
               4
  5
3DA
 10
523.48033441003292
 20
-512.1126733802015
 30
0.0
 11
523.48033441003292
 21
-572.11267338020195
 31
0.0
  0
LINE
  8
0
  6
DASHED2
 62
               4
  5
3DB
 10
580.48033441003247
 20
-572.11267338020195
 30
0.0
 11
523.48033441003236
 21
-572.11267338020195
 31
0.0
  0
LINE
  8
0
  6
DASHED2
 62
               4
  5
3DC
 10
637.48033441003213
 20
-512.11267338020252
 30
0.0
 11
637.48033441003213
 21
-572.11267338020195
 31
0.0
  0
LINE
  8
0
  6
DASHED2
 62
               4
  5
3DD
 10
580.48033441003247
 20
-572.11267338020195
 30
0.0
 11
637.48033441003247
 21
-572.11267338020195
 31
0.0
  0
LINE
  8
0
  6
DASHED2
 62
               4
  5
3DE
 10
522.98033441002872
 20
-592.1126733802015
 30
0.0
 11
522.98033441002872
 21
-657.11267338020059
 31
0.0
  0
LINE
  8
0
  6
DASHED2
 62
               4
  5
3DF
 10
637.98033441003338
 20
-592.1126733802015
 30
0.0
 11
637.98033441003338
 21
-657.11267338020059
 31
0.0
  0
LINE
  8
0
  6
DASHED2
 62
               4
  5
3E0
 10
522.98033441002872
 20
-592.1126733802015
 30
0.0
 11
637.98033441003338
 21
-592.1126733802015
 31
0.0
  0
LINE
  8
0
  6
DASHED2
 62
               4
  5
3E1
 10
-106.51966558996689
 20
700.35317072229145
 30
0.0
 11
-106.51966558996689
 21
760.35317072229122
 31
0.0
  0
ARC
  8
0
  6
DIVIDE
 62
               4
  5
3E2
 10
-48.019665589967587
 20
-821.04565468437102
 30
0.0
 40
55.0
 50
58.789629707489617
 51
121.21037029250985
  0
ARC
  8
0
  6
DIVIDE
 62
               4
  5
3E3
 10
-48.019665589967587
 20
-726.96590128333366
 30
0.0
 40
55.0
 50
238.78962970748935
 51
301.21037029250937
  0
ARC
  8
0
  6
DIVIDE
 62
               4
  5
3E4
 10
-52.019665589967289
 20
-796.50827541964884
 30
0.0
 40
65.0
 50
59.999999999999737
 51
119.9999999999999
  0
ARC
  8
0
  6
DIVIDE
 62
               4
  5
3E5
 10
8.9803344100324693
 20
-726.96590128333366
 30
0.0
 40
55.0
 50
238.78962970748941
 51
301.21037029250959
  0
ARC
  8
0
  6
DIVIDE
 62
               4
  5
3E6
 10
12.980334410032675
 20
-683.924972927672
 30
0.0
 40
65.0
 50
239.99999999999969
 51
299.99999999999932
  0
LINE
  8
0
  6
DIVIDE
 62
               4
  5
3E7
 10
37.480334410032583
 20
-744.1308696488403
 30
0.0
 11
37.480334410032597
 21
-774.00577798385223
 31
0.0
  0
LINE
  8
0
  6
DIVIDE
 62
               4
  5
3E8
 10
-76.519665589967474
 20
-736.30237869848054
 30
0.0
 11
-76.51966558996746
 21
-774.00577798385223
 31
0.0
  0
ARC
  8
0
  6
DIVIDE
 62
               4
  5
3E9
 10
-52.019665589967325
 20
-683.924972927672
 30
0.0
 40
65.0
 50
239.99999999999929
 51
247.85677929855132
  0
LINE
  8
0
  6
DIVIDE
 62
               4
  5
3EA
 10
45.480334410032356
 20
-654.1126733802015
 30
0.0
 11
45.480334410032356
 21
-740.21662417366031
 31
0.0
  0
LINE
  8
0
  6
DIVIDE
 62
               4
  5
3EB
 10
-84.519665589967644
 20
-654.1126733802015
 30
0.0
 11
-84.519665589967644
 21
-740.21662417366031
 31
0.0
  0
LINE
  8
0
  6
DIVIDE
 62
               4
  5
3EC
 10
-556.5196655899673
 20
-460.31975844698957
 30
0.0
 11
-556.5196655899673
 21
-512.11267338020207
 31
0.0
  0
LINE
  8
0
  6
DIVIDE
 62
               4
  5
3ED
 10
-682.5196655899673
 20
-460.31975844698957
 30
0.0
 11
-682.5196655899673
 21
-512.11267338020173
 31
0.0
  0
ARC
  8
0
  6
DIVIDE
 62
               4
  5
3EE
 10
-648.01966558996878
 20
-824.04565468437033
 30
0.0
 40
55.0
 50
58.789629707489617
 51
121.21037029250985
  0
ARC
  8
0
  6
DIVIDE
 62
               4
  5
3EF
 10
-648.01966558996878
 20
-729.96590128333276
 30
0.0
 40
55.0
 50
238.78962970748935
 51
301.21037029250937
  0
ARC
  8
0
  6
DIVIDE
 62
               4
  5
3F0
 10
-652.01966558996889
 20
-799.50827541964816
 30
0.0
 40
65.0
 50
59.999999999999723
 51
119.99999999999987
  0
ARC
  8
0
  6
DIVIDE
 62
               4
  5
3F1
 10
-591.01966558996878
 20
-729.96590128333298
 30
0.0
 40
55.0
 50
238.78962970748941
 51
301.21037029250959
  0
ARC
  8
0
  6
DIVIDE
 62
               4
  5
3F2
 10
-587.01966558996889
 20
-686.92497292767109
 30
0.0
 40
65.0
 50
239.99999999999966
 51
299.99999999999932
  0
LINE
  8
0
  6
DIVIDE
 62
               4
  5
3F3
 10
-562.51966558996651
 20
-747.1308696488386
 30
0.0
 11
-562.51966558996651
 21
-777.00577798385154
 31
0.0
  0
LINE
  8
0
  6
DIVIDE
 62
               4
  5
3F4
 10
-676.51966558996651
 20
-739.30237869847872
 30
0.0
 11
-676.51966558996651
 21
-777.00577798385154
 31
0.0
  0
ARC
  8
0
  6
DIVIDE
 62
               4
  5
3F5
 10
-652.01966558996889
 20
-686.92497292767132
 30
0.0
 40
65.0
 50
239.99999999999929
 51
247.85677929855132
  0
LINE
  8
0
  6
DIVIDE
 62
               4
  5
3F6
 10
-554.51966558996889
 20
-657.11267338020059
 30
0.0
 11
-554.51966558996889
 21
-743.21662417365962
 31
0.0
  0
LINE
  8
0
  6
DIVIDE
 62
               4
  5
3F7
 10
-684.51966558996889
 20
-657.11267338020059
 30
0.0
 11
-684.51966558996889
 21
-743.21662417365962
 31
0.0
  0
LINE
  8
0
  6
DIVIDE
 62
               4
  5
3F8
 10
643.4803344100327
 20
-460.31975844698957
 30
0.0
 11
643.4803344100327
 21
-512.11267338020207
 31
0.0
  0
LINE
  8
0
  6
DIVIDE
 62
               4
  5
3F9
 10
517.4803344100327
 20
-460.31975844698957
 30
0.0
 11
517.4803344100327
 21
-512.11267338020173
 31
0.0
  0
ARC
  8
0
  6
DIVIDE
 62
               4
  5
3FA
 10
551.98033441003122
 20
-824.04565468437033
 30
0.0
 40
55.0
 50
58.789629707489617
 51
121.21037029250985
  0
ARC
  8
0
  6
DIVIDE
 62
               4
  5
3FB
 10
551.98033441003122
 20
-729.96590128333276
 30
0.0
 40
55.0
 50
238.78962970748935
 51
301.21037029250937
  0
ARC
  8
0
  6
DIVIDE
 62
               4
  5
3FC
 10
547.98033441003111
 20
-799.50827541964816
 30
0.0
 40
65.0
 50
59.999999999999723
 51
119.99999999999987
  0
ARC
  8
0
  6
DIVIDE
 62
               4
  5
3FD
 10
608.98033441003122
 20
-729.96590128333298
 30
0.0
 40
55.0
 50
238.78962970748941
 51
301.21037029250959
  0
ARC
  8
0
  6
DIVIDE
 62
               4
  5
3FE
 10
612.98033441003111
 20
-686.92497292767109
 30
0.0
 40
65.0
 50
239.99999999999966
 51
299.99999999999932
  0
LINE
  8
0
  6
DIVIDE
 62
               4
  5
3FF
 10
523.48033441003133
 20
-739.30237869847963
 30
0.0
 11
523.48033441003133
 21
-777.00577798385154
 31
0.0
  0
LINE
  8
0
  6
DIVIDE
 62
               4
  5
400
 10
637.48033441003133
 20
-747.13086964883962
 30
0.0
 11
637.48033441003133
 21
-777.00577798385154
 31
0.0
  0
ARC
  8
0
  6
DIVIDE
 62
               4
  5
401
 10
547.98033441003111
 20
-686.92497292767132
 30
0.0
 40
65.0
 50
239.99999999999929
 51
247.85677929855132
  0
LINE
  8
0
  6
DIVIDE
 62
               4
  5
402
 10
645.48033441003111
 20
-657.11267338020059
 30
0.0
 11
645.48033441003111
 21
-743.21662417365962
 31
0.0
  0
LINE
  8
0
  6
DIVIDE
 62
               4
  5
403
 10
515.48033441003111
 20
-657.11267338020059
 30
0.0
 11
515.48033441003111
 21
-743.21662417365962
 31
0.0
  0
LINE
  8
0
  6
CONTINUOUS
 62
               3
  5
404
 10
499.98033441003236
 20
262.38732661979861
 30
0.0
 11
499.98033441003236
 21
204.34568171818842
 31
0.0
  0
LINE
  8
0
  6
CONTINUOUS
 62
               3
  5
405
 10
660.98033441003236
 20
262.38732661979861
 30
0.0
 11
660.98033441003236
 21
205.63315697277449
 31
0.0
  0
LINE
  8
0
  6
CONTINUOUS
 62
               3
  5
406
 10
678.98033441003281
 20
17.387326619798273
 30
0.0
 11
678.98033441003281
 21
68.387326619799296
 31
0.0
  0
LINE
  8
0
  6
CONTINUOUS
 62
               3
  5
407
 10
668.98033441003236
 20
73.387326619799296
 30
0.0
 11
673.98033441003281
 21
73.387326619799296
 31
0.0
  0
LINE
  8
0
  6
CONTINUOUS
 62
               3
  5
408
 10
668.9803344100319
 20
12.387326619798273
 30
0.0
 11
673.98033441003281
 21
12.387326619798273
 31
0.0
  0
ARC
  8
0
  6
CONTINUOUS
 62
               3
  5
409
 10
673.98033441003281
 20
68.387326619799296
 30
0.0
 40
5.0
 50
0.0
 51
89.999999999999801
  0
ARC
  8
0
  6
CONTINUOUS
 62
               3
  5
40A
 10
673.98033441003281
 20
17.387326619798273
 30
0.0
 40
5.0
 50
269.99999999999937
 51
359.9999999999992
  0
ARC
  8
0
  6
CONTINUOUS
 62
               3
  5
40B
 10
668.9803344100319
 20
7.387326619798273
 30
0.0
 40
5.0
 50
89.999999999999801
 51
179.9999999999996
  0
LINE
  8
0
  6
CONTINUOUS
 62
               3
  5
40C
 10
660.98033441003236
 20
205.63315697277449
 30
0.0
 11
663.98033441003236
 21
200.94179894808315
 31
0.0
  0
LINE
  8
0
  6
CONTINUOUS
 62
               3
  5
40D
 10
499.98033441003224
 20
205.63315697277443
 30
0.0
 11
496.98033441003224
 21
200.94179894808309
 31
0.0
  0
LINE
  8
0
  6
CONTINUOUS
 62
               3
  5
40E
 10
496.98033441003236
 20
200.94179894808326
 30
0.0
 11
496.98033441003236
 21
78.387326619799296
 31
0.0
  0
LINE
  8
0
  6
CONTINUOUS
 62
               3
  5
40F
 10
663.98033441003236
 20
200.94179894808315
 30
0.0
 11
663.98033441003236
 21
78.387326619799296
 31
0.0
  0
ARC
  8
0
  6
CONTINUOUS
 62
               3
  5
410
 10
668.98033441003236
 20
78.387326619799325
 30
0.0
 40
5.0
 50
179.9999999999996
 51
269.99999999999937
  0
LINE
  8
0
  6
CONTINUOUS
 62
               3
  5
411
 10
491.98033441003247
 20
73.387326619799353
 30
0.0
 11
486.9803344100319
 21
73.387326619799353
 31
0.0
  0
ARC
  8
0
  6
CONTINUOUS
 62
               3
  5
412
 10
491.98033441003247
 20
78.387326619799353
 30
0.0
 40
5.0
 50
269.99999999999937
 51
359.9999999999992
  0
ARC
  8
0
  6
CONTINUOUS
 62
               3
  5
413
 10
486.9803344100319
 20
68.387326619799353
 30
0.0
 40
5.0
 50
89.999999999999815
 51
179.9999999999996
  0
LINE
  8
0
  6
CONTINUOUS
 62
               3
  5
414
 10
663.9803344100319
 20
-211.59533835878679
 30
0.0
 11
663.9803344100319
 21
7.387326619798273
 31
0.0
  0
LINE
  8
0
  6
CONTINUOUS
 62
               3
  5
415
 10
-700.01966558996764
 20
262.38732661979861
 30
0.0
 11
-700.01966558996764
 21
205.63315697277443
 31
0.0
  0
LINE
  8
0
  6
CONTINUOUS
 62
               3
  5
416
 10
-539.01966558996764
 20
262.38732661979861
 30
0.0
 11
-539.01966558996764
 21
205.63315697277449
 31
0.0
  0
LINE
  8
0
  6
CONTINUOUS
 62
               3
  5
417
 10
-539.01966558996764
 20
205.63315697277449
 30
0.0
 11
-536.01966558996764
 21
200.94179894808315
 31
0.0
  0
LINE
  8
0
  6
CONTINUOUS
 62
               3
  5
418
 10
-536.01966558996764
 20
200.94179894808315
 30
0.0
 11
-536.01966558996764
 21
78.387326619799296
 31
0.0
  0
LINE
  8
0
  6
CONTINUOUS
 62
               3
  5
419
 10
-703.01966558996764
 20
200.94179894808326
 30
0.0
 11
-703.01966558996764
 21
78.387326619799296
 31
0.0
  0
LINE
  8
0
  6
CONTINUOUS
 62
               3
  5
41A
 10
-531.01966558996764
 20
73.387326619799296
 30
0.0
 11
-526.01966558996719
 21
73.387326619799296
 31
0.0
  0
LINE
  8
0
  6
CONTINUOUS
 62
               3
  5
41B
 10
-708.01966558996764
 20
73.387326619799296
 30
0.0
 11
-713.0196655899681
 21
73.387326619799296
 31
0.0
  0
LINE
  8
0
  6
CONTINUOUS
 62
               3
  5
41C
 10
-718.0196655899681
 20
17.387326619798245
 30
0.0
 11
-718.0196655899681
 21
68.387326619799296
 31
0.0
  0
ARC
  8
0
  6
CONTINUOUS
 62
               3
  5
41D
 10
-531.01966558996764
 20
78.387326619799296
 30
0.0
 40
5.0
 50
179.9999999999996
 51
269.99999999999937
  0
ARC
  8
0
  6
CONTINUOUS
 62
               3
  5
41E
 10
-713.0196655899681
 20
68.387326619799296
 30
0.0
 40
5.0
 50
89.999999999999801
 51
179.9999999999996
  0
ARC
  8
0
  6
CONTINUOUS
 62
               3
  5
41F
 10
-708.01966558996764
 20
78.387326619799296
 30
0.0
 40
5.0
 50
269.99999999999937
 51
359.9999999999992
  0
LINE
  8
0
  6
CONTINUOUS
 62
               3
  5
420
 10
-708.01966558996696
 20
12.387326619798245
 30
0.0
 11
-713.0196655899681
 21
12.387326619798245
 31
0.0
  0
ARC
  8
0
  6
CONTINUOUS
 62
               3
  5
421
 10
-708.01966558996696
 20
7.3873266197982446
 30
0.0
 40
5.0
 50
0.0000000000000094
 51
89.999999999999815
  0
ARC
  8
0
  6
CONTINUOUS
 62
               3
  5
422
 10
-713.0196655899681
 20
17.387326619798245
 30
0.0
 40
5.0
 50
179.9999999999996
 51
269.99999999999937
  0
LINE
  8
0
  6
CONTINUOUS
 62
               3
  5
423
 10
-700.01966558996764
 20
205.63315697277443
 30
0.0
 11
-703.01966558996764
 21
200.94179894808309
 31
0.0
  0
LINE
  8
0
  6
CONTINUOUS
 62
               3
  5
424
 10
-703.01966558996719
 20
-211.59533835878574
 30
0.0
 11
-703.01966558996719
 21
7.387326619798273
 31
0.0
  0
LINE
  8
0
  6
CONTINUOUS
 62
               3
  5
425
 10
-100.0196655899676
 20
262.38732661979861
 30
0.0
 11
-100.0196655899676
 21
204.34568171818842
 31
0.0
  0
LINE
  8
0
  6
CONTINUOUS
 62
               3
  5
426
 10
60.980334410032341
 20
262.38732661979861
 30
0.0
 11
60.980334410032341
 21
205.63315697277449
 31
0.0
  0
LINE
  8
0
  6
CONTINUOUS
 62
               3
  5
427
 10
-103.0196655899677
 20
200.9417989480832
 30
0.0
 11
-103.0196655899677
 21
78.387326619799182
 31
0.0
  0
LINE
  8
0
  6
CONTINUOUS
 62
               3
  5
428
 10
63.980334410032228
 20
78.387326619799182
 30
0.0
 11
63.980334410032228
 21
200.9417989480832
 31
0.0
  0
LINE
  8
0
  6
CONTINUOUS
 62
               3
  5
429
 10
60.980334410032313
 20
205.63315697277449
 30
0.0
 11
63.980334410032228
 21
200.9417989480832
 31
0.0
  0
LINE
  8
0
  6
CONTINUOUS
 62
               3
  5
42A
 10
-108.01966558996764
 20
73.387326619799325
 30
0.0
 11
-113.01966558996816
 21
73.387326619799325
 31
0.0
  0
ARC
  8
0
  6
CONTINUOUS
 62
               3
  5
42B
 10
-113.01966558996816
 20
68.387326619799325
 30
0.0
 40
5.0
 50
89.999999999999801
 51
179.9999999999996
  0
ARC
  8
0
  6
CONTINUOUS
 62
               3
  5
42C
 10
-108.01966558996764
 20
78.387326619799325
 30
0.0
 40
5.0
 50
269.99999999999937
 51
359.9999999999992
  0
LINE
  8
0
  6
CONTINUOUS
 62
               3
  5
42D
 10
68.980334410032285
 20
73.387326619799325
 30
0.0
 11
73.980334410032796
 21
73.387326619799325
 31
0.0
  0
ARC
  8
0
  6
CONTINUOUS
 62
               3
  5
42E
 10
68.980334410032285
 20
78.387326619799325
 30
0.0
 40
5.0
 50
179.9999999999996
 51
269.99999999999937
  0
ARC
  8
0
  6
CONTINUOUS
 62
               3
  5
42F
 10
73.980334410032796
 20
68.387326619799325
 30
0.0
 40
5.0
 50
0.0
 51
89.999999999999801
  0
LINE
  8
0
  6
CONTINUOUS
 62
               3
  5
430
 10
-100.01966558996776
 20
205.63315697277443
 30
0.0
 11
-103.0196655899677
 21
200.9417989480832
 31
0.0
  0
ARC
  8
0
  6
CONTINUOUS
 62
               3
  5
431
 10
-526.01966558996719
 20
68.387326619799282
 30
0.0
 40
5.0
 50
0.0000000000000009
 51
89.999999999999801
  0
LINE
  8
0
  6
CONTINUOUS
 62
               3
  5
432
 10
-164.51966558996759
 20
-574.11267338020264
 30
0.0
 11
-164.51966558996759
 21
-575.11267338020264
 31
0.0
  0
LINE
  8
0
  6
CONTINUOUS
 62
               3
  5
433
 10
-164.51966558996759
 20
-576.11267338020264
 30
0.0
 11
-164.51966558996759
 21
-575.11267338020264
 31
0.0
  0
LINE
  8
0
  6
CONTINUOUS
 62
               3
  5
434
 10
-114.26966558996759
 20
-572.61267338020207
 30
0.0
 11
-114.26966558996759
 21
-574.11267338020218
 31
0.0
  0
LINE
  8
0
  6
CONTINUOUS
 62
               3
  5
435
 10
-114.26966558996759
 20
-576.1126733802023
 30
0.0
 11
-114.26966558996759
 21
-577.61267338020241
 31
0.0
  0
ARC
  8
0
  6
CONTINUOUS
 62
               3
  5
436
 10
-95.519665589967587
 20
-516.11267338020207
 30
0.0
 40
4.0
 50
89.999999999982236
 51
179.99999999996518
  0
ARC
  8
0
  6
CONTINUOUS
 62
               3
  5
437
 10
-98.519665589967531
 20
-513.11267338020218
 30
0.0
 40
1.0000000000000004
 50
89.999999999981483
 51
179.99999999996524
  0
ARC
  8
0
  6
CONTINUOUS
 62
               3
  5
438
 10
-98.519665589967531
 20
-513.11267338020218
 30
0.0
 40
1.9999999999999996
 50
89.999999999983004
 51
179.99999999996524
  0
LINE
  8
0
  6
CONTINUOUS
 62
               3
  5
439
 10
-100.51966558996759
 20
-513.11267338020218
 30
0.0
 11
-100.51966558996759
 21
-573.11267338020218
 31
0.0
  0
LINE
  8
0
  6
CONTINUOUS
 62
               3
  5
43A
 10
-99.519665589967758
 20
-513.11267338020218
 30
0.0
 11
-99.519665589967758
 21
-573.11267338020218
 31
0.0
  0
ARC
  8
0
  6
CONTINUOUS
 62
               3
  5
43B
 10
-101.51966558996753
 20
-573.11267338020218
 30
0.0
 40
1.9999999999999996
 50
269.99999999994748
 51
359.99999999993048
  0
ARC
  8
0
  6
CONTINUOUS
 62
               3
  5
43C
 10
-101.51966558996753
 20
-573.11267338020218
 30
0.0
 40
1.0000000000000004
 50
269.99999999994748
 51
359.99999999993048
  0
LINE
  8
0
  6
CONTINUOUS
 62
               3
  5
43D
 10
-101.51966558996753
 20
-575.11267338020207
 30
0.0
 11
-164.51966558996759
 21
-575.11267338020264
 31
0.0
  0
LINE
  8
0
  6
CONTINUOUS
 62
               3
  5
43E
 10
-101.51966558996753
 20
-574.11267338020218
 30
0.0
 11
-164.51966558996759
 21
-574.11267338020264
 31
0.0
  0
LINE
  8
0
  6
CONTINUOUS
 62
               3
  5
43F
 10
-84.519665589967758
 20
-511.11267338020207
 30
0.0
 11
-98.519665589967531
 21
-511.11267338020207
 31
0.0
  0
LINE
  8
0
  6
CONTINUOUS
 62
               3
  5
440
 10
-84.519665589967758
 20
-511.11267338020207
 30
0.0
 11
-84.519665589967758
 21
-512.11267338020195
 31
0.0
  0
ARC
  8
0
  6
CONTINUOUS
 62
               3
  5
441
 10
-98.519665589966564
 20
-638.61267338020195
 30
0.0
 40
1.0000000000000004
 50
179.99999999996601
 51
269.99999999994748
  0
ARC
  8
0
  6
CONTINUOUS
 62
               3
  5
442
 10
-98.519665589966564
 20
-638.61267338020195
 30
0.0
 40
1.9999999999999996
 50
179.99999999996601
 51
269.99999999994901
  0
ARC
  8
0
  6
CONTINUOUS
 62
               3
  5
443
 10
-95.519665589966735
 20
-635.61267338020218
 30
0.0
 40
4.0
 50
179.99999999996601
 51
269.99999999994901
  0
LINE
  8
0
  6
CONTINUOUS
 62
               3
  5
444
 10
-100.51966558996673
 20
-638.61267338020195
 30
0.0
 11
-100.51966558996759
 21
-577.11267338020218
 31
0.0
  0
LINE
  8
0
  6
CONTINUOUS
 62
               3
  5
445
 10
-99.519665589966621
 20
-638.61267338020195
 30
0.0
 11
-99.519665589967644
 21
-577.11267338020218
 31
0.0
  0
ARC
  8
0
  6
CONTINUOUS
 62
               3
  5
446
 10
-101.51966558996753
 20
-577.11267338020218
 30
0.0
 40
1.9999999999999996
 50
0.000000000001145
 51
89.999999999983004
  0
ARC
  8
0
  6
CONTINUOUS
 62
               3
  5
447
 10
-101.51966558996753
 20
-577.11267338020218
 30
0.0
 40
1.0000000000000004
 50
0.0000000000007633
 51
89.999999999984539
  0
LINE
  8
0
  6
CONTINUOUS
 62
               3
  5
448
 10
-101.51966558996753
 20
-576.11267338020207
 30
0.0
 11
-164.51966558996759
 21
-576.11267338020264
 31
0.0
  0
LINE
  8
0
  6
CONTINUOUS
 62
               3
  5
449
 10
-96.519665589967815
 20
-535.11267338020207
 30
0.0
 11
-96.519665589967815
 21
-616.61267338020218
 31
0.0
  0
LINE
  8
0
  6
CONTINUOUS
 62
               3
  5
44A
 10
-106.76966558996759
 20
-572.61267338020207
 30
0.0
 11
-114.26966558996759
 21
-572.61267338020207
 31
0.0
  0
LINE
  8
0
  6
CONTINUOUS
 62
               3
  5
44B
 10
-106.76966558996759
 20
-577.61267338020207
 30
0.0
 11
-114.26966558996759
 21
-577.61267338020241
 31
0.0
  0
LINE
  8
0
  6
CONTINUOUS
 62
               3
  5
44C
 10
-106.76966558996759
 20
-572.61267338020207
 30
0.0
 11
-106.76966558996759
 21
-574.11267338020218
 31
0.0
  0
LINE
  8
0
  6
CONTINUOUS
 62
               3
  5
44D
 10
-106.76966558996759
 20
-576.11267338020207
 30
0.0
 11
-106.76966558996759
 21
-577.61267338020207
 31
0.0
  0
LINE
  8
0
  6
CONTINUOUS
 62
               3
  5
44E
 10
-81.519665589967815
 20
-654.1126733802015
 30
0.0
 11
-81.519665589967815
 21
-639.61267338020218
 31
0.0
  0
LINE
  8
0
  6
CONTINUOUS
 62
               3
  5
44F
 10
-84.519665589966621
 20
-640.61267338020195
 30
0.0
 11
-98.519665589966564
 21
-640.61267338020218
 31
0.0
  0
LINE
  8
0
  6
CONTINUOUS
 62
               3
  5
450
 10
-84.519665589966621
 20
-640.61267338020195
 30
0.0
 11
-84.519665589966621
 21
-639.61267338020218
 31
0.0
  0
LINE
  8
0
  6
CONTINUOUS
 62
               3
  5
451
 10
-84.519665589967644
 20
-654.1126733802015
 30
0.0
 11
45.480334410032356
 21
-654.1126733802015
 31
0.0
  0
LINE
  8
0
  6
CONTINUOUS
 62
               3
  5
452
 10
-19.519665589967644
 20
-512.11267338020139
 30
0.0
 11
-98.519665589967531
 21
-512.11267338020207
 31
0.0
  0
LINE
  8
0
  6
CONTINUOUS
 62
               3
  5
453
 10
-19.519665589967644
 20
-639.61267338020104
 30
0.0
 11
-98.519665589966564
 21
-639.61267338020218
 31
0.0
  0
LINE
  8
0
  6
CONTINUOUS
 62
               3
  5
454
 10
-19.519665589967644
 20
-616.6126733802015
 30
0.0
 11
-99.519665589966792
 21
-616.61267338020218
 31
0.0
  0
LINE
  8
0
  6
CONTINUOUS
 62
               3
  5
455
 10
-99.519665589967758
 20
-535.11267338020207
 30
0.0
 11
-19.519665589967644
 21
-535.11267338020207
 31
0.0
  0
ARC
  8
0
  6
CONTINUOUS
 62
               3
  5
456
 10
56.480334410032185
 20
-516.11267338020207
 30
0.0
 40
4.0
 50
0.0000000000344079
 51
90.000000000017366
  0
ARC
  8
0
  6
CONTINUOUS
 62
               3
  5
457
 10
59.480334410032128
 20
-513.11267338020218
 30
0.0
 40
1.0000000000000004
 50
0.000000000034357
 51
90.000000000018133
  0
ARC
  8
0
  6
CONTINUOUS
 62
               3
  5
458
 10
59.480334410032128
 20
-513.11267338020218
 30
0.0
 40
1.9999999999999996
 50
0.000000000034357
 51
90.000000000016598
  0
LINE
  8
0
  6
CONTINUOUS
 62
               3
  5
459
 10
61.480334410032185
 20
-513.11267338020218
 30
0.0
 11
61.480334410032185
 21
-573.11267338020218
 31
0.0
  0
LINE
  8
0
  6
CONTINUOUS
 62
               3
  5
45A
 10
60.480334410032356
 20
-513.11267338020218
 30
0.0
 11
60.480334410032356
 21
-573.11267338020218
 31
0.0
  0
ARC
  8
0
  6
CONTINUOUS
 62
               3
  5
45B
 10
62.480334410032242
 20
-573.11267338020218
 30
0.0
 40
1.9999999999999996
 50
180.0000000000683
 51
270.00000000005133
  0
ARC
  8
0
  6
CONTINUOUS
 62
               3
  5
45C
 10
62.480334410032242
 20
-573.11267338020218
 30
0.0
 40
1.0000000000000004
 50
180.0000000000683
 51
270.00000000005133
  0
LINE
  8
0
  6
CONTINUOUS
 62
               3
  5
45D
 10
62.480334410032242
 20
-575.11267338020207
 30
0.0
 11
125.48033441003234
 21
-575.11267338020264
 31
0.0
  0
LINE
  8
0
  6
CONTINUOUS
 62
               3
  5
45E
 10
62.480334410032242
 20
-574.11267338020218
 30
0.0
 11
125.48033441003234
 21
-574.11267338020264
 31
0.0
  0
LINE
  8
0
  6
CONTINUOUS
 62
               3
  5
45F
 10
45.480334410032356
 20
-511.11267338020207
 30
0.0
 11
59.480334410032128
 21
-511.11267338020207
 31
0.0
  0
LINE
  8
0
  6
CONTINUOUS
 62
               3
  5
460
 10
-19.519665589967644
 20
-512.11267338020139
 30
0.0
 11
59.480334410032128
 21
-512.11267338020207
 31
0.0
  0
LINE
  8
0
  6
CONTINUOUS
 62
               3
  5
461
 10
45.480334410032356
 20
-511.11267338020207
 30
0.0
 11
45.480334410032356
 21
-512.11267338020195
 31
0.0
  0
LINE
  8
0
  6
CONTINUOUS
 62
               3
  5
462
 10
45.480334410031219
 20
-640.61267338020195
 30
0.0
 11
59.480334410031276
 21
-640.61267338020218
 31
0.0
  0
ARC
  8
0
  6
CONTINUOUS
 62
               3
  5
463
 10
59.480334410031276
 20
-638.61267338020195
 30
0.0
 40
1.0000000000000004
 50
270.00000000005133
 51
360.0000000000328
  0
ARC
  8
0
  6
CONTINUOUS
 62
               3
  5
464
 10
59.480334410031276
 20
-638.61267338020195
 30
0.0
 40
1.9999999999999996
 50
270.00000000004979
 51
360.0000000000328
  0
ARC
  8
0
  6
CONTINUOUS
 62
               3
  5
465
 10
56.480334410031332
 20
-635.61267338020218
 30
0.0
 40
4.0
 50
270.00000000004979
 51
360.0000000000328
  0
LINE
  8
0
  6
CONTINUOUS
 62
               3
  5
466
 10
45.480334410031219
 20
-640.61267338020195
 30
0.0
 11
45.480334410031219
 21
-639.61267338020218
 31
0.0
  0
LINE
  8
0
  6
CONTINUOUS
 62
               3
  5
467
 10
61.480334410031162
 20
-638.61267338020195
 30
0.0
 11
61.480334410032185
 21
-577.11267338020218
 31
0.0
  0
LINE
  8
0
  6
CONTINUOUS
 62
               3
  5
468
 10
60.480334410031219
 20
-638.61267338020195
 30
0.0
 11
60.480334410032242
 21
-577.11267338020218
 31
0.0
  0
LINE
  8
0
  6
CONTINUOUS
 62
               3
  5
469
 10
-19.519665589967644
 20
-639.61267338020104
 30
0.0
 11
59.480334410031276
 21
-639.61267338020218
 31
0.0
  0
LINE
  8
0
  6
CONTINUOUS
 62
               3
  5
46A
 10
-19.519665589967644
 20
-616.6126733802015
 30
0.0
 11
60.480334410031503
 21
-616.61267338020218
 31
0.0
  0
ARC
  8
0
  6
CONTINUOUS
 62
               3
  5
46B
 10
62.480334410032242
 20
-577.11267338020218
 30
0.0
 40
1.9999999999999996
 50
90.000000000016598
 51
179.99999999999847
  0
ARC
  8
0
  6
CONTINUOUS
 62
               3
  5
46C
 10
62.480334410032242
 20
-577.11267338020218
 30
0.0
 40
1.0000000000000004
 50
90.000000000015078
 51
179.99999999999883
  0
LINE
  8
0
  6
CONTINUOUS
 62
               3
  5
46D
 10
62.480334410032242
 20
-576.11267338020207
 30
0.0
 11
125.48033441003234
 21
-576.11267338020264
 31
0.0
  0
LINE
  8
0
  6
CONTINUOUS
 62
               3
  5
46E
 10
60.480334410032356
 20
-535.11267338020207
 30
0.0
 11
-19.519665589967644
 21
-535.11267338020207
 31
0.0
  0
LINE
  8
0
  6
CONTINUOUS
 62
               3
  5
46F
 10
57.480334410032242
 20
-535.11267338020207
 30
0.0
 11
57.480334410032242
 21
-616.61267338020218
 31
0.0
  0
LINE
  8
0
  6
CONTINUOUS
 62
               3
  5
470
 10
125.48033441003234
 20
-574.11267338020264
 30
0.0
 11
125.48033441003234
 21
-575.11267338020264
 31
0.0
  0
LINE
  8
0
  6
CONTINUOUS
 62
               3
  5
471
 10
125.48033441003234
 20
-576.11267338020264
 30
0.0
 11
125.48033441003234
 21
-575.11267338020264
 31
0.0
  0
LINE
  8
0
  6
CONTINUOUS
 62
               3
  5
472
 10
67.730334410032185
 20
-572.61267338020207
 30
0.0
 11
75.230334410032185
 21
-572.61267338020207
 31
0.0
  0
LINE
  8
0
  6
CONTINUOUS
 62
               3
  5
473
 10
67.730334410032185
 20
-577.61267338020207
 30
0.0
 11
75.230334410032185
 21
-577.61267338020241
 31
0.0
  0
LINE
  8
0
  6
CONTINUOUS
 62
               3
  5
474
 10
67.730334410032185
 20
-572.61267338020207
 30
0.0
 11
67.730334410032185
 21
-574.11267338020218
 31
0.0
  0
LINE
  8
0
  6
CONTINUOUS
 62
               3
  5
475
 10
67.730334410032185
 20
-576.11267338020207
 30
0.0
 11
67.730334410032185
 21
-577.61267338020207
 31
0.0
  0
LINE
  8
0
  6
CONTINUOUS
 62
               3
  5
476
 10
75.230334410032185
 20
-572.61267338020207
 30
0.0
 11
75.230334410032185
 21
-574.11267338020218
 31
0.0
  0
LINE
  8
0
  6
CONTINUOUS
 62
               3
  5
477
 10
75.230334410032185
 20
-576.1126733802023
 30
0.0
 11
75.230334410032185
 21
-577.61267338020241
 31
0.0
  0
LINE
  8
0
  6
CONTINUOUS
 62
               3
  5
478
 10
42.480334410032242
 20
-654.1126733802015
 30
0.0
 11
42.480334410032242
 21
-639.61267338020218
 31
0.0
  0
LINE
  8
0
  6
CONTINUOUS
 62
               3
  5
479
 10
-86.019665589967673
 20
-360.80242342557744
 30
0.0
 11
-82.519665589967559
 21
-460.31975844698957
 31
0.0
  0
LINE
  8
0
  6
CONTINUOUS
 62
               3
  5
47A
 10
46.980334410032441
 20
-360.80242342557744
 30
0.0
 11
43.480334410032498
 21
-460.31975844698957
 31
0.0
  0
LINE
  8
0
  6
CONTINUOUS
 62
               3
  5
47B
 10
-103.01966558996708
 20
-211.59533835878673
 30
0.0
 11
-86.019665589967673
 21
-360.80242342557744
 31
0.0
  0
LINE
  8
0
  6
CONTINUOUS
 62
               3
  5
47C
 10
63.980334410031844
 20
-211.59533835878707
 30
0.0
 11
46.980334410032441
 21
-360.80242342557744
 31
0.0
  0
LINE
  8
0
  6
CONTINUOUS
 62
               3
  5
47D
 10
-686.01966558996764
 20
-360.80242342557744
 30
0.0
 11
-682.51966558996753
 21
-460.31975844698957
 31
0.0
  0
LINE
  8
0
  6
CONTINUOUS
 62
               3
  5
47E
 10
-553.01966558996753
 20
-360.80242342557744
 30
0.0
 11
-556.51966558996753
 21
-460.31975844698957
 31
0.0
  0
LINE
  8
0
  6
CONTINUOUS
 62
               3
  5
47F
 10
-703.01966558996708
 20
-211.59533835878673
 30
0.0
 11
-686.01966558996764
 21
-360.80242342557744
 31
0.0
  0
LINE
  8
0
  6
CONTINUOUS
 62
               3
  5
480
 10
-536.01966558996821
 20
-211.59533835878707
 30
0.0
 11
-553.01966558996753
 21
-360.80242342557744
 31
0.0
  0
LINE
  8
0
  6
CONTINUOUS
 62
               3
  5
481
 10
-681.51966558996764
 20
-657.11267338020059
 30
0.0
 11
-681.51966558996764
 21
-642.1126733802015
 31
0.0
  0
ARC
  8
0
  6
CONTINUOUS
 62
               3
  5
482
 10
-695.51966558996685
 20
-516.11267338020252
 30
0.0
 40
4.0
 50
89.999999999982236
 51
179.99999999996518
  0
LINE
  8
0
  6
CONTINUOUS
 62
               3
  5
483
 10
-699.51966558996685
 20
-516.11267338020014
 30
0.0
 11
-699.51966558996708
 21
-535.11267338020252
 31
0.0
  0
LINE
  8
0
  6
CONTINUOUS
 62
               3
  5
484
 10
-635.51966558996685
 20
-512.11267338020195
 30
0.0
 11
-695.5196655899656
 21
-512.11267338020252
 31
0.0
  0
LINE
  8
0
  6
CONTINUOUS
 62
               3
  5
485
 10
-635.51966558996685
 20
-643.11267338020059
 30
0.0
 11
-603.51966558996639
 21
-643.11267338020014
 31
0.0
  0
ARC
  8
0
  6
CONTINUOUS
 62
               3
  5
486
 10
-695.51966558996662
 20
-638.1126733802015
 30
0.0
 40
4.0
 50
179.99999999996601
 51
269.99999999994901
  0
LINE
  8
0
  6
CONTINUOUS
 62
               3
  5
487
 10
-699.51966558996662
 20
-638.1126733802015
 30
0.0
 11
-699.51966558996651
 21
-619.61267338020127
 31
0.0
  0
LINE
  8
0
  6
CONTINUOUS
 62
               3
  5
488
 10
-635.51966558996685
 20
-642.11267338020082
 30
0.0
 11
-695.51966558997003
 21
-642.1126733802015
 31
0.0
  0
LINE
  8
0
  6
CONTINUOUS
 62
               3
  5
489
 10
-635.51966558996685
 20
-619.61267338020082
 30
0.0
 11
-699.51966558996662
 21
-619.61267338020127
 31
0.0
  0
LINE
  8
0
  6
CONTINUOUS
 62
               3
  5
48A
 10
-699.51966558996708
 20
-535.11267338020252
 30
0.0
 11
-635.51966558996685
 21
-535.11267338020252
 31
0.0
  0
LINE
  8
0
  6
CONTINUOUS
 62
               3
  5
48B
 10
-696.51966558996708
 20
-535.11267338020252
 30
0.0
 11
-696.51966558996764
 21
-619.61267338020127
 31
0.0
  0
LINE
  8
0
  6
CONTINUOUS
 62
               3
  5
48C
 10
-603.51966558996685
 20
-512.11267338020195
 30
0.0
 11
-543.51966558996935
 21
-512.11267338020252
 31
0.0
  0
LINE
  8
0
  6
CONTINUOUS
 62
               3
  5
48D
 10
-603.51966558996639
 20
-642.11267338020082
 30
0.0
 11
-543.51966558996844
 21
-642.1126733802015
 31
0.0
  0
LINE
  8
0
  6
CONTINUOUS
 62
               3
  5
48E
 10
-603.51966558996639
 20
-619.61267338020082
 30
0.0
 11
-539.51966558996833
 21
-619.61267338020127
 31
0.0
  0
LINE
  8
0
  6
CONTINUOUS
 62
               3
  5
48F
 10
-539.51966558996685
 20
-535.11267338020252
 30
0.0
 11
-603.51966558996685
 21
-535.11267338020252
 31
0.0
  0
LINE
  8
0
  6
CONTINUOUS
 62
               3
  5
490
 10
-557.51966558996753
 20
-657.11267338020059
 30
0.0
 11
-557.51966558996753
 21
-642.1126733802015
 31
0.0
  0
LINE
  8
0
  6
CONTINUOUS
 62
               3
  5
491
 10
-635.51966558996685
 20
-511.11267338020252
 30
0.0
 11
-635.51966558996685
 21
-643.11267338020059
 31
0.0
  0
LINE
  8
0
  6
CONTINUOUS
 62
               3
  5
492
 10
-603.51966558996639
 20
-643.11267338020014
 30
0.0
 11
-603.51966558996685
 21
-511.11267338020252
 31
0.0
  0
LINE
  8
0
  6
CONTINUOUS
 62
               3
  5
493
 10
-635.51966558996753
 20
-511.11267338020252
 30
0.0
 11
-603.51966558996753
 21
-511.11267338020252
 31
0.0
  0
LINE
  8
0
  6
CONTINUOUS
 62
               3
  5
494
 10
-635.51966558996685
 20
-578.11267338020127
 30
0.0
 11
-603.51966558996639
 21
-578.11267338020127
 31
0.0
  0
LINE
  8
0
  6
CONTINUOUS
 62
               3
  5
495
 10
-635.51966558996685
 20
-577.1126733802015
 30
0.0
 11
-603.51966558996639
 21
-577.1126733802015
 31
0.0
  0
LINE
  8
0
  6
CONTINUOUS
 62
               3
  5
496
 10
-635.51966558996685
 20
-579.1126733802015
 30
0.0
 11
-603.51966558996639
 21
-579.1126733802015
 31
0.0
  0
ARC
  8
0
  6
CONTINUOUS
 62
               3
  5
497
 10
-543.5196655899681
 20
-516.11267338020252
 30
0.0
 40
4.0
 50
0.0000000000344079
 51
90.000000000017366
  0
LINE
  8
0
  6
CONTINUOUS
 62
               3
  5
498
 10
-539.5196655899681
 20
-516.11267338020014
 30
0.0
 11
-539.51966558996787
 21
-535.11267338020252
 31
0.0
  0
ARC
  8
0
  6
CONTINUOUS
 62
               3
  5
499
 10
-543.51966558996844
 20
-638.1126733802015
 30
0.0
 40
4.0
 50
270.00000000004979
 51
360.0000000000328
  0
LINE
  8
0
  6
CONTINUOUS
 62
               3
  5
49A
 10
-539.51966558996833
 20
-638.1126733802015
 30
0.0
 11
-539.51966558996844
 21
-619.61267338020127
 31
0.0
  0
LINE
  8
0
  6
CONTINUOUS
 62
               3
  5
49B
 10
-542.51966558996787
 20
-535.11267338020252
 30
0.0
 11
-542.5196655899673
 21
-619.61267338020127
 31
0.0
  0
LINE
  8
0
  6
CONTINUOUS
 62
               3
  5
49C
 10
-684.51966558996889
 20
-657.11267338020059
 30
0.0
 11
-554.51966558996889
 21
-657.11267338020059
 31
0.0
  0
LINE
  8
0
  6
CONTINUOUS
 62
               3
  5
49D
 10
513.98033441003236
 20
-360.80242342557744
 30
0.0
 11
517.48033441003247
 21
-460.31975844698957
 31
0.0
  0
LINE
  8
0
  6
CONTINUOUS
 62
               3
  5
49E
 10
646.98033441003247
 20
-360.80242342557744
 30
0.0
 11
643.48033441003247
 21
-460.31975844698957
 31
0.0
  0
LINE
  8
0
  6
CONTINUOUS
 62
               3
  5
49F
 10
496.98033441003292
 20
-211.59533835878673
 30
0.0
 11
513.98033441003236
 21
-360.80242342557744
 31
0.0
  0
LINE
  8
0
  6
CONTINUOUS
 62
               3
  5
4A0
 10
663.98033441003179
 20
-211.59533835878707
 30
0.0
 11
646.98033441003247
 21
-360.80242342557744
 31
0.0
  0
LINE
  8
0
  6
CONTINUOUS
 62
               3
  5
4A1
 10
518.48033441003236
 20
-657.11267338020059
 30
0.0
 11
518.48033441003236
 21
-642.1126733802015
 31
0.0
  0
ARC
  8
0
  6
CONTINUOUS
 62
               3
  5
4A2
 10
504.48033441003315
 20
-516.11267338020252
 30
0.0
 40
4.0
 50
89.999999999982236
 51
179.99999999996518
  0
LINE
  8
0
  6
CONTINUOUS
 62
               3
  5
4A3
 10
500.48033441003315
 20
-516.11267338020014
 30
0.0
 11
500.48033441003292
 21
-535.11267338020252
 31
0.0
  0
LINE
  8
0
  6
CONTINUOUS
 62
               3
  5
4A4
 10
564.48033441003315
 20
-512.11267338020195
 30
0.0
 11
504.4803344100344
 21
-512.11267338020252
 31
0.0
  0
LINE
  8
0
  6
CONTINUOUS
 62
               3
  5
4A5
 10
564.48033441003315
 20
-643.11267338020059
 30
0.0
 11
596.48033441003361
 21
-643.11267338020014
 31
0.0
  0
ARC
  8
0
  6
CONTINUOUS
 62
               3
  5
4A6
 10
504.48033441003338
 20
-638.1126733802015
 30
0.0
 40
4.0
 50
179.99999999996601
 51
269.99999999994901
  0
LINE
  8
0
  6
CONTINUOUS
 62
               3
  5
4A7
 10
500.48033441003338
 20
-638.1126733802015
 30
0.0
 11
500.48033441003349
 21
-619.61267338020127
 31
0.0
  0
LINE
  8
0
  6
CONTINUOUS
 62
               3
  5
4A8
 10
564.48033441003315
 20
-642.11267338020082
 30
0.0
 11
504.48033441002997
 21
-642.1126733802015
 31
0.0
  0
LINE
  8
0
  6
CONTINUOUS
 62
               3
  5
4A9
 10
564.48033441003315
 20
-619.61267338020082
 30
0.0
 11
500.48033441003338
 21
-619.61267338020127
 31
0.0
  0
LINE
  8
0
  6
CONTINUOUS
 62
               3
  5
4AA
 10
500.48033441003292
 20
-535.11267338020252
 30
0.0
 11
564.48033441003315
 21
-535.11267338020252
 31
0.0
  0
LINE
  8
0
  6
CONTINUOUS
 62
               3
  5
4AB
 10
503.48033441003292
 20
-535.11267338020252
 30
0.0
 11
503.48033441003236
 21
-619.61267338020127
 31
0.0
  0
LINE
  8
0
  6
CONTINUOUS
 62
               3
  5
4AC
 10
596.48033441003315
 20
-512.11267338020195
 30
0.0
 11
656.48033441003065
 21
-512.11267338020252
 31
0.0
  0
LINE
  8
0
  6
CONTINUOUS
 62
               3
  5
4AD
 10
596.48033441003361
 20
-642.11267338020082
 30
0.0
 11
656.48033441003156
 21
-642.1126733802015
 31
0.0
  0
LINE
  8
0
  6
CONTINUOUS
 62
               3
  5
4AE
 10
596.48033441003361
 20
-619.61267338020082
 30
0.0
 11
660.48033441003167
 21
-619.61267338020127
 31
0.0
  0
LINE
  8
0
  6
CONTINUOUS
 62
               3
  5
4AF
 10
660.48033441003315
 20
-535.11267338020252
 30
0.0
 11
596.48033441003315
 21
-535.11267338020252
 31
0.0
  0
LINE
  8
0
  6
CONTINUOUS
 62
               3
  5
4B0
 10
642.48033441003247
 20
-657.11267338020059
 30
0.0
 11
642.48033441003247
 21
-642.1126733802015
 31
0.0
  0
LINE
  8
0
  6
CONTINUOUS
 62
               3
  5
4B1
 10
564.48033441003315
 20
-511.11267338020252
 30
0.0
 11
564.48033441003315
 21
-643.11267338020059
 31
0.0
  0
LINE
  8
0
  6
CONTINUOUS
 62
               3
  5
4B2
 10
596.48033441003361
 20
-643.11267338020014
 30
0.0
 11
596.48033441003315
 21
-511.11267338020252
 31
0.0
  0
LINE
  8
0
  6
CONTINUOUS
 62
               3
  5
4B3
 10
564.48033441003247
 20
-511.11267338020252
 30
0.0
 11
596.48033441003247
 21
-511.11267338020252
 31
0.0
  0
LINE
  8
0
  6
CONTINUOUS
 62
               3
  5
4B4
 10
564.48033441003315
 20
-578.11267338020127
 30
0.0
 11
596.48033441003361
 21
-578.11267338020127
 31
0.0
  0
LINE
  8
0
  6
CONTINUOUS
 62
               3
  5
4B5
 10
564.48033441003315
 20
-577.1126733802015
 30
0.0
 11
596.48033441003361
 21
-577.1126733802015
 31
0.0
  0
LINE
  8
0
  6
CONTINUOUS
 62
               3
  5
4B6
 10
564.48033441003315
 20
-579.1126733802015
 30
0.0
 11
596.48033441003361
 21
-579.1126733802015
 31
0.0
  0
ARC
  8
0
  6
CONTINUOUS
 62
               3
  5
4B7
 10
656.4803344100319
 20
-516.11267338020252
 30
0.0
 40
4.0
 50
0.0000000000344079
 51
90.000000000017366
  0
LINE
  8
0
  6
CONTINUOUS
 62
               3
  5
4B8
 10
660.4803344100319
 20
-516.11267338020014
 30
0.0
 11
660.48033441003213
 21
-535.11267338020252
 31
0.0
  0
ARC
  8
0
  6
CONTINUOUS
 62
               3
  5
4B9
 10
656.48033441003156
 20
-638.1126733802015
 30
0.0
 40
4.0
 50
270.00000000004979
 51
360.0000000000328
  0
LINE
  8
0
  6
CONTINUOUS
 62
               3
  5
4BA
 10
660.48033441003167
 20
-638.1126733802015
 30
0.0
 11
660.48033441003156
 21
-619.61267338020127
 31
0.0
  0
LINE
  8
0
  6
CONTINUOUS
 62
               3
  5
4BB
 10
657.48033441003213
 20
-535.11267338020252
 30
0.0
 11
657.4803344100327
 21
-619.61267338020127
 31
0.0
  0
LINE
  8
0
  6
CONTINUOUS
 62
               3
  5
4BC
 10
515.48033441003111
 20
-657.11267338020059
 30
0.0
 11
645.48033441003111
 21
-657.11267338020059
 31
0.0
  0
LINE
  8
0
  6
CONTINUOUS
 62
               3
  5
4BD
 10
63.980334410031872
 20
-211.59533835878673
 30
0.0
 11
63.980334410031787
 21
7.3873266197983014
 31
0.0
  0
LINE
  8
0
  6
CONTINUOUS
 62
               3
  5
4BE
 10
78.980334410032839
 20
17.387326619798298
 30
0.0
 11
78.980334410032938
 21
68.387326619799367
 31
0.0
  0
LINE
  8
0
  6
CONTINUOUS
 62
               3
  5
4BF
 10
68.980334410031773
 20
12.387326619798309
 30
0.0
 11
73.98033441003291
 21
12.38732661979831
 31
0.0
  0
ARC
  8
0
  6
CONTINUOUS
 62
               3
  5
4C0
 10
68.980334410031773
 20
7.3873266197983085
 30
0.0
 40
5.0
 50
89.999999999999815
 51
179.99999999999969
  0
ARC
  8
0
  6
CONTINUOUS
 62
               3
  5
4C1
 10
73.98033441003291
 20
17.387326619798309
 30
0.0
 40
5.0
 50
269.99999999999937
 51
359.99999999999909
  0
LINE
  8
0
  6
CONTINUOUS
 62
               3
  5
4C2
 10
-118.01966558996907
 20
17.38732661979838
 30
0.0
 11
-118.0196655899681
 21
68.387326619799211
 31
0.0
  0
LINE
  8
0
  6
CONTINUOUS
 62
               3
  5
4C3
 10
-103.01966558996719
 20
-211.5953383587858
 30
0.0
 11
-103.01966558996696
 21
7.387326619798281
 31
0.0
  0
LINE
  8
0
  6
CONTINUOUS
 62
               3
  5
4C4
 10
-536.0196655899681
 20
-211.59533835878571
 30
0.0
 11
-536.0196655899681
 21
7.3873266197983032
 31
0.0
  0
LINE
  8
0
  6
CONTINUOUS
 62
               3
  5
4C5
 10
-531.01966558996833
 20
12.387326619798277
 30
0.0
 11
-526.01966558996719
 21
12.387326619798277
 31
0.0
  0
ARC
  8
0
  6
CONTINUOUS
 62
               3
  5
4C6
 10
-531.01966558996833
 20
7.3873266197982757
 30
0.0
 40
5.0
 50
89.999999999999801
 51
179.9999999999996
  0
LINE
  8
0
  6
CONTINUOUS
 62
               3
  5
4C7
 10
-521.01966558996719
 20
17.387326619798277
 30
0.0
 11
-521.01966558996719
 21
68.387326619799282
 31
0.0
  0
ARC
  8
0
  6
CONTINUOUS
 62
               3
  5
4C8
 10
-526.01966558996719
 20
17.387326619798277
 30
0.0
 40
5.0
 50
269.99999999999937
 51
359.9999999999992
  0
LINE
  8
0
  6
CONTINUOUS
 62
               3
  5
4C9
 10
496.98033441003281
 20
-211.59533835878682
 30
0.0
 11
496.98033441003281
 21
7.3873266197982508
 31
0.0
  0
LINE
  8
0
  6
CONTINUOUS
 62
               3
  5
4CA
 10
491.98033441003281
 20
12.38732661979825
 30
0.0
 11
486.9803344100319
 21
12.387326619798248
 31
0.0
  0
ARC
  8
0
  6
CONTINUOUS
 62
               3
  5
4CB
 10
486.9803344100319
 20
17.387326619798248
 30
0.0
 40
5.0
 50
179.9999999999996
 51
269.99999999999937
  0
ARC
  8
0
  6
CONTINUOUS
 62
               3
  5
4CC
 10
491.98033441003281
 20
7.3873266197982499
 30
0.0
 40
5.0
 50
0.0000000000000117
 51
89.999999999999815
  0
LINE
  8
0
  6
CONTINUOUS
 62
               3
  5
4CD
 10
481.9803344100319
 20
17.387326619798248
 30
0.0
 11
481.9803344100319
 21
68.387326619799268
 31
0.0
  0
LINE
  8
0
  6
CONTINUOUS
 62
               3
  5
4CE
 10
-108.01966558996696
 20
12.387326619798285
 30
0.0
 11
-113.0196655899681
 21
12.387326619798285
 31
0.0
  0
ARC
  8
0
  6
CONTINUOUS
 62
               3
  5
4CF
 10
-108.01966558996696
 20
7.3873266197982863
 30
0.0
 40
5.0
 50
359.99999999999915
 51
449.99999999999898
  0
ARC
  8
0
  6
CONTINUOUS
 62
               3
  5
4D0
 10
-113.0196655899681
 20
17.387326619798284
 30
0.0
 40
5.0
 50
179.99999999999972
 51
269.99999999999937
  0
LINE
  8
0
  6
CONTINUOUS
 62
               3
  5
4D1
 10
-108.41481334788664
 20
758.853170722291
 30
0.0
 11
-104.71998749241901
 21
758.853170722291
 31
0.0
  0
LINE
  8
0
  6
CONTINUOUS
 62
               3
  5
4D2
 10
-93.790475882821497
 20
819.58139096560308
 30
0.0
 11
-31.75964162112221
 21
828.09668457345515
 31
0.0
  0
LINE
  8
0
  6
CONTINUOUS
 62
               3
  5
4D3
 10
-7.2796895588122474
 20
828.09668457345515
 30
0.0
 11
54.751144702886634
 21
819.58139096560308
 31
0.0
  0
ARC
  8
0
  6
CONTINUOUS
 62
               3
  5
4D4
 10
-19.519665589967229
 20
738.93288593994725
 30
0.0
 40
90.0
 50
82.183566393529617
 51
97.816433606469985
  0
LINE
  8
0
  6
CONTINUOUS
 62
               3
  5
4D5
 10
78.223848261196636
 20
742.59314675344626
 30
0.0
 11
69.708554653344279
 21
804.62398101514555
 31
0.0
  0
ARC
  8
0
  6
CONTINUOUS
 62
               3
  5
4D6
 10
-10.939950372311312
 20
730.35317072229122
 30
0.0
 40
90.0
 50
352.18356639352902
 51
367.81643360646939
  0
LINE
  8
0
  6
CONTINUOUS
 62
               3
  5
4D7
 10
69.708554653344279
 20
656.0823604294369
 30
0.0
 11
78.223848261196636
 21
718.11319469113619
 31
0.0
  0
LINE
  8
0
  6
CONTINUOUS
 62
               3
  5
4D8
 10
-93.790475882821383
 20
641.12495047897914
 30
0.0
 11
-31.75964162112221
 21
632.60965687112707
 31
0.0
  0
ARC
  8
0
  6
CONTINUOUS
 62
               3
  5
4D9
 10
-19.519665589967229
 20
721.77345550463519
 30
0.0
 40
90.0
 50
262.18356639352925
 51
277.81643360646956
  0
ARC
  8
0
  6
CONTINUOUS
 62
               3
  5
4DA
 10
-91.410480543430353
 20
802.2439856757544
 30
0.0
 40
17.5
 50
97.816433606469786
 51
172.18356639352822
  0
ARC
  8
0
  6
CONTINUOUS
 62
               3
  5
4DB
 10
52.371149363495491
 20
802.24398567575463
 30
0.0
 40
17.5
 50
7.8164336064694764
 51
82.183566393529688
  0
ARC
  8
0
  6
CONTINUOUS
 62
               3
  5
4DC
 10
52.371149363495547
 20
658.46235576882805
 30
0.0
 40
17.5
 50
277.8164336064695
 51
352.18356639352879
  0
ARC
  8
0
  6
CONTINUOUS
 62
               3
  5
4DD
 10
-91.410480543430239
 20
658.46235576882782
 30
0.0
 40
17.5
 50
187.81643360647089
 51
262.18356639352965
  0
LINE
  8
0
  6
CONTINUOUS
 62
               3
  5
4DE
 10
-117.26317944113129
 20
742.59314675344638
 30
0.0
 11
-108.74788583327887
 21
804.62398101514566
 31
0.0
  0
LINE
  8
0
  6
CONTINUOUS
 62
               3
  5
4DF
 10
-108.747885833279
 20
656.08236042943702
 30
0.0
 11
-117.26317944113131
 21
718.1131946911363
 31
0.0
  0
ARC
  8
0
  6
CONTINUOUS
 62
               3
  5
4E0
 10
-28.099380807623348
 20
730.35317072229122
 30
0.0
 40
90.0
 50
172.18356639352936
 51
187.81643360646973
  0
LINE
  8
0
  6
CONTINUOUS
 62
               3
  5
4E1
 10
54.751144702886634
 20
641.12495047897903
 30
0.0
 11
-7.279689558812553
 21
632.60965687112707
 31
0.0
  0
ARC
  8
0
  6
CONTINUOUS
 62
               3
  5
4E2
 10
-67.124529547958218
 20
658.73070966752721
 30
0.0
 40
2.5
 50
56.38944847047263
 51
87.999999999999659
  0
ARC
  8
0
  6
CONTINUOUS
 62
               3
  5
4E3
 10
-19.519665589967389
 20
730.35317072229122
 30
0.0
 40
88.5
 50
76.938975885066696
 51
103.06102411465771
  0
ARC
  8
0
  6
CONTINUOUS
 62
               3
  5
4E4
 10
-54.519665589967616
 20
813.2687904811761
 30
0.0
 40
15.0
 50
292.88538047615845
 51
359.9999999999992
  0
ARC
  8
0
  6
CONTINUOUS
 62
               3
  5
4E5
 10
15.480334410032668
 20
813.26879048117621
 30
0.0
 40
15.0
 50
179.9999999999996
 51
247.11461952384028
  0
LINE
  8
0
  6
CONTINUOUS
 62
               3
  5
4E6
 10
-39.519665589967389
 20
811.42258542352113
 30
0.0
 11
-39.519665589967389
 21
816.56366892291589
 31
0.0
  0
LINE
  8
0
  6
CONTINUOUS
 62
               3
  5
4E7
 10
0.4803344100326115
 20
813.26879048117621
 30
0.0
 11
0.4803344100326115
 21
816.56366892291589
 31
0.0
  0
CIRCLE
  8
0
  6
CONTINUOUS
 62
               3
  5
4E8
 10
-19.519665589967389
 20
730.35317072229122
 30
0.0
 40
75.0
  0
ARC
  8
0
  6
CONTINUOUS
 62
               3
  5
4E9
 10
-19.519665589967389
 20
730.35317072229122
 30
0.0
 40
80.500000000000043
 50
105.06541275409911
 51
165.61435521395379
  0
ARC
  8
0
  6
CONTINUOUS
 62
               3
  5
4EA
 10
-19.519665589967389
 20
730.35317072229122
 30
0.0
 40
80.500000000000043
 50
195.06541275409879
 51
254.93458724590025
  0
ARC
  8
0
  6
CONTINUOUS
 62
               3
  5
4EB
 10
-19.519665589967389
 20
730.35317072229122
 30
0.0
 40
88.5
 50
166.9389758851697
 51
193.06102411476073
  0
ARC
  8
0
  6
CONTINUOUS
 62
               3
  5
4EC
 10
-102.43528534885237
 20
765.35317072229122
 30
0.0
 40
15.0
 50
269.99999999999937
 51
337.11461952384042
  0
LINE
  8
0
  6
CONTINUOUS
 62
               3
  5
4ED
 10
-105.73016379059297
 20
710.35317072229122
 30
0.0
 11
-102.43528534885237
 21
710.35317072229122
 31
0.0
  0
LINE
  8
0
  6
CONTINUOUS
 62
               3
  5
4EE
 10
-105.73016379059297
 20
750.35317072229122
 30
0.0
 11
-100.58908029119729
 21
750.35317072229122
 31
0.0
  0
ARC
  8
0
  6
CONTINUOUS
 62
               3
  5
4EF
 10
-102.43528534885237
 20
695.35317072229122
 30
0.0
 40
15.0
 50
22.885380476158275
 51
89.999999999999801
  0
ARC
  8
0
  6
CONTINUOUS
 62
               3
  5
4F0
 10
-19.519665589967389
 20
730.35317072229111
 30
0.0
 40
88.5
 50
256.93897588513505
 51
283.06102411472608
  0
ARC
  8
0
  6
CONTINUOUS
 62
               3
  5
4F1
 10
15.480334410032555
 20
647.43755096340624
 30
0.0
 40
15.0
 50
112.88538047615847
 51
179.9999999999996
  0
ARC
  8
0
  6
CONTINUOUS
 62
               3
  5
4F2
 10
-54.519665589967389
 20
647.43755096340624
 30
0.0
 40
15.0
 50
359.9999999999992
 51
427.11461952384082
  0
LINE
  8
0
  6
CONTINUOUS
 62
               3
  5
4F3
 10
0.4803344100326115
 20
644.14267252166587
 30
0.0
 11
0.4803344100326115
 21
647.43755096340624
 31
0.0
  0
LINE
  8
0
  6
CONTINUOUS
 62
               3
  5
4F4
 10
-39.519665589967389
 20
644.14267252166587
 30
0.0
 11
-39.519665589967389
 21
647.43755096340624
 31
0.0
  0
ARC
  8
0
  6
CONTINUOUS
 62
               3
  5
4F5
 10
-19.519665589967389
 20
730.35317072229122
 30
0.0
 40
88.5
 50
346.93897588510055
 51
373.06102411469152
  0
LINE
  8
0
  6
CONTINUOUS
 62
               3
  5
4F6
 10
63.395954168917612
 20
710.35317072229122
 30
0.0
 11
66.690832610657523
 21
710.35317072229122
 31
0.0
  0
LINE
  8
0
  6
CONTINUOUS
 62
               3
  5
4F7
 10
63.395954168917612
 20
750.35317072229122
 30
0.0
 11
66.690832610657523
 21
750.35317072229122
 31
0.0
  0
ARC
  8
0
  6
CONTINUOUS
 62
               3
  5
4F8
 10
63.395954168917612
 20
765.35317072229122
 30
0.0
 40
15.0
 50
202.88538047615819
 51
269.99999999999937
  0
ARC
  8
0
  6
CONTINUOUS
 62
               3
  5
4F9
 10
63.395954168917612
 20
695.35317072229122
 30
0.0
 40
15.0
 50
89.999999999999801
 51
157.11461952384118
  0
ARC
  8
0
  6
CONTINUOUS
 62
               3
  5
4FA
 10
-19.519665589967389
 20
730.35317072229122
 30
0.0
 40
80.500000000000043
 50
15.065412754099194
 51
74.934587245900573
  0
ARC
  8
0
  6
CONTINUOUS
 62
               3
  5
4FB
 10
-19.519665589967389
 20
730.35317072229122
 30
0.0
 40
80.500000000000043
 50
285.06541275409853
 51
344.93458724589999
  0
ARC
  8
0
  6
CONTINUOUS
 62
               3
  5
4FC
 10
-19.519665589967289
 20
730.35317072229122
 30
0.0
 40
83.499999999999901
 50
236.38944847047227
 51
256.14173134482377
  0
ARC
  8
0
  6
CONTINUOUS
 62
               3
  5
4FD
 10
-67.91355828415179
 20
804.44960214718333
 30
0.0
 40
5.0
 50
271.99999999999955
 51
303.14937354333676
  0
ARC
  8
0
  6
CONTINUOUS
 62
               3
  5
4FE
 10
-19.519665589967289
 20
730.35317072229122
 30
0.0
 40
83.499999999999901
 50
103.85826865517538
 51
166.14173134482405
  0
ARC
  8
0
  6
CONTINUOUS
 62
               3
  5
4FF
 10
-19.519665589967289
 20
730.35317072229122
 30
0.0
 40
83.499999999999901
 50
103.06102411480029
 51
166.14173134482405
  0
ARC
  8
0
  6
CONTINUOUS
 62
               3
  5
500
 10
-19.519665589967289
 20
730.35317072229122
 30
0.0
 40
83.499999999999901
 50
193.85826865517515
 51
256.14173134482377
  0
ARC
  8
0
  6
CONTINUOUS
 62
               3
  5
501
 10
-19.519665589967289
 20
730.35317072229122
 30
0.0
 40
83.499999999999901
 50
193.85826865517515
 51
236.38944847047227
  0
ARC
  8
0
  6
CONTINUOUS
 62
               3
  5
502
 10
-93.616097014859122
 20
681.95927802809615
 30
0.0
 40
5.0
 50
2.0000000000036473
 51
33.149373543343351
  0
ARC
  8
0
  6
CONTINUOUS
 62
               3
  5
503
 10
54.5767658349247
 20
681.95927802810843
 30
0.0
 40
5.0
 50
146.85062645666321
 51
178.00000000000117
  0
ARC
  8
0
  6
CONTINUOUS
 62
               3
  5
504
 10
-19.519665589967289
 20
730.35317072229122
 30
0.0
 40
83.499999999999901
 50
13.85826865517557
 51
76.141731344824237
  0
ARC
  8
0
  6
CONTINUOUS
 62
               3
  5
505
 10
-19.519665589967289
 20
730.35317072229122
 30
0.0
 40
83.499999999999901
 50
283.06102411479992
 51
346.1417313448236
  0
LINE
  8
0
  6
CONTINUOUS
 62
               3
  5
506
 10
505.48033441003281
 20
292.88732661979839
 30
0.0
 11
655.48033441003213
 21
292.88732661979839
 31
0.0
  0
LINE
  8
0
  6
CONTINUOUS
 62
               3
  5
507
 10
491.98033441003258
 20
282.88732661979839
 30
0.0
 11
491.98033441003258
 21
275.88732661979873
 31
0.0
  0
LINE
  8
0
  6
CONTINUOUS
 62
               3
  5
508
 10
491.98033441003258
 20
282.88732661979839
 30
0.0
 11
505.48033441003281
 21
292.88732661979839
 31
0.0
  0
LINE
  8
0
  6
CONTINUOUS
 62
               3
  5
509
 10
668.98033441003236
 20
282.88732661979839
 30
0.0
 11
668.98033441003236
 21
275.88732661979873
 31
0.0
  0
LINE
  8
0
  6
CONTINUOUS
 62
               3
  5
50A
 10
668.98033441003236
 20
282.88732661979839
 30
0.0
 11
655.48033441003213
 21
292.88732661979839
 31
0.0
  0
ARC
  8
0
  6
CONTINUOUS
 62
               3
  5
50B
 10
494.98033441003281
 20
270.88732661979873
 30
0.0
 40
5.0
 50
0.0000000000000079
 51
89.999999999999815
  0
LINE
  8
0
  6
CONTINUOUS
 62
               3
  5
50C
 10
491.98033441003258
 20
275.88732661979873
 30
0.0
 11
494.98033441003281
 21
275.88732661979873
 31
0.0
  0
ARC
  8
0
  6
CONTINUOUS
 62
               3
  5
50D
 10
665.98033441003281
 20
270.88732661979873
 30
0.0
 40
5.0
 50
89.999999999999801
 51
179.9999999999996
  0
LINE
  8
0
  6
CONTINUOUS
 62
               3
  5
50E
 10
668.98033441003236
 20
275.88732661979873
 30
0.0
 11
665.98033441003281
 21
275.88732661979873
 31
0.0
  0
LINE
  8
0
  6
CONTINUOUS
 62
               3
  5
50F
 10
499.98033441003281
 20
270.88732661979873
 30
0.0
 11
499.98033441003258
 21
262.38732661979884
 31
0.0
  0
LINE
  8
0
  6
CONTINUOUS
 62
               3
  5
510
 10
660.98033441003281
 20
270.88732661979873
 30
0.0
 11
660.98033441003281
 21
262.38732661979884
 31
0.0
  0
LINE
  8
0
  6
CONTINUOUS
 62
               3
  5
511
 10
-94.51966558996719
 20
292.88732661979839
 30
0.0
 11
55.480334410032128
 21
292.88732661979839
 31
0.0
  0
LINE
  8
0
  6
CONTINUOUS
 62
               3
  5
512
 10
-108.01966558996742
 20
282.88732661979839
 30
0.0
 11
-108.01966558996742
 21
275.88732661979873
 31
0.0
  0
LINE
  8
0
  6
CONTINUOUS
 62
               3
  5
513
 10
-108.01966558996742
 20
282.88732661979839
 30
0.0
 11
-94.51966558996719
 21
292.88732661979839
 31
0.0
  0
LINE
  8
0
  6
CONTINUOUS
 62
               3
  5
514
 10
68.980334410032356
 20
282.88732661979839
 30
0.0
 11
68.980334410032356
 21
275.88732661979873
 31
0.0
  0
LINE
  8
0
  6
CONTINUOUS
 62
               3
  5
515
 10
68.980334410032356
 20
282.88732661979839
 30
0.0
 11
55.480334410032128
 21
292.88732661979839
 31
0.0
  0
ARC
  8
0
  6
CONTINUOUS
 62
               3
  5
516
 10
-105.01966558996719
 20
270.88732661979873
 30
0.0
 40
5.0
 50
0.0000000000000079
 51
89.999999999999815
  0
LINE
  8
0
  6
CONTINUOUS
 62
               3
  5
517
 10
-108.01966558996742
 20
275.88732661979873
 30
0.0
 11
-105.01966558996719
 21
275.88732661979873
 31
0.0
  0
ARC
  8
0
  6
CONTINUOUS
 62
               3
  5
518
 10
65.98033441003281
 20
270.88732661979873
 30
0.0
 40
5.0
 50
89.999999999999801
 51
179.9999999999996
  0
LINE
  8
0
  6
CONTINUOUS
 62
               3
  5
519
 10
68.980334410032356
 20
275.88732661979873
 30
0.0
 11
65.98033441003281
 21
275.88732661979873
 31
0.0
  0
LINE
  8
0
  6
CONTINUOUS
 62
               3
  5
51A
 10
-100.01966558996719
 20
270.88732661979873
 30
0.0
 11
-100.01966558996742
 21
262.38732661979884
 31
0.0
  0
LINE
  8
0
  6
CONTINUOUS
 62
               3
  5
51B
 10
60.98033441003281
 20
270.88732661979873
 30
0.0
 11
60.98033441003281
 21
262.38732661979884
 31
0.0
  0
LINE
  8
0
  6
CONTINUOUS
 62
               3
  5
51C
 10
-694.51966558996719
 20
292.88732661979839
 30
0.0
 11
-544.51966558996787
 21
292.88732661979839
 31
0.0
  0
LINE
  8
0
  6
CONTINUOUS
 62
               3
  5
51D
 10
-708.01966558996742
 20
282.88732661979839
 30
0.0
 11
-708.01966558996742
 21
275.88732661979873
 31
0.0
  0
LINE
  8
0
  6
CONTINUOUS
 62
               3
  5
51E
 10
-708.01966558996742
 20
282.88732661979839
 30
0.0
 11
-694.51966558996719
 21
292.88732661979839
 31
0.0
  0
LINE
  8
0
  6
CONTINUOUS
 62
               3
  5
51F
 10
-531.01966558996764
 20
282.88732661979839
 30
0.0
 11
-531.01966558996764
 21
275.88732661979873
 31
0.0
  0
LINE
  8
0
  6
CONTINUOUS
 62
               3
  5
520
 10
-531.01966558996764
 20
282.88732661979839
 30
0.0
 11
-544.51966558996787
 21
292.88732661979839
 31
0.0
  0
ARC
  8
0
  6
CONTINUOUS
 62
               3
  5
521
 10
-705.01966558996719
 20
270.88732661979873
 30
0.0
 40
5.0
 50
0.0000000000000079
 51
89.999999999999815
  0
LINE
  8
0
  6
CONTINUOUS
 62
               3
  5
522
 10
-708.01966558996742
 20
275.88732661979873
 30
0.0
 11
-705.01966558996719
 21
275.88732661979873
 31
0.0
  0
ARC
  8
0
  6
CONTINUOUS
 62
               3
  5
523
 10
-534.01966558996719
 20
270.88732661979873
 30
0.0
 40
5.0
 50
89.999999999999801
 51
179.9999999999996
  0
LINE
  8
0
  6
CONTINUOUS
 62
               3
  5
524
 10
-531.01966558996764
 20
275.88732661979873
 30
0.0
 11
-534.01966558996719
 21
275.88732661979873
 31
0.0
  0
LINE
  8
0
  6
CONTINUOUS
 62
               3
  5
525
 10
-700.01966558996719
 20
270.88732661979873
 30
0.0
 11
-700.01966558996742
 21
262.38732661979884
 31
0.0
  0
LINE
  8
0
  6
CONTINUOUS
 62
               3
  5
526
 10
-539.01966558996719
 20
270.88732661979873
 30
0.0
 11
-539.01966558996719
 21
262.38732661979884
 31
0.0
  0
INSERT
  8
0
  6
CONTINUOUS
  5
527
  2
GROUP_1
 10
0.0
 20
0.0
 30
0.0
  0
INSERT
  8
0
  6
CONTINUOUS
  5
528
  2
GROUP_2
 10
0.0
 20
0.0
 30
0.0
  0
INSERT
  8
0
  6
CONTINUOUS
  5
529
  2
GROUP_3
 10
0.0
 20
0.0
 30
0.0
  0
INSERT
  8
0
  6
CONTINUOUS
  5
52A
  2
GROUP_4
 10
0.0
 20
0.0
 30
0.0
  0
INSERT
  8
0
  6
CONTINUOUS
  5
52B
  2
GROUP_5
 10
0.0
 20
0.0
 30
0.0
  0
INSERT
  8
0
  6
CONTINUOUS
  5
52C
  2
GROUP_6
 10
0.0
 20
0.0
 30
0.0
  0
INSERT
  8
0
  6
CONTINUOUS
  5
52D
  2
GROUP_7
 10
0.0
 20
0.0
 30
0.0
  0
INSERT
  8
0
  6
CONTINUOUS
  5
52E
  2
GROUP_8
 10
0.0
 20
0.0
 30
0.0
  0
INSERT
  8
0
  6
CONTINUOUS
  5
52F
  2
GROUP_9
 10
0.0
 20
0.0
 30
0.0
  0
INSERT
  8
0
  6
CONTINUOUS
  5
530
  2
GROUP_10
 10
0.0
 20
0.0
 30
0.0
  0
INSERT
  8
0
  6
CONTINUOUS
  5
531
  2
GROUP_11
 10
0.0
 20
0.0
 30
0.0
  0
INSERT
  8
0
  6
CONTINUOUS
  5
532
  2
GROUP_12
 10
0.0
 20
0.0
 30
0.0
  0
INSERT
  8
0
  6
CONTINUOUS
  5
533
  2
GROUP_13
 10
0.0
 20
0.0
 30
0.0
  0
LINE
  8
0
  6
DASHED2
 62
               7
  5
534
 10
37.480334410032413
 20
-472.11267338020139
 30
0.0
 11
37.480334410032413
 21
-512.11267338020195
 31
0.0
  0
LINE
  8
0
  6
DASHED2
 62
               7
  5
535
 10
-76.519665589967644
 20
-472.11267338020139
 30
0.0
 11
-76.519665589967644
 21
-512.11267338020184
 31
0.0
  0
LINE
  8
0
  6
DASHED2
 62
               7
  5
536
 10
-562.5196655899673
 20
-472.11267338020195
 30
0.0
 11
-562.5196655899673
 21
-512.11267338020207
 31
0.0
  0
LINE
  8
0
  6
DASHED2
 62
               7
  5
537
 10
-676.51966558996742
 20
-472.11267338020195
 30
0.0
 11
-676.51966558996742
 21
-512.11267338020173
 31
0.0
  0
LINE
  8
0
  6
DASHED2
 62
               7
  5
538
 10
637.4803344100327
 20
-472.11267338020195
 30
0.0
 11
637.4803344100327
 21
-512.11267338020207
 31
0.0
  0
LINE
  8
0
  6
DASHED2
 62
               7
  5
539
 10
523.48033441003258
 20
-472.11267338020195
 30
0.0
 11
523.48033441003258
 21
-512.11267338020173
 31
0.0
  0
ENDSEC
  0
EOF
