  0
SECTION
  2
HEADER
  9
$ACADVER
  1
AC1009
  9
$INSBASE
 10
0.0
 20
0.0
 30
0.0
  9
$EXTMIN
 10
-726.82573046432663
 20
-1746.0839305703823
 30
0.0
  9
$EXTMAX
 10
746.11225368063458
 20
871.8135135801798
 30
0.0
  9
$LIMMIN
 10
-772.85504246885671
 20
-1827.8932257000874
  9
$LIMMAX
 10
792.14156568516466
 20
953.62280870988491
  9
$ORTHOMODE
 70
               0
  9
$REGENMODE
 70
               1
  9
$FILLMODE
 70
               1
  9
$QTEXTMODE
 70
               0
  9
$MIRRTEXT
 70
               1
  9
$DRAGMODE
 70
               2
  9
$LTSCALE
 40
1.0
  9
$OSMODE
 70
               0
  9
$ATTMODE
 70
               1
  9
$TEXTSIZE
 40
0.2
  9
$TRACEWID
 40
0.05
  9
$TEXTSTYLE
  7
STANDARD
  9
$CLAYER
  8
0
  9
$CELTYPE
  6
CONTINUOUS
  9
$CECOLOR
 62
             256
  9
$DIMSCALE
 40
1.0
  9
$DIMASZ
 40
0.18
  9
$DIMEXO
 40
0.0625
  9
$DIMDLI
 40
0.38
  9
$DIMRND
 40
0.0
  9
$DIMDLE
 40
0.0
  9
$DIMEXE
 40
0.18
  9
$DIMTP
 40
0.0
  9
$DIMTM
 40
0.0
  9
$DIMTXT
 40
0.18
  9
$DIMCEN
 40
0.09
  9
$DIMTSZ
 40
0.0
  9
$DIMTOL
 70
               0
  9
$DIMLIM
 70
               0
  9
$DIMTIH
 70
               1
  9
$DIMTOH
 70
               1
  9
$DIMSE1
 70
               0
  9
$DIMSE2
 70
               0
  9
$DIMTAD
 70
               0
  9
$DIMZIN
 70
               0
  9
$DIMBLK
  1

  9
$DIMASO
 70
               1
  9
$DIMSHO
 70
               1
  9
$DIMPOST
  1

  9
$DIMAPOST
  1

  9
$DIMALT
 70
               0
  9
$DIMALTD
 70
               2
  9
$DIMALTF
 40
25.399999999999999
  9
$DIMLFAC
 40
1.0
  9
$DIMTOFL
 70
               0
  9
$DIMTVP
 40
0.0
  9
$DIMTIX
 70
               0
  9
$DIMSOXD
 70
               0
  9
$DIMSAH
 70
               0
  9
$DIMBLK1
  1

  9
$DIMBLK2
  1

  9
$DIMSTYLE
  2
STANDARD
  9
$DIMCLRD
 70
               0
  9
$DIMCLRE
 70
               0
  9
$DIMCLRT
 70
               0
  9
$DIMTFAC
 40
1.0
  9
$DIMGAP
 40
0.09
  9
$LUNITS
 70
               2
  9
$LUPREC
 70
               4
  9
$AXISMODE
 70
               0
  9
$AXISUNIT
 10
0.0
 20
0.0
  9
$SKETCHINC
 40
0.1
  9
$FILLETRAD
 40
0.0
  9
$AUNITS
 70
               0
  9
$AUPREC
 70
               0
  9
$MENU
  1
acad
  9
$ELEVATION
 40
0.0
  9
$PELEVATION
 40
0.0
  9
$THICKNESS
 40
0.0
  9
$LIMCHECK
 70
               0
  9
$BLIPMODE
 70
               1
  9
$CHAMFERA
 40
0.0
  9
$CHAMFERB
 40
0.0
  9
$SKPOLY
 70
               0
  9
$TDCREATE
 40
0.000000000
  9
$TDUPDATE
 40
0.000000000
  9
$TDINDWG
 40
0.0000000000
  9
$TDUSRTIMER
 40
0.0000000000
  9
$USRTIMER
 70
               1
  9
$ANGBASE
 50
0.0
  9
$ANGDIR
 70
               0
  9
$PDMODE
 70
               0
  9
$PDSIZE
 40
1.0
  9
$PLINEWID
 40
0.0
  9
$COORDS
 70
               1
  9
$SPLFRAME
 70
               0
  9
$SPLINETYPE
 70
               6
  9
$SPLINESEGS
 70
               8
  9
$ATTDIA
 70
               0
  9
$ATTREQ
 70
               1
  9
$HANDLING
 70
               1
  9
$HANDSEED
  5
70B
  9
$SURFTAB1
 70
               6
  9
$SURFTAB2
 70
               6
  9
$SURFTYPE
 70
               6
  9
$SURFU
 70
               6
  9
$SURFV
 70
               6
  9
$UCSNAME
  2

  9
$UCSORG
 10
0.0
 20
0.0
 30
0.0
  9
$UCSXDIR
 10
1.0
 20
0.0
 30
0.0
  9
$UCSYDIR
 10
0.0
 20
1.0
 30
0.0
  9
$PUCSNAME
  2

  9
$PUCSORG
 10
0.0
 20
0.0
 30
0.0
  9
$PUCSXDIR
 10
1.0
 20
0.0
 30
0.0
  9
$PUCSYDIR
 10
0.0
 20
1.0
 30
0.0
  9
$USERI1
 70
               0
  9
$USERI2
 70
               0
  9
$USERI3
 70
               0
  9
$USERI4
 70
               0
  9
$USERI5
 70
               0
  9
$USERR1
 40
0.0
  9
$USERR2
 40
0.0
  9
$USERR3
 40
0.0
  9
$USERR4
 40
0.0
  9
$USERR5
 40
0.0
  9
$WORLDVIEW
 70
               1
  9
$SHADEDGE
 70
               3
  9
$SHADEDIF
 70
              70
  9
$TILEMODE
 70
               1
  9
$MAXACTVP
 70
              16
  9
$PINSBASE
 10
0.0
 20
0.0
 30
0.0
  9
$PLIMCHECK
 70
               0
  9
$PEXTMIN
 10
1.0000000000000000E+20
 20
1.0000000000000000E+20
 30
1.0000000000000000E+20
  9
$PEXTMAX
 10
-1.0000000000000000E+20
 20
-1.0000000000000000E+20
 30
-1.0000000000000000E+20
  9
$PLIMMIN
 10
0.0
 20
0.0
  9
$PLIMMAX
 10
12.0
 20
9.0
  9
$UNITMODE
 70
               0
  9
$VISRETAIN
 70
               0
  9
$PLINEGEN
 70
               1
  9
$PSLTSCALE
 70
               0
  9
$TREEDEPTH
 70
            3020
  9
$DWGCODEPAGE
  3
dos932
  0
ENDSEC
  0
SECTION
  2
TABLES
  0
TABLE
  2
VPORT
 70
               1
  0
VPORT
  2
*ACTIVE
 70
               0
 10
0.0
 20
0.0
 11
1.0
 21
1.0
 12
9.6432616081539777
 22
-437.13520849510127
 13
0.0
 23
0.0
 14
1.0
 24
1.0
 15
0.0
 25
0.0
 16
0.0
 26
0.0
 36
1.0
 17
0.0
 27
0.0
 37
0.0
 40
2781.5160344099722
 41
0.5626415914176082
 42
50.0
 43
0.0
 44
0.0
 50
0.0
 51
0.0
 71
               0
 72
             100
 73
               1
 74
               1
 75
               0
 76
               0
 77
               0
 78
               0
  0
ENDTAB
  0
TABLE
  2
LTYPE
 70
              26
  0
LTYPE
  2
CONTINUOUS
 70
               0
  3
Solid line
 72
              65
 73
               0
 40
0.0
  0
LTYPE
  2
HIDDENX2
 70
               0
  3
CADPAC FUSION LINETYPE
 72
              65
 73
               2
 40
47.560000000000002
 49
35.670000000000002
 49
-11.890000000000001
  0
LTYPE
  2
HIDDEN
 70
               0
  3
CADPAC FUSION LINETYPE
 72
              65
 73
               2
 40
35.670000000000002
 49
23.780000000000001
 49
-11.890000000000001
  0
LTYPE
  2
HIDDEN2
 70
               0
  3
CADPAC FUSION LINETYPE
 72
              65
 73
               2
 40
29.725000000000001
 49
17.835000000000001
 49
-11.890000000000001
  0
LTYPE
  2
DASHED
 70
               0
  3
CADPAC FUSION LINETYPE
 72
              65
 73
               2
 40
35.670000000000002
 49
23.780000000000001
 49
-11.890000000000001
  0
LTYPE
  2
DASHED2
 70
               0
  3
CADPAC FUSION LINETYPE
 72
              65
 73
               2
 40
26.752500000000001
 49
17.835000000000001
 49
-8.9175000000000004
  0
LTYPE
  2
DASHEDX2
 70
               0
  3
CADPAC FUSION LINETYPE
 72
              65
 73
               2
 40
53.505000000000003
 49
35.670000000000002
 49
-17.835000000000001
  0
LTYPE
  2
DOTX2
 70
               0
  3
CADPAC FUSION LINETYPE
 72
              65
 73
               2
 40
14.862500000000001
 49
0.0
 49
-14.862500000000001
  0
LTYPE
  2
DOT
 70
               0
  3
CADPAC FUSION LINETYPE
 72
              65
 73
               2
 40
11.890000000000001
 49
0.0
 49
-11.890000000000001
  0
LTYPE
  2
DOTS
 70
               0
  3
CADPAC FUSION LINETYPE
 72
              65
 73
               2
 40
11.890000000000001
 49
0.0
 49
-11.890000000000001
  0
LTYPE
  2
DOT2
 70
               0
  3
CADPAC FUSION LINETYPE
 72
              65
 73
               2
 40
8.9175000000000004
 49
0.0
 49
-8.9175000000000004
  0
LTYPE
  2
CENTERX2
 70
               0
  3
CADPAC FUSION LINETYPE
 72
              65
 73
               4
 40
71.340000000000003
 49
29.725000000000001
 49
-14.862500000000001
 49
11.890000000000001
 49
-14.862500000000001
  0
LTYPE
  2
CENTER
 70
               0
  3
CADPAC FUSION LINETYPE
 72
              65
 73
               4
 40
54.694000000000003
 49
23.780000000000001
 49
-11.890000000000001
 49
7.1340000000000003
 49
-11.890000000000001
  0
LTYPE
  2
CENTER2
 70
               0
  3
CADPAC FUSION LINETYPE
 72
              65
 73
               4
 40
38.048000000000002
 49
17.835000000000001
 49
-8.9175000000000004
 49
2.3780000000000001
 49
-8.9175000000000004
  0
LTYPE
  2
DASHDOTX2
 70
               0
  3
CADPAC FUSION LINETYPE
 72
              65
 73
               4
 40
59.450000000000003
 49
29.725000000000001
 49
-14.862500000000001
 49
0.0
 49
-14.862500000000001
  0
LTYPE
  2
DASHDOT
 70
               0
  3
CADPAC FUSION LINETYPE
 72
              65
 73
               4
 40
47.560000000000002
 49
23.780000000000001
 49
-11.890000000000001
 49
0.0
 49
-11.890000000000001
  0
LTYPE
  2
DASHDOT2
 70
               0
  3
CADPAC FUSION LINETYPE
 72
              65
 73
               4
 40
35.670000000000002
 49
17.835000000000001
 49
-8.9175000000000004
 49
0.0
 49
-8.9175000000000004
  0
LTYPE
  2
DIVIDEX2
 70
               0
  3
CADPAC FUSION LINETYPE
 72
              65
 73
               6
 40
74.3125
 49
29.725000000000001
 49
-14.862500000000001
 49
0.0
 49
-14.862500000000001
 49
0.0
 49
-14.862500000000001
  0
LTYPE
  2
DIVIDE
 70
               0
  3
CADPAC FUSION LINETYPE
 72
              65
 73
               6
 40
59.450000000000003
 49
23.780000000000001
 49
-11.890000000000001
 49
0.0
 49
-11.890000000000001
 49
0.0
 49
-11.890000000000001
  0
LTYPE
  2
DIVIDE2
 70
               0
  3
CADPAC FUSION LINETYPE
 72
              65
 73
               6
 40
44.587500000000006
 49
17.835000000000001
 49
-8.9175000000000004
 49
0.0
 49
-8.9175000000000004
 49
0.0
 49
-8.9175000000000004
  0
LTYPE
  2
BORDERX2
 70
               0
  3
CADPAC FUSION LINETYPE
 72
              65
 73
               6
 40
104.03750000000001
 49
29.725000000000001
 49
-14.862500000000001
 49
29.725000000000001
 49
-14.862500000000001
 49
0.0
 49
-14.862500000000001
  0
LTYPE
  2
BORDER
 70
               0
  3
CADPAC FUSION LINETYPE
 72
              65
 73
               6
 40
83.230000000000004
 49
23.780000000000001
 49
-11.890000000000001
 49
23.780000000000001
 49
-11.890000000000001
 49
0.0
 49
-11.890000000000001
  0
LTYPE
  2
BORDER2
 70
               0
  3
CADPAC FUSION LINETYPE
 72
              65
 73
               6
 40
62.422499999999999
 49
17.835000000000001
 49
-8.9175000000000004
 49
17.835000000000001
 49
-8.9175000000000004
 49
0.0
 49
-8.9175000000000004
  0
LTYPE
  2
PHANTOMX2
 70
               0
  3
CADPAC FUSION LINETYPE
 72
              65
 73
               6
 40
89.175000000000011
 49
29.725000000000001
 49
-11.890000000000001
 49
11.890000000000001
 49
-11.890000000000001
 49
11.890000000000001
 49
-11.890000000000001
  0
LTYPE
  2
PHANTOM
 70
               0
  3
CADPAC FUSION LINETYPE
 72
              65
 73
               6
 40
73.718000000000004
 49
23.780000000000001
 49
-11.890000000000001
 49
7.1340000000000003
 49
-11.890000000000001
 49
7.1340000000000003
 49
-11.890000000000001
  0
LTYPE
  2
PHANTOM2
 70
               0
  3
CADPAC FUSION LINETYPE
 72
              65
 73
               6
 40
63.017000000000003
 49
17.835000000000001
 49
-11.890000000000001
 49
4.7560000000000002
 49
-11.890000000000001
 49
4.7560000000000002
 49
-11.890000000000001
  0
ENDTAB
  0
TABLE
  2
LAYER
 70
             256
  0
LAYER
  2
0
 70
               0
 62
               7
  6
CONTINUOUS
  0
LAYER
  2
LAYER001
 70
               0
 62
               7
  6
CONTINUOUS
  0
LAYER
  2
LAYER002
 70
               0
 62
               7
  6
CONTINUOUS
  0
LAYER
  2
LAYER003
 70
               0
 62
               7
  6
CONTINUOUS
  0
LAYER
  2
LAYER004
 70
               0
 62
               7
  6
CONTINUOUS
  0
LAYER
  2
LAYER005
 70
               0
 62
               7
  6
CONTINUOUS
  0
LAYER
  2
LAYER006
 70
               0
 62
               7
  6
CONTINUOUS
  0
LAYER
  2
LAYER007
 70
               0
 62
               7
  6
CONTINUOUS
  0
LAYER
  2
LAYER008
 70
               0
 62
               7
  6
CONTINUOUS
  0
LAYER
  2
LAYER009
 70
               0
 62
               7
  6
CONTINUOUS
  0
LAYER
  2
LAYER010
 70
               0
 62
               7
  6
CONTINUOUS
  0
LAYER
  2
LAYER011
 70
               0
 62
               7
  6
CONTINUOUS
  0
LAYER
  2
LAYER012
 70
               0
 62
               7
  6
CONTINUOUS
  0
LAYER
  2
LAYER013
 70
               0
 62
               7
  6
CONTINUOUS
  0
LAYER
  2
LAYER014
 70
               0
 62
               7
  6
CONTINUOUS
  0
LAYER
  2
LAYER015
 70
               0
 62
               7
  6
CONTINUOUS
  0
LAYER
  2
LAYER016
 70
               0
 62
               7
  6
CONTINUOUS
  0
LAYER
  2
LAYER017
 70
               0
 62
               7
  6
CONTINUOUS
  0
LAYER
  2
LAYER018
 70
               0
 62
               7
  6
CONTINUOUS
  0
LAYER
  2
LAYER019
 70
               0
 62
               7
  6
CONTINUOUS
  0
LAYER
  2
LAYER020
 70
               0
 62
               7
  6
CONTINUOUS
  0
LAYER
  2
LAYER021
 70
               0
 62
               7
  6
CONTINUOUS
  0
LAYER
  2
LAYER022
 70
               0
 62
               7
  6
CONTINUOUS
  0
LAYER
  2
LAYER023
 70
               0
 62
               7
  6
CONTINUOUS
  0
LAYER
  2
LAYER024
 70
               0
 62
               7
  6
CONTINUOUS
  0
LAYER
  2
LAYER025
 70
               0
 62
               7
  6
CONTINUOUS
  0
LAYER
  2
LAYER026
 70
               0
 62
               7
  6
CONTINUOUS
  0
LAYER
  2
LAYER027
 70
               0
 62
               7
  6
CONTINUOUS
  0
LAYER
  2
LAYER028
 70
               0
 62
               7
  6
CONTINUOUS
  0
LAYER
  2
LAYER029
 70
               0
 62
               7
  6
CONTINUOUS
  0
LAYER
  2
LAYER030
 70
               0
 62
               7
  6
CONTINUOUS
  0
LAYER
  2
LAYER031
 70
               0
 62
               7
  6
CONTINUOUS
  0
LAYER
  2
LAYER032
 70
               0
 62
               7
  6
CONTINUOUS
  0
LAYER
  2
LAYER033
 70
               0
 62
               7
  6
CONTINUOUS
  0
LAYER
  2
LAYER034
 70
               0
 62
               7
  6
CONTINUOUS
  0
LAYER
  2
LAYER035
 70
               0
 62
               7
  6
CONTINUOUS
  0
LAYER
  2
LAYER036
 70
               0
 62
               7
  6
CONTINUOUS
  0
LAYER
  2
LAYER037
 70
               0
 62
               7
  6
CONTINUOUS
  0
LAYER
  2
LAYER038
 70
               0
 62
               7
  6
CONTINUOUS
  0
LAYER
  2
LAYER039
 70
               0
 62
               7
  6
CONTINUOUS
  0
LAYER
  2
LAYER040
 70
               0
 62
               7
  6
CONTINUOUS
  0
LAYER
  2
LAYER041
 70
               0
 62
               7
  6
CONTINUOUS
  0
LAYER
  2
LAYER042
 70
               0
 62
               7
  6
CONTINUOUS
  0
LAYER
  2
LAYER043
 70
               0
 62
               7
  6
CONTINUOUS
  0
LAYER
  2
LAYER044
 70
               0
 62
               7
  6
CONTINUOUS
  0
LAYER
  2
LAYER045
 70
               0
 62
               7
  6
CONTINUOUS
  0
LAYER
  2
LAYER046
 70
               0
 62
               7
  6
CONTINUOUS
  0
LAYER
  2
LAYER047
 70
               0
 62
               7
  6
CONTINUOUS
  0
LAYER
  2
LAYER048
 70
               0
 62
               7
  6
CONTINUOUS
  0
LAYER
  2
LAYER049
 70
               0
 62
               7
  6
CONTINUOUS
  0
LAYER
  2
LAYER050
 70
               0
 62
               7
  6
CONTINUOUS
  0
LAYER
  2
LAYER051
 70
               0
 62
               7
  6
CONTINUOUS
  0
LAYER
  2
LAYER052
 70
               0
 62
               7
  6
CONTINUOUS
  0
LAYER
  2
LAYER053
 70
               0
 62
               7
  6
CONTINUOUS
  0
LAYER
  2
LAYER054
 70
               0
 62
               7
  6
CONTINUOUS
  0
LAYER
  2
LAYER055
 70
               0
 62
               7
  6
CONTINUOUS
  0
LAYER
  2
LAYER056
 70
               0
 62
               7
  6
CONTINUOUS
  0
LAYER
  2
LAYER057
 70
               0
 62
               7
  6
CONTINUOUS
  0
LAYER
  2
LAYER058
 70
               0
 62
               7
  6
CONTINUOUS
  0
LAYER
  2
LAYER059
 70
               0
 62
               7
  6
CONTINUOUS
  0
LAYER
  2
LAYER060
 70
               0
 62
               7
  6
CONTINUOUS
  0
LAYER
  2
LAYER061
 70
               0
 62
               7
  6
CONTINUOUS
  0
LAYER
  2
LAYER062
 70
               0
 62
               7
  6
CONTINUOUS
  0
LAYER
  2
LAYER063
 70
               0
 62
               7
  6
CONTINUOUS
  0
LAYER
  2
LAYER064
 70
               0
 62
               7
  6
CONTINUOUS
  0
LAYER
  2
LAYER065
 70
               0
 62
               7
  6
CONTINUOUS
  0
LAYER
  2
LAYER066
 70
               0
 62
               7
  6
CONTINUOUS
  0
LAYER
  2
LAYER067
 70
               0
 62
               7
  6
CONTINUOUS
  0
LAYER
  2
LAYER068
 70
               0
 62
               7
  6
CONTINUOUS
  0
LAYER
  2
LAYER069
 70
               0
 62
               7
  6
CONTINUOUS
  0
LAYER
  2
LAYER070
 70
               0
 62
               7
  6
CONTINUOUS
  0
LAYER
  2
LAYER071
 70
               0
 62
               7
  6
CONTINUOUS
  0
LAYER
  2
LAYER072
 70
               0
 62
               7
  6
CONTINUOUS
  0
LAYER
  2
LAYER073
 70
               0
 62
               7
  6
CONTINUOUS
  0
LAYER
  2
LAYER074
 70
               0
 62
               7
  6
CONTINUOUS
  0
LAYER
  2
LAYER075
 70
               0
 62
               7
  6
CONTINUOUS
  0
LAYER
  2
LAYER076
 70
               0
 62
               7
  6
CONTINUOUS
  0
LAYER
  2
LAYER077
 70
               0
 62
               7
  6
CONTINUOUS
  0
LAYER
  2
LAYER078
 70
               0
 62
               7
  6
CONTINUOUS
  0
LAYER
  2
LAYER079
 70
               0
 62
               7
  6
CONTINUOUS
  0
LAYER
  2
LAYER080
 70
               0
 62
               7
  6
CONTINUOUS
  0
LAYER
  2
LAYER081
 70
               0
 62
               7
  6
CONTINUOUS
  0
LAYER
  2
LAYER082
 70
               0
 62
               7
  6
CONTINUOUS
  0
LAYER
  2
LAYER083
 70
               0
 62
               7
  6
CONTINUOUS
  0
LAYER
  2
LAYER084
 70
               0
 62
               7
  6
CONTINUOUS
  0
LAYER
  2
LAYER085
 70
               0
 62
               7
  6
CONTINUOUS
  0
LAYER
  2
LAYER086
 70
               0
 62
               7
  6
CONTINUOUS
  0
LAYER
  2
LAYER087
 70
               0
 62
               7
  6
CONTINUOUS
  0
LAYER
  2
LAYER088
 70
               0
 62
               7
  6
CONTINUOUS
  0
LAYER
  2
LAYER089
 70
               0
 62
               7
  6
CONTINUOUS
  0
LAYER
  2
LAYER090
 70
               0
 62
               7
  6
CONTINUOUS
  0
LAYER
  2
LAYER091
 70
               0
 62
               7
  6
CONTINUOUS
  0
LAYER
  2
LAYER092
 70
               0
 62
               7
  6
CONTINUOUS
  0
LAYER
  2
LAYER093
 70
               0
 62
               7
  6
CONTINUOUS
  0
LAYER
  2
LAYER094
 70
               0
 62
               7
  6
CONTINUOUS
  0
LAYER
  2
LAYER095
 70
               0
 62
               7
  6
CONTINUOUS
  0
LAYER
  2
LAYER096
 70
               0
 62
               7
  6
CONTINUOUS
  0
LAYER
  2
LAYER097
 70
               0
 62
               7
  6
CONTINUOUS
  0
LAYER
  2
LAYER098
 70
               0
 62
               7
  6
CONTINUOUS
  0
LAYER
  2
LAYER099
 70
               0
 62
               7
  6
CONTINUOUS
  0
LAYER
  2
LAYER100
 70
               0
 62
               7
  6
CONTINUOUS
  0
LAYER
  2
LAYER101
 70
               0
 62
               7
  6
CONTINUOUS
  0
LAYER
  2
LAYER102
 70
               0
 62
               7
  6
CONTINUOUS
  0
LAYER
  2
LAYER103
 70
               0
 62
               7
  6
CONTINUOUS
  0
LAYER
  2
LAYER104
 70
               0
 62
               7
  6
CONTINUOUS
  0
LAYER
  2
LAYER105
 70
               0
 62
               7
  6
CONTINUOUS
  0
LAYER
  2
LAYER106
 70
               0
 62
               7
  6
CONTINUOUS
  0
LAYER
  2
LAYER107
 70
               0
 62
               7
  6
CONTINUOUS
  0
LAYER
  2
LAYER108
 70
               0
 62
               7
  6
CONTINUOUS
  0
LAYER
  2
LAYER109
 70
               0
 62
               7
  6
CONTINUOUS
  0
LAYER
  2
LAYER110
 70
               0
 62
               7
  6
CONTINUOUS
  0
LAYER
  2
LAYER111
 70
               0
 62
               7
  6
CONTINUOUS
  0
LAYER
  2
LAYER112
 70
               0
 62
               7
  6
CONTINUOUS
  0
LAYER
  2
LAYER113
 70
               0
 62
               7
  6
CONTINUOUS
  0
LAYER
  2
LAYER114
 70
               0
 62
               7
  6
CONTINUOUS
  0
LAYER
  2
LAYER115
 70
               0
 62
               7
  6
CONTINUOUS
  0
LAYER
  2
LAYER116
 70
               0
 62
               7
  6
CONTINUOUS
  0
LAYER
  2
LAYER117
 70
               0
 62
               7
  6
CONTINUOUS
  0
LAYER
  2
LAYER118
 70
               0
 62
               7
  6
CONTINUOUS
  0
LAYER
  2
LAYER119
 70
               0
 62
               7
  6
CONTINUOUS
  0
LAYER
  2
LAYER120
 70
               0
 62
               7
  6
CONTINUOUS
  0
LAYER
  2
LAYER121
 70
               0
 62
               7
  6
CONTINUOUS
  0
LAYER
  2
LAYER122
 70
               0
 62
               7
  6
CONTINUOUS
  0
LAYER
  2
LAYER123
 70
               0
 62
               7
  6
CONTINUOUS
  0
LAYER
  2
LAYER124
 70
               0
 62
               7
  6
CONTINUOUS
  0
LAYER
  2
LAYER125
 70
               0
 62
               7
  6
CONTINUOUS
  0
LAYER
  2
LAYER126
 70
               0
 62
               7
  6
CONTINUOUS
  0
LAYER
  2
LAYER127
 70
               0
 62
               7
  6
CONTINUOUS
  0
LAYER
  2
LAYER128
 70
               0
 62
               7
  6
CONTINUOUS
  0
LAYER
  2
LAYER129
 70
               0
 62
               7
  6
CONTINUOUS
  0
LAYER
  2
LAYER130
 70
               0
 62
               7
  6
CONTINUOUS
  0
LAYER
  2
LAYER131
 70
               0
 62
               7
  6
CONTINUOUS
  0
LAYER
  2
LAYER132
 70
               0
 62
               7
  6
CONTINUOUS
  0
LAYER
  2
LAYER133
 70
               0
 62
               7
  6
CONTINUOUS
  0
LAYER
  2
LAYER134
 70
               0
 62
               7
  6
CONTINUOUS
  0
LAYER
  2
LAYER135
 70
               0
 62
               7
  6
CONTINUOUS
  0
LAYER
  2
LAYER136
 70
               0
 62
               7
  6
CONTINUOUS
  0
LAYER
  2
LAYER137
 70
               0
 62
               7
  6
CONTINUOUS
  0
LAYER
  2
LAYER138
 70
               0
 62
               7
  6
CONTINUOUS
  0
LAYER
  2
LAYER139
 70
               0
 62
               7
  6
CONTINUOUS
  0
LAYER
  2
LAYER140
 70
               0
 62
               7
  6
CONTINUOUS
  0
LAYER
  2
LAYER141
 70
               0
 62
               7
  6
CONTINUOUS
  0
LAYER
  2
LAYER142
 70
               0
 62
               7
  6
CONTINUOUS
  0
LAYER
  2
LAYER143
 70
               0
 62
               7
  6
CONTINUOUS
  0
LAYER
  2
LAYER144
 70
               0
 62
               7
  6
CONTINUOUS
  0
LAYER
  2
LAYER145
 70
               0
 62
               7
  6
CONTINUOUS
  0
LAYER
  2
LAYER146
 70
               0
 62
               7
  6
CONTINUOUS
  0
LAYER
  2
LAYER147
 70
               0
 62
               7
  6
CONTINUOUS
  0
LAYER
  2
LAYER148
 70
               0
 62
               7
  6
CONTINUOUS
  0
LAYER
  2
LAYER149
 70
               0
 62
               7
  6
CONTINUOUS
  0
LAYER
  2
LAYER150
 70
               0
 62
               7
  6
CONTINUOUS
  0
LAYER
  2
LAYER151
 70
               0
 62
               7
  6
CONTINUOUS
  0
LAYER
  2
LAYER152
 70
               0
 62
               7
  6
CONTINUOUS
  0
LAYER
  2
LAYER153
 70
               0
 62
               7
  6
CONTINUOUS
  0
LAYER
  2
LAYER154
 70
               0
 62
               7
  6
CONTINUOUS
  0
LAYER
  2
LAYER155
 70
               0
 62
               7
  6
CONTINUOUS
  0
LAYER
  2
LAYER156
 70
               0
 62
               7
  6
CONTINUOUS
  0
LAYER
  2
LAYER157
 70
               0
 62
               7
  6
CONTINUOUS
  0
LAYER
  2
LAYER158
 70
               0
 62
               7
  6
CONTINUOUS
  0
LAYER
  2
LAYER159
 70
               0
 62
               7
  6
CONTINUOUS
  0
LAYER
  2
LAYER160
 70
               0
 62
               7
  6
CONTINUOUS
  0
LAYER
  2
LAYER161
 70
               0
 62
               7
  6
CONTINUOUS
  0
LAYER
  2
LAYER162
 70
               0
 62
               7
  6
CONTINUOUS
  0
LAYER
  2
LAYER163
 70
               0
 62
               7
  6
CONTINUOUS
  0
LAYER
  2
LAYER164
 70
               0
 62
               7
  6
CONTINUOUS
  0
LAYER
  2
LAYER165
 70
               0
 62
               7
  6
CONTINUOUS
  0
LAYER
  2
LAYER166
 70
               0
 62
               7
  6
CONTINUOUS
  0
LAYER
  2
LAYER167
 70
               0
 62
               7
  6
CONTINUOUS
  0
LAYER
  2
LAYER168
 70
               0
 62
               7
  6
CONTINUOUS
  0
LAYER
  2
LAYER169
 70
               0
 62
               7
  6
CONTINUOUS
  0
LAYER
  2
LAYER170
 70
               0
 62
               7
  6
CONTINUOUS
  0
LAYER
  2
LAYER171
 70
               0
 62
               7
  6
CONTINUOUS
  0
LAYER
  2
LAYER172
 70
               0
 62
               7
  6
CONTINUOUS
  0
LAYER
  2
LAYER173
 70
               0
 62
               7
  6
CONTINUOUS
  0
LAYER
  2
LAYER174
 70
               0
 62
               7
  6
CONTINUOUS
  0
LAYER
  2
LAYER175
 70
               0
 62
               7
  6
CONTINUOUS
  0
LAYER
  2
LAYER176
 70
               0
 62
               7
  6
CONTINUOUS
  0
LAYER
  2
LAYER177
 70
               0
 62
               7
  6
CONTINUOUS
  0
LAYER
  2
LAYER178
 70
               0
 62
               7
  6
CONTINUOUS
  0
LAYER
  2
LAYER179
 70
               0
 62
               7
  6
CONTINUOUS
  0
LAYER
  2
LAYER180
 70
               0
 62
               7
  6
CONTINUOUS
  0
LAYER
  2
LAYER181
 70
               0
 62
               7
  6
CONTINUOUS
  0
LAYER
  2
LAYER182
 70
               0
 62
               7
  6
CONTINUOUS
  0
LAYER
  2
LAYER183
 70
               0
 62
               7
  6
CONTINUOUS
  0
LAYER
  2
LAYER184
 70
               0
 62
               7
  6
CONTINUOUS
  0
LAYER
  2
LAYER185
 70
               0
 62
               7
  6
CONTINUOUS
  0
LAYER
  2
LAYER186
 70
               0
 62
               7
  6
CONTINUOUS
  0
LAYER
  2
LAYER187
 70
               0
 62
               7
  6
CONTINUOUS
  0
LAYER
  2
LAYER188
 70
               0
 62
               7
  6
CONTINUOUS
  0
LAYER
  2
LAYER189
 70
               0
 62
               7
  6
CONTINUOUS
  0
LAYER
  2
LAYER190
 70
               0
 62
               7
  6
CONTINUOUS
  0
LAYER
  2
LAYER191
 70
               0
 62
               7
  6
CONTINUOUS
  0
LAYER
  2
LAYER192
 70
               0
 62
               7
  6
CONTINUOUS
  0
LAYER
  2
LAYER193
 70
               0
 62
               7
  6
CONTINUOUS
  0
LAYER
  2
LAYER194
 70
               0
 62
               7
  6
CONTINUOUS
  0
LAYER
  2
LAYER195
 70
               0
 62
               7
  6
CONTINUOUS
  0
LAYER
  2
LAYER196
 70
               0
 62
               7
  6
CONTINUOUS
  0
LAYER
  2
LAYER197
 70
               0
 62
               7
  6
CONTINUOUS
  0
LAYER
  2
LAYER198
 70
               0
 62
               7
  6
CONTINUOUS
  0
LAYER
  2
LAYER199
 70
               0
 62
               7
  6
CONTINUOUS
  0
LAYER
  2
LAYER200
 70
               0
 62
               7
  6
CONTINUOUS
  0
LAYER
  2
LAYER201
 70
               0
 62
               7
  6
CONTINUOUS
  0
LAYER
  2
LAYER202
 70
               0
 62
               7
  6
CONTINUOUS
  0
LAYER
  2
LAYER203
 70
               0
 62
               7
  6
CONTINUOUS
  0
LAYER
  2
LAYER204
 70
               0
 62
               7
  6
CONTINUOUS
  0
LAYER
  2
LAYER205
 70
               0
 62
               7
  6
CONTINUOUS
  0
LAYER
  2
LAYER206
 70
               0
 62
               7
  6
CONTINUOUS
  0
LAYER
  2
LAYER207
 70
               0
 62
               7
  6
CONTINUOUS
  0
LAYER
  2
LAYER208
 70
               0
 62
               7
  6
CONTINUOUS
  0
LAYER
  2
LAYER209
 70
               0
 62
               7
  6
CONTINUOUS
  0
LAYER
  2
LAYER210
 70
               0
 62
               7
  6
CONTINUOUS
  0
LAYER
  2
LAYER211
 70
               0
 62
               7
  6
CONTINUOUS
  0
LAYER
  2
LAYER212
 70
               0
 62
               7
  6
CONTINUOUS
  0
LAYER
  2
LAYER213
 70
               0
 62
               7
  6
CONTINUOUS
  0
LAYER
  2
LAYER214
 70
               0
 62
               7
  6
CONTINUOUS
  0
LAYER
  2
LAYER215
 70
               0
 62
               7
  6
CONTINUOUS
  0
LAYER
  2
LAYER216
 70
               0
 62
               7
  6
CONTINUOUS
  0
LAYER
  2
LAYER217
 70
               0
 62
               7
  6
CONTINUOUS
  0
LAYER
  2
LAYER218
 70
               0
 62
               7
  6
CONTINUOUS
  0
LAYER
  2
LAYER219
 70
               0
 62
               7
  6
CONTINUOUS
  0
LAYER
  2
LAYER220
 70
               0
 62
               7
  6
CONTINUOUS
  0
LAYER
  2
LAYER221
 70
               0
 62
               7
  6
CONTINUOUS
  0
LAYER
  2
LAYER222
 70
               0
 62
               7
  6
CONTINUOUS
  0
LAYER
  2
LAYER223
 70
               0
 62
               7
  6
CONTINUOUS
  0
LAYER
  2
LAYER224
 70
               0
 62
               7
  6
CONTINUOUS
  0
LAYER
  2
LAYER225
 70
               0
 62
               7
  6
CONTINUOUS
  0
LAYER
  2
LAYER226
 70
               0
 62
               7
  6
CONTINUOUS
  0
LAYER
  2
LAYER227
 70
               0
 62
               7
  6
CONTINUOUS
  0
LAYER
  2
LAYER228
 70
               0
 62
               7
  6
CONTINUOUS
  0
LAYER
  2
LAYER229
 70
               0
 62
               7
  6
CONTINUOUS
  0
LAYER
  2
LAYER230
 70
               0
 62
               7
  6
CONTINUOUS
  0
LAYER
  2
LAYER231
 70
               0
 62
               7
  6
CONTINUOUS
  0
LAYER
  2
LAYER232
 70
               0
 62
               7
  6
CONTINUOUS
  0
LAYER
  2
LAYER233
 70
               0
 62
               7
  6
CONTINUOUS
  0
LAYER
  2
LAYER234
 70
               0
 62
               7
  6
CONTINUOUS
  0
LAYER
  2
LAYER235
 70
               0
 62
               7
  6
CONTINUOUS
  0
LAYER
  2
LAYER236
 70
               0
 62
               7
  6
CONTINUOUS
  0
LAYER
  2
LAYER237
 70
               0
 62
               7
  6
CONTINUOUS
  0
LAYER
  2
LAYER238
 70
               0
 62
               7
  6
CONTINUOUS
  0
LAYER
  2
LAYER239
 70
               0
 62
               7
  6
CONTINUOUS
  0
LAYER
  2
LAYER240
 70
               0
 62
               7
  6
CONTINUOUS
  0
LAYER
  2
LAYER241
 70
               0
 62
               7
  6
CONTINUOUS
  0
LAYER
  2
LAYER242
 70
               0
 62
               7
  6
CONTINUOUS
  0
LAYER
  2
LAYER243
 70
               0
 62
               7
  6
CONTINUOUS
  0
LAYER
  2
LAYER244
 70
               0
 62
               7
  6
CONTINUOUS
  0
LAYER
  2
LAYER245
 70
               0
 62
               7
  6
CONTINUOUS
  0
LAYER
  2
LAYER246
 70
               0
 62
               7
  6
CONTINUOUS
  0
LAYER
  2
LAYER247
 70
               0
 62
               7
  6
CONTINUOUS
  0
LAYER
  2
LAYER248
 70
               0
 62
               7
  6
CONTINUOUS
  0
LAYER
  2
LAYER249
 70
               0
 62
               7
  6
CONTINUOUS
  0
LAYER
  2
LAYER250
 70
               0
 62
               7
  6
CONTINUOUS
  0
LAYER
  2
LAYER251
 70
               0
 62
               7
  6
CONTINUOUS
  0
LAYER
  2
LAYER252
 70
               0
 62
               7
  6
CONTINUOUS
  0
LAYER
  2
LAYER253
 70
               0
 62
               7
  6
CONTINUOUS
  0
LAYER
  2
LAYER254
 70
               0
 62
               7
  6
CONTINUOUS
  0
LAYER
  2
LAYER255
 70
               0
 62
               7
  6
CONTINUOUS
  0
ENDTAB
  0
TABLE
  2
STYLE
 70
               1
  0
STYLE
  2
STANDARD
 70
               0
 40
0.0
 41
0.8
 50
0.0
 71
               0
 42
40.0
  3
MS PGothic.ttf
  4

  0
ENDTAB
  0
TABLE
  2
VIEW
 70
               0
  0
VIEW
  2
QQQQ
 70
               0
 40
2781.5160344099722
 10
9.6432616081539777
 20
-437.13520849510127
 41
1564.9966081540215
 11
0.0
 21
0.0
 31
1.0
 12
100.0
 22
100.0
 32
0.0
 42
50.0
 43
0.0
 44
0.0
 50
0.0
 71
               0
  0
ENDTAB
  0
TABLE
  2
UCS
 70
               0
  0
ENDTAB
  0
TABLE
  2
APPID
 70
               1
  0
APPID
  2
ACAD
 70
               0
  0
ENDTAB
  0
TABLE
  2
DIMSTYLE
 70
               1
  0
DIMSTYLE
  2
STANDARD
 70
               0
  3

  4

  5

  6

  7

 40
1.0
 41
0.18
 42
0.0625
 43
0.38
 44
0.18
 45
0.0
 46
0.0
 47
0.0
 48
0.0
140
0.18
141
0.09
142
0.0
143
25.399999999999999
144
1.0
145
0.0
146
1.0
147
0.09
 71
               0
 72
               0
 73
               1
 74
               1
 75
               0
 76
               0
 77
               0
 78
               0
170
               0
171
               2
172
               0
173
               0
174
               0
175
               0
176
               0
177
               0
178
               0
  0
ENDTAB
  0
ENDSEC
  0
SECTION
  2
BLOCKS
  0
BLOCK
  8
0
  5
143
  2
GROUP_1
 70
               0
 10
0.0
 20
0.0
 30
0.0
  3
GROUP_1
  0
LINE
  8
0
  6
CONTINUOUS
 62
               4
  5
144
 10
654.84999999999991
 20
49.723772641751566
 30
0.0
 11
673.84999999999991
 21
49.723772641751566
 31
0.0
  0
LINE
  8
0
  6
CONTINUOUS
 62
               4
  5
145
 10
673.84999999999991
 20
49.723772641751566
 30
0.0
 11
673.84999999999991
 21
39.723772641751566
 31
0.0
  0
LINE
  8
0
  6
CONTINUOUS
 62
               4
  5
146
 10
673.84999999999991
 20
39.723772641751566
 30
0.0
 11
654.84999999999991
 21
39.723772641751566
 31
0.0
  0
LINE
  8
0
  6
CONTINUOUS
 62
               4
  5
147
 10
654.84999999999991
 20
39.723772641751566
 30
0.0
 11
654.84999999999991
 21
49.723772641751566
 31
0.0
  0
LINE
  8
0
  6
CONTINUOUS
 62
               4
  5
148
 10
664.34999999999991
 20
39.723772641751566
 30
0.0
 11
664.34999999999991
 21
48.597939616831809
 31
0.0
  0
ARC
  8
0
  6
CONTINUOUS
 62
               4
  5
149
 10
669.09999999999991
 20
39.246870035811753
 30
0.0
 40
10.488326954718639
 50
63.071102706939882
 51
116.92889729302556
  0
ARC
  8
0
  6
CONTINUOUS
 62
               4
  5
14A
 10
659.59999999999991
 20
39.246870035811753
 30
0.0
 40
10.488326954718639
 50
63.071102706939882
 51
116.92889729302556
  0
ARC
  8
0
  6
CONTINUOUS
 62
               4
  5
14B
 10
659.59999999999991
 20
39.246870035811753
 30
0.0
 40
10.488326954718639
 50
63.071102706939882
 51
116.92889729302556
  0
ARC
  8
0
  6
CONTINUOUS
 62
               4
  5
14C
 10
659.59999999999991
 20
39.246870035811753
 30
0.0
 40
10.488326954718639
 50
63.071102706939882
 51
116.92889729302556
  0
ENDBLK
  8
0
  5
14D
  0
BLOCK
  8
0
  5
14E
  2
GROUP_2
 70
               0
 10
0.0
 20
0.0
 30
0.0
  3
GROUP_2
  0
LINE
  8
0
  6
CONTINUOUS
 62
               4
  5
14F
 10
526.14999999999964
 20
49.72377264175077
 30
0.0
 11
545.14999999999964
 21
49.72377264175077
 31
0.0
  0
LINE
  8
0
  6
CONTINUOUS
 62
               4
  5
150
 10
545.14999999999964
 20
49.72377264175077
 30
0.0
 11
545.14999999999964
 21
39.72377264175077
 31
0.0
  0
LINE
  8
0
  6
CONTINUOUS
 62
               4
  5
151
 10
545.14999999999964
 20
39.72377264175077
 30
0.0
 11
526.14999999999964
 21
39.72377264175077
 31
0.0
  0
LINE
  8
0
  6
CONTINUOUS
 62
               4
  5
152
 10
526.14999999999964
 20
39.72377264175077
 30
0.0
 11
526.14999999999964
 21
49.72377264175077
 31
0.0
  0
LINE
  8
0
  6
CONTINUOUS
 62
               4
  5
153
 10
535.64999999999964
 20
39.72377264175077
 30
0.0
 11
535.64999999999964
 21
48.597939616831013
 31
0.0
  0
ARC
  8
0
  6
CONTINUOUS
 62
               4
  5
154
 10
540.39999999999964
 20
39.246870035810957
 30
0.0
 40
10.488326954718639
 50
63.071102706939882
 51
116.92889729302556
  0
ARC
  8
0
  6
CONTINUOUS
 62
               4
  5
155
 10
530.89999999999964
 20
39.246870035810957
 30
0.0
 40
10.488326954718639
 50
63.071102706939882
 51
116.92889729302556
  0
ARC
  8
0
  6
CONTINUOUS
 62
               4
  5
156
 10
530.89999999999964
 20
39.246870035810957
 30
0.0
 40
10.488326954718639
 50
63.071102706939882
 51
116.92889729302556
  0
ARC
  8
0
  6
CONTINUOUS
 62
               4
  5
157
 10
530.89999999999964
 20
39.246870035810957
 30
0.0
 40
10.488326954718639
 50
63.071102706939882
 51
116.92889729302556
  0
ENDBLK
  8
0
  5
158
  0
BLOCK
  8
0
  5
159
  2
GROUP_3
 70
               0
 10
0.0
 20
0.0
 30
0.0
  3
GROUP_3
  0
LINE
  8
0
  6
CONTINUOUS
 62
               4
  5
15A
 10
-545.15000000000009
 20
49.723772641751566
 30
0.0
 11
-526.15000000000009
 21
49.723772641751566
 31
0.0
  0
LINE
  8
0
  6
CONTINUOUS
 62
               4
  5
15B
 10
-526.15000000000009
 20
49.723772641751566
 30
0.0
 11
-526.15000000000009
 21
39.723772641751566
 31
0.0
  0
LINE
  8
0
  6
CONTINUOUS
 62
               4
  5
15C
 10
-526.15000000000009
 20
39.723772641751566
 30
0.0
 11
-545.15000000000009
 21
39.723772641751566
 31
0.0
  0
LINE
  8
0
  6
CONTINUOUS
 62
               4
  5
15D
 10
-545.15000000000009
 20
39.723772641751566
 30
0.0
 11
-545.15000000000009
 21
49.723772641751566
 31
0.0
  0
LINE
  8
0
  6
CONTINUOUS
 62
               4
  5
15E
 10
-535.65000000000009
 20
39.723772641751566
 30
0.0
 11
-535.65000000000009
 21
48.597939616831809
 31
0.0
  0
ARC
  8
0
  6
CONTINUOUS
 62
               4
  5
15F
 10
-530.90000000000009
 20
39.246870035811753
 30
0.0
 40
10.488326954718639
 50
63.071102706939882
 51
116.92889729302556
  0
ARC
  8
0
  6
CONTINUOUS
 62
               4
  5
160
 10
-540.40000000000009
 20
39.246870035811753
 30
0.0
 40
10.488326954718639
 50
63.071102706939882
 51
116.92889729302556
  0
ARC
  8
0
  6
CONTINUOUS
 62
               4
  5
161
 10
-540.40000000000009
 20
39.246870035811753
 30
0.0
 40
10.488326954718639
 50
63.071102706939882
 51
116.92889729302556
  0
ARC
  8
0
  6
CONTINUOUS
 62
               4
  5
162
 10
-540.40000000000009
 20
39.246870035811753
 30
0.0
 40
10.488326954718639
 50
63.071102706939882
 51
116.92889729302556
  0
ENDBLK
  8
0
  5
163
  0
BLOCK
  8
0
  5
164
  2
GROUP_4
 70
               0
 10
0.0
 20
0.0
 30
0.0
  3
GROUP_4
  0
LINE
  8
0
  6
CONTINUOUS
 62
               4
  5
165
 10
-673.85000000000036
 20
49.72377264175077
 30
0.0
 11
-654.85000000000036
 21
49.72377264175077
 31
0.0
  0
LINE
  8
0
  6
CONTINUOUS
 62
               4
  5
166
 10
-654.85000000000036
 20
49.72377264175077
 30
0.0
 11
-654.85000000000036
 21
39.72377264175077
 31
0.0
  0
LINE
  8
0
  6
CONTINUOUS
 62
               4
  5
167
 10
-654.85000000000036
 20
39.72377264175077
 30
0.0
 11
-673.85000000000036
 21
39.72377264175077
 31
0.0
  0
LINE
  8
0
  6
CONTINUOUS
 62
               4
  5
168
 10
-673.85000000000036
 20
39.72377264175077
 30
0.0
 11
-673.85000000000036
 21
49.72377264175077
 31
0.0
  0
LINE
  8
0
  6
CONTINUOUS
 62
               4
  5
169
 10
-664.35000000000036
 20
39.72377264175077
 30
0.0
 11
-664.35000000000036
 21
48.597939616831013
 31
0.0
  0
ARC
  8
0
  6
CONTINUOUS
 62
               4
  5
16A
 10
-659.60000000000036
 20
39.246870035810957
 30
0.0
 40
10.488326954718639
 50
63.071102706939882
 51
116.92889729302556
  0
ARC
  8
0
  6
CONTINUOUS
 62
               4
  5
16B
 10
-669.10000000000036
 20
39.246870035810957
 30
0.0
 40
10.488326954718639
 50
63.071102706939882
 51
116.92889729302556
  0
ARC
  8
0
  6
CONTINUOUS
 62
               4
  5
16C
 10
-669.10000000000036
 20
39.246870035810957
 30
0.0
 40
10.488326954718639
 50
63.071102706939882
 51
116.92889729302556
  0
ARC
  8
0
  6
CONTINUOUS
 62
               4
  5
16D
 10
-669.10000000000036
 20
39.246870035810957
 30
0.0
 40
10.488326954718639
 50
63.071102706939882
 51
116.92889729302556
  0
ENDBLK
  8
0
  5
16E
  0
BLOCK
  8
0
  5
16F
  2
GROUP_5
 70
               0
 10
0.0
 20
0.0
 30
0.0
  3
GROUP_5
  0
CIRCLE
  8
0
  6
CONTINUOUS
 62
               4
  5
170
 10
64.346717087976472
 20
767.23633383221932
 30
0.0
 40
9.5
  0
LINE
  8
0
  6
CONTINUOUS
 62
               4
  5
171
 10
75.316372202579501
 20
767.23633383221932
 30
0.0
 11
69.831544645277759
 21
776.73633383221932
 31
0.0
  0
LINE
  8
0
  6
CONTINUOUS
 62
               4
  5
172
 10
69.831544645277759
 20
776.73633383221932
 30
0.0
 11
58.861889530674787
 21
776.73633383221932
 31
0.0
  0
LINE
  8
0
  6
CONTINUOUS
 62
               4
  5
173
 10
58.861889530674787
 20
776.73633383221932
 30
0.0
 11
53.377061973373443
 21
767.23633383221932
 31
0.0
  0
LINE
  8
0
  6
CONTINUOUS
 62
               4
  5
174
 10
53.377061973373443
 20
767.23633383221932
 30
0.0
 11
58.861889530674787
 21
757.73633383221954
 31
0.0
  0
LINE
  8
0
  6
CONTINUOUS
 62
               4
  5
175
 10
58.861889530674787
 20
757.73633383221954
 30
0.0
 11
69.831544645277759
 21
757.73633383221954
 31
0.0
  0
LINE
  8
0
  6
CONTINUOUS
 62
               4
  5
176
 10
69.831544645277759
 20
757.73633383221954
 30
0.0
 11
75.316372202579501
 21
767.23633383221932
 31
0.0
  0
CIRCLE
  8
0
  6
CONTINUOUS
 62
               4
  5
177
 10
64.346717087976472
 20
767.23633383221932
 30
0.0
 40
5.1250000000000009
  0
CIRCLE
  8
0
  6
CONTINUOUS
 62
               4
  5
178
 10
64.346717087976472
 20
767.23633383221932
 30
0.0
 40
6.0000000000000009
  0
ENDBLK
  8
0
  5
179
  0
BLOCK
  8
0
  5
17A
  2
GROUP_6
 70
               0
 10
0.0
 20
0.0
 30
0.0
  3
GROUP_6
  0
CIRCLE
  8
0
  6
CONTINUOUS
 62
               4
  5
17B
 10
64.346717087976472
 20
638.54289965626822
 30
0.0
 40
9.5
  0
LINE
  8
0
  6
CONTINUOUS
 62
               4
  5
17C
 10
75.316372202579501
 20
638.54289965626822
 30
0.0
 11
69.831544645277759
 21
629.04289965626822
 31
0.0
  0
LINE
  8
0
  6
CONTINUOUS
 62
               4
  5
17D
 10
69.831544645277759
 20
629.04289965626822
 30
0.0
 11
58.861889530674787
 21
629.04289965626822
 31
0.0
  0
LINE
  8
0
  6
CONTINUOUS
 62
               4
  5
17E
 10
58.861889530674787
 20
629.04289965626822
 30
0.0
 11
53.377061973373443
 21
638.54289965626822
 31
0.0
  0
LINE
  8
0
  6
CONTINUOUS
 62
               4
  5
17F
 10
53.377061973373443
 20
638.54289965626822
 30
0.0
 11
58.861889530674787
 21
648.04289965626799
 31
0.0
  0
LINE
  8
0
  6
CONTINUOUS
 62
               4
  5
180
 10
58.861889530674787
 20
648.04289965626799
 30
0.0
 11
69.831544645277759
 21
648.04289965626799
 31
0.0
  0
LINE
  8
0
  6
CONTINUOUS
 62
               4
  5
181
 10
69.831544645277759
 20
648.04289965626799
 30
0.0
 11
75.316372202579501
 21
638.54289965626822
 31
0.0
  0
CIRCLE
  8
0
  6
CONTINUOUS
 62
               4
  5
182
 10
64.346717087976472
 20
638.54289965626822
 30
0.0
 40
5.1250000000000009
  0
CIRCLE
  8
0
  6
CONTINUOUS
 62
               4
  5
183
 10
64.346717087976472
 20
638.54289965626822
 30
0.0
 40
6.0000000000000009
  0
ENDBLK
  8
0
  5
184
  0
BLOCK
  8
0
  5
185
  2
GROUP_7
 70
               0
 10
0.0
 20
0.0
 30
0.0
  3
GROUP_7
  0
LINE
  8
0
  6
CONTINUOUS
 62
               4
  5
186
 10
-73.850000000000307
 20
49.723772641750799
 30
0.0
 11
-54.850000000000364
 21
49.723772641750799
 31
0.0
  0
LINE
  8
0
  6
CONTINUOUS
 62
               4
  5
187
 10
-54.850000000000364
 20
49.723772641750799
 30
0.0
 11
-54.850000000000364
 21
39.723772641750799
 31
0.0
  0
LINE
  8
0
  6
CONTINUOUS
 62
               4
  5
188
 10
-54.850000000000364
 20
39.723772641750799
 30
0.0
 11
-73.850000000000307
 21
39.723772641750799
 31
0.0
  0
LINE
  8
0
  6
CONTINUOUS
 62
               4
  5
189
 10
-73.850000000000307
 20
39.723772641750799
 30
0.0
 11
-73.850000000000307
 21
49.723772641750799
 31
0.0
  0
LINE
  8
0
  6
CONTINUOUS
 62
               4
  5
18A
 10
-64.350000000000364
 20
39.723772641750799
 30
0.0
 11
-64.350000000000364
 21
48.597939616831042
 31
0.0
  0
ARC
  8
0
  6
CONTINUOUS
 62
               4
  5
18B
 10
-59.600000000000364
 20
39.246870035810986
 30
0.0
 40
10.488326954718639
 50
63.07110270693974
 51
116.92889729302549
  0
ARC
  8
0
  6
CONTINUOUS
 62
               4
  5
18C
 10
-69.100000000000364
 20
39.246870035810986
 30
0.0
 40
10.488326954718639
 50
63.07110270693974
 51
116.92889729302549
  0
ARC
  8
0
  6
CONTINUOUS
 62
               4
  5
18D
 10
-69.100000000000364
 20
39.246870035810986
 30
0.0
 40
10.488326954718639
 50
63.07110270693974
 51
116.92889729302549
  0
ARC
  8
0
  6
CONTINUOUS
 62
               4
  5
18E
 10
-69.100000000000364
 20
39.246870035810986
 30
0.0
 40
10.488326954718639
 50
63.07110270693974
 51
116.92889729302549
  0
ENDBLK
  8
0
  5
18F
  0
BLOCK
  8
0
  5
190
  2
GROUP_8
 70
               0
 10
0.0
 20
0.0
 30
0.0
  3
GROUP_8
  0
LINE
  8
0
  6
CONTINUOUS
 62
               4
  5
191
 10
54.849999999999852
 20
49.723772641751594
 30
0.0
 11
73.849999999999895
 21
49.723772641751594
 31
0.0
  0
LINE
  8
0
  6
CONTINUOUS
 62
               4
  5
192
 10
73.849999999999895
 20
49.723772641751594
 30
0.0
 11
73.849999999999895
 21
39.723772641751594
 31
0.0
  0
LINE
  8
0
  6
CONTINUOUS
 62
               4
  5
193
 10
73.849999999999895
 20
39.723772641751594
 30
0.0
 11
54.849999999999852
 21
39.723772641751594
 31
0.0
  0
LINE
  8
0
  6
CONTINUOUS
 62
               4
  5
194
 10
54.849999999999852
 20
39.723772641751594
 30
0.0
 11
54.849999999999852
 21
49.723772641751594
 31
0.0
  0
LINE
  8
0
  6
CONTINUOUS
 62
               4
  5
195
 10
64.349999999999895
 20
39.723772641751594
 30
0.0
 11
64.349999999999895
 21
48.597939616831837
 31
0.0
  0
ARC
  8
0
  6
CONTINUOUS
 62
               4
  5
196
 10
69.099999999999952
 20
39.246870035811781
 30
0.0
 40
10.488326954718639
 50
63.071102706939705
 51
116.92889729302553
  0
ARC
  8
0
  6
CONTINUOUS
 62
               4
  5
197
 10
59.599999999999966
 20
39.246870035811781
 30
0.0
 40
10.488326954718639
 50
63.071102706939705
 51
116.92889729302553
  0
ARC
  8
0
  6
CONTINUOUS
 62
               4
  5
198
 10
59.599999999999966
 20
39.246870035811781
 30
0.0
 40
10.488326954718639
 50
63.071102706939705
 51
116.92889729302553
  0
ARC
  8
0
  6
CONTINUOUS
 62
               4
  5
199
 10
59.599999999999966
 20
39.246870035811781
 30
0.0
 40
10.488326954718639
 50
63.071102706939705
 51
116.92889729302553
  0
ENDBLK
  8
0
  5
19A
  0
BLOCK
  8
0
  5
19B
  2
GROUP_9
 70
               0
 10
0.0
 20
0.0
 30
0.0
  3
GROUP_9
  0
CIRCLE
  8
0
  6
CONTINUOUS
 62
               4
  5
19C
 10
-64.34671708797589
 20
638.54289965626822
 30
0.0
 40
9.5
  0
LINE
  8
0
  6
CONTINUOUS
 62
               4
  5
19D
 10
-75.316372202578918
 20
638.54289965626822
 30
0.0
 11
-69.831544645277191
 21
629.04289965626822
 31
0.0
  0
LINE
  8
0
  6
CONTINUOUS
 62
               4
  5
19E
 10
-69.831544645277191
 20
629.04289965626822
 30
0.0
 11
-58.861889530674219
 21
629.04289965626822
 31
0.0
  0
LINE
  8
0
  6
CONTINUOUS
 62
               4
  5
19F
 10
-58.861889530674219
 20
629.04289965626822
 30
0.0
 11
-53.377061973372861
 21
638.54289965626822
 31
0.0
  0
LINE
  8
0
  6
CONTINUOUS
 62
               4
  5
1A0
 10
-53.377061973372861
 20
638.54289965626822
 30
0.0
 11
-58.861889530674205
 21
648.04289965626799
 31
0.0
  0
LINE
  8
0
  6
CONTINUOUS
 62
               4
  5
1A1
 10
-58.861889530674205
 20
648.04289965626799
 30
0.0
 11
-69.831544645277177
 21
648.04289965626799
 31
0.0
  0
LINE
  8
0
  6
CONTINUOUS
 62
               4
  5
1A2
 10
-69.831544645277177
 20
648.04289965626799
 30
0.0
 11
-75.316372202578918
 21
638.54289965626822
 31
0.0
  0
CIRCLE
  8
0
  6
CONTINUOUS
 62
               4
  5
1A3
 10
-64.34671708797589
 20
638.54289965626822
 30
0.0
 40
5.1250000000000009
  0
CIRCLE
  8
0
  6
CONTINUOUS
 62
               4
  5
1A4
 10
-64.34671708797589
 20
638.54289965626822
 30
0.0
 40
6.0000000000000009
  0
ENDBLK
  8
0
  5
1A5
  0
BLOCK
  8
0
  5
1A6
  2
GROUP_10
 70
               0
 10
0.0
 20
0.0
 30
0.0
  3
GROUP_10
  0
CIRCLE
  8
0
  6
CONTINUOUS
 62
               4
  5
1A7
 10
-64.34671708797579
 20
767.23633383221932
 30
0.0
 40
9.5
  0
LINE
  8
0
  6
CONTINUOUS
 62
               4
  5
1A8
 10
-75.316372202578819
 20
767.23633383221932
 30
0.0
 11
-69.831544645277063
 21
776.73633383221932
 31
0.0
  0
LINE
  8
0
  6
CONTINUOUS
 62
               4
  5
1A9
 10
-69.831544645277063
 20
776.73633383221932
 30
0.0
 11
-58.861889530674091
 21
776.73633383221932
 31
0.0
  0
LINE
  8
0
  6
CONTINUOUS
 62
               4
  5
1AA
 10
-58.861889530674091
 20
776.73633383221932
 30
0.0
 11
-53.377061973372761
 21
767.23633383221932
 31
0.0
  0
LINE
  8
0
  6
CONTINUOUS
 62
               4
  5
1AB
 10
-53.377061973372761
 20
767.23633383221932
 30
0.0
 11
-58.861889530674119
 21
757.73633383221954
 31
0.0
  0
LINE
  8
0
  6
CONTINUOUS
 62
               4
  5
1AC
 10
-58.861889530674119
 20
757.73633383221954
 30
0.0
 11
-69.831544645277091
 21
757.73633383221954
 31
0.0
  0
LINE
  8
0
  6
CONTINUOUS
 62
               4
  5
1AD
 10
-69.831544645277091
 20
757.73633383221954
 30
0.0
 11
-75.316372202578819
 21
767.23633383221932
 31
0.0
  0
CIRCLE
  8
0
  6
CONTINUOUS
 62
               4
  5
1AE
 10
-64.34671708797579
 20
767.23633383221932
 30
0.0
 40
5.1250000000000009
  0
CIRCLE
  8
0
  6
CONTINUOUS
 62
               4
  5
1AF
 10
-64.34671708797579
 20
767.23633383221932
 30
0.0
 40
6.0000000000000009
  0
ENDBLK
  8
0
  5
1B0
  0
BLOCK
  8
0
  5
1B1
  2
GROUP_11
 70
               0
 10
0.0
 20
0.0
 30
0.0
  3
GROUP_11
  0
LINE
  8
0
  6
CONTINUOUS
 62
               4
  5
1B2
 10
-85.845206175333274
 20
-140.3164358574769
 30
0.0
 11
-71.104997676105995
 21
-125.57622735824944
 31
0.0
  0
LINE
  8
0
  6
CONTINUOUS
 62
               4
  5
1B3
 10
-78.577107878316724
 20
-274.46969376163213
 30
0.0
 11
70.31635852506588
 21
-125.57622735824961
 31
0.0
  0
LINE
  8
0
  6
CONTINUOUS
 62
               4
  5
1B4
 10
-83.5
 20
-208.6819077827295
 30
0.0
 11
-0.3943195755205124
 21
-125.57622735824964
 31
0.0
  0
LINE
  8
0
  6
CONTINUOUS
 62
               4
  5
1B5
 10
-8.9729633743482964
 20
-275.57622735824975
 30
0.0
 11
83.5
 21
-183.10326398390126
 31
0.0
  0
LINE
  8
0
  6
CONTINUOUS
 62
               4
  5
1B6
 10
61.737714726237641
 20
-275.57622735824975
 30
0.0
 11
81.10453135178625
 21
-256.20941073270114
 31
0.0
  0
ENDBLK
  8
0
  5
1B7
  0
BLOCK
  8
0
  5
1B8
  2
GROUP_12
 70
               0
 10
0.0
 20
0.0
 30
0.0
  3
GROUP_12
  0
LINE
  8
0
  6
CONTINUOUS
 62
               4
  5
1B9
 10
-683.5
 20
-137.97122968214364
 30
0.0
 11
-671.104997676106
 21
-125.57622735824947
 31
0.0
  0
LINE
  8
0
  6
CONTINUOUS
 62
               4
  5
1BA
 10
-678.57710787831672
 20
-274.46969376163213
 30
0.0
 11
-529.68364147493412
 21
-125.57622735824964
 31
0.0
  0
LINE
  8
0
  6
CONTINUOUS
 62
               4
  5
1BB
 10
-683.5
 20
-208.68190778272952
 30
0.0
 11
-600.39431957552051
 21
-125.57622735824967
 31
0.0
  0
LINE
  8
0
  6
CONTINUOUS
 62
               4
  5
1BC
 10
-608.9729633743483
 20
-275.57622735824975
 30
0.0
 11
-516.5
 21
-183.10326398390129
 31
0.0
  0
LINE
  8
0
  6
CONTINUOUS
 62
               4
  5
1BD
 10
-538.26228527376236
 20
-275.57622735824975
 30
0.0
 11
-518.89546864821375
 21
-256.20941073270114
 31
0.0
  0
ENDBLK
  8
0
  5
1BE
  0
BLOCK
  8
0
  5
1BF
  2
GROUP_13
 70
               0
 10
0.0
 20
0.0
 30
0.0
  3
GROUP_13
  0
LINE
  8
0
  6
CONTINUOUS
 62
               4
  5
1C0
 10
514.15479382466674
 20
-140.3164358574769
 30
0.0
 11
528.895002323894
 21
-125.57622735824947
 31
0.0
  0
LINE
  8
0
  6
CONTINUOUS
 62
               4
  5
1C1
 10
521.42289212168328
 20
-274.46969376163213
 30
0.0
 11
670.31635852506588
 21
-125.57622735824964
 31
0.0
  0
LINE
  8
0
  6
CONTINUOUS
 62
               4
  5
1C2
 10
516.5
 20
-208.68190778272952
 30
0.0
 11
599.60568042447949
 21
-125.57622735824967
 31
0.0
  0
LINE
  8
0
  6
CONTINUOUS
 62
               4
  5
1C3
 10
591.0270366256517
 20
-275.57622735824975
 30
0.0
 11
683.5
 21
-183.10326398390129
 31
0.0
  0
LINE
  8
0
  6
CONTINUOUS
 62
               4
  5
1C4
 10
661.73771472623764
 20
-275.57622735824975
 30
0.0
 11
681.10453135178625
 21
-256.20941073270114
 31
0.0
  0
ENDBLK
  8
0
  5
1C5
  0
ENDSEC
  0
SECTION
  2
ENTITIES
  0
LINE
  8
0
  6
DASHDOT
 62
               4
  5
1C6
 10
0.0
 20
289.44396221980696
 30
0.0
 11
0.0000000000001812
 21
-821.4693319618998
 31
0.0
  0
LINE
  8
0
  6
DASHDOT
 62
               4
  5
1C7
 10
600.0
 20
289.44396221980719
 30
0.0
 11
600.00000000000011
 21
-821.4693319618998
 31
0.0
  0
LINE
  8
0
  6
DASHDOT
 62
               4
  5
1C8
 10
-600.0
 20
289.44396221980719
 30
0.0
 11
-599.99999999999989
 21
-821.4693319618998
 31
0.0
  0
LINE
  8
0
  6
DASHDOT
 62
               4
  5
1C9
 10
0.0000000000002132
 20
537.88961674424365
 30
0.0
 11
0.0000000000004299
 21
821.4693319618998
 31
0.0
  0
LINE
  8
0
  6
DASHDOT
 62
               4
  5
1CA
 10
-62.999999999999318
 20
-487.78331242503691
 30
0.0
 11
-62.999999999999318
 21
-539.57622735824941
 31
0.0
  0
LINE
  8
0
  6
DASHDOT
 62
               4
  5
1CB
 10
-62.999999999999886
 20
-487.78331242503691
 30
0.0
 11
63.000000000000171
 21
-487.78331242503691
 31
0.0
  0
LINE
  8
0
  6
DASHDOT
 62
               4
  5
1CC
 10
63.000000000000114
 20
-482.78331242503691
 30
0.0
 11
63.000000000000114
 21
-539.57622735824941
 31
0.0
  0
LINE
  8
0
  6
DASHDOT
 62
               4
  5
1CD
 10
-124.99999999999994
 20
-480.58612536024464
 30
0.0
 11
-124.99999999999994
 21
-644.96448697973494
 31
0.0
  0
LINE
  8
0
  6
DASHDOT
 62
               4
  5
1CE
 10
125.0
 20
-480.58612536024464
 30
0.0
 11
125.0
 21
-644.96448697973494
 31
0.0
  0
LINE
  8
0
  6
DASHDOT
 62
               4
  5
1CF
 10
437.82844387403571
 20
-60.576227358249241
 30
0.0
 11
517.01597828801209
 21
-60.576227358249241
 31
0.0
  0
LINE
  8
0
  6
DASHDOT
 62
               4
  5
1D0
 10
165.00000000000017
 20
-60.576227358249199
 30
0.0
 11
-165.00000000000006
 21
-60.576227358249199
 31
0.0
  0
LINE
  8
0
  6
DASHDOT
 62
               4
  5
1D1
 10
-437.8284438740356
 20
-60.576227358249376
 30
0.0
 11
-517.01597828801198
 21
-60.576227358249405
 31
0.0
  0
LINE
  8
0
  6
DASHDOT
 62
               4
  5
1D2
 10
-164.9999999999998
 20
702.88961674424377
 30
0.0
 11
165.00000000000048
 21
702.88961674424377
 31
0.0
  0
LINE
  8
0
  6
DASHDOT
 62
               4
  5
1D3
 10
-531.47477522477516
 20
-60.576227358249227
 30
0.0
 11
-668.17557442557427
 21
-60.576227358249227
 31
0.0
  0
LINE
  8
0
  6
DASHDOT
 62
               4
  5
1D4
 10
668.52522477522484
 20
-60.576227358249227
 30
0.0
 11
531.82442557442573
 21
-60.576227358249227
 31
0.0
  0
LINE
  8
0
  6
DASHDOT
 62
               4
  5
1D5
 10
-392.13776905046853
 20
-1264.6175274430898
 30
0.0
 11
-392.13776905046842
 21
-1135.6175274430898
 31
0.0
  0
LINE
  8
0
  6
DASHDOT
 62
               4
  5
1D6
 10
-450.13776905046853
 20
-1206.6175274430898
 30
0.0
 11
-334.13776905046853
 21
-1206.6175274430898
 31
0.0
  0
LINE
  8
0
  6
DASHDOT
 62
               4
  5
1D7
 10
-461.94094753457597
 20
-1200.1175274430898
 30
0.0
 11
-327.63776905046853
 21
-1200.1175274430898
 31
0.0
  0
LINE
  8
0
  6
DASHDOT
 62
               4
  5
1D8
 10
-268.23776905046844
 20
-1200.1175274430898
 30
0.0
 11
-169.63776905046853
 21
-1200.1175274430898
 31
0.0
  0
LINE
  8
0
  6
DASHDOT
 62
               4
  5
1D9
 10
-302.63776905046853
 20
-1206.6175274430898
 30
0.0
 11
-228.23776905046856
 21
-1206.6175274430898
 31
0.0
  0
LINE
  8
0
  6
DASHDOT
 62
               4
  5
1DA
 10
-516.03776905046823
 20
-1200.1175274430896
 30
0.0
 11
-614.63776905046836
 21
-1200.1175274430893
 31
0.0
  0
LINE
  8
0
  6
DASHDOT
 62
               4
  5
1DB
 10
-481.63776905046853
 20
-1206.6175274430896
 30
0.0
 11
-556.03776905046823
 21
-1206.6175274430896
 31
0.0
  0
LINE
  8
0
  6
DASHDOT
 62
               4
  5
1DC
 10
-394.08372644623506
 20
-1103.1496433740547
 30
0.0
 11
-394.08372644623506
 21
-970.14964337405468
 31
0.0
  0
LINE
  8
0
  6
DASHDOT
 62
               4
  5
1DD
 10
221.63392368588114
 20
-1200.1175274430898
 30
0.0
 11
320.23392368588128
 21
-1200.1175274430898
 31
0.0
  0
LINE
  8
0
  6
DASHDOT
 62
               4
  5
1DE
 10
196.63392368588114
 20
-1214.6175274430898
 30
0.0
 11
261.63392368588114
 21
-1214.6175274430898
 31
0.0
  0
LINE
  8
0
  6
DASHDOT
 62
               4
  5
1DF
 10
70.877907460638156
 20
-1214.6175274430898
 30
0.0
 11
170.87790746063837
 21
-1214.6175274430898
 31
0.0
  0
LINE
  8
0
  6
DASHDOT
 62
               4
  5
1E0
 10
120.87790746063816
 20
-1264.6175274430898
 30
0.0
 11
120.87790746063838
 21
-1135.6175274430898
 31
0.0
  0
LINE
  8
0
  6
DASHDOT
 62
               4
  5
1E1
 10
56.377907460638156
 20
-1200.1175274430898
 30
0.0
 11
190.92191724058938
 21
-1200.1175274430898
 31
0.0
  0
LINE
  8
0
  6
DASHDOT
 62
               4
  5
1E2
 10
20.121891235395381
 20
-1200.1175274430898
 30
0.0
 11
-78.478108764604642
 21
-1200.1175274430898
 31
0.0
  0
LINE
  8
0
  6
DASHDOT
 62
               4
  5
1E3
 10
45.121891235395381
 20
-1214.6175274430898
 30
0.0
 11
-19.878108764604619
 21
-1214.6175274430898
 31
0.0
  0
LINE
  8
0
  6
DASHDOT
 62
               4
  5
1E4
 10
120.87790746063838
 20
-1113.861511217847
 30
0.0
 11
120.87790746063838
 21
-990.26151121784687
 31
0.0
  0
LINE
  8
0
  6
DASHDOT
 62
               4
  5
1E5
 10
609.28652321630818
 20
-1033.9330918712988
 30
0.0
 11
609.28652321630818
 21
-1304.4798786711251
 31
0.0
  0
LINE
  8
0
  6
DASHDOT
 62
               4
  5
1E6
 10
447.28652321630813
 20
-1142.4330918712988
 30
0.0
 11
717.78652321630841
 21
-1142.4330918712988
 31
0.0
  0
LINE
  8
0
  6
DASHDOT
 62
               4
  5
1E7
 10
677.8117479915328
 20
-1616.9325256198831
 30
0.0
 11
447.55790992287979
 21
-1616.9325256198831
 31
0.0
  0
LINE
  8
0
  6
DASHDOT
 62
               4
  5
1E8
 10
609.28652321630818
 20
-1430.9325256198831
 30
0.0
 11
609.28652321630818
 21
-1681.9325256198831
 31
0.0
  0
LINE
  8
0
  6
DASHDOT
 62
               4
  5
1E9
 10
559.28652321630807
 20
-1631.4325256198831
 30
0.0
 11
659.28652321630841
 21
-1631.4325256198831
 31
0.0
  0
LINE
  8
0
  6
DASHDOT
 62
               4
  5
1EA
 10
609.28652321630818
 20
-1333.0330918712989
 30
0.0
 11
609.28652321630818
 21
-1209.4330918712988
 31
0.0
  0
LINE
  8
0
  6
DASHDOT
 62
               4
  5
1EB
 10
409.28652321630801
 20
-1623.4325256198831
 30
0.0
 11
483.68652321630799
 21
-1623.4325256198831
 31
0.0
  0
LINE
  8
0
  6
DASHDOT
 62
               4
  5
1EC
 10
409.28652321630824
 20
-1142.4330918712985
 30
0.0
 11
542.2865232163083
 21
-1142.4330918712985
 31
0.0
  0
LINE
  8
0
  6
CONTINUOUS
 62
               4
  5
1ED
 10
690.00000000000045
 20
11.423772641750702
 30
0.0
 11
690.00000000000045
 21
-6.5762273582491844
 31
0.0
  0
LINE
  8
0
  6
CONTINUOUS
 62
               4
  5
1EE
 10
655.0
 20
14.423772641750702
 30
0.0
 11
655.0
 21
11.423772641750702
 31
0.0
  0
LINE
  8
0
  6
CONTINUOUS
 62
               4
  5
1EF
 10
655.0
 20
14.423772641750702
 30
0.0
 11
683.30000000000041
 21
14.423772641750702
 31
0.0
  0
LINE
  8
0
  6
CONTINUOUS
 62
               4
  5
1F0
 10
683.30000000000041
 20
11.423772641750702
 30
0.0
 11
683.30000000000041
 21
14.423772641750702
 31
0.0
  0
LINE
  8
0
  6
CONTINUOUS
 62
               4
  5
1F1
 10
683.30000000000041
 20
11.423772641750702
 30
0.0
 11
690.00000000000045
 21
11.423772641750702
 31
0.0
  0
LINE
  8
0
  6
CONTINUOUS
 62
               4
  5
1F2
 10
545.0
 20
14.423772641750702
 30
0.0
 11
545.0
 21
11.423772641750702
 31
0.0
  0
LINE
  8
0
  6
CONTINUOUS
 62
               4
  5
1F3
 10
545.0
 20
14.423772641750702
 30
0.0
 11
516.69999999999959
 21
14.423772641750702
 31
0.0
  0
LINE
  8
0
  6
CONTINUOUS
 62
               4
  5
1F4
 10
545.0
 20
11.423772641750702
 30
0.0
 11
655.0
 21
11.423772641750702
 31
0.0
  0
LINE
  8
0
  6
CONTINUOUS
 62
               4
  5
1F5
 10
690.00000000000045
 20
-6.5762273582491844
 30
0.0
 11
638.12099159255934
 21
-6.5762273582491737
 31
0.0
  0
LINE
  8
0
  6
CONTINUOUS
 62
               4
  5
1F6
 10
690.0
 20
19.423772641750702
 30
0.0
 11
690.0
 21
37.423772641750702
 31
0.0
  0
LINE
  8
0
  6
CONTINUOUS
 62
               4
  5
1F7
 10
690.00000000000045
 20
19.423772641750702
 30
0.0
 11
510.00000000000045
 21
19.423772641750702
 31
0.0
  0
LINE
  8
0
  6
CONTINUOUS
 62
               4
  5
1F8
 10
689.99999999999955
 20
37.423772641751839
 30
0.0
 11
509.99999999999966
 21
37.423772641750702
 31
0.0
  0
LINE
  8
0
  6
CONTINUOUS
 62
               4
  5
1F9
 10
651.34999999999991
 20
37.423772641751725
 30
0.0
 11
651.34999999999991
 21
39.723772641751566
 31
0.0
  0
LINE
  8
0
  6
CONTINUOUS
 62
               4
  5
1FA
 10
651.34999999999991
 20
39.723772641751566
 30
0.0
 11
677.34999999999991
 21
39.723772641751566
 31
0.0
  0
LINE
  8
0
  6
CONTINUOUS
 62
               4
  5
1FB
 10
677.34999999999991
 20
39.723772641751566
 30
0.0
 11
677.34999999999991
 21
37.423772641751725
 31
0.0
  0
LINE
  8
0
  6
CONTINUOUS
 62
               4
  5
1FC
 10
677.34999999999991
 20
37.423772641751725
 30
0.0
 11
651.34999999999991
 21
37.423772641751725
 31
0.0
  0
LINE
  8
0
  6
CONTINUOUS
 62
               4
  5
1FD
 10
548.64999999999964
 20
39.72377264175077
 30
0.0
 11
548.64999999999964
 21
37.423772641750816
 31
0.0
  0
LINE
  8
0
  6
CONTINUOUS
 62
               4
  5
1FE
 10
548.64999999999964
 20
37.423772641750816
 30
0.0
 11
522.64999999999964
 21
37.423772641750816
 31
0.0
  0
LINE
  8
0
  6
CONTINUOUS
 62
               4
  5
1FF
 10
522.64999999999964
 20
37.423772641750816
 30
0.0
 11
522.64999999999964
 21
39.72377264175077
 31
0.0
  0
LINE
  8
0
  6
CONTINUOUS
 62
               4
  5
200
 10
522.64999999999964
 20
39.72377264175077
 30
0.0
 11
548.64999999999964
 21
39.72377264175077
 31
0.0
  0
ARC
  8
0
  6
CONTINUOUS
 62
               4
  5
201
 10
520.5
 20
42.423772641750702
 30
0.0
 40
5.0
 50
327.31636115368036
 51
359.99999999993048
  0
ARC
  8
0
  6
CONTINUOUS
 62
               4
  5
202
 10
520.5
 20
42.423772641750702
 30
0.0
 40
5.0
 50
269.99999999994793
 51
295.46756014241078
  0
LINE
  8
0
  6
CONTINUOUS
 62
               4
  5
203
 10
670.34999999999991
 20
49.723772641751566
 30
0.0
 11
670.34999999999991
 21
58.423772641751384
 31
0.0
  0
LINE
  8
0
  6
CONTINUOUS
 62
               4
  5
204
 10
658.34999999999991
 20
58.423772641751384
 30
0.0
 11
658.34999999999991
 21
49.723772641751566
 31
0.0
  0
LINE
  8
0
  6
CONTINUOUS
 62
               4
  5
205
 10
658.34999999999991
 20
58.423772641751384
 30
0.0
 11
670.34999999999991
 21
58.423772641751384
 31
0.0
  0
LINE
  8
0
  6
CONTINUOUS
 62
               4
  5
206
 10
541.64999999999964
 20
49.72377264175077
 30
0.0
 11
541.64999999999964
 21
58.423772641750816
 31
0.0
  0
LINE
  8
0
  6
CONTINUOUS
 62
               4
  5
207
 10
529.64999999999964
 20
58.423772641750816
 30
0.0
 11
529.64999999999964
 21
49.72377264175077
 31
0.0
  0
LINE
  8
0
  6
CONTINUOUS
 62
               4
  5
208
 10
529.64999999999964
 20
58.423772641750816
 30
0.0
 11
541.64999999999964
 21
58.423772641750816
 31
0.0
  0
LINE
  8
0
  6
CONTINUOUS
 62
               4
  5
209
 10
686.00000000000045
 20
19.423772641750702
 30
0.0
 11
686.00000000000045
 21
11.423772641750702
 31
0.0
  0
LINE
  8
0
  6
CONTINUOUS
 62
               4
  5
20A
 10
544.15000000000055
 20
-13.576227358249184
 30
0.0
 11
544.15000000000055
 21
-6.5762273582491844
 31
0.0
  0
LINE
  8
0
  6
CONTINUOUS
 62
               4
  5
20B
 10
544.15000000000055
 20
-13.576227358249184
 30
0.0
 11
527.65000000000043
 21
-13.576227358249184
 31
0.0
  0
LINE
  8
0
  6
CONTINUOUS
 62
               4
  5
20C
 10
521.77352599863866
 20
-10.176227358249093
 30
0.0
 11
527.65000000000043
 21
-13.576227358249184
 31
0.0
  0
LINE
  8
0
  6
CONTINUOUS
 62
               4
  5
20D
 10
544.15000000000055
 20
-6.5762273582491844
 30
0.0
 11
518.8229385335228
 21
-6.5762273582491844
 31
0.0
  0
LINE
  8
0
  6
CONTINUOUS
 62
               4
  5
20E
 10
518.8229385335228
 20
-6.5762273582491844
 30
0.0
 11
518.8229385335228
 21
-10.176227358249093
 31
0.0
  0
LINE
  8
0
  6
CONTINUOUS
 62
               4
  5
20F
 10
518.8229385335228
 20
-10.176227358249093
 30
0.0
 11
521.77352599863866
 21
-10.176227358249093
 31
0.0
  0
LINE
  8
0
  6
CONTINUOUS
 62
               4
  5
210
 10
647.52293853352307
 20
-6.5762273582491844
 30
0.0
 11
647.52293853352307
 21
-10.176227358249093
 31
0.0
  0
LINE
  8
0
  6
CONTINUOUS
 62
               4
  5
211
 10
647.52293853352307
 20
-10.176227358249093
 30
0.0
 11
662.49434127881023
 21
-10.176227358249093
 31
0.0
  0
LINE
  8
0
  6
CONTINUOUS
 62
               4
  5
212
 10
650.47352599863893
 20
-10.176227358249093
 30
0.0
 11
656.35000000000082
 21
-13.576227358249184
 31
0.0
  0
LINE
  8
0
  6
CONTINUOUS
 62
               4
  5
213
 10
659.54375381369437
 20
-6.5762273582491844
 30
0.0
 11
659.54375381369437
 21
-10.176227358249093
 31
0.0
  0
LINE
  8
0
  6
CONTINUOUS
 62
               4
  5
214
 10
670.00685424949302
 20
-13.576227358249184
 30
0.0
 11
662.49434127881023
 21
-10.176227358249093
 31
0.0
  0
LINE
  8
0
  6
CONTINUOUS
 62
               4
  5
215
 10
672.85000000000082
 20
-13.576227358249184
 30
0.0
 11
656.35000000000082
 21
-13.576227358249184
 31
0.0
  0
LINE
  8
0
  6
CONTINUOUS
 62
               4
  5
216
 10
672.85000000000082
 20
-13.576227358249184
 30
0.0
 11
672.85000000000082
 21
-6.5762273582491844
 31
0.0
  0
LINE
  8
0
  6
CONTINUOUS
 62
               4
  5
217
 10
672.85000000000082
 20
-6.5762273582491844
 30
0.0
 11
647.52293853352307
 21
-6.5762273582491844
 31
0.0
  0
ARC
  8
0
  6
CONTINUOUS
 62
               4
  5
218
 10
679.5
 20
42.42377264175073
 30
0.0
 40
5.0
 50
179.99999999996524
 51
212.68363884621536
  0
ARC
  8
0
  6
CONTINUOUS
 62
               4
  5
219
 10
679.5
 20
42.42377264175073
 30
0.0
 40
5.0
 50
244.53243985747966
 51
269.99999999994731
  0
LINE
  8
0
  6
CONTINUOUS
 62
               4
  5
21A
 10
527.1499999999993
 20
-13.576227358249071
 30
0.0
 11
527.1499999999993
 21
-6.5762273582490707
 31
0.0
  0
LINE
  8
0
  6
CONTINUOUS
 62
               4
  5
21B
 10
509.99999999999955
 20
11.423772641750759
 30
0.0
 11
509.99999999999955
 21
-6.5762273582491275
 31
0.0
  0
LINE
  8
0
  6
CONTINUOUS
 62
               4
  5
21C
 10
516.6999999999997
 20
11.423772641750759
 30
0.0
 11
516.6999999999997
 21
14.423772641750759
 31
0.0
  0
LINE
  8
0
  6
CONTINUOUS
 62
               4
  5
21D
 10
516.6999999999997
 20
11.423772641750759
 30
0.0
 11
509.99999999999955
 21
11.423772641750759
 31
0.0
  0
LINE
  8
0
  6
CONTINUOUS
 62
               4
  5
21E
 10
510.0
 20
19.423772641750759
 30
0.0
 11
510.0
 21
37.423772641750759
 31
0.0
  0
LINE
  8
0
  6
CONTINUOUS
 62
               4
  5
21F
 10
513.99999999999966
 20
19.423772641750759
 30
0.0
 11
513.99999999999966
 21
11.423772641750759
 31
0.0
  0
LINE
  8
0
  6
CONTINUOUS
 62
               4
  5
220
 10
674.99999999999955
 20
-125.57622735824944
 30
0.0
 11
675.0
 21
-238.57622735824944
 31
0.0
  0
LINE
  8
0
  6
CONTINUOUS
 62
               4
  5
221
 10
-509.99999999999955
 20
11.423772641750702
 30
0.0
 11
-509.99999999999955
 21
-6.5762273582491844
 31
0.0
  0
LINE
  8
0
  6
CONTINUOUS
 62
               4
  5
222
 10
-545.0
 20
14.423772641750702
 30
0.0
 11
-545.0
 21
11.423772641750702
 31
0.0
  0
LINE
  8
0
  6
CONTINUOUS
 62
               4
  5
223
 10
-545.0
 20
14.423772641750702
 30
0.0
 11
-516.69999999999959
 21
14.423772641750702
 31
0.0
  0
LINE
  8
0
  6
CONTINUOUS
 62
               4
  5
224
 10
-516.69999999999959
 20
11.423772641750702
 30
0.0
 11
-516.69999999999959
 21
14.423772641750702
 31
0.0
  0
LINE
  8
0
  6
CONTINUOUS
 62
               4
  5
225
 10
-516.69999999999959
 20
11.423772641750702
 30
0.0
 11
-509.99999999999955
 21
11.423772641750702
 31
0.0
  0
LINE
  8
0
  6
CONTINUOUS
 62
               4
  5
226
 10
-690.00000000000045
 20
11.423772641750702
 30
0.0
 11
-690.00000000000045
 21
-6.5762273582491844
 31
0.0
  0
LINE
  8
0
  6
CONTINUOUS
 62
               4
  5
227
 10
-655.0
 20
14.423772641750702
 30
0.0
 11
-655.0
 21
11.423772641750702
 31
0.0
  0
LINE
  8
0
  6
CONTINUOUS
 62
               4
  5
228
 10
-655.0
 20
14.423772641750702
 30
0.0
 11
-683.30000000000041
 21
14.423772641750702
 31
0.0
  0
LINE
  8
0
  6
CONTINUOUS
 62
               4
  5
229
 10
-683.30000000000041
 20
11.423772641750702
 30
0.0
 11
-683.30000000000041
 21
14.423772641750702
 31
0.0
  0
LINE
  8
0
  6
CONTINUOUS
 62
               4
  5
22A
 10
-683.30000000000041
 20
11.423772641750702
 30
0.0
 11
-690.00000000000045
 21
11.423772641750702
 31
0.0
  0
LINE
  8
0
  6
CONTINUOUS
 62
               4
  5
22B
 10
-655.0
 20
11.423772641750702
 30
0.0
 11
-545.0
 21
11.423772641750702
 31
0.0
  0
LINE
  8
0
  6
CONTINUOUS
 62
               4
  5
22C
 10
-690.0
 20
19.423772641750702
 30
0.0
 11
-690.0
 21
37.423772641750702
 31
0.0
  0
LINE
  8
0
  6
CONTINUOUS
 62
               4
  5
22D
 10
-510.0
 20
19.423772641750702
 30
0.0
 11
-510.0
 21
37.423772641750702
 31
0.0
  0
LINE
  8
0
  6
CONTINUOUS
 62
               4
  5
22E
 10
-509.99999999999955
 20
19.423772641750702
 30
0.0
 11
-689.99999999999955
 21
19.423772641750702
 31
0.0
  0
LINE
  8
0
  6
CONTINUOUS
 62
               4
  5
22F
 10
-510.00000000000023
 20
37.423772641751839
 30
0.0
 11
-690.00000000000045
 21
37.423772641750702
 31
0.0
  0
LINE
  8
0
  6
CONTINUOUS
 62
               4
  5
230
 10
-548.65000000000009
 20
37.423772641751725
 30
0.0
 11
-548.65000000000009
 21
39.723772641751566
 31
0.0
  0
LINE
  8
0
  6
CONTINUOUS
 62
               4
  5
231
 10
-548.65000000000009
 20
39.723772641751566
 30
0.0
 11
-522.65000000000009
 21
39.723772641751566
 31
0.0
  0
LINE
  8
0
  6
CONTINUOUS
 62
               4
  5
232
 10
-522.65000000000009
 20
39.723772641751566
 30
0.0
 11
-522.65000000000009
 21
37.423772641751725
 31
0.0
  0
LINE
  8
0
  6
CONTINUOUS
 62
               4
  5
233
 10
-522.65000000000009
 20
37.423772641751725
 30
0.0
 11
-548.65000000000009
 21
37.423772641751725
 31
0.0
  0
LINE
  8
0
  6
CONTINUOUS
 62
               4
  5
234
 10
-651.35000000000036
 20
39.72377264175077
 30
0.0
 11
-651.35000000000036
 21
37.423772641750816
 31
0.0
  0
LINE
  8
0
  6
CONTINUOUS
 62
               4
  5
235
 10
-651.35000000000036
 20
37.423772641750816
 30
0.0
 11
-677.35000000000036
 21
37.423772641750816
 31
0.0
  0
LINE
  8
0
  6
CONTINUOUS
 62
               4
  5
236
 10
-677.35000000000036
 20
37.423772641750816
 30
0.0
 11
-677.35000000000036
 21
39.72377264175077
 31
0.0
  0
LINE
  8
0
  6
CONTINUOUS
 62
               4
  5
237
 10
-677.35000000000036
 20
39.72377264175077
 30
0.0
 11
-651.35000000000036
 21
39.72377264175077
 31
0.0
  0
LINE
  8
0
  6
CONTINUOUS
 62
               4
  5
238
 10
-529.65000000000009
 20
49.723772641751566
 30
0.0
 11
-529.65000000000009
 21
58.423772641751384
 31
0.0
  0
LINE
  8
0
  6
CONTINUOUS
 62
               4
  5
239
 10
-541.65000000000009
 20
58.423772641751384
 30
0.0
 11
-541.65000000000009
 21
49.723772641751566
 31
0.0
  0
LINE
  8
0
  6
CONTINUOUS
 62
               4
  5
23A
 10
-541.65000000000009
 20
58.423772641751384
 30
0.0
 11
-529.65000000000009
 21
58.423772641751384
 31
0.0
  0
LINE
  8
0
  6
CONTINUOUS
 62
               4
  5
23B
 10
-658.35000000000036
 20
49.72377264175077
 30
0.0
 11
-658.35000000000036
 21
58.423772641750816
 31
0.0
  0
LINE
  8
0
  6
CONTINUOUS
 62
               4
  5
23C
 10
-670.35000000000036
 20
58.423772641750816
 30
0.0
 11
-670.35000000000036
 21
49.72377264175077
 31
0.0
  0
LINE
  8
0
  6
CONTINUOUS
 62
               4
  5
23D
 10
-670.35000000000036
 20
58.423772641750816
 30
0.0
 11
-658.35000000000036
 21
58.423772641750816
 31
0.0
  0
LINE
  8
0
  6
CONTINUOUS
 62
               4
  5
23E
 10
-513.99999999999955
 20
19.423772641750702
 30
0.0
 11
-513.99999999999955
 21
11.423772641750702
 31
0.0
  0
LINE
  8
0
  6
CONTINUOUS
 62
               4
  5
23F
 10
-686.00000000000045
 20
19.423772641750702
 30
0.0
 11
-686.00000000000045
 21
11.423772641750702
 31
0.0
  0
LINE
  8
0
  6
CONTINUOUS
 62
               4
  5
240
 10
-655.84999999999945
 20
-13.576227358249184
 30
0.0
 11
-655.84999999999945
 21
-6.5762273582491844
 31
0.0
  0
LINE
  8
0
  6
CONTINUOUS
 62
               4
  5
241
 10
-655.84999999999945
 20
-13.576227358249184
 30
0.0
 11
-672.34999999999945
 21
-13.576227358249184
 31
0.0
  0
LINE
  8
0
  6
CONTINUOUS
 62
               4
  5
242
 10
-678.22647400136134
 20
-10.176227358249093
 30
0.0
 11
-672.34999999999945
 21
-13.576227358249184
 31
0.0
  0
LINE
  8
0
  6
CONTINUOUS
 62
               4
  5
243
 10
-655.84999999999945
 20
-6.5762273582491844
 30
0.0
 11
-681.1770614664772
 21
-6.5762273582491844
 31
0.0
  0
LINE
  8
0
  6
CONTINUOUS
 62
               4
  5
244
 10
-681.1770614664772
 20
-6.5762273582491844
 30
0.0
 11
-681.1770614664772
 21
-10.176227358249093
 31
0.0
  0
LINE
  8
0
  6
CONTINUOUS
 62
               4
  5
245
 10
-681.1770614664772
 20
-10.176227358249093
 30
0.0
 11
-678.22647400136134
 21
-10.176227358249093
 31
0.0
  0
LINE
  8
0
  6
CONTINUOUS
 62
               4
  5
246
 10
-552.47706146647693
 20
-6.5762273582491844
 30
0.0
 11
-552.47706146647693
 21
-10.176227358249093
 31
0.0
  0
LINE
  8
0
  6
CONTINUOUS
 62
               4
  5
247
 10
-552.47706146647693
 20
-10.176227358249093
 30
0.0
 11
-537.50565872118977
 21
-10.176227358249093
 31
0.0
  0
LINE
  8
0
  6
CONTINUOUS
 62
               4
  5
248
 10
-549.52647400136107
 20
-10.176227358249093
 30
0.0
 11
-543.64999999999918
 21
-13.576227358249184
 31
0.0
  0
LINE
  8
0
  6
CONTINUOUS
 62
               4
  5
249
 10
-540.45624618630563
 20
-6.5762273582491844
 30
0.0
 11
-540.45624618630563
 21
-10.176227358249093
 31
0.0
  0
LINE
  8
0
  6
CONTINUOUS
 62
               4
  5
24A
 10
-529.99314575050698
 20
-13.576227358249184
 30
0.0
 11
-537.50565872118977
 21
-10.176227358249093
 31
0.0
  0
LINE
  8
0
  6
CONTINUOUS
 62
               4
  5
24B
 10
-527.14999999999918
 20
-13.576227358249184
 30
0.0
 11
-543.64999999999918
 21
-13.576227358249184
 31
0.0
  0
LINE
  8
0
  6
CONTINUOUS
 62
               4
  5
24C
 10
-527.14999999999918
 20
-13.576227358249184
 30
0.0
 11
-527.14999999999918
 21
-6.5762273582491844
 31
0.0
  0
LINE
  8
0
  6
CONTINUOUS
 62
               4
  5
24D
 10
-527.14999999999918
 20
-6.5762273582491844
 30
0.0
 11
-552.47706146647693
 21
-6.5762273582491844
 31
0.0
  0
LINE
  8
0
  6
CONTINUOUS
 62
               4
  5
24E
 10
-674.99999999999932
 20
-12.042995015536178
 30
0.0
 11
-674.99999999999932
 21
-120.57622735824933
 31
0.0
  0
LINE
  8
0
  6
CONTINUOUS
 62
               4
  5
24F
 10
-524.99999999999989
 20
-139.50198321931634
 30
0.0
 11
-524.99999999999989
 21
-238.57622735825862
 31
0.0
  0
LINE
  8
0
  6
CONTINUOUS
 62
               4
  5
250
 10
-72.000000000000014
 20
243.84119694679555
 30
0.0
 11
-72.000000000000014
 21
168.95942639460372
 31
0.0
  0
LINE
  8
0
  6
CONTINUOUS
 62
               4
  5
251
 10
71.999999999992937
 20
168.95942639461214
 30
0.0
 11
72.000000000000043
 21
243.84119694679555
 31
0.0
  0
LINE
  8
0
  6
CONTINUOUS
 62
               4
  5
252
 10
-75.000000000000227
 20
158.42377264175093
 30
0.0
 11
-75.000000000000512
 21
42.423772641750702
 31
0.0
  0
LINE
  8
0
  6
CONTINUOUS
 62
               4
  5
253
 10
48.500000000000639
 20
562.88961674424354
 30
0.0
 11
48.500000000000639
 21
563.56117287020788
 31
0.0
  0
LINE
  8
0
  6
CONTINUOUS
 62
               4
  5
254
 10
50.828443874036296
 20
565.88961674424354
 30
0.0
 11
48.500000000000639
 21
563.56117287020788
 31
0.0
  0
LINE
  8
0
  6
CONTINUOUS
 62
               4
  5
255
 10
50.828443874036296
 20
562.88961674424331
 30
0.0
 11
50.82844387403641
 21
560.38961674424331
 31
0.0
  0
LINE
  8
0
  6
CONTINUOUS
 62
               4
  5
256
 10
-48.499999999999474
 20
562.88961674424377
 30
0.0
 11
-48.499999999999474
 21
563.56117287020788
 31
0.0
  0
LINE
  8
0
  6
CONTINUOUS
 62
               4
  5
257
 10
-50.828443874034562
 20
565.88961674424354
 30
0.0
 11
-48.499999999999474
 21
563.56117287020788
 31
0.0
  0
LINE
  8
0
  6
CONTINUOUS
 62
               4
  5
258
 10
48.500000000000981
 20
563.56117287020788
 30
0.0
 11
-48.499999999999474
 21
563.56117287020788
 31
0.0
  0
LINE
  8
0
  6
CONTINUOUS
 62
               4
  5
259
 10
-50.828443874034562
 20
565.88961674424354
 30
0.0
 11
50.828443874036296
 21
565.88961674424354
 31
0.0
  0
LINE
  8
0
  6
CONTINUOUS
 62
               4
  5
25A
 10
-50.828443874034562
 20
562.88961674424331
 30
0.0
 11
50.828443874036296
 21
562.88961674424331
 31
0.0
  0
LINE
  8
0
  6
CONTINUOUS
 62
               4
  5
25B
 10
-50.828443874034562
 20
562.88961674424331
 30
0.0
 11
-50.828443874034392
 21
560.38961674424331
 31
0.0
  0
ARC
  8
0
  6
CONTINUOUS
 62
               4
  5
25C
 10
48.32844387403641
 20
560.38961674424354
 30
0.0
 40
2.5
 50
269.99999999994782
 51
359.99999999993145
  0
LINE
  8
0
  6
CONTINUOUS
 62
               4
  5
25D
 10
48.32844387403641
 20
557.88961674424354
 30
0.0
 11
-48.328443874034392
 21
557.88961674424377
 31
0.0
  0
ARC
  8
0
  6
CONTINUOUS
 62
               4
  5
25E
 10
-48.328443874034392
 20
560.38961674424377
 30
0.0
 40
2.5
 50
179.99999999996572
 51
269.99999999994793
  0
LINE
  8
0
  6
CONTINUOUS
 62
               4
  5
25F
 10
-52.391788518981343
 20
610.65794996543741
 30
0.0
 11
-50.828443874034562
 21
565.88961674424354
 31
0.0
  0
LINE
  8
0
  6
CONTINUOUS
 62
               4
  5
260
 10
52.39178851898356
 20
610.65794996543809
 30
0.0
 11
50.828443874036296
 21
565.88961674424354
 31
0.0
  0
CIRCLE
  8
0
  6
CONTINUOUS
 62
               4
  5
261
 10
0.0000000000002451
 20
702.88961674424377
 30
0.0
 40
75.0
  0
LINE
  8
0
  6
CONTINUOUS
 62
               4
  5
262
 10
-86.210498200625111
 20
722.88961674424377
 30
0.0
 11
-72.284161474005245
 21
722.88961674424377
 31
0.0
  0
LINE
  8
0
  6
CONTINUOUS
 62
               4
  5
263
 10
-72.284161474005245
 20
682.88961674424377
 30
0.0
 11
-86.210498200625111
 21
682.88961674424377
 31
0.0
  0
ARC
  8
0
  6
CONTINUOUS
 62
               4
  5
264
 10
0.0000000000002451
 20
702.88961674424377
 30
0.0
 40
88.5
 50
166.9389758851672
 51
193.06102411476326
  0
LINE
  8
0
  6
CONTINUOUS
 62
               4
  5
265
 10
-19.999999999999758
 20
616.67911854361887
 30
0.0
 11
-19.999999999999758
 21
630.60545527023874
 31
0.0
  0
LINE
  8
0
  6
CONTINUOUS
 62
               4
  5
266
 10
20.000000000000245
 20
630.60545527023874
 30
0.0
 11
20.000000000000245
 21
616.67911854361887
 31
0.0
  0
ARC
  8
0
  6
CONTINUOUS
 62
               4
  5
267
 10
0.0000000000002451
 20
702.88961674424377
 30
0.0
 40
88.5
 50
256.93897588514983
 51
283.06102411474581
  0
LINE
  8
0
  6
CONTINUOUS
 62
               4
  5
268
 10
86.210498200624684
 20
682.88961674424377
 30
0.0
 11
72.284161474004421
 21
682.88961674424377
 31
0.0
  0
LINE
  8
0
  6
CONTINUOUS
 62
               4
  5
269
 10
72.284161474004421
 20
722.88961674424377
 30
0.0
 11
86.210498200624684
 21
722.88961674424377
 31
0.0
  0
ARC
  8
0
  6
CONTINUOUS
 62
               4
  5
26A
 10
0.0000000000002451
 20
702.88961674424377
 30
0.0
 40
88.5
 50
346.93897588513232
 51
373.06102411472841
  0
LINE
  8
0
  6
CONTINUOUS
 62
               4
  5
26B
 10
20.000000000000245
 20
789.10011494486912
 30
0.0
 11
20.000000000000245
 21
775.17377821824857
 31
0.0
  0
LINE
  8
0
  6
CONTINUOUS
 62
               4
  5
26C
 10
-19.999999999999758
 20
775.17377821824857
 30
0.0
 11
-19.999999999999758
 21
789.10011494486912
 31
0.0
  0
ARC
  8
0
  6
CONTINUOUS
 62
               4
  5
26D
 10
0.0000000000002451
 20
702.88961674424377
 30
0.0
 40
88.5
 50
76.938975885184604
 51
103.06102411478064
  0
ARC
  8
0
  6
CONTINUOUS
 62
               4
  5
26E
 10
0.0000000000002451
 20
702.88961674424377
 30
0.0
 40
77.5
 50
104.95524831662307
 51
165.04475168332479
  0
ARC
  8
0
  6
CONTINUOUS
 62
               4
  5
26F
 10
0.0000000000002451
 20
702.88961674424377
 30
0.0
 40
77.5
 50
14.955248316640434
 51
75.04475168334217
  0
ARC
  8
0
  6
CONTINUOUS
 62
               4
  5
270
 10
-64.34671708797508
 20
767.23633383221932
 30
0.0
 40
17.5
 50
97.816433606452236
 51
172.18356639349557
  0
ARC
  8
0
  6
CONTINUOUS
 62
               4
  5
271
 10
64.346717087976472
 20
767.23633383221932
 30
0.0
 40
17.5
 50
7.8164336064694728
 51
82.183566393513019
  0
ARC
  8
0
  6
CONTINUOUS
 62
               4
  5
272
 10
64.346717087976472
 20
638.54289965626799
 30
0.0
 40
17.5
 50
277.81643360641743
 51
352.18356639346098
  0
ARC
  8
0
  6
CONTINUOUS
 62
               4
  5
273
 10
-64.34671708797508
 20
638.54289965626799
 30
0.0
 40
17.5
 50
187.81643360643486
 51
262.1835663934782
  0
LINE
  8
0
  6
CONTINUOUS
 62
               4
  5
274
 10
81.68412237782492
 20
636.16290431687639
 30
0.0
 11
89.163798633508364
 21
690.64964071308714
 31
0.0
  0
ARC
  8
0
  6
CONTINUOUS
 62
               4
  5
275
 10
0.0000000000002451
 20
702.88961674424377
 30
0.0
 40
90.0
 50
352.18356639346075
 51
367.81643360639998
  0
LINE
  8
0
  6
CONTINUOUS
 62
               4
  5
276
 10
81.68412237782492
 20
769.61632917161091
 30
0.0
 11
89.163798633508364
 21
715.12959277540017
 31
0.0
  0
LINE
  8
0
  6
CONTINUOUS
 62
               4
  5
277
 10
66.726712427367843
 20
784.57373912206845
 30
0.0
 11
12.239976031157102
 21
792.05341537775121
 31
0.0
  0
ARC
  8
0
  6
CONTINUOUS
 62
               4
  5
278
 10
0.0000000000002451
 20
702.88961674424377
 30
0.0
 40
90.0
 50
82.183566393512962
 51
97.816433606452264
  0
LINE
  8
0
  6
CONTINUOUS
 62
               4
  5
279
 10
-66.726712427366849
 20
784.57373912206845
 30
0.0
 11
-12.239976031156157
 21
792.05341537775121
 31
0.0
  0
LINE
  8
0
  6
CONTINUOUS
 62
               4
  5
27A
 10
66.726712427367843
 20
621.20549436641886
 30
0.0
 11
12.239976031156761
 21
613.7258181107361
 31
0.0
  0
LINE
  8
0
  6
CONTINUOUS
 62
               4
  5
27B
 10
-66.726712427366849
 20
621.20549436641886
 30
0.0
 11
-12.239976031156214
 21
613.7258181107361
 31
0.0
  0
LINE
  8
0
  6
CONTINUOUS
 62
               4
  5
27C
 10
-139.9999999999998
 20
647.88961674424377
 30
0.0
 11
-139.32844387403546
 21
647.88961674424377
 31
0.0
  0
LINE
  8
0
  6
CONTINUOUS
 62
               4
  5
27D
 10
-136.99999999999957
 20
645.56117287020834
 30
0.0
 11
-139.32844387403546
 21
647.88961674424377
 31
0.0
  0
LINE
  8
0
  6
CONTINUOUS
 62
               4
  5
27E
 10
-139.9999999999998
 20
757.88961674424377
 30
0.0
 11
-139.32844387403546
 21
757.88961674424377
 31
0.0
  0
LINE
  8
0
  6
CONTINUOUS
 62
               4
  5
27F
 10
-136.99999999999957
 20
760.21806061827965
 30
0.0
 11
-139.32844387403546
 21
757.88961674424377
 31
0.0
  0
LINE
  8
0
  6
CONTINUOUS
 62
               4
  5
280
 10
-139.32844387403546
 20
757.88961674424377
 30
0.0
 11
-139.32844387403546
 21
647.88961674424377
 31
0.0
  0
LINE
  8
0
  6
CONTINUOUS
 62
               4
  5
281
 10
-136.99999999999957
 20
645.56117287020834
 30
0.0
 11
-136.99999999999957
 21
760.21806061827965
 31
0.0
  0
LINE
  8
0
  6
CONTINUOUS
 62
               4
  5
282
 10
-144.9999999999998
 20
757.71806061827965
 30
0.0
 11
-144.9999999999998
 21
648.06117287020834
 31
0.0
  0
LINE
  8
0
  6
CONTINUOUS
 62
               4
  5
283
 10
-139.9999999999998
 20
645.56117287020834
 30
0.0
 11
-139.9999999999998
 21
760.21806061827965
 31
0.0
  0
LINE
  8
0
  6
CONTINUOUS
 62
               4
  5
284
 10
-139.9999999999998
 20
760.21806061827965
 30
0.0
 11
-142.4999999999998
 21
760.21806061827965
 31
0.0
  0
LINE
  8
0
  6
CONTINUOUS
 62
               4
  5
285
 10
-139.9999999999998
 20
645.56117287020834
 30
0.0
 11
-142.4999999999998
 21
645.56117287020834
 31
0.0
  0
ARC
  8
0
  6
CONTINUOUS
 62
               4
  5
286
 10
-142.4999999999998
 20
648.06117287020834
 30
0.0
 40
2.5
 50
179.99999999996572
 51
269.99999999994793
  0
ARC
  8
0
  6
CONTINUOUS
 62
               4
  5
287
 10
-142.4999999999998
 20
757.71806061827965
 30
0.0
 40
2.5
 50
89.999999999982862
 51
179.99999999996572
  0
ARC
  8
0
  6
CONTINUOUS
 62
               4
  5
288
 10
0.0000000000002451
 20
702.88961674424377
 30
0.0
 40
90.0
 50
262.1835663934782
 51
277.81643360641743
  0
ARC
  8
0
  6
CONTINUOUS
 62
               4
  5
289
 10
0.0000000000002451
 20
702.88961674424377
 30
0.0
 40
77.5
 50
194.95524831660566
 51
255.0447516833074
  0
ARC
  8
0
  6
CONTINUOUS
 62
               4
  5
28A
 10
0.0000000000002451
 20
702.88961674424377
 30
0.0
 40
77.5
 50
284.95524831658821
 51
345.04475168328997
  0
CIRCLE
  8
0
  6
CONTINUOUS
 62
               4
  5
28B
 10
64.346717087976472
 20
767.23633383221932
 30
0.0
 40
13.0
  0
LINE
  8
0
  6
CONTINUOUS
 62
               4
  5
28C
 10
-127.9999999999998
 20
645.24688594478243
 30
0.0
 11
-127.9999999999998
 21
637.34053902614141
 31
0.0
  0
CIRCLE
  8
0
  6
CONTINUOUS
 62
               4
  5
28D
 10
64.346717087976472
 20
638.54289965626822
 30
0.0
 40
13.0
  0
CIRCLE
  8
0
  6
CONTINUOUS
 62
               4
  5
28E
 10
0.0000000000002736
 20
702.88961674424377
 30
0.0
 40
52.5
  0
LINE
  8
0
  6
CONTINUOUS
 62
               4
  5
28F
 10
-90.000000000000512
 20
11.42377264175073
 30
0.0
 11
-90.000000000000512
 21
-6.5762273582491559
 31
0.0
  0
LINE
  8
0
  6
CONTINUOUS
 62
               4
  5
290
 10
-55.0
 20
14.42377264175073
 30
0.0
 11
-55.0
 21
11.42377264175073
 31
0.0
  0
LINE
  8
0
  6
CONTINUOUS
 62
               4
  5
291
 10
-55.0
 20
14.42377264175073
 30
0.0
 11
-83.300000000000409
 21
14.42377264175073
 31
0.0
  0
LINE
  8
0
  6
CONTINUOUS
 62
               4
  5
292
 10
-83.300000000000409
 20
11.42377264175073
 30
0.0
 11
-83.300000000000409
 21
14.42377264175073
 31
0.0
  0
LINE
  8
0
  6
CONTINUOUS
 62
               4
  5
293
 10
-83.300000000000409
 20
11.42377264175073
 30
0.0
 11
-90.000000000000512
 21
11.42377264175073
 31
0.0
  0
LINE
  8
0
  6
CONTINUOUS
 62
               4
  5
294
 10
-55.0
 20
11.42377264175073
 30
0.0
 11
55.000000000000014
 21
11.42377264175073
 31
0.0
  0
LINE
  8
0
  6
CONTINUOUS
 62
               4
  5
295
 10
-90.000000000000057
 20
19.42377264175073
 30
0.0
 11
-90.000000000000057
 21
37.42377264175073
 31
0.0
  0
LINE
  8
0
  6
CONTINUOUS
 62
               4
  5
296
 10
90.000000000000455
 20
19.42377264175073
 30
0.0
 11
-89.999999999999602
 21
19.42377264175073
 31
0.0
  0
LINE
  8
0
  6
CONTINUOUS
 62
               4
  5
297
 10
89.999999999999602
 20
37.423772641751867
 30
0.0
 11
-90.000000000000398
 21
37.42377264175073
 31
0.0
  0
LINE
  8
0
  6
CONTINUOUS
 62
               4
  5
298
 10
-51.350000000000307
 20
39.723772641750799
 30
0.0
 11
-51.350000000000307
 21
37.423772641750844
 31
0.0
  0
LINE
  8
0
  6
CONTINUOUS
 62
               4
  5
299
 10
-51.350000000000307
 20
37.423772641750844
 30
0.0
 11
-77.350000000000364
 21
37.423772641750844
 31
0.0
  0
LINE
  8
0
  6
CONTINUOUS
 62
               4
  5
29A
 10
-77.350000000000364
 20
37.423772641750844
 30
0.0
 11
-77.350000000000364
 21
39.723772641750799
 31
0.0
  0
LINE
  8
0
  6
CONTINUOUS
 62
               4
  5
29B
 10
-77.350000000000364
 20
39.723772641750799
 30
0.0
 11
-51.350000000000307
 21
39.723772641750799
 31
0.0
  0
ARC
  8
0
  6
CONTINUOUS
 62
               4
  5
29C
 10
-80.000000000000398
 20
42.42377264175073
 30
0.0
 40
5.0
 50
327.31636115368013
 51
359.99999999993048
  0
ARC
  8
0
  6
CONTINUOUS
 62
               4
  5
29D
 10
-80.000000000000398
 20
42.42377264175073
 30
0.0
 40
5.0
 50
269.99999999994782
 51
302.00545482770701
  0
LINE
  8
0
  6
CONTINUOUS
 62
               4
  5
29E
 10
-58.350000000000364
 20
49.723772641750799
 30
0.0
 11
-58.350000000000364
 21
58.423772641750844
 31
0.0
  0
LINE
  8
0
  6
CONTINUOUS
 62
               4
  5
29F
 10
-70.350000000000307
 20
58.423772641750844
 30
0.0
 11
-70.350000000000307
 21
49.723772641750799
 31
0.0
  0
LINE
  8
0
  6
CONTINUOUS
 62
               4
  5
2A0
 10
-70.350000000000307
 20
58.423772641750844
 30
0.0
 11
-58.350000000000364
 21
58.423772641750844
 31
0.0
  0
LINE
  8
0
  6
CONTINUOUS
 62
               4
  5
2A1
 10
-86.000000000000455
 20
19.42377264175073
 30
0.0
 11
-86.000000000000455
 21
11.42377264175073
 31
0.0
  0
LINE
  8
0
  6
CONTINUOUS
 62
               4
  5
2A2
 10
-55.849999999999511
 20
-13.576227358249156
 30
0.0
 11
-55.849999999999511
 21
-6.5762273582491559
 31
0.0
  0
LINE
  8
0
  6
CONTINUOUS
 62
               4
  5
2A3
 10
-55.849999999999511
 20
-13.576227358249156
 30
0.0
 11
-72.349999999999568
 21
-13.576227358249156
 31
0.0
  0
LINE
  8
0
  6
CONTINUOUS
 62
               4
  5
2A4
 10
-78.226474001361339
 20
-10.176227358249065
 30
0.0
 11
-72.349999999999568
 21
-13.576227358249156
 31
0.0
  0
LINE
  8
0
  6
CONTINUOUS
 62
               4
  5
2A5
 10
-55.849999999999511
 20
-6.5762273582491559
 30
0.0
 11
-81.177061466477198
 21
-6.5762273582491559
 31
0.0
  0
LINE
  8
0
  6
CONTINUOUS
 62
               4
  5
2A6
 10
-81.177061466477198
 20
-6.5762273582491559
 30
0.0
 11
-81.177061466477198
 21
-10.176227358249065
 31
0.0
  0
LINE
  8
0
  6
CONTINUOUS
 62
               4
  5
2A7
 10
-81.177061466477198
 20
-10.176227358249065
 30
0.0
 11
-78.226474001361339
 21
-10.176227358249065
 31
0.0
  0
LINE
  8
0
  6
CONTINUOUS
 62
               4
  5
2A8
 10
90.000000000000441
 20
11.42377264175073
 30
0.0
 11
90.000000000000441
 21
-6.5762273582491559
 31
0.0
  0
LINE
  8
0
  6
CONTINUOUS
 62
               4
  5
2A9
 10
55.0
 20
14.42377264175073
 30
0.0
 11
55.0
 21
11.42377264175073
 31
0.0
  0
LINE
  8
0
  6
CONTINUOUS
 62
               4
  5
2AA
 10
55.0
 20
14.42377264175073
 30
0.0
 11
83.300000000000395
 21
14.42377264175073
 31
0.0
  0
LINE
  8
0
  6
CONTINUOUS
 62
               4
  5
2AB
 10
83.300000000000395
 20
11.42377264175073
 30
0.0
 11
83.300000000000395
 21
14.42377264175073
 31
0.0
  0
LINE
  8
0
  6
CONTINUOUS
 62
               4
  5
2AC
 10
83.300000000000395
 20
11.42377264175073
 30
0.0
 11
90.000000000000441
 21
11.42377264175073
 31
0.0
  0
LINE
  8
0
  6
CONTINUOUS
 62
               4
  5
2AD
 10
89.999999999999986
 20
19.42377264175073
 30
0.0
 11
89.999999999999986
 21
37.42377264175073
 31
0.0
  0
LINE
  8
0
  6
CONTINUOUS
 62
               4
  5
2AE
 10
51.349999999999909
 20
37.423772641751754
 30
0.0
 11
51.349999999999909
 21
39.723772641751594
 31
0.0
  0
LINE
  8
0
  6
CONTINUOUS
 62
               4
  5
2AF
 10
51.349999999999909
 20
39.723772641751594
 30
0.0
 11
77.349999999999838
 21
39.723772641751594
 31
0.0
  0
LINE
  8
0
  6
CONTINUOUS
 62
               4
  5
2B0
 10
77.349999999999838
 20
39.723772641751594
 30
0.0
 11
77.349999999999838
 21
37.423772641751754
 31
0.0
  0
LINE
  8
0
  6
CONTINUOUS
 62
               4
  5
2B1
 10
77.349999999999838
 20
37.423772641751754
 30
0.0
 11
51.349999999999909
 21
37.423772641751754
 31
0.0
  0
LINE
  8
0
  6
CONTINUOUS
 62
               4
  5
2B2
 10
70.349999999999952
 20
49.723772641751594
 30
0.0
 11
70.349999999999952
 21
58.423772641751412
 31
0.0
  0
LINE
  8
0
  6
CONTINUOUS
 62
               4
  5
2B3
 10
58.349999999999966
 20
58.423772641751412
 30
0.0
 11
58.349999999999966
 21
49.723772641751594
 31
0.0
  0
LINE
  8
0
  6
CONTINUOUS
 62
               4
  5
2B4
 10
58.349999999999966
 20
58.423772641751412
 30
0.0
 11
70.349999999999952
 21
58.423772641751412
 31
0.0
  0
LINE
  8
0
  6
CONTINUOUS
 62
               4
  5
2B5
 10
86.000000000000441
 20
19.42377264175073
 30
0.0
 11
86.000000000000441
 21
11.42377264175073
 31
0.0
  0
LINE
  8
0
  6
CONTINUOUS
 62
               4
  5
2B6
 10
47.522938533523075
 20
-6.5762273582491559
 30
0.0
 11
47.522938533523075
 21
-10.176227358249065
 31
0.0
  0
LINE
  8
0
  6
CONTINUOUS
 62
               4
  5
2B7
 10
47.522938533523075
 20
-10.176227358249065
 30
0.0
 11
62.494341278810211
 21
-10.176227358249065
 31
0.0
  0
LINE
  8
0
  6
CONTINUOUS
 62
               4
  5
2B8
 10
50.473525998638934
 20
-10.176227358249065
 30
0.0
 11
56.350000000000705
 21
-13.576227358249156
 31
0.0
  0
LINE
  8
0
  6
CONTINUOUS
 62
               4
  5
2B9
 10
59.543753813694366
 20
-6.5762273582491559
 30
0.0
 11
59.543753813694366
 21
-10.176227358249065
 31
0.0
  0
LINE
  8
0
  6
CONTINUOUS
 62
               4
  5
2BA
 10
70.006854249493003
 20
-13.576227358249156
 30
0.0
 11
62.494341278810211
 21
-10.176227358249065
 31
0.0
  0
LINE
  8
0
  6
CONTINUOUS
 62
               4
  5
2BB
 10
72.850000000000691
 20
-13.576227358249156
 30
0.0
 11
56.350000000000705
 21
-13.576227358249156
 31
0.0
  0
LINE
  8
0
  6
CONTINUOUS
 62
               4
  5
2BC
 10
72.850000000000691
 20
-13.576227358249156
 30
0.0
 11
72.850000000000691
 21
-6.5762273582491559
 31
0.0
  0
LINE
  8
0
  6
CONTINUOUS
 62
               4
  5
2BD
 10
72.850000000000691
 20
-6.5762273582491559
 30
0.0
 11
47.522938533523075
 21
-6.5762273582491559
 31
0.0
  0
LINE
  8
0
  6
CONTINUOUS
 62
               4
  5
2BE
 10
-75.000000000000043
 20
-139.50198321931629
 30
0.0
 11
-75.000000000000028
 21
-238.57622735824941
 31
0.0
  0
ARC
  8
0
  6
CONTINUOUS
 62
               4
  5
2BF
 10
-54.999999999998181
 20
158.42377264175093
 30
0.0
 40
19.999999999999996
 50
148.21166938289122
 51
179.99999999996524
  0
ARC
  8
0
  6
CONTINUOUS
 62
               4
  5
2C0
 10
25.783965811967846
 20
158.4237726417511
 30
0.0
 40
17.566965811965957
 50
143.14855134074139
 51
179.99999999996521
  0
LINE
  8
0
  6
CONTINUOUS
 62
               4
  5
2C1
 10
-11.726999999998498
 20
173.95942639460378
 30
0.0
 11
11.727000000002135
 21
173.95942639460378
 31
0.0
  0
ARC
  8
0
  6
CONTINUOUS
 62
               4
  5
2C2
 10
-25.783965811963753
 20
158.4237726417511
 30
0.0
 40
17.566965811965957
 50
0.0
 51
36.851448659223813
  0
LINE
  8
0
  6
CONTINUOUS
 62
               4
  5
2C3
 10
11.727000000002135
 20
168.95942639460378
 30
0.0
 11
11.727000000002135
 21
173.95942639460378
 31
0.0
  0
LINE
  8
0
  6
CONTINUOUS
 62
               4
  5
2C4
 10
-11.726999999998498
 20
168.95942639460378
 30
0.0
 11
-11.726999999998498
 21
173.95942639460378
 31
0.0
  0
LINE
  8
0
  6
CONTINUOUS
 62
               4
  5
2C5
 10
11.727000000002135
 20
173.95942639460378
 30
0.0
 11
6.0000000000020464
 21
168.95942639460378
 31
0.0
  0
LINE
  8
0
  6
CONTINUOUS
 62
               4
  5
2C6
 10
-5.9999999999977263
 20
168.95942639460378
 30
0.0
 11
-11.726999999998498
 21
173.95942639460378
 31
0.0
  0
LINE
  8
0
  6
CONTINUOUS
 62
               4
  5
2C7
 10
6.0000000000020464
 20
168.95942639460378
 30
0.0
 11
-5.9999999999977263
 21
168.95942639460378
 31
0.0
  0
LINE
  8
0
  6
CONTINUOUS
 62
               4
  5
2C8
 10
6.0000000000020464
 20
168.95942639460378
 30
0.0
 11
6.0000000000020464
 21
37.423772641751327
 31
0.0
  0
LINE
  8
0
  6
CONTINUOUS
 62
               4
  5
2C9
 10
8.2170000000019172
 20
158.4237726417511
 30
0.0
 11
8.2170000000019172
 21
37.423772641751327
 31
0.0
  0
LINE
  8
0
  6
CONTINUOUS
 62
               4
  5
2CA
 10
-5.9999999999984084
 20
37.423772641751242
 30
0.0
 11
-5.9999999999977263
 21
168.95942639460378
 31
0.0
  0
LINE
  8
0
  6
CONTINUOUS
 62
               4
  5
2CB
 10
-8.2169999999978245
 20
158.4237726417511
 30
0.0
 11
-8.2169999999978245
 21
37.423772641751242
 31
0.0
  0
LINE
  8
0
  6
CONTINUOUS
 62
               4
  5
2CC
 10
-11.726999999997673
 20
168.95942639460372
 30
0.0
 11
-72.000000000000014
 21
168.95942639460372
 31
0.0
  0
LINE
  8
0
  6
CONTINUOUS
 62
               4
  5
2CD
 10
11.727000000002135
 20
168.95942639460372
 30
0.0
 11
71.999999999992951
 21
168.95942639461214
 31
0.0
  0
LINE
  8
0
  6
CONTINUOUS
 62
               4
  5
2CE
 10
75.000000000000242
 20
158.42377264175093
 30
0.0
 11
75.00000000000054
 21
42.423772641750716
 31
0.0
  0
ARC
  8
0
  6
CONTINUOUS
 62
               4
  5
2CF
 10
54.999999999998195
 20
158.42377264175093
 30
0.0
 40
19.999999999999996
 50
0.0
 51
31.788330617073985
  0
ARC
  8
0
  6
CONTINUOUS
 62
               4
  5
2D0
 10
80.000000000000426
 20
42.423772641750745
 30
0.0
 40
5.0
 50
179.99999999996524
 51
212.68363884621536
  0
ARC
  8
0
  6
CONTINUOUS
 62
               4
  5
2D1
 10
80.000000000000426
 20
42.423772641750745
 30
0.0
 40
5.0
 50
237.99454517218854
 51
269.99999999994782
  0
LINE
  8
0
  6
CONTINUOUS
 62
               4
  5
2D2
 10
528.0
 20
173.95942639460435
 30
0.0
 11
528.0
 21
243.84119694679549
 31
0.0
  0
LINE
  8
0
  6
CONTINUOUS
 62
               4
  5
2D3
 10
671.50000000000045
 20
168.95942639460367
 30
0.0
 11
528.49999999999955
 21
168.95942639460367
 31
0.0
  0
LINE
  8
0
  6
CONTINUOUS
 62
               4
  5
2D4
 10
523.0
 20
168.95942639460367
 30
0.0
 11
528.0
 21
173.95942639460367
 31
0.0
  0
ARC
  8
0
  6
CONTINUOUS
 62
               4
  5
2D5
 10
545.5
 20
158.42377264175093
 30
0.0
 40
19.999999999999996
 50
148.21166938291961
 51
179.99999999996524
  0
LINE
  8
0
  6
CONTINUOUS
 62
               4
  5
2D6
 10
528.49999999999955
 20
168.95942639460367
 30
0.0
 11
528.49999999999955
 21
173.95942639460435
 31
0.0
  0
LINE
  8
0
  6
CONTINUOUS
 62
               4
  5
2D7
 10
528.0
 20
173.95942639460367
 30
0.0
 11
528.49999999999955
 21
173.95942639460367
 31
0.0
  0
LINE
  8
0
  6
CONTINUOUS
 62
               4
  5
2D8
 10
677.0
 20
168.95942639460367
 30
0.0
 11
672.0
 21
173.95942639460367
 31
0.0
  0
ARC
  8
0
  6
CONTINUOUS
 62
               4
  5
2D9
 10
654.5
 20
158.42377264175093
 30
0.0
 40
19.999999999999996
 50
0.0
 51
31.788330617045538
  0
LINE
  8
0
  6
CONTINUOUS
 62
               4
  5
2DA
 10
671.50000000000045
 20
168.95942639460367
 30
0.0
 11
671.50000000000045
 21
173.95942639460435
 31
0.0
  0
LINE
  8
0
  6
CONTINUOUS
 62
               4
  5
2DB
 10
672.0
 20
173.95942639460367
 30
0.0
 11
671.50000000000045
 21
173.95942639460367
 31
0.0
  0
LINE
  8
0
  6
CONTINUOUS
 62
               4
  5
2DC
 10
672.0
 20
243.84119694679549
 30
0.0
 11
672.0
 21
173.95942639460367
 31
0.0
  0
LINE
  8
0
  6
CONTINUOUS
 62
               4
  5
2DD
 10
674.5
 20
158.42377264175093
 30
0.0
 11
674.5
 21
42.42377264175073
 31
0.0
  0
LINE
  8
0
  6
CONTINUOUS
 62
               4
  5
2DE
 10
677.0
 20
168.95942639460367
 30
0.0
 11
677.0
 21
42.423772641750404
 31
0.0
  0
LINE
  8
0
  6
CONTINUOUS
 62
               4
  5
2DF
 10
523.0
 20
168.95942639460367
 30
0.0
 11
523.0
 21
42.423772641750404
 31
0.0
  0
LINE
  8
0
  6
CONTINUOUS
 62
               4
  5
2E0
 10
525.5
 20
158.42377264175093
 30
0.0
 11
525.5
 21
42.423772641750702
 31
0.0
  0
ARC
  8
0
  6
CONTINUOUS
 62
               4
  5
2E1
 10
518.0
 20
42.423772641750404
 30
0.0
 40
5.0
 50
269.99999999994793
 51
359.99999999993048
  0
ARC
  8
0
  6
CONTINUOUS
 62
               4
  5
2E2
 10
682.0
 20
42.423772641750404
 30
0.0
 40
5.0
 50
179.99999999996524
 51
269.99999999994731
  0
LINE
  8
0
  6
CONTINUOUS
 62
               4
  5
2E3
 10
-523.0
 20
168.95942639460361
 30
0.0
 11
-528.0
 21
173.95942639460361
 31
0.0
  0
ARC
  8
0
  6
CONTINUOUS
 62
               4
  5
2E4
 10
-545.5
 20
158.42377264175084
 30
0.0
 40
19.999999999999996
 50
0.0
 51
31.788330617045538
  0
LINE
  8
0
  6
CONTINUOUS
 62
               4
  5
2E5
 10
-528.49999999999955
 20
168.95942639460361
 30
0.0
 11
-528.49999999999955
 21
173.95942639460429
 31
0.0
  0
LINE
  8
0
  6
CONTINUOUS
 62
               4
  5
2E6
 10
-528.0
 20
173.95942639460361
 30
0.0
 11
-528.49999999999955
 21
173.95942639460361
 31
0.0
  0
LINE
  8
0
  6
CONTINUOUS
 62
               4
  5
2E7
 10
-671.50000000000045
 20
168.95942639460358
 30
0.0
 11
-528.49999999999955
 21
168.95942639460361
 31
0.0
  0
LINE
  8
0
  6
CONTINUOUS
 62
               4
  5
2E8
 10
-677.0
 20
168.95942639460358
 30
0.0
 11
-672.0
 21
173.95942639460358
 31
0.0
  0
ARC
  8
0
  6
CONTINUOUS
 62
               4
  5
2E9
 10
-654.5
 20
158.42377264175084
 30
0.0
 40
19.999999999999996
 50
148.21166938291961
 51
179.99999999996524
  0
LINE
  8
0
  6
CONTINUOUS
 62
               4
  5
2EA
 10
-671.50000000000045
 20
168.95942639460358
 30
0.0
 11
-671.50000000000045
 21
173.95942639460426
 31
0.0
  0
LINE
  8
0
  6
CONTINUOUS
 62
               4
  5
2EB
 10
-672.0
 20
173.95942639460358
 30
0.0
 11
-671.50000000000045
 21
173.95942639460358
 31
0.0
  0
LINE
  8
0
  6
CONTINUOUS
 62
               4
  5
2EC
 10
-672.0
 20
243.84119694679538
 30
0.0
 11
-672.0
 21
173.95942639460358
 31
0.0
  0
LINE
  8
0
  6
CONTINUOUS
 62
               4
  5
2ED
 10
-528.0
 20
173.95942639460429
 30
0.0
 11
-528.0
 21
243.84119694679543
 31
0.0
  0
LINE
  8
0
  6
CONTINUOUS
 62
               4
  5
2EE
 10
-525.5
 20
158.42377264175087
 30
0.0
 11
-525.5
 21
42.423772641750631
 31
0.0
  0
LINE
  8
0
  6
CONTINUOUS
 62
               4
  5
2EF
 10
-523.0
 20
168.95942639460361
 30
0.0
 11
-523.0
 21
42.423772641750332
 31
0.0
  0
LINE
  8
0
  6
CONTINUOUS
 62
               4
  5
2F0
 10
-674.5
 20
158.42377264175084
 30
0.0
 11
-674.5
 21
42.423772641750645
 31
0.0
  0
LINE
  8
0
  6
CONTINUOUS
 62
               4
  5
2F1
 10
-677.0
 20
168.95942639460358
 30
0.0
 11
-677.0
 21
42.423772641750318
 31
0.0
  0
ARC
  8
0
  6
CONTINUOUS
 62
               4
  5
2F2
 10
-679.5
 20
42.423772641750645
 30
0.0
 40
5.0
 50
327.31636115367996
 51
359.99999999993048
  0
ARC
  8
0
  6
CONTINUOUS
 62
               4
  5
2F3
 10
-679.5
 20
42.423772641750645
 30
0.0
 40
5.0
 50
269.99999999994731
 51
295.46756014241657
  0
ARC
  8
0
  6
CONTINUOUS
 62
               4
  5
2F4
 10
-682.0
 20
42.423772641750318
 30
0.0
 40
5.0
 50
269.99999999994731
 51
359.99999999993048
  0
ARC
  8
0
  6
CONTINUOUS
 62
               4
  5
2F5
 10
-520.5
 20
42.423772641750631
 30
0.0
 40
5.0
 50
179.99999999996524
 51
212.68363884621536
  0
ARC
  8
0
  6
CONTINUOUS
 62
               4
  5
2F6
 10
-520.5
 20
42.423772641750631
 30
0.0
 40
5.0
 50
244.5324398574854
 51
269.99999999994731
  0
ARC
  8
0
  6
CONTINUOUS
 62
               4
  5
2F7
 10
-518.0
 20
42.423772641750332
 30
0.0
 40
5.0
 50
179.99999999996524
 51
269.99999999994731
  0
LINE
  8
0
  6
CONTINUOUS
 62
               4
  5
2F8
 10
-34.003676271838273
 20
742.88961674424377
 30
0.0
 11
34.003676271838984
 21
742.88961674424354
 31
0.0
  0
LINE
  8
0
  6
CONTINUOUS
 62
               4
  5
2F9
 10
-22.00000000000027
 20
702.88961674424377
 30
0.0
 11
-44.870491366485723
 21
730.14560699464778
 31
0.0
  0
LINE
  8
0
  6
CONTINUOUS
 62
               4
  5
2FA
 10
-22.00000000000027
 20
680.88961674424331
 30
0.0
 11
47.668123520860107
 21
680.88961674424331
 31
0.0
  0
LINE
  8
0
  6
CONTINUOUS
 62
               4
  5
2FB
 10
-22.00000000000027
 20
702.88961674424377
 30
0.0
 11
-22.00000000000027
 21
655.22149322338396
 31
0.0
  0
CIRCLE
  8
0
  6
CONTINUOUS
 62
               4
  5
2FC
 10
-64.34671708797589
 20
638.54289965626822
 30
0.0
 40
13.0
  0
CIRCLE
  8
0
  6
CONTINUOUS
 62
               4
  5
2FD
 10
-64.34671708797579
 20
767.23633383221932
 30
0.0
 40
13.0
  0
LINE
  8
0
  6
CONTINUOUS
 62
               4
  5
2FE
 10
-81.684122377823982
 20
769.61632917161103
 30
0.0
 11
-89.163798633507426
 21
715.12959277540028
 31
0.0
  0
LINE
  8
0
  6
CONTINUOUS
 62
               4
  5
2FF
 10
-81.684122377823982
 20
636.16290431687651
 30
0.0
 11
-89.163798633507483
 21
690.64964071308736
 31
0.0
  0
ARC
  8
0
  6
CONTINUOUS
 62
               4
  5
300
 10
0.0000000000002416
 20
702.88961674424377
 30
0.0
 40
90.0
 50
172.18356639349557
 51
187.8164336064348
  0
LINE
  8
0
  6
CONTINUOUS
 62
               4
  5
301
 10
-82.676580270046557
 20
762.38663236263733
 30
0.0
 11
-136.99999999999955
 21
760.48961674424379
 31
0.0
  0
LINE
  8
0
  6
CONTINUOUS
 62
               4
  5
302
 10
-82.679667302908356
 20
643.41508904378099
 30
0.0
 11
-136.99999999999955
 21
645.28961674424374
 31
0.0
  0
LINE
  8
0
  6
CONTINUOUS
 62
               4
  5
303
 10
-136.99999999999994
 20
-118.17622735824926
 30
0.0
 11
-140.00000000000006
 21
-115.1762273582502
 31
0.0
  0
LINE
  8
0
  6
CONTINUOUS
 62
               4
  5
304
 10
-136.99999999999994
 20
-118.17622735824926
 30
0.0
 11
-94.676329086442067
 21
-119.65420251426667
 31
0.0
  0
LINE
  8
0
  6
CONTINUOUS
 62
               4
  5
305
 10
-136.99999999999994
 20
-2.9762273582492682
 30
0.0
 11
-140.00000000000006
 21
-5.9762273582493606
 31
0.0
  0
LINE
  8
0
  6
CONTINUOUS
 62
               4
  5
306
 10
-136.99999999999994
 20
-118.17622735824926
 30
0.0
 11
-136.99999999999994
 21
-2.9762273582492682
 31
0.0
  0
LINE
  8
0
  6
CONTINUOUS
 62
               4
  5
307
 10
-140.00000000000006
 20
-118.17622735824978
 30
0.0
 11
-140.00000000000006
 21
-2.9762273582493819
 31
0.0
  0
LINE
  8
0
  6
CONTINUOUS
 62
               4
  5
308
 10
-140.00000000000006
 20
-2.9762273582493819
 30
0.0
 11
-142.50000000000006
 21
-2.9762273582493819
 31
0.0
  0
ARC
  8
0
  6
CONTINUOUS
 62
               4
  5
309
 10
-142.50000000000006
 20
-5.4762273582493819
 30
0.0
 40
2.5
 50
89.999999999982862
 51
179.99999999996524
  0
LINE
  8
0
  6
CONTINUOUS
 62
               4
  5
30A
 10
-145.00000000000006
 20
-5.4762273582493819
 30
0.0
 11
-145.00000000000006
 21
-115.67622735824978
 31
0.0
  0
LINE
  8
0
  6
CONTINUOUS
 62
               4
  5
30B
 10
-140.00000000000006
 20
-118.17622735824978
 30
0.0
 11
-142.50000000000006
 21
-118.17622735824978
 31
0.0
  0
ARC
  8
0
  6
CONTINUOUS
 62
               4
  5
30C
 10
-142.50000000000006
 20
-115.67622735824978
 30
0.0
 40
2.5
 50
179.99999999996507
 51
269.99999999994793
  0
LINE
  8
0
  6
CONTINUOUS
 62
               4
  5
30D
 10
-136.99999999999994
 20
-2.9762273582492682
 30
0.0
 11
-92.895301509893258
 21
-1.4360573487732538
 31
0.0
  0
ARC
  8
0
  6
CONTINUOUS
 62
               4
  5
30E
 10
-93.000000000000725
 20
1.5621151322840277
 30
0.0
 40
3.0
 50
271.99999999994657
 51
359.99999999993042
  0
ARC
  8
0
  6
CONTINUOUS
 62
               4
  5
30F
 10
-94.850826569954549
 20
-124.65115664936218
 30
0.0
 40
5.0
 50
44.999999999992305
 51
87.99999999998262
  0
LINE
  8
0
  6
CONTINUOUS
 62
               4
  5
310
 10
-76.46446609406739
 20
-135.96644931338352
 30
0.0
 11
-91.315292664021896
 21
-121.11562274342936
 31
0.0
  0
ARC
  8
0
  6
CONTINUOUS
 62
               4
  5
311
 10
-80.000000000000043
 20
-139.50198321931629
 30
0.0
 40
5.0
 50
0.0
 51
44.99999999999207
  0
CIRCLE
  8
0
  6
CONTINUOUS
 62
               4
  5
312
 10
600.0
 20
-60.576227358249
 30
0.0
 40
57.5
  0
LINE
  8
0
  6
CONTINUOUS
 62
               4
  5
313
 10
90.000000000000455
 20
-6.5762273582491559
 30
0.0
 11
38.120991592559022
 21
-6.5762273582491524
 31
0.0
  0
LINE
  8
0
  6
CONTINUOUS
 62
               4
  5
314
 10
-38.120991592559029
 20
-6.5762273582491488
 30
0.0
 11
-89.999999999999375
 21
-6.5762273582491559
 31
0.0
  0
LINE
  8
0
  6
CONTINUOUS
 62
               4
  5
315
 10
463.00000000000006
 20
-118.17622735824924
 30
0.0
 11
459.99999999999994
 21
-115.17622735825017
 31
0.0
  0
LINE
  8
0
  6
CONTINUOUS
 62
               4
  5
316
 10
463.00000000000006
 20
-2.9762273582492398
 30
0.0
 11
459.99999999999994
 21
-5.9762273582493322
 31
0.0
  0
LINE
  8
0
  6
CONTINUOUS
 62
               4
  5
317
 10
463.00000000000006
 20
-118.17622735824924
 30
0.0
 11
463.00000000000006
 21
-2.9762273582492398
 31
0.0
  0
LINE
  8
0
  6
CONTINUOUS
 62
               4
  5
318
 10
459.99999999999994
 20
-118.17622735824975
 30
0.0
 11
459.99999999999994
 21
-2.9762273582493535
 31
0.0
  0
LINE
  8
0
  6
CONTINUOUS
 62
               4
  5
319
 10
459.99999999999994
 20
-2.9762273582493535
 30
0.0
 11
457.49999999999994
 21
-2.9762273582493535
 31
0.0
  0
ARC
  8
0
  6
CONTINUOUS
 62
               4
  5
31A
 10
457.49999999999994
 20
-5.4762273582493535
 30
0.0
 40
2.5
 50
89.999999999982862
 51
179.99999999996524
  0
LINE
  8
0
  6
CONTINUOUS
 62
               4
  5
31B
 10
454.99999999999994
 20
-5.4762273582493535
 30
0.0
 11
454.99999999999994
 21
-115.67622735824975
 31
0.0
  0
LINE
  8
0
  6
CONTINUOUS
 62
               4
  5
31C
 10
459.99999999999994
 20
-118.17622735824975
 30
0.0
 11
457.49999999999994
 21
-118.17622735824975
 31
0.0
  0
ARC
  8
0
  6
CONTINUOUS
 62
               4
  5
31D
 10
457.49999999999994
 20
-115.67622735824975
 30
0.0
 40
2.5
 50
179.99999999996507
 51
269.99999999994731
  0
LINE
  8
0
  6
CONTINUOUS
 62
               4
  5
31E
 10
463.00000000000006
 20
-2.9762273582492398
 30
0.0
 11
507.10469849010673
 21
-1.4360573487732253
 31
0.0
  0
ARC
  8
0
  6
CONTINUOUS
 62
               4
  5
31F
 10
506.99999999999926
 20
1.5621151322840561
 30
0.0
 40
3.0
 50
271.99999999994657
 51
359.99999999993042
  0
LINE
  8
0
  6
CONTINUOUS
 62
               4
  5
320
 10
463.00000000000006
 20
-118.17622735824924
 30
0.0
 11
505.32367091355792
 21
-119.65420251426664
 31
0.0
  0
ARC
  8
0
  6
CONTINUOUS
 62
               4
  5
321
 10
505.14917343004544
 20
-124.65115664936215
 30
0.0
 40
5.0
 50
44.999999999992191
 51
87.999999999982478
  0
LINE
  8
0
  6
CONTINUOUS
 62
               4
  5
322
 10
523.53553390593265
 20
-135.96644931338349
 30
0.0
 11
508.68470733597809
 21
-121.11562274342933
 31
0.0
  0
ARC
  8
0
  6
CONTINUOUS
 62
               4
  5
323
 10
520.0
 20
-139.50198321931626
 30
0.0
 40
5.0
 50
0.0
 51
44.99999999999207
  0
LINE
  8
0
  6
CONTINUOUS
 62
               4
  5
324
 10
525.0
 20
-139.50198321931626
 30
0.0
 11
525.0
 21
-238.57622735824938
 31
0.0
  0
LINE
  8
0
  6
CONTINUOUS
 62
               4
  5
325
 10
-463.0
 20
-118.17622735824929
 30
0.0
 11
-459.99999999999989
 21
-115.17622735825023
 31
0.0
  0
LINE
  8
0
  6
CONTINUOUS
 62
               4
  5
326
 10
-459.99999999999989
 20
-118.1762273582498
 30
0.0
 11
-457.49999999999989
 21
-118.1762273582498
 31
0.0
  0
ARC
  8
0
  6
CONTINUOUS
 62
               4
  5
327
 10
-457.49999999999989
 20
-115.6762273582498
 30
0.0
 40
2.5
 50
269.99999999994731
 51
359.99999999993048
  0
LINE
  8
0
  6
CONTINUOUS
 62
               4
  5
328
 10
-463.0
 20
-118.17622735824929
 30
0.0
 11
-505.32367091355786
 21
-119.65420251426671
 31
0.0
  0
ARC
  8
0
  6
CONTINUOUS
 62
               4
  5
329
 10
-505.14917343004538
 20
-124.65115664936222
 30
0.0
 40
5.0
 50
91.999999999982577
 51
134.99999999997274
  0
LINE
  8
0
  6
CONTINUOUS
 62
               4
  5
32A
 10
-523.53553390593254
 20
-135.96644931338358
 30
0.0
 11
-508.68470733597803
 21
-121.1156227434294
 31
0.0
  0
ARC
  8
0
  6
CONTINUOUS
 62
               4
  5
32B
 10
-519.99999999999989
 20
-139.50198321931634
 30
0.0
 40
5.0
 50
134.99999999997289
 51
179.99999999996524
  0
LINE
  8
0
  6
CONTINUOUS
 62
               4
  5
32C
 10
-463.0
 20
-2.9762273582493002
 30
0.0
 11
-459.99999999999989
 21
-5.9762273582493926
 31
0.0
  0
LINE
  8
0
  6
CONTINUOUS
 62
               4
  5
32D
 10
-463.0
 20
-118.17622735824929
 30
0.0
 11
-463.0
 21
-2.9762273582493002
 31
0.0
  0
LINE
  8
0
  6
CONTINUOUS
 62
               4
  5
32E
 10
-459.99999999999989
 20
-118.1762273582498
 30
0.0
 11
-459.99999999999989
 21
-2.9762273582494139
 31
0.0
  0
LINE
  8
0
  6
CONTINUOUS
 62
               4
  5
32F
 10
-459.99999999999989
 20
-2.9762273582494139
 30
0.0
 11
-457.49999999999989
 21
-2.9762273582494139
 31
0.0
  0
ARC
  8
0
  6
CONTINUOUS
 62
               4
  5
330
 10
-457.49999999999989
 20
-5.4762273582494139
 30
0.0
 40
2.5
 50
0.0
 51
89.999999999982862
  0
LINE
  8
0
  6
CONTINUOUS
 62
               4
  5
331
 10
-454.99999999999989
 20
-5.4762273582494139
 30
0.0
 11
-454.99999999999989
 21
-115.6762273582498
 31
0.0
  0
LINE
  8
0
  6
CONTINUOUS
 62
               4
  5
332
 10
-463.0
 20
-2.9762273582493002
 30
0.0
 11
-507.10469849010667
 21
-1.4360573487732928
 31
0.0
  0
ARC
  8
0
  6
CONTINUOUS
 62
               4
  5
333
 10
-506.9999999999992
 20
1.5621151322839886
 30
0.0
 40
3.0
 50
179.99999999996518
 51
267.99999999994793
  0
LINE
  8
0
  6
CONTINUOUS
 62
               4
  5
334
 10
-86.854688049201627
 20
-125.57622735824951
 30
0.0
 11
86.854688049201954
 21
-125.57622735824928
 31
0.0
  0
LINE
  8
0
  6
CONTINUOUS
 62
               4
  5
335
 10
513.14531195079849
 20
-125.57622735824953
 30
0.0
 11
683.49999999999955
 21
-125.57622735824931
 31
0.0
  0
LINE
  8
0
  6
CONTINUOUS
 62
               4
  5
336
 10
-683.49999999999943
 20
-125.57622735824935
 30
0.0
 11
-513.14531195079792
 21
-125.57622735824918
 31
0.0
  0
ARC
  8
0
  6
CONTINUOUS
 62
               4
  5
337
 10
674.99999999999943
 20
-123.0762273582494
 30
0.0
 40
2.4999999999999996
 50
269.99999999994731
 51
449.99999999991297
  0
ARC
  8
0
  6
CONTINUOUS
 62
               4
  5
338
 10
534.99999999999989
 20
-123.07622735824931
 30
0.0
 40
2.4999999999999996
 50
89.999999999981569
 51
269.99999999994731
  0
LINE
  8
0
  6
CONTINUOUS
 62
               4
  5
339
 10
674.99999999999955
 20
-6.5762273582491844
 30
0.0
 11
674.99999999999955
 21
-120.5762273582494
 31
0.0
  0
ARC
  8
0
  6
CONTINUOUS
 62
               4
  5
33A
 10
-65.000000000000114
 20
-123.07622735824947
 30
0.0
 40
2.4999999999999996
 50
89.999999999982535
 51
269.99999999994793
  0
ARC
  8
0
  6
CONTINUOUS
 62
               4
  5
33B
 10
-674.99999999999943
 20
-123.07622735824941
 30
0.0
 40
2.4999999999999996
 50
89.999999999981569
 51
269.99999999994731
  0
ARC
  8
0
  6
CONTINUOUS
 62
               4
  5
33C
 10
-534.99999999999977
 20
-123.07622735824948
 30
0.0
 40
2.4999999999999996
 50
269.99999999994731
 51
449.99999999991297
  0
LINE
  8
0
  6
CONTINUOUS
 62
               4
  5
33D
 10
-674.99999999999943
 20
-125.57622735824941
 30
0.0
 11
-674.99999999999943
 21
-238.57622735824953
 31
0.0
  0
LINE
  8
0
  6
CONTINUOUS
 62
               4
  5
33E
 10
-56.999999999999943
 20
-499.57622735824884
 30
0.0
 11
-57.999999999999943
 21
-498.57622735824884
 31
0.0
  0
LINE
  8
0
  6
CONTINUOUS
 62
               4
  5
33F
 10
-74.999999999999432
 20
-238.5762273582495
 30
0.0
 11
74.999999999999432
 21
-238.5762273582495
 31
0.0
  0
LINE
  8
0
  6
CONTINUOUS
 62
               4
  5
340
 10
60.278712166033017
 20
-367.78331242503884
 30
0.0
 11
74.999999999999432
 21
-238.5762273582649
 31
0.0
  0
LINE
  8
0
  6
CONTINUOUS
 62
               4
  5
341
 10
-60.278712166032903
 20
-367.78331242503884
 30
0.0
 11
-74.999999999999432
 21
-238.5762273582495
 31
0.0
  0
LINE
  8
0
  6
CONTINUOUS
 62
               4
  5
342
 10
60.27871216603296
 20
-367.78331242503839
 30
0.0
 11
-60.278712166032903
 21
-367.78331242503839
 31
0.0
  0
LINE
  8
0
  6
CONTINUOUS
 62
               4
  5
343
 10
-60.761209804564089
 20
-385.63266368168956
 30
0.0
 11
-62.479633770804639
 21
-370.55025009865005
 31
0.0
  0
ARC
  8
0
  6
CONTINUOUS
 62
               4
  5
344
 10
-59.995704131613195
 20
-370.26724206423023
 30
0.0
 40
2.5
 50
96.499999999981398
 51
186.49999999996413
  0
ARC
  8
0
  6
CONTINUOUS
 62
               4
  5
345
 10
-58.283008034419822
 20
-385.29938278584723
 30
0.0
 40
2.5
 50
186.49999999996413
 51
276.49999999994787
  0
LINE
  8
0
  6
CONTINUOUS
 62
               4
  5
346
 10
-57.999999999999943
 20
-387.78331242503828
 30
0.0
 11
58.000000000000057
 21
-387.78331242503862
 31
0.0
  0
LINE
  8
0
  6
CONTINUOUS
 62
               4
  5
347
 10
60.761209804564089
 20
-385.63266368168956
 30
0.0
 11
62.479633770804696
 21
-370.55025009865005
 31
0.0
  0
ARC
  8
0
  6
CONTINUOUS
 62
               4
  5
348
 10
59.995704131613252
 20
-370.26724206423023
 30
0.0
 40
2.5
 50
353.49999999993105
 51
443.49999999991434
  0
ARC
  8
0
  6
CONTINUOUS
 62
               4
  5
349
 10
58.283008034419879
 20
-385.29938278584723
 30
0.0
 40
2.5
 50
263.49999999994765
 51
353.49999999993105
  0
LINE
  8
0
  6
CONTINUOUS
 62
               4
  5
34A
 10
58.000000000000057
 20
-498.57622735824884
 30
0.0
 11
58.000000000000057
 21
-387.78331242503862
 31
0.0
  0
LINE
  8
0
  6
CONTINUOUS
 62
               4
  5
34B
 10
-57.999999999999943
 20
-387.78331242503862
 30
0.0
 11
-57.999999999999943
 21
-498.57622735824884
 31
0.0
  0
LINE
  8
0
  6
CONTINUOUS
 62
               4
  5
34C
 10
57.000000000000057
 20
-499.57622735824884
 30
0.0
 11
58.000000000000057
 21
-498.57622735824884
 31
0.0
  0
LINE
  8
0
  6
CONTINUOUS
 62
               4
  5
34D
 10
57.000000000000057
 20
-499.57622735824884
 30
0.0
 11
-57.0
 21
-499.57622735824884
 31
0.0
  0
LINE
  8
0
  6
CONTINUOUS
 62
               4
  5
34E
 10
58.000000000000057
 20
-498.57622735824884
 30
0.0
 11
-57.999999999999943
 21
-498.57622735824884
 31
0.0
  0
LINE
  8
0
  6
CONTINUOUS
 62
               4
  5
34F
 10
-90.999999999999943
 20
-607.32144914557239
 30
0.0
 11
-90.999999999999943
 21
-597.44716293851673
 31
0.0
  0
LINE
  8
0
  6
CONTINUOUS
 62
               4
  5
350
 10
90.999999999999829
 20
-607.32144914557239
 30
0.0
 11
90.999999999999829
 21
-597.44716293851673
 31
0.0
  0
LINE
  8
0
  6
CONTINUOUS
 62
               4
  5
351
 10
-65.500000000000966
 20
-711.57622735824827
 30
0.0
 11
65.500000000000966
 21
-711.57622735824827
 31
0.0
  0
LINE
  8
0
  6
CONTINUOUS
 62
               4
  5
352
 10
-72.721287833966812
 20
-258.57622735824941
 30
0.0
 11
72.721287833968077
 21
-258.57622735824964
 31
0.0
  0
LINE
  8
0
  6
CONTINUOUS
 62
               4
  5
353
 10
-78.424788131364181
 20
-275.57622735824975
 30
0.0
 11
78.436559992414374
 21
-275.57622735824975
 31
0.0
  0
LINE
  8
0
  6
CONTINUOUS
 62
               4
  5
354
 10
-674.99999999999943
 20
-238.5762273582495
 30
0.0
 11
-525.00000000000057
 21
-238.5762273582495
 31
0.0
  0
LINE
  8
0
  6
CONTINUOUS
 62
               4
  5
355
 10
-539.72128783396704
 20
-367.78331242503884
 30
0.0
 11
-525.00000000000057
 21
-238.57622735826467
 31
0.0
  0
LINE
  8
0
  6
CONTINUOUS
 62
               4
  5
356
 10
-660.27871216603296
 20
-367.78331242503884
 30
0.0
 11
-674.99999999999943
 21
-238.5762273582495
 31
0.0
  0
LINE
  8
0
  6
CONTINUOUS
 62
               4
  5
357
 10
-539.72128783396704
 20
-367.78331242503839
 30
0.0
 11
-660.27871216603296
 21
-367.78331242503839
 31
0.0
  0
LINE
  8
0
  6
CONTINUOUS
 62
               4
  5
358
 10
-660.76120980456415
 20
-385.63266368168956
 30
0.0
 11
-662.47963377080464
 21
-370.55025009865005
 31
0.0
  0
ARC
  8
0
  6
CONTINUOUS
 62
               4
  5
359
 10
-659.99570413161325
 20
-370.26724206423023
 30
0.0
 40
2.5
 50
96.499999999980105
 51
186.49999999996422
  0
ARC
  8
0
  6
CONTINUOUS
 62
               4
  5
35A
 10
-658.28300803441982
 20
-385.29938278584723
 30
0.0
 40
2.5
 50
186.49999999996422
 51
276.49999999994822
  0
LINE
  8
0
  6
CONTINUOUS
 62
               4
  5
35B
 10
-658.0
 20
-387.78331242503828
 30
0.0
 11
-542.0
 21
-387.78331242503862
 31
0.0
  0
LINE
  8
0
  6
CONTINUOUS
 62
               4
  5
35C
 10
-539.23879019543597
 20
-385.63266368168956
 30
0.0
 11
-537.52036622919536
 21
-370.55025009865005
 31
0.0
  0
ARC
  8
0
  6
CONTINUOUS
 62
               4
  5
35D
 10
-540.00429586838675
 20
-370.26724206423023
 30
0.0
 40
2.5
 50
353.49999999993111
 51
443.49999999991383
  0
ARC
  8
0
  6
CONTINUOUS
 62
               4
  5
35E
 10
-541.71699196558018
 20
-385.29938278584723
 30
0.0
 40
2.5
 50
263.49999999994833
 51
353.49999999993111
  0
LINE
  8
0
  6
CONTINUOUS
 62
               4
  5
35F
 10
-542.0
 20
-498.57622735824884
 30
0.0
 11
-542.0
 21
-387.78331242503862
 31
0.0
  0
LINE
  8
0
  6
CONTINUOUS
 62
               4
  5
360
 10
-658.0
 20
-387.78331242503862
 30
0.0
 11
-658.0
 21
-498.57622735824884
 31
0.0
  0
LINE
  8
0
  6
CONTINUOUS
 62
               4
  5
361
 10
-672.72128783396681
 20
-258.57622735824941
 30
0.0
 11
-527.27871216603194
 21
-258.57622735824918
 31
0.0
  0
LINE
  8
0
  6
CONTINUOUS
 62
               4
  5
362
 10
-678.42478813136415
 20
-275.57622735824975
 30
0.0
 11
-521.56344000758565
 21
-275.57622735824975
 31
0.0
  0
LINE
  8
0
  6
CONTINUOUS
 62
               4
  5
363
 10
-542.99999999999966
 20
-499.57622735824941
 30
0.0
 11
-541.99999999999966
 21
-498.57622735824941
 31
0.0
  0
LINE
  8
0
  6
CONTINUOUS
 62
               4
  5
364
 10
-542.99999999999966
 20
-499.57622735824941
 30
0.0
 11
-656.99999999999977
 21
-499.57622735824941
 31
0.0
  0
LINE
  8
0
  6
CONTINUOUS
 62
               4
  5
365
 10
-541.99999999999966
 20
-498.57622735824941
 30
0.0
 11
-657.99999999999966
 21
-498.57622735824941
 31
0.0
  0
LINE
  8
0
  6
CONTINUOUS
 62
               4
  5
366
 10
-656.99999999999977
 20
-499.57622735824941
 30
0.0
 11
-657.99999999999966
 21
-498.57622735824941
 31
0.0
  0
LINE
  8
0
  6
CONTINUOUS
 62
               4
  5
367
 10
-662.99999999999966
 20
-487.78331242503702
 30
0.0
 11
-536.99999999999966
 21
-487.78331242503702
 31
0.0
  0
LINE
  8
0
  6
CONTINUOUS
 62
               4
  5
368
 10
-665.50000000000216
 20
-709.57622735824805
 30
0.0
 11
-534.50000000000023
 21
-709.57622735824805
 31
0.0
  0
LINE
  8
0
  6
CONTINUOUS
 62
               4
  5
369
 10
674.99999999999943
 20
-238.5762273582495
 30
0.0
 11
525.00000000000057
 21
-238.57622735824953
 31
0.0
  0
LINE
  8
0
  6
CONTINUOUS
 62
               4
  5
36A
 10
660.27871216603296
 20
-367.78331242503884
 30
0.0
 11
674.99999999999943
 21
-238.57622735826467
 31
0.0
  0
LINE
  8
0
  6
CONTINUOUS
 62
               4
  5
36B
 10
539.72128783396704
 20
-367.78331242503884
 30
0.0
 11
525.00000000000057
 21
-238.5762273582495
 31
0.0
  0
LINE
  8
0
  6
CONTINUOUS
 62
               4
  5
36C
 10
660.27871216603296
 20
-367.78331242503839
 30
0.0
 11
539.72128783396704
 21
-367.78331242503839
 31
0.0
  0
LINE
  8
0
  6
CONTINUOUS
 62
               4
  5
36D
 10
539.23879019543585
 20
-385.63266368168956
 30
0.0
 11
537.52036622919536
 21
-370.55025009865005
 31
0.0
  0
ARC
  8
0
  6
CONTINUOUS
 62
               4
  5
36E
 10
540.00429586838675
 20
-370.26724206423023
 30
0.0
 40
2.5
 50
96.499999999980105
 51
186.49999999996422
  0
ARC
  8
0
  6
CONTINUOUS
 62
               4
  5
36F
 10
541.71699196558018
 20
-385.29938278584723
 30
0.0
 40
2.5
 50
186.49999999996422
 51
276.49999999994822
  0
LINE
  8
0
  6
CONTINUOUS
 62
               4
  5
370
 10
542.0
 20
-387.78331242503828
 30
0.0
 11
658.0
 21
-387.78331242503862
 31
0.0
  0
LINE
  8
0
  6
CONTINUOUS
 62
               4
  5
371
 10
660.76120980456403
 20
-385.63266368168956
 30
0.0
 11
662.47963377080464
 21
-370.55025009865005
 31
0.0
  0
ARC
  8
0
  6
CONTINUOUS
 62
               4
  5
372
 10
659.99570413161325
 20
-370.26724206423023
 30
0.0
 40
2.5
 50
353.49999999993111
 51
443.49999999991383
  0
ARC
  8
0
  6
CONTINUOUS
 62
               4
  5
373
 10
658.28300803441982
 20
-385.29938278584723
 30
0.0
 40
2.5
 50
263.49999999994833
 51
353.49999999993111
  0
LINE
  8
0
  6
CONTINUOUS
 62
               4
  5
374
 10
658.0
 20
-498.57622735824884
 30
0.0
 11
658.0
 21
-387.78331242503862
 31
0.0
  0
LINE
  8
0
  6
CONTINUOUS
 62
               4
  5
375
 10
542.0
 20
-387.78331242503862
 30
0.0
 11
542.0
 21
-498.57622735824884
 31
0.0
  0
LINE
  8
0
  6
CONTINUOUS
 62
               4
  5
376
 10
672.72128783396681
 20
-258.57622735824941
 30
0.0
 11
527.27871216603194
 21
-258.57622735824924
 31
0.0
  0
LINE
  8
0
  6
CONTINUOUS
 62
               4
  5
377
 10
521.57521186863585
 20
-275.57622735824975
 30
0.0
 11
678.43655999241435
 21
-275.57622735824975
 31
0.0
  0
LINE
  8
0
  6
CONTINUOUS
 62
               4
  5
378
 10
657.00000000000034
 20
-499.57622735824941
 30
0.0
 11
658.00000000000034
 21
-498.57622735824941
 31
0.0
  0
LINE
  8
0
  6
CONTINUOUS
 62
               4
  5
379
 10
657.00000000000034
 20
-499.57622735824941
 30
0.0
 11
543.00000000000023
 21
-499.57622735824941
 31
0.0
  0
LINE
  8
0
  6
CONTINUOUS
 62
               4
  5
37A
 10
658.00000000000034
 20
-498.57622735824941
 30
0.0
 11
542.00000000000034
 21
-498.57622735824941
 31
0.0
  0
LINE
  8
0
  6
CONTINUOUS
 62
               4
  5
37B
 10
543.00000000000023
 20
-499.57622735824941
 30
0.0
 11
542.00000000000034
 21
-498.57622735824941
 31
0.0
  0
LINE
  8
0
  6
CONTINUOUS
 62
               4
  5
37C
 10
537.00000000000034
 20
-487.78331242503702
 30
0.0
 11
663.00000000000034
 21
-487.78331242503702
 31
0.0
  0
LINE
  8
0
  6
CONTINUOUS
 62
               4
  5
37D
 10
534.49999999999784
 20
-709.57622735824805
 30
0.0
 11
665.49999999999977
 21
-709.57622735824805
 31
0.0
  0
LINE
  8
0
  6
CONTINUOUS
 62
               4
  5
37E
 10
561.87900840744066
 20
-6.5762273582491808
 30
0.0
 11
510.00000000000068
 21
-6.5762273582491844
 31
0.0
  0
LINE
  8
0
  6
CONTINUOUS
 62
               4
  5
37F
 10
535.0
 20
-120.57622735824911
 30
0.0
 11
572.26536461389844
 21
-120.57622735824911
 31
0.0
  0
ARC
  8
0
  6
CONTINUOUS
 62
               4
  5
380
 10
622.50000000000057
 20
-123.07622735824911
 30
0.0
 40
2.4999999999999996
 50
191.22079972969266
 51
269.99999999984567
  0
LINE
  8
0
  6
CONTINUOUS
 62
               4
  5
381
 10
627.73463538610167
 20
-120.57622735824911
 30
0.0
 11
675.0
 21
-120.57622735824911
 31
0.0
  0
ARC
  8
0
  6
CONTINUOUS
 62
               4
  5
382
 10
577.50000000000057
 20
-123.07622735824911
 30
0.0
 40
2.4999999999999996
 50
269.99999999984567
 51
348.77920027019377
  0
LINE
  8
0
  6
CONTINUOUS
 62
               4
  5
383
 10
-674.99999999999943
 20
-120.57622735824941
 30
0.0
 11
-627.7346353861019
 21
-120.57622735824941
 31
0.0
  0
ARC
  8
0
  6
CONTINUOUS
 62
               4
  5
384
 10
-622.49999999999943
 20
-123.07622735824941
 30
0.0
 40
2.4999999999999996
 50
269.99999999994731
 51
348.77920027019121
  0
ARC
  8
0
  6
CONTINUOUS
 62
               4
  5
385
 10
-577.49999999999943
 20
-123.07622735824941
 30
0.0
 40
2.4999999999999996
 50
191.22079972969681
 51
269.99999999994731
  0
LINE
  8
0
  6
CONTINUOUS
 62
               4
  5
386
 10
-572.2653646138981
 20
-120.57622735824941
 30
0.0
 11
-534.99999999999977
 21
-120.57622735824941
 31
0.0
  0
ARC
  8
0
  6
CONTINUOUS
 62
               4
  5
387
 10
-22.499999999999432
 20
-123.07622735824938
 30
0.0
 40
2.4999999999999996
 50
269.99999999994782
 51
348.7792002701911
  0
ARC
  8
0
  6
CONTINUOUS
 62
               4
  5
388
 10
22.500000000000568
 20
-123.07622735824938
 30
0.0
 40
2.4999999999999996
 50
191.22079972969678
 51
269.99999999994782
  0
CIRCLE
  8
0
  6
CONTINUOUS
 62
               4
  5
389
 10
0.0
 20
-60.576227358249199
 30
0.0
 40
57.5
  0
LINE
  8
0
  6
CONTINUOUS
 62
               4
  5
38A
 10
26.78735709247951
 20
-32.576227358249199
 30
0.0
 11
-26.787357092479397
 21
-32.576227358249199
 31
0.0
  0
CIRCLE
  8
0
  6
CONTINUOUS
 62
               4
  5
38B
 10
0.0
 20
-60.576227358249199
 30
0.0
 40
48.500000000000007
  0
CIRCLE
  8
0
  6
CONTINUOUS
 62
               4
  5
38C
 10
0.0
 20
-60.576227358249199
 30
0.0
 40
38.75
  0
CIRCLE
  8
0
  6
CONTINUOUS
 62
               4
  5
38D
 10
0.0
 20
-60.576227358249199
 30
0.0
 40
47.299999999999997
  0
LINE
  8
0
  6
CONTINUOUS
 62
               4
  5
38E
 10
-31.819805153394555
 20
-92.396032511643753
 30
0.0
 11
-33.446150750123707
 21
-94.022378108372905
 31
0.0
  0
LINE
  8
0
  6
CONTINUOUS
 62
               4
  5
38F
 10
31.819805153394668
 20
-92.396032511643753
 30
0.0
 11
33.44615075012382
 21
-94.022378108372905
 31
0.0
  0
ARC
  8
0
  6
CONTINUOUS
 62
               4
  5
390
 10
0.0
 20
-60.576227358249199
 30
0.0
 40
45.0
 50
224.99999999991346
 51
314.99999999987898
  0
CIRCLE
  8
0
  6
CONTINUOUS
 62
               4
  5
391
 10
0.0
 20
-60.576227358249199
 30
0.0
 40
43.0
  0
LINE
  8
0
  6
CONTINUOUS
 62
               4
  5
392
 10
-65.000000000000114
 20
-120.57622735824938
 30
0.0
 11
-27.734635386101942
 21
-120.57622735824938
 31
0.0
  0
ARC
  8
0
  6
CONTINUOUS
 62
               4
  5
393
 10
22.500000000000568
 20
-123.07622735824938
 30
0.0
 40
2.4999999999999996
 50
191.2207997296961
 51
269.99999999994782
  0
LINE
  8
0
  6
CONTINUOUS
 62
               4
  5
394
 10
27.734635386101939
 20
-120.57622735824938
 30
0.0
 11
74.999999999999432
 21
-120.57622735824938
 31
0.0
  0
LINE
  8
0
  6
CONTINUOUS
 62
               4
  5
395
 10
137.00000000000006
 20
-118.17622735824921
 30
0.0
 11
140.00000000000017
 21
-115.17622735825015
 31
0.0
  0
LINE
  8
0
  6
CONTINUOUS
 62
               4
  5
396
 10
137.00000000000006
 20
-2.9762273582492185
 30
0.0
 11
140.00000000000017
 21
-5.9762273582493073
 31
0.0
  0
LINE
  8
0
  6
CONTINUOUS
 62
               4
  5
397
 10
137.00000000000006
 20
-118.17622735824921
 30
0.0
 11
137.00000000000006
 21
-2.9762273582492185
 31
0.0
  0
LINE
  8
0
  6
CONTINUOUS
 62
               4
  5
398
 10
140.00000000000017
 20
-118.17622735824972
 30
0.0
 11
140.00000000000017
 21
-2.9762273582493286
 31
0.0
  0
LINE
  8
0
  6
CONTINUOUS
 62
               4
  5
399
 10
140.00000000000017
 20
-2.9762273582493286
 30
0.0
 11
142.50000000000017
 21
-2.9762273582493286
 31
0.0
  0
ARC
  8
0
  6
CONTINUOUS
 62
               4
  5
39A
 10
142.50000000000017
 20
-5.4762273582493286
 30
0.0
 40
2.5
 50
0.0
 51
89.999999999982535
  0
LINE
  8
0
  6
CONTINUOUS
 62
               4
  5
39B
 10
145.00000000000017
 20
-5.4762273582493286
 30
0.0
 11
145.00000000000017
 21
-115.67622735824972
 31
0.0
  0
LINE
  8
0
  6
CONTINUOUS
 62
               4
  5
39C
 10
140.00000000000017
 20
-118.17622735824972
 30
0.0
 11
142.50000000000017
 21
-118.17622735824972
 31
0.0
  0
ARC
  8
0
  6
CONTINUOUS
 62
               4
  5
39D
 10
142.50000000000017
 20
-115.67622735824972
 30
0.0
 40
2.5
 50
269.99999999994793
 51
359.99999999993048
  0
LINE
  8
0
  6
CONTINUOUS
 62
               4
  5
39E
 10
137.00000000000006
 20
-2.9762273582492185
 30
0.0
 11
92.895301509893343
 21
-1.4360573487732182
 31
0.0
  0
ARC
  8
0
  6
CONTINUOUS
 62
               4
  5
39F
 10
93.00000000000081
 20
1.5621151322840632
 30
0.0
 40
3.0
 50
179.99999999996518
 51
267.99999999994873
  0
LINE
  8
0
  6
CONTINUOUS
 62
               4
  5
3A0
 10
137.00000000000006
 20
-118.17622735824921
 30
0.0
 11
94.676329086442195
 21
-119.65420251426663
 31
0.0
  0
ARC
  8
0
  6
CONTINUOUS
 62
               4
  5
3A1
 10
94.850826569954677
 20
-124.65115664936214
 30
0.0
 40
5.0
 50
91.999999999982577
 51
134.99999999997297
  0
LINE
  8
0
  6
CONTINUOUS
 62
               4
  5
3A2
 10
76.464466094067518
 20
-135.96644931338349
 30
0.0
 11
91.315292664022024
 21
-121.11562274342931
 31
0.0
  0
ARC
  8
0
  6
CONTINUOUS
 62
               4
  5
3A3
 10
80.000000000000185
 20
-139.50198321931626
 30
0.0
 40
5.0
 50
134.9999999999732
 51
179.99999999996524
  0
LINE
  8
0
  6
CONTINUOUS
 62
               4
  5
3A4
 10
75.000000000000185
 20
-139.50198321931626
 30
0.0
 11
75.000000000000199
 21
-238.57622735824938
 31
0.0
  0
LINE
  8
0
  6
CONTINUOUS
 62
               4
  5
3A5
 10
-638.12099159255899
 20
-6.5762273582491808
 30
0.0
 11
-689.99999999999932
 21
-6.5762273582491844
 31
0.0
  0
LINE
  8
0
  6
CONTINUOUS
 62
               4
  5
3A6
 10
-509.99999999999955
 20
-6.5762273582491844
 30
0.0
 11
-561.87900840744101
 21
-6.5762273582491737
 31
0.0
  0
CIRCLE
  8
0
  6
CONTINUOUS
 62
               4
  5
3A7
 10
-600.0
 20
-60.576227358249341
 30
0.0
 40
57.600000000000001
  0
LINE
  8
0
  6
CONTINUOUS
 62
               4
  5
3A8
 10
140.00000000000037
 20
647.88961674424365
 30
0.0
 11
139.32844387403603
 21
647.88961674424365
 31
0.0
  0
LINE
  8
0
  6
CONTINUOUS
 62
               4
  5
3A9
 10
137.00000000000014
 20
645.56117287020822
 30
0.0
 11
139.32844387403603
 21
647.88961674424365
 31
0.0
  0
LINE
  8
0
  6
CONTINUOUS
 62
               4
  5
3AA
 10
140.00000000000048
 20
757.88961674424365
 30
0.0
 11
139.32844387403614
 21
757.88961674424365
 31
0.0
  0
LINE
  8
0
  6
CONTINUOUS
 62
               4
  5
3AB
 10
137.00000000000026
 20
760.21806061827954
 30
0.0
 11
139.32844387403614
 21
757.88961674424365
 31
0.0
  0
LINE
  8
0
  6
CONTINUOUS
 62
               4
  5
3AC
 10
139.32844387403614
 20
757.88961674424365
 30
0.0
 11
139.32844387403603
 21
647.88961674424365
 31
0.0
  0
LINE
  8
0
  6
CONTINUOUS
 62
               4
  5
3AD
 10
137.00000000000014
 20
645.56117287020822
 30
0.0
 11
137.00000000000026
 21
760.21806061827954
 31
0.0
  0
LINE
  8
0
  6
CONTINUOUS
 62
               4
  5
3AE
 10
145.00000000000048
 20
757.71806061827954
 30
0.0
 11
145.00000000000037
 21
648.06117287020822
 31
0.0
  0
LINE
  8
0
  6
CONTINUOUS
 62
               4
  5
3AF
 10
140.00000000000037
 20
645.56117287020822
 30
0.0
 11
140.00000000000048
 21
760.21806061827954
 31
0.0
  0
LINE
  8
0
  6
CONTINUOUS
 62
               4
  5
3B0
 10
140.00000000000048
 20
760.21806061827954
 30
0.0
 11
142.50000000000048
 21
760.21806061827954
 31
0.0
  0
LINE
  8
0
  6
CONTINUOUS
 62
               4
  5
3B1
 10
140.00000000000037
 20
645.56117287020822
 30
0.0
 11
142.50000000000037
 21
645.56117287020822
 31
0.0
  0
ARC
  8
0
  6
CONTINUOUS
 62
               4
  5
3B2
 10
142.50000000000037
 20
648.06117287020822
 30
0.0
 40
2.5
 50
269.99999999994759
 51
359.99999999993145
  0
ARC
  8
0
  6
CONTINUOUS
 62
               4
  5
3B3
 10
142.50000000000048
 20
757.71806061827954
 30
0.0
 40
2.5
 50
359.99999999993145
 51
449.99999999991297
  0
LINE
  8
0
  6
CONTINUOUS
 62
               4
  5
3B4
 10
128.00000000000037
 20
645.24688594478232
 30
0.0
 11
128.00000000000037
 21
637.3405390261413
 31
0.0
  0
LINE
  8
0
  6
CONTINUOUS
 62
               4
  5
3B5
 10
82.679667302908925
 20
643.41508904378088
 30
0.0
 11
137.00000000000011
 21
645.28961674424363
 31
0.0
  0
LINE
  8
0
  6
CONTINUOUS
 62
               4
  5
3B6
 10
82.676580270047225
 20
762.38663236263722
 30
0.0
 11
137.00000000000023
 21
760.48961674424368
 31
0.0
  0
LINE
  8
0
  6
CONTINUOUS
 62
               4
  5
3B7
 10
-549.52647400136107
 20
-10.176227358249093
 30
0.0
 11
-543.6499999999993
 21
-13.576227358249184
 31
0.0
  0
LINE
  8
0
  6
CONTINUOUS
 62
               4
  5
3B8
 10
-573.21264290752049
 20
-32.576227358249227
 30
0.0
 11
-626.7873570924794
 21
-32.576227358249227
 31
0.0
  0
CIRCLE
  8
0
  6
CONTINUOUS
 62
               4
  5
3B9
 10
-600.0
 20
-60.576227358249227
 30
0.0
 40
48.500000000000007
  0
CIRCLE
  8
0
  6
CONTINUOUS
 62
               4
  5
3BA
 10
-600.0
 20
-60.576227358249227
 30
0.0
 40
38.75
  0
CIRCLE
  8
0
  6
CONTINUOUS
 62
               4
  5
3BB
 10
-600.0
 20
-60.576227358249227
 30
0.0
 40
47.299999999999997
  0
LINE
  8
0
  6
CONTINUOUS
 62
               4
  5
3BC
 10
-631.81980515339455
 20
-92.396032511643782
 30
0.0
 11
-633.44615075012371
 21
-94.022378108372934
 31
0.0
  0
LINE
  8
0
  6
CONTINUOUS
 62
               4
  5
3BD
 10
-568.18019484660533
 20
-92.396032511643782
 30
0.0
 11
-566.55384924987618
 21
-94.022378108372934
 31
0.0
  0
ARC
  8
0
  6
CONTINUOUS
 62
               4
  5
3BE
 10
-600.0
 20
-60.576227358249227
 30
0.0
 40
45.0
 50
224.99999999991346
 51
314.99999999987898
  0
CIRCLE
  8
0
  6
CONTINUOUS
 62
               4
  5
3BF
 10
-600.0
 20
-60.576227358249227
 30
0.0
 40
43.0
  0
LINE
  8
0
  6
CONTINUOUS
 62
               4
  5
3C0
 10
626.78735709247951
 20
-32.576227358249227
 30
0.0
 11
573.2126429075206
 21
-32.576227358249227
 31
0.0
  0
CIRCLE
  8
0
  6
CONTINUOUS
 62
               4
  5
3C1
 10
600.0
 20
-60.576227358249227
 30
0.0
 40
38.75
  0
CIRCLE
  8
0
  6
CONTINUOUS
 62
               4
  5
3C2
 10
600.0
 20
-60.576227358249227
 30
0.0
 40
47.299999999999997
  0
LINE
  8
0
  6
CONTINUOUS
 62
               4
  5
3C3
 10
568.18019484660545
 20
-92.396032511643782
 30
0.0
 11
566.55384924987629
 21
-94.022378108372934
 31
0.0
  0
LINE
  8
0
  6
CONTINUOUS
 62
               4
  5
3C4
 10
631.81980515339467
 20
-92.396032511643782
 30
0.0
 11
633.44615075012382
 21
-94.022378108372934
 31
0.0
  0
ARC
  8
0
  6
CONTINUOUS
 62
               4
  5
3C5
 10
600.0
 20
-60.576227358249227
 30
0.0
 40
45.0
 50
224.99999999991346
 51
314.99999999987898
  0
CIRCLE
  8
0
  6
CONTINUOUS
 62
               4
  5
3C6
 10
600.0
 20
-60.576227358249227
 30
0.0
 40
43.0
  0
CIRCLE
  8
0
  6
CONTINUOUS
 62
               4
  5
3C7
 10
600.0
 20
-60.576227358249227
 30
0.0
 40
48.500000000000007
  0
LINE
  8
0
  6
CONTINUOUS
 62
               4
  5
3C8
 10
-674.99999999999977
 20
265.42377264175093
 30
0.0
 11
-525.00000000000023
 21
265.42377264175093
 31
0.0
  0
LINE
  8
0
  6
CONTINUOUS
 62
               4
  5
3C9
 10
-688.5
 20
255.42377264175093
 30
0.0
 11
-688.5
 21
248.42377264175127
 31
0.0
  0
LINE
  8
0
  6
CONTINUOUS
 62
               4
  5
3CA
 10
-688.5
 20
255.42377264175093
 30
0.0
 11
-674.99999999999977
 21
265.42377264175093
 31
0.0
  0
ARC
  8
0
  6
CONTINUOUS
 62
               4
  5
3CB
 10
-676.99999999999955
 20
243.84119694679555
 30
0.0
 40
4.9999999999999991
 50
0.0
 51
66.421821521759767
  0
LINE
  8
0
  6
CONTINUOUS
 62
               4
  5
3CC
 10
-688.5
 20
248.42377264175127
 30
0.0
 11
-511.5
 21
248.42377264175127
 31
0.0
  0
LINE
  8
0
  6
CONTINUOUS
 62
               4
  5
3CD
 10
-619.99999999999977
 20
248.42377264175127
 30
0.0
 11
-619.99999999999977
 21
265.42377264175093
 31
0.0
  0
LINE
  8
0
  6
CONTINUOUS
 62
               4
  5
3CE
 10
-580.00000000000023
 20
265.42377264175093
 30
0.0
 11
-580.00000000000023
 21
248.42377264175127
 31
0.0
  0
LINE
  8
0
  6
CONTINUOUS
 62
               4
  5
3CF
 10
-619.99999999999977
 20
255.42377264175093
 30
0.0
 11
-580.00000000000023
 21
255.42377264175093
 31
0.0
  0
LINE
  8
0
  6
CONTINUOUS
 62
               4
  5
3D0
 10
-672.28416147400389
 20
265.42377264175093
 30
0.0
 11
-672.28416147400389
 21
248.42377264175127
 31
0.0
  0
LINE
  8
0
  6
CONTINUOUS
 62
               4
  5
3D1
 10
-686.2104982006249
 20
255.42377264175093
 30
0.0
 11
-686.2104982006249
 21
248.42377264175127
 31
0.0
  0
LINE
  8
0
  6
CONTINUOUS
 62
               4
  5
3D2
 10
-688.5
 20
255.42377264175093
 30
0.0
 11
-686.2104982006249
 21
255.42377264175093
 31
0.0
  0
LINE
  8
0
  6
CONTINUOUS
 62
               4
  5
3D3
 10
-686.2104982006249
 20
255.42377264175093
 30
0.0
 11
-672.28416147400389
 21
265.42377264175093
 31
0.0
  0
LINE
  8
0
  6
CONTINUOUS
 62
               4
  5
3D4
 10
-511.5
 20
255.42377264175093
 30
0.0
 11
-511.5
 21
248.42377264175127
 31
0.0
  0
LINE
  8
0
  6
CONTINUOUS
 62
               4
  5
3D5
 10
-511.5
 20
255.42377264175093
 30
0.0
 11
-525.00000000000023
 21
265.42377264175093
 31
0.0
  0
ARC
  8
0
  6
CONTINUOUS
 62
               4
  5
3D6
 10
-522.99999999999977
 20
243.84119694679555
 30
0.0
 40
4.9999999999999991
 50
113.57817847813625
 51
179.99999999989603
  0
LINE
  8
0
  6
CONTINUOUS
 62
               4
  5
3D7
 10
-527.71583852599497
 20
265.42377264175093
 30
0.0
 11
-527.71583852599497
 21
248.42377264175127
 31
0.0
  0
LINE
  8
0
  6
CONTINUOUS
 62
               4
  5
3D8
 10
-513.78950179937442
 20
255.42377264175093
 30
0.0
 11
-513.78950179937442
 21
248.42377264175127
 31
0.0
  0
LINE
  8
0
  6
CONTINUOUS
 62
               4
  5
3D9
 10
-511.5
 20
255.42377264175093
 30
0.0
 11
-513.78950179937442
 21
255.42377264175093
 31
0.0
  0
LINE
  8
0
  6
CONTINUOUS
 62
               4
  5
3DA
 10
-513.78950179937442
 20
255.42377264175093
 30
0.0
 11
-527.71583852599497
 21
265.42377264175093
 31
0.0
  0
LINE
  8
0
  6
CONTINUOUS
 62
               4
  5
3DB
 10
-74.999999999999773
 20
265.42377264175093
 30
0.0
 11
74.999999999999773
 21
265.42377264175093
 31
0.0
  0
LINE
  8
0
  6
CONTINUOUS
 62
               4
  5
3DC
 10
-88.5
 20
255.42377264175093
 30
0.0
 11
-88.5
 21
248.42377264175127
 31
0.0
  0
LINE
  8
0
  6
CONTINUOUS
 62
               4
  5
3DD
 10
-88.5
 20
255.42377264175093
 30
0.0
 11
-74.999999999999773
 21
265.42377264175093
 31
0.0
  0
ARC
  8
0
  6
CONTINUOUS
 62
               4
  5
3DE
 10
-76.999999999999545
 20
243.84119694679555
 30
0.0
 40
4.9999999999999991
 50
0.0
 51
66.421821521759924
  0
LINE
  8
0
  6
CONTINUOUS
 62
               4
  5
3DF
 10
-88.5
 20
248.42377264175127
 30
0.0
 11
88.5
 21
248.42377264175127
 31
0.0
  0
LINE
  8
0
  6
CONTINUOUS
 62
               4
  5
3E0
 10
-19.999999999999773
 20
248.42377264175127
 30
0.0
 11
-19.999999999999773
 21
265.42377264175093
 31
0.0
  0
LINE
  8
0
  6
CONTINUOUS
 62
               4
  5
3E1
 10
19.999999999999773
 20
265.42377264175093
 30
0.0
 11
19.999999999999773
 21
248.42377264175127
 31
0.0
  0
LINE
  8
0
  6
CONTINUOUS
 62
               4
  5
3E2
 10
-19.999999999999773
 20
255.42377264175093
 30
0.0
 11
19.999999999999773
 21
255.42377264175093
 31
0.0
  0
LINE
  8
0
  6
CONTINUOUS
 62
               4
  5
3E3
 10
-72.284161474003895
 20
265.42377264175093
 30
0.0
 11
-72.284161474003895
 21
248.42377264175127
 31
0.0
  0
LINE
  8
0
  6
CONTINUOUS
 62
               4
  5
3E4
 10
-86.210498200624897
 20
255.42377264175093
 30
0.0
 11
-86.210498200624897
 21
248.42377264175127
 31
0.0
  0
LINE
  8
0
  6
CONTINUOUS
 62
               4
  5
3E5
 10
-88.5
 20
255.42377264175093
 30
0.0
 11
-86.210498200624897
 21
255.42377264175093
 31
0.0
  0
LINE
  8
0
  6
CONTINUOUS
 62
               4
  5
3E6
 10
-86.210498200624897
 20
255.42377264175093
 30
0.0
 11
-72.284161474003895
 21
265.42377264175093
 31
0.0
  0
LINE
  8
0
  6
CONTINUOUS
 62
               4
  5
3E7
 10
88.5
 20
255.42377264175093
 30
0.0
 11
88.5
 21
248.42377264175127
 31
0.0
  0
LINE
  8
0
  6
CONTINUOUS
 62
               4
  5
3E8
 10
88.5
 20
255.42377264175093
 30
0.0
 11
74.999999999999773
 21
265.42377264175093
 31
0.0
  0
ARC
  8
0
  6
CONTINUOUS
 62
               4
  5
3E9
 10
77.000000000000227
 20
243.84119694679555
 30
0.0
 40
4.9999999999999991
 50
113.57817847813648
 51
179.99999999989603
  0
LINE
  8
0
  6
CONTINUOUS
 62
               4
  5
3EA
 10
72.284161474005032
 20
265.42377264175093
 30
0.0
 11
72.284161474005032
 21
248.42377264175127
 31
0.0
  0
LINE
  8
0
  6
CONTINUOUS
 62
               4
  5
3EB
 10
86.21049820062558
 20
255.42377264175093
 30
0.0
 11
86.21049820062558
 21
248.42377264175127
 31
0.0
  0
LINE
  8
0
  6
CONTINUOUS
 62
               4
  5
3EC
 10
88.5
 20
255.42377264175093
 30
0.0
 11
86.21049820062558
 21
255.42377264175093
 31
0.0
  0
LINE
  8
0
  6
CONTINUOUS
 62
               4
  5
3ED
 10
86.21049820062558
 20
255.42377264175093
 30
0.0
 11
72.284161474005032
 21
265.42377264175093
 31
0.0
  0
LINE
  8
0
  6
CONTINUOUS
 62
               4
  5
3EE
 10
525.00000000000023
 20
265.42377264175093
 30
0.0
 11
674.99999999999977
 21
265.42377264175093
 31
0.0
  0
LINE
  8
0
  6
CONTINUOUS
 62
               4
  5
3EF
 10
511.5
 20
255.42377264175093
 30
0.0
 11
511.5
 21
248.42377264175127
 31
0.0
  0
LINE
  8
0
  6
CONTINUOUS
 62
               4
  5
3F0
 10
511.5
 20
255.42377264175093
 30
0.0
 11
525.00000000000023
 21
265.42377264175093
 31
0.0
  0
ARC
  8
0
  6
CONTINUOUS
 62
               4
  5
3F1
 10
523.00000000000045
 20
243.84119694679555
 30
0.0
 40
4.9999999999999991
 50
0.0
 51
66.421821521759767
  0
LINE
  8
0
  6
CONTINUOUS
 62
               4
  5
3F2
 10
511.5
 20
248.42377264175127
 30
0.0
 11
688.5
 21
248.42377264175127
 31
0.0
  0
LINE
  8
0
  6
CONTINUOUS
 62
               4
  5
3F3
 10
580.00000000000023
 20
248.42377264175127
 30
0.0
 11
580.00000000000023
 21
265.42377264175093
 31
0.0
  0
LINE
  8
0
  6
CONTINUOUS
 62
               4
  5
3F4
 10
619.99999999999977
 20
265.42377264175093
 30
0.0
 11
619.99999999999977
 21
248.42377264175127
 31
0.0
  0
LINE
  8
0
  6
CONTINUOUS
 62
               4
  5
3F5
 10
580.00000000000023
 20
255.42377264175093
 30
0.0
 11
619.99999999999977
 21
255.42377264175093
 31
0.0
  0
LINE
  8
0
  6
CONTINUOUS
 62
               4
  5
3F6
 10
527.71583852599611
 20
265.42377264175093
 30
0.0
 11
527.71583852599611
 21
248.42377264175127
 31
0.0
  0
LINE
  8
0
  6
CONTINUOUS
 62
               4
  5
3F7
 10
513.7895017993751
 20
255.42377264175093
 30
0.0
 11
513.7895017993751
 21
248.42377264175127
 31
0.0
  0
LINE
  8
0
  6
CONTINUOUS
 62
               4
  5
3F8
 10
511.5
 20
255.42377264175093
 30
0.0
 11
513.7895017993751
 21
255.42377264175093
 31
0.0
  0
LINE
  8
0
  6
CONTINUOUS
 62
               4
  5
3F9
 10
513.7895017993751
 20
255.42377264175093
 30
0.0
 11
527.71583852599611
 21
265.42377264175093
 31
0.0
  0
LINE
  8
0
  6
CONTINUOUS
 62
               4
  5
3FA
 10
688.5
 20
255.42377264175093
 30
0.0
 11
688.5
 21
248.42377264175127
 31
0.0
  0
LINE
  8
0
  6
CONTINUOUS
 62
               4
  5
3FB
 10
688.5
 20
255.42377264175093
 30
0.0
 11
674.99999999999977
 21
265.42377264175093
 31
0.0
  0
ARC
  8
0
  6
CONTINUOUS
 62
               4
  5
3FC
 10
677.00000000000023
 20
243.84119694679555
 30
0.0
 40
4.9999999999999991
 50
113.57817847813625
 51
179.99999999989603
  0
LINE
  8
0
  6
CONTINUOUS
 62
               4
  5
3FD
 10
672.28416147400503
 20
265.42377264175093
 30
0.0
 11
672.28416147400503
 21
248.42377264175127
 31
0.0
  0
LINE
  8
0
  6
CONTINUOUS
 62
               4
  5
3FE
 10
686.21049820062558
 20
255.42377264175093
 30
0.0
 11
686.21049820062558
 21
248.42377264175127
 31
0.0
  0
LINE
  8
0
  6
CONTINUOUS
 62
               4
  5
3FF
 10
688.5
 20
255.42377264175093
 30
0.0
 11
686.21049820062558
 21
255.42377264175093
 31
0.0
  0
LINE
  8
0
  6
CONTINUOUS
 62
               4
  5
400
 10
686.21049820062558
 20
255.42377264175093
 30
0.0
 11
672.28416147400503
 21
265.42377264175093
 31
0.0
  0
CIRCLE
  8
0
  6
CONTINUOUS
 62
               4
  5
401
 10
0.0000000000002558
 20
702.88961674424377
 30
0.0
 40
59.0
  0
POINT
  8
0
  6
CONTINUOUS
 62
               4
  5
402
 10
-247.03776905046851
 20
-1155.6175274430898
 30
0.0
  0
POINT
  8
0
  6
CONTINUOUS
 62
               4
  5
403
 10
-537.23776905046827
 20
-1155.6175274430896
 30
0.0
  0
POINT
  8
0
  6
CONTINUOUS
 62
               4
  5
404
 10
-349.58372644623506
 20
-1047.5496433740548
 30
0.0
  0
POINT
  8
0
  6
CONTINUOUS
 62
               4
  5
405
 10
242.83392368588119
 20
-1155.6175274430898
 30
0.0
  0
POINT
  8
0
  6
CONTINUOUS
 62
               4
  5
406
 10
-1.0781087646046643
 20
-1155.6175274430898
 30
0.0
  0
POINT
  8
0
  6
CONTINUOUS
 62
               4
  5
407
 10
165.37790746063837
 20
-1067.661511217847
 30
0.0
  0
LINE
  8
0
  6
CONTINUOUS
 62
               4
  5
408
 10
686.28652321630796
 20
-1547.3968718670303
 30
0.0
 11
681.28652321630796
 21
-1542.3968718670303
 31
0.0
  0
ARC
  8
0
  6
CONTINUOUS
 62
               4
  5
409
 10
663.78652321630796
 20
-1557.9325256198831
 30
0.0
 40
19.999999999999996
 50
0.0
 51
31.78833061703342
  0
LINE
  8
0
  6
CONTINUOUS
 62
               4
  5
40A
 10
680.78652321630841
 20
-1547.3968718670303
 30
0.0
 11
680.78652321630841
 21
-1542.3968718670299
 31
0.0
  0
LINE
  8
0
  6
CONTINUOUS
 62
               4
  5
40B
 10
681.28652321630796
 20
-1542.3968718670303
 30
0.0
 11
680.78652321630841
 21
-1542.3968718670303
 31
0.0
  0
LINE
  8
0
  6
CONTINUOUS
 62
               4
  5
40C
 10
686.03652321630818
 20
-1547.6468718670303
 30
0.0
 11
680.78652321630841
 21
-1542.3968718670303
 31
0.0
  0
LINE
  8
0
  6
CONTINUOUS
 62
               4
  5
40D
 10
686.03652321630818
 20
-1547.6468718670303
 30
0.0
 11
686.28652321630796
 21
-1547.3968718670303
 31
0.0
  0
LINE
  8
0
  6
CONTINUOUS
 62
               4
  5
40E
 10
686.28652321630796
 20
-1547.3968718670303
 30
0.0
 11
686.28652321630796
 21
-1678.0855492170001
 31
0.0
  0
LINE
  8
0
  6
CONTINUOUS
 62
               4
  5
40F
 10
686.03652321630818
 20
-1547.6468718670303
 30
0.0
 11
686.03652321630818
 21
-1677.8001921098646
 31
0.0
  0
LINE
  8
0
  6
CONTINUOUS
 62
               4
  5
410
 10
683.78652321630796
 20
-1557.7795020227659
 30
0.0
 11
683.78652321630796
 21
-1676.9325256198831
 31
0.0
  0
POINT
  8
0
  6
CONTINUOUS
 62
               4
  5
411
 10
653.78652321630818
 20
-1286.8330918712988
 30
0.0
  0
POINT
  8
0
  6
CONTINUOUS
 62
               4
  5
412
 10
464.88652321630803
 20
-1572.4325256198831
 30
0.0
  0
POINT
  8
0
  6
CONTINUOUS
 62
               4
  5
413
 10
464.88652321630815
 20
-1186.9330918712985
 30
0.0
  0
LINE
  8
0
  6
DASHED2
 62
               4
  5
414
 10
600.0
 20
200.42377264175093
 30
0.0
 11
543.0
 21
200.42377264175093
 31
0.0
  0
LINE
  8
0
  6
DASHED2
 62
               4
  5
415
 10
600.0
 20
200.42377264175093
 30
0.0
 11
657.0
 21
200.42377264175093
 31
0.0
  0
LINE
  8
0
  6
DASHED2
 62
               4
  5
416
 10
-600.0
 20
200.42377264175093
 30
0.0
 11
-657.0
 21
200.42377264175093
 31
0.0
  0
LINE
  8
0
  6
DASHED2
 62
               4
  5
417
 10
-600.0
 20
200.42377264175093
 30
0.0
 11
-543.0
 21
200.42377264175093
 31
0.0
  0
LINE
  8
0
  6
DASHED2
 62
               4
  5
418
 10
-0.0000000000000533
 20
200.42377264175093
 30
0.0
 11
-57.000000000000057
 21
200.42377264175093
 31
0.0
  0
LINE
  8
0
  6
DASHED2
 62
               4
  5
419
 10
-0.000000000000032
 20
200.42377264175093
 30
0.0
 11
56.999999999999972
 21
200.42377264175093
 31
0.0
  0
LINE
  8
0
  6
DASHED2
 62
               4
  5
41A
 10
-37.999999999999531
 20
615.88961674424377
 30
0.0
 11
-37.999999999999702
 21
557.88961674424377
 31
0.0
  0
LINE
  8
0
  6
DASHED2
 62
               4
  5
41B
 10
38.000000000000412
 20
615.88961674424377
 30
0.0
 11
38.000000000000867
 21
557.88961674424377
 31
0.0
  0
LINE
  8
0
  6
DASHED2
 62
               4
  5
41C
 10
-86.999999999999531
 20
658.38961674424377
 30
0.0
 11
-144.99999999999957
 21
658.38961674424331
 31
0.0
  0
LINE
  8
0
  6
DASHED2
 62
               4
  5
41D
 10
-86.999999999999531
 20
747.38961674424377
 30
0.0
 11
-86.999999999999531
 21
658.38961674424377
 31
0.0
  0
LINE
  8
0
  6
DASHED2
 62
               4
  5
41E
 10
-86.999999999999531
 20
747.38961674424377
 30
0.0
 11
-144.99999999999957
 21
747.38961674424399
 31
0.0
  0
LINE
  8
0
  6
DASHED2
 62
               4
  5
41F
 10
-37.999999999999531
 20
615.88961674424399
 30
0.0
 11
38.000000000000412
 21
615.88961674424399
 31
0.0
  0
LINE
  8
0
  6
DASHED2
 62
               4
  5
420
 10
-55.0
 20
-599.57622735824884
 30
0.0
 11
55.0
 21
-599.57622735824884
 31
0.0
  0
LINE
  8
0
  6
DASHED2
 62
               4
  5
421
 10
-136.76000000000016
 20
-601.57622735824941
 30
0.0
 11
-136.76000000000016
 21
-593.05009885894231
 31
0.0
  0
LINE
  8
0
  6
DASHED2
 62
               4
  5
422
 10
-130.8710272542657
 20
-593.05009885894231
 30
0.0
 11
-130.8710272542657
 21
-601.57622735824941
 31
0.0
  0
LINE
  8
0
  6
DASHED2
 62
               4
  5
423
 10
-133.81551362713282
 20
-591.9762273582495
 30
0.0
 11
-116.18448637286684
 21
-591.9762273582495
 31
0.0
  0
LINE
  8
0
  6
DASHED2
 62
               4
  5
424
 10
-113.23999999999984
 20
-601.57622735824941
 30
0.0
 11
-113.23999999999984
 21
-593.05009885894231
 31
0.0
  0
LINE
  8
0
  6
DASHED2
 62
               4
  5
425
 10
-119.12897274573453
 20
-601.57622735824941
 30
0.0
 11
-119.12897274573453
 21
-593.05009885894231
 31
0.0
  0
ARC
  8
0
  6
DASHED2
 62
               4
  5
426
 10
-133.81551362713282
 20
-596.54995894236538
 30
0.0
 40
4.5737315841157447
 50
49.925579661603017
 51
130.07442033832811
  0
ARC
  8
0
  6
DASHED2
 62
               4
  5
427
 10
-116.18448637286684
 20
-596.54995894236538
 30
0.0
 40
4.5737315841157686
 50
49.925579661603017
 51
130.07442033832839
  0
ARC
  8
0
  6
DASHED2
 62
               4
  5
428
 10
-124.99999999999994
 20
-608.56208562776999
 30
0.0
 40
16.58585826952007
 50
69.269184858534331
 51
110.73081514139706
  0
LINE
  8
0
  6
DASHED2
 62
               4
  5
429
 10
-136.76000000000153
 20
-603.57622735824987
 30
0.0
 11
-136.76000000000153
 21
-612.10235585755709
 31
0.0
  0
LINE
  8
0
  6
DASHED2
 62
               4
  5
42A
 10
-130.87102725426718
 20
-612.10235585755709
 30
0.0
 11
-130.87102725426718
 21
-603.57622735824987
 31
0.0
  0
LINE
  8
0
  6
DASHED2
 62
               4
  5
42B
 10
-133.81551362713418
 20
-613.17622735824966
 30
0.0
 11
-116.18448637286855
 21
-613.17622735824966
 31
0.0
  0
LINE
  8
0
  6
DASHED2
 62
               4
  5
42C
 10
-113.2400000000012
 20
-603.57622735824987
 30
0.0
 11
-113.2400000000012
 21
-612.10235585755709
 31
0.0
  0
LINE
  8
0
  6
DASHED2
 62
               4
  5
42D
 10
-119.12897274573567
 20
-603.57622735824987
 30
0.0
 11
-119.12897274573567
 21
-612.10235585755709
 31
0.0
  0
ARC
  8
0
  6
DASHED2
 62
               4
  5
42E
 10
-133.81551362713418
 20
-608.60249577413424
 30
0.0
 40
4.5737315841157447
 50
229.92557966153416
 51
310.07442033826044
  0
ARC
  8
0
  6
DASHED2
 62
               4
  5
42F
 10
-116.18448637286855
 20
-608.60249577413424
 30
0.0
 40
4.5737315841157686
 50
229.92557966153441
 51
310.07442033826067
  0
ARC
  8
0
  6
DASHED2
 62
               4
  5
430
 10
-125.00000000000142
 20
-596.59036908872974
 30
0.0
 40
16.58585826952007
 50
249.26918485846539
 51
290.73081514132792
  0
LINE
  8
0
  6
DASHED2
 62
               4
  5
431
 10
-130.99999999999994
 20
-613.17622735824966
 30
0.0
 11
-130.99999999999994
 21
-623.6955936005744
 31
0.0
  0
LINE
  8
0
  6
DASHED2
 62
               4
  5
432
 10
-119.00000000000006
 20
-613.17622735824966
 30
0.0
 11
-119.00000000000006
 21
-623.6955936005744
 31
0.0
  0
LINE
  8
0
  6
DASHED2
 62
               4
  5
433
 10
-129.80000000000013
 20
-624.89559360057467
 30
0.0
 11
-120.2000000000001
 21
-624.89559360057467
 31
0.0
  0
LINE
  8
0
  6
DASHED2
 62
               4
  5
434
 10
-130.99999999999994
 20
-623.6955936005744
 30
0.0
 11
-129.80000000000013
 21
-624.89559360057467
 31
0.0
  0
LINE
  8
0
  6
DASHED2
 62
               4
  5
435
 10
-119.00000000000006
 20
-623.6955936005744
 30
0.0
 11
-120.2000000000001
 21
-624.89559360057467
 31
0.0
  0
LINE
  8
0
  6
DASHED2
 62
               4
  5
436
 10
-136.76000000000016
 20
-601.57622735824941
 30
0.0
 11
-113.23999999999984
 21
-601.57622735824941
 31
0.0
  0
LINE
  8
0
  6
DASHED2
 62
               4
  5
437
 10
-113.2400000000012
 20
-603.57622735824987
 30
0.0
 11
-136.76000000000153
 21
-603.57622735824987
 31
0.0
  0
LINE
  8
0
  6
DASHED2
 62
               4
  5
438
 10
-130.99999999999994
 20
-486.51264788232083
 30
0.0
 11
-130.99999999999994
 21
-591.9762273582495
 31
0.0
  0
LINE
  8
0
  6
DASHED2
 62
               4
  5
439
 10
-119.00000000000006
 20
-486.51264788232083
 30
0.0
 11
-119.00000000000006
 21
-591.9762273582495
 31
0.0
  0
LINE
  8
0
  6
DASHED2
 62
               4
  5
43A
 10
-119.00000000000006
 20
-486.51264788232083
 30
0.0
 11
-130.99999999999994
 21
-486.51264788232083
 31
0.0
  0
LINE
  8
0
  6
DASHED2
 62
               4
  5
43B
 10
-57.500000000002387
 20
-616.57622735825123
 30
0.0
 11
-57.500000000002387
 21
-681.57622735824896
 31
0.0
  0
LINE
  8
0
  6
DASHED2
 62
               4
  5
43C
 10
-57.500000000002387
 20
-616.57622735825123
 30
0.0
 11
-0.0000000000005684
 21
-616.57622735825009
 31
0.0
  0
LINE
  8
0
  6
DASHED2
 62
               4
  5
43D
 10
57.500000000002274
 20
-616.57622735825123
 30
0.0
 11
0.0000000000005684
 21
-616.57622735825009
 31
0.0
  0
LINE
  8
0
  6
DASHED2
 62
               4
  5
43E
 10
57.500000000002274
 20
-616.57622735825123
 30
0.0
 11
57.500000000002274
 21
-681.57622735824896
 31
0.0
  0
LINE
  8
0
  6
DASHED2
 62
               4
  5
43F
 10
136.76000000000016
 20
-601.57622735824941
 30
0.0
 11
136.76000000000016
 21
-593.05009885894231
 31
0.0
  0
LINE
  8
0
  6
DASHED2
 62
               4
  5
440
 10
130.87102725426575
 20
-593.05009885894231
 30
0.0
 11
130.87102725426575
 21
-601.57622735824941
 31
0.0
  0
LINE
  8
0
  6
DASHED2
 62
               4
  5
441
 10
133.81551362713282
 20
-591.9762273582495
 30
0.0
 11
116.1844863728669
 21
-591.9762273582495
 31
0.0
  0
LINE
  8
0
  6
DASHED2
 62
               4
  5
442
 10
113.23999999999984
 20
-601.57622735824941
 30
0.0
 11
113.23999999999984
 21
-593.05009885894231
 31
0.0
  0
LINE
  8
0
  6
DASHED2
 62
               4
  5
443
 10
119.12897274573453
 20
-601.57622735824941
 30
0.0
 11
119.12897274573453
 21
-593.05009885894231
 31
0.0
  0
ARC
  8
0
  6
DASHED2
 62
               4
  5
444
 10
133.81551362713282
 20
-596.54995894236538
 30
0.0
 40
4.5737315841157447
 50
49.925579661636654
 51
130.0744203383627
  0
ARC
  8
0
  6
DASHED2
 62
               4
  5
445
 10
116.1844863728669
 20
-596.54995894236538
 30
0.0
 40
4.5737315841157686
 50
49.925579661636526
 51
130.07442033836281
  0
ARC
  8
0
  6
DASHED2
 62
               4
  5
446
 10
125.0
 20
-608.56208562776999
 30
0.0
 40
16.58585826952007
 50
69.26918485856821
 51
110.7308151414309
  0
LINE
  8
0
  6
DASHED2
 62
               4
  5
447
 10
136.76000000000158
 20
-603.57622735824987
 30
0.0
 11
136.76000000000158
 21
-612.10235585755709
 31
0.0
  0
LINE
  8
0
  6
DASHED2
 62
               4
  5
448
 10
130.87102725426718
 20
-612.10235585755709
 30
0.0
 11
130.87102725426718
 21
-603.57622735824987
 31
0.0
  0
LINE
  8
0
  6
DASHED2
 62
               4
  5
449
 10
133.81551362713424
 20
-613.17622735824966
 30
0.0
 11
116.18448637286861
 21
-613.17622735824966
 31
0.0
  0
LINE
  8
0
  6
DASHED2
 62
               4
  5
44A
 10
113.24000000000126
 20
-603.57622735824987
 30
0.0
 11
113.24000000000126
 21
-612.10235585755709
 31
0.0
  0
LINE
  8
0
  6
DASHED2
 62
               4
  5
44B
 10
119.12897274573567
 20
-603.57622735824987
 30
0.0
 11
119.12897274573567
 21
-612.10235585755709
 31
0.0
  0
ARC
  8
0
  6
DASHED2
 62
               4
  5
44C
 10
133.81551362713424
 20
-608.60249577413424
 30
0.0
 40
4.5737315841157447
 50
229.92557966163557
 51
310.07442033836202
  0
ARC
  8
0
  6
DASHED2
 62
               4
  5
44D
 10
116.18448637286861
 20
-608.60249577413424
 30
0.0
 40
4.5737315841157686
 50
229.92557966163542
 51
310.07442033836094
  0
ARC
  8
0
  6
DASHED2
 62
               4
  5
44E
 10
125.00000000000142
 20
-596.59036908872974
 30
0.0
 40
16.58585826952007
 50
249.26918485856768
 51
290.73081514143018
  0
LINE
  8
0
  6
DASHED2
 62
               4
  5
44F
 10
130.99999999999994
 20
-613.17622735824966
 30
0.0
 11
130.99999999999994
 21
-623.6955936005744
 31
0.0
  0
LINE
  8
0
  6
DASHED2
 62
               4
  5
450
 10
119.00000000000006
 20
-613.17622735824966
 30
0.0
 11
119.00000000000006
 21
-623.6955936005744
 31
0.0
  0
LINE
  8
0
  6
DASHED2
 62
               4
  5
451
 10
129.80000000000018
 20
-624.89559360057467
 30
0.0
 11
120.2000000000001
 21
-624.89559360057467
 31
0.0
  0
LINE
  8
0
  6
DASHED2
 62
               4
  5
452
 10
130.99999999999994
 20
-623.6955936005744
 30
0.0
 11
129.80000000000018
 21
-624.89559360057467
 31
0.0
  0
LINE
  8
0
  6
DASHED2
 62
               4
  5
453
 10
119.00000000000006
 20
-623.6955936005744
 30
0.0
 11
120.2000000000001
 21
-624.89559360057467
 31
0.0
  0
LINE
  8
0
  6
DASHED2
 62
               4
  5
454
 10
136.76000000000016
 20
-601.57622735824941
 30
0.0
 11
113.23999999999984
 21
-601.57622735824941
 31
0.0
  0
LINE
  8
0
  6
DASHED2
 62
               4
  5
455
 10
113.24000000000126
 20
-603.57622735824987
 30
0.0
 11
136.76000000000158
 21
-603.57622735824987
 31
0.0
  0
LINE
  8
0
  6
DASHED2
 62
               4
  5
456
 10
130.99999999999994
 20
-486.51264788232083
 30
0.0
 11
130.99999999999994
 21
-591.9762273582495
 31
0.0
  0
LINE
  8
0
  6
DASHED2
 62
               4
  5
457
 10
119.00000000000006
 20
-486.51264788232083
 30
0.0
 11
119.00000000000006
 21
-591.9762273582495
 31
0.0
  0
LINE
  8
0
  6
DASHED2
 62
               4
  5
458
 10
119.00000000000006
 20
-486.51264788232083
 30
0.0
 11
130.99999999999994
 21
-486.51264788232083
 31
0.0
  0
LINE
  8
0
  6
DASHED2
 62
               4
  5
459
 10
57.000000000000057
 20
-597.57622735824884
 30
0.0
 11
57.000000000000057
 21
-539.57622735824941
 31
0.0
  0
LINE
  8
0
  6
DASHED2
 62
               4
  5
45A
 10
55.0
 20
-599.57622735824884
 30
0.0
 11
57.000000000000057
 21
-597.57622735824884
 31
0.0
  0
LINE
  8
0
  6
DASHED2
 62
               4
  5
45B
 10
-57.0
 20
-597.57622735824884
 30
0.0
 11
-57.0
 21
-539.5762273582493
 31
0.0
  0
LINE
  8
0
  6
DASHED2
 62
               4
  5
45C
 10
-55.0
 20
-599.57622735824884
 30
0.0
 11
-57.0
 21
-597.57622735824884
 31
0.0
  0
LINE
  8
0
  6
DASHED2
 62
               4
  5
45D
 10
-611.7600000000001
 20
-604.57622735824918
 30
0.0
 11
-611.7600000000001
 21
-596.05009885894208
 31
0.0
  0
LINE
  8
0
  6
DASHED2
 62
               4
  5
45E
 10
-605.87102725426564
 20
-596.05009885894208
 30
0.0
 11
-605.87102725426564
 21
-604.57622735824918
 31
0.0
  0
LINE
  8
0
  6
DASHED2
 62
               4
  5
45F
 10
-608.81551362713265
 20
-594.97622735824905
 30
0.0
 11
-591.18448637286667
 21
-594.97622735824905
 31
0.0
  0
LINE
  8
0
  6
DASHED2
 62
               4
  5
460
 10
-588.23999999999967
 20
-604.57622735824918
 30
0.0
 11
-588.23999999999967
 21
-596.05009885894208
 31
0.0
  0
LINE
  8
0
  6
DASHED2
 62
               4
  5
461
 10
-594.12897274573436
 20
-604.57622735824918
 30
0.0
 11
-594.12897274573436
 21
-596.05009885894208
 31
0.0
  0
ARC
  8
0
  6
DASHED2
 62
               4
  5
462
 10
-608.81551362713265
 20
-599.54995894236515
 30
0.0
 40
4.5737315841157447
 50
49.925579661602747
 51
130.07442033832811
  0
ARC
  8
0
  6
DASHED2
 62
               4
  5
463
 10
-591.18448637286667
 20
-599.54995894236515
 30
0.0
 40
4.5737315841157686
 50
49.925579661602747
 51
130.07442033832811
  0
ARC
  8
0
  6
DASHED2
 62
               4
  5
464
 10
-599.99999999999989
 20
-611.56208562776953
 30
0.0
 40
16.58585826952007
 50
69.269184858534246
 51
110.73081514139687
  0
LINE
  8
0
  6
DASHED2
 62
               4
  5
465
 10
-611.76000000000147
 20
-606.57622735824964
 30
0.0
 11
-611.76000000000147
 21
-615.10235585755674
 31
0.0
  0
LINE
  8
0
  6
DASHED2
 62
               4
  5
466
 10
-605.87102725426701
 20
-615.10235585755674
 30
0.0
 11
-605.87102725426701
 21
-606.57622735824964
 31
0.0
  0
LINE
  8
0
  6
DASHED2
 62
               4
  5
467
 10
-608.81551362713401
 20
-616.17622735824932
 30
0.0
 11
-591.18448637286849
 21
-616.17622735824932
 31
0.0
  0
LINE
  8
0
  6
DASHED2
 62
               4
  5
468
 10
-588.24000000000103
 20
-606.57622735824964
 30
0.0
 11
-588.24000000000103
 21
-615.10235585755674
 31
0.0
  0
LINE
  8
0
  6
DASHED2
 62
               4
  5
469
 10
-594.1289727457355
 20
-606.57622735824964
 30
0.0
 11
-594.1289727457355
 21
-615.10235585755674
 31
0.0
  0
ARC
  8
0
  6
DASHED2
 62
               4
  5
46A
 10
-608.81551362713401
 20
-611.6024957741339
 30
0.0
 40
4.5737315841157447
 50
229.92557966153464
 51
310.07442033826101
  0
ARC
  8
0
  6
DASHED2
 62
               4
  5
46B
 10
-591.18448637286849
 20
-611.6024957741339
 30
0.0
 40
4.5737315841157686
 50
229.92557966153464
 51
310.07442033826101
  0
ARC
  8
0
  6
DASHED2
 62
               4
  5
46C
 10
-600.00000000000125
 20
-599.59036908872952
 30
0.0
 40
16.58585826952007
 50
249.26918485846551
 51
290.73081514132798
  0
LINE
  8
0
  6
DASHED2
 62
               4
  5
46D
 10
-605.99999999999989
 20
-616.17622735824932
 30
0.0
 11
-605.99999999999989
 21
-626.69559360057394
 31
0.0
  0
LINE
  8
0
  6
DASHED2
 62
               4
  5
46E
 10
-593.99999999999989
 20
-616.17622735824932
 30
0.0
 11
-593.99999999999989
 21
-626.69559360057394
 31
0.0
  0
LINE
  8
0
  6
DASHED2
 62
               4
  5
46F
 10
-604.80000000000007
 20
-627.89559360057444
 30
0.0
 11
-595.19999999999993
 21
-627.89559360057444
 31
0.0
  0
LINE
  8
0
  6
DASHED2
 62
               4
  5
470
 10
-605.99999999999989
 20
-626.69559360057394
 30
0.0
 11
-604.80000000000007
 21
-627.89559360057444
 31
0.0
  0
LINE
  8
0
  6
DASHED2
 62
               4
  5
471
 10
-593.99999999999989
 20
-626.69559360057394
 30
0.0
 11
-595.19999999999993
 21
-627.89559360057444
 31
0.0
  0
LINE
  8
0
  6
DASHED2
 62
               4
  5
472
 10
-611.7600000000001
 20
-604.57622735824918
 30
0.0
 11
-588.23999999999967
 21
-604.57622735824918
 31
0.0
  0
LINE
  8
0
  6
DASHED2
 62
               4
  5
473
 10
-588.24000000000103
 20
-606.57622735824964
 30
0.0
 11
-611.76000000000147
 21
-606.57622735824964
 31
0.0
  0
LINE
  8
0
  6
DASHED2
 62
               4
  5
474
 10
-605.99999999999989
 20
-489.51264788232049
 30
0.0
 11
-605.99999999999989
 21
-594.97622735824905
 31
0.0
  0
LINE
  8
0
  6
DASHED2
 62
               4
  5
475
 10
-593.99999999999989
 20
-489.51264788232049
 30
0.0
 11
-593.99999999999989
 21
-594.97622735824905
 31
0.0
  0
LINE
  8
0
  6
DASHED2
 62
               4
  5
476
 10
-593.99999999999989
 20
-489.51264788232049
 30
0.0
 11
-605.99999999999989
 21
-489.51264788232049
 31
0.0
  0
LINE
  8
0
  6
DASHED2
 62
               4
  5
477
 10
-656.99999999999943
 20
-539.57622735824896
 30
0.0
 11
-656.99999999999943
 21
-599.57622735824941
 31
0.0
  0
LINE
  8
0
  6
DASHED2
 62
               4
  5
478
 10
-599.99999999999989
 20
-599.57622735824941
 30
0.0
 11
-657.0
 21
-599.57622735824941
 31
0.0
  0
LINE
  8
0
  6
DASHED2
 62
               4
  5
479
 10
-543.00000000000023
 20
-539.57622735824998
 30
0.0
 11
-543.00000000000023
 21
-599.57622735824941
 31
0.0
  0
LINE
  8
0
  6
DASHED2
 62
               4
  5
47A
 10
-599.99999999999989
 20
-599.57622735824941
 30
0.0
 11
-542.99999999999989
 21
-599.57622735824941
 31
0.0
  0
LINE
  8
0
  6
DASHED2
 62
               4
  5
47B
 10
-657.50000000000364
 20
-619.57622735824896
 30
0.0
 11
-657.50000000000364
 21
-684.57622735824805
 31
0.0
  0
LINE
  8
0
  6
DASHED2
 62
               4
  5
47C
 10
-542.49999999999898
 20
-619.57622735824896
 30
0.0
 11
-542.49999999999898
 21
-684.57622735824805
 31
0.0
  0
LINE
  8
0
  6
DASHED2
 62
               4
  5
47D
 10
-657.50000000000364
 20
-619.57622735824896
 30
0.0
 11
-542.49999999999898
 21
-619.57622735824896
 31
0.0
  0
LINE
  8
0
  6
DASHED2
 62
               4
  5
47E
 10
588.2399999999999
 20
-604.57622735824918
 30
0.0
 11
588.2399999999999
 21
-596.05009885894208
 31
0.0
  0
LINE
  8
0
  6
DASHED2
 62
               4
  5
47F
 10
594.12897274573436
 20
-596.05009885894208
 30
0.0
 11
594.12897274573436
 21
-604.57622735824918
 31
0.0
  0
LINE
  8
0
  6
DASHED2
 62
               4
  5
480
 10
591.18448637286735
 20
-594.97622735824905
 30
0.0
 11
608.81551362713333
 21
-594.97622735824905
 31
0.0
  0
LINE
  8
0
  6
DASHED2
 62
               4
  5
481
 10
611.76000000000033
 20
-604.57622735824918
 30
0.0
 11
611.76000000000033
 21
-596.05009885894208
 31
0.0
  0
LINE
  8
0
  6
DASHED2
 62
               4
  5
482
 10
605.87102725426564
 20
-604.57622735824918
 30
0.0
 11
605.87102725426564
 21
-596.05009885894208
 31
0.0
  0
ARC
  8
0
  6
DASHED2
 62
               4
  5
483
 10
591.18448637286735
 20
-599.54995894236515
 30
0.0
 40
4.5737315841157447
 50
49.925579661602747
 51
130.07442033832811
  0
ARC
  8
0
  6
DASHED2
 62
               4
  5
484
 10
608.81551362713333
 20
-599.54995894236515
 30
0.0
 40
4.5737315841157686
 50
49.925579661602747
 51
130.07442033832811
  0
ARC
  8
0
  6
DASHED2
 62
               4
  5
485
 10
600.00000000000011
 20
-611.56208562776953
 30
0.0
 40
16.58585826952007
 50
69.269184858534246
 51
110.73081514139687
  0
LINE
  8
0
  6
DASHED2
 62
               4
  5
486
 10
588.23999999999853
 20
-606.57622735824964
 30
0.0
 11
588.23999999999853
 21
-615.10235585755674
 31
0.0
  0
LINE
  8
0
  6
DASHED2
 62
               4
  5
487
 10
594.12897274573299
 20
-615.10235585755674
 30
0.0
 11
594.12897274573299
 21
-606.57622735824964
 31
0.0
  0
LINE
  8
0
  6
DASHED2
 62
               4
  5
488
 10
591.18448637286599
 20
-616.17622735824932
 30
0.0
 11
608.81551362713151
 21
-616.17622735824932
 31
0.0
  0
LINE
  8
0
  6
DASHED2
 62
               4
  5
489
 10
611.75999999999897
 20
-606.57622735824964
 30
0.0
 11
611.75999999999897
 21
-615.10235585755674
 31
0.0
  0
LINE
  8
0
  6
DASHED2
 62
               4
  5
48A
 10
605.8710272542645
 20
-606.57622735824964
 30
0.0
 11
605.8710272542645
 21
-615.10235585755674
 31
0.0
  0
ARC
  8
0
  6
DASHED2
 62
               4
  5
48B
 10
591.18448637286599
 20
-611.6024957741339
 30
0.0
 40
4.5737315841157447
 50
229.92557966153464
 51
310.07442033826101
  0
ARC
  8
0
  6
DASHED2
 62
               4
  5
48C
 10
608.81551362713151
 20
-611.6024957741339
 30
0.0
 40
4.5737315841157686
 50
229.92557966153464
 51
310.07442033826101
  0
ARC
  8
0
  6
DASHED2
 62
               4
  5
48D
 10
599.99999999999875
 20
-599.59036908872952
 30
0.0
 40
16.58585826952007
 50
249.26918485846551
 51
290.73081514132798
  0
LINE
  8
0
  6
DASHED2
 62
               4
  5
48E
 10
594.00000000000011
 20
-616.17622735824932
 30
0.0
 11
594.00000000000011
 21
-626.69559360057394
 31
0.0
  0
LINE
  8
0
  6
DASHED2
 62
               4
  5
48F
 10
606.00000000000011
 20
-616.17622735824932
 30
0.0
 11
606.00000000000011
 21
-626.69559360057394
 31
0.0
  0
LINE
  8
0
  6
DASHED2
 62
               4
  5
490
 10
595.19999999999993
 20
-627.89559360057444
 30
0.0
 11
604.80000000000007
 21
-627.89559360057444
 31
0.0
  0
LINE
  8
0
  6
DASHED2
 62
               4
  5
491
 10
594.00000000000011
 20
-626.69559360057394
 30
0.0
 11
595.19999999999993
 21
-627.89559360057444
 31
0.0
  0
LINE
  8
0
  6
DASHED2
 62
               4
  5
492
 10
606.00000000000011
 20
-626.69559360057394
 30
0.0
 11
604.80000000000007
 21
-627.89559360057444
 31
0.0
  0
LINE
  8
0
  6
DASHED2
 62
               4
  5
493
 10
588.2399999999999
 20
-604.57622735824918
 30
0.0
 11
611.76000000000033
 21
-604.57622735824918
 31
0.0
  0
LINE
  8
0
  6
DASHED2
 62
               4
  5
494
 10
611.75999999999897
 20
-606.57622735824964
 30
0.0
 11
588.23999999999853
 21
-606.57622735824964
 31
0.0
  0
LINE
  8
0
  6
DASHED2
 62
               4
  5
495
 10
594.00000000000011
 20
-489.51264788232049
 30
0.0
 11
594.00000000000011
 21
-594.97622735824905
 31
0.0
  0
LINE
  8
0
  6
DASHED2
 62
               4
  5
496
 10
606.00000000000011
 20
-489.51264788232049
 30
0.0
 11
606.00000000000011
 21
-594.97622735824905
 31
0.0
  0
LINE
  8
0
  6
DASHED2
 62
               4
  5
497
 10
606.00000000000011
 20
-489.51264788232049
 30
0.0
 11
594.00000000000011
 21
-489.51264788232049
 31
0.0
  0
LINE
  8
0
  6
DASHED2
 62
               4
  5
498
 10
543.00000000000057
 20
-539.57622735824896
 30
0.0
 11
543.00000000000057
 21
-599.57622735824941
 31
0.0
  0
LINE
  8
0
  6
DASHED2
 62
               4
  5
499
 10
600.00000000000011
 20
-599.57622735824941
 30
0.0
 11
543.0
 21
-599.57622735824941
 31
0.0
  0
LINE
  8
0
  6
DASHED2
 62
               4
  5
49A
 10
656.99999999999977
 20
-539.57622735824998
 30
0.0
 11
656.99999999999977
 21
-599.57622735824941
 31
0.0
  0
LINE
  8
0
  6
DASHED2
 62
               4
  5
49B
 10
600.00000000000011
 20
-599.57622735824941
 30
0.0
 11
657.00000000000011
 21
-599.57622735824941
 31
0.0
  0
LINE
  8
0
  6
DASHED2
 62
               4
  5
49C
 10
542.49999999999636
 20
-619.57622735824896
 30
0.0
 11
542.49999999999636
 21
-684.57622735824805
 31
0.0
  0
LINE
  8
0
  6
DASHED2
 62
               4
  5
49D
 10
657.50000000000102
 20
-619.57622735824896
 30
0.0
 11
657.50000000000102
 21
-684.57622735824805
 31
0.0
  0
LINE
  8
0
  6
DASHED2
 62
               4
  5
49E
 10
542.49999999999636
 20
-619.57622735824896
 30
0.0
 11
657.50000000000102
 21
-619.57622735824896
 31
0.0
  0
LINE
  8
0
  6
DASHED2
 62
               4
  5
49F
 10
87.000000000000114
 20
658.38961674424365
 30
0.0
 11
145.00000000000017
 21
658.3896167442432
 31
0.0
  0
LINE
  8
0
  6
DASHED2
 62
               4
  5
4A0
 10
87.000000000000185
 20
747.38961674424365
 30
0.0
 11
145.00000000000023
 21
747.38961674424388
 31
0.0
  0
LINE
  8
0
  6
DASHED2
 62
               4
  5
4A1
 10
87.000000000000185
 20
747.38961674424365
 30
0.0
 11
87.000000000000114
 21
658.38961674424365
 31
0.0
  0
LINE
  8
0
  6
DASHED2
 62
               4
  5
4A2
 10
552.28652321630807
 20
-1515.9325256198831
 30
0.0
 11
666.28652321630796
 21
-1515.9325256198831
 31
0.0
  0
ARC
  8
0
  6
DIVIDE
 62
               4
  5
4A3
 10
-28.499999999999943
 20
-848.50920866241847
 30
0.0
 40
55.0
 50
58.789629707478362
 51
121.21037029248673
  0
ARC
  8
0
  6
DIVIDE
 62
               4
  5
4A4
 10
-28.499999999999943
 20
-754.42945526138112
 30
0.0
 40
55.0
 50
238.78962970744368
 51
301.21037029245184
  0
ARC
  8
0
  6
DIVIDE
 62
               4
  5
4A5
 10
-32.499999999999645
 20
-823.9718293976963
 30
0.0
 40
65.0
 50
59.999999999988269
 51
119.99999999997701
  0
ARC
  8
0
  6
DIVIDE
 62
               4
  5
4A6
 10
28.500000000000114
 20
-754.42945526138112
 30
0.0
 40
55.0
 50
238.78962970744377
 51
301.21037029245201
  0
ARC
  8
0
  6
DIVIDE
 62
               4
  5
4A7
 10
32.50000000000032
 20
-711.38852690571946
 30
0.0
 40
65.0
 50
239.99999999995379
 51
299.99999999994202
  0
LINE
  8
0
  6
DIVIDE
 62
               4
  5
4A8
 10
57.000000000000227
 20
-771.59442362688776
 30
0.0
 11
57.000000000000242
 21
-801.46933196189968
 31
0.0
  0
LINE
  8
0
  6
DIVIDE
 62
               4
  5
4A9
 10
-56.999999999999829
 20
-763.765932676528
 30
0.0
 11
-56.999999999999815
 21
-801.46933196189968
 31
0.0
  0
ARC
  8
0
  6
DIVIDE
 62
               4
  5
4AA
 10
-32.49999999999968
 20
-711.38852690571946
 30
0.0
 40
65.0
 50
239.99999999995339
 51
247.85677929850399
  0
LINE
  8
0
  6
DIVIDE
 62
               4
  5
4AB
 10
65.0
 20
-681.57622735824896
 30
0.0
 11
65.0
 21
-767.68017815170776
 31
0.0
  0
LINE
  8
0
  6
DIVIDE
 62
               4
  5
4AC
 10
-65.0
 20
-681.57622735824896
 30
0.0
 11
-65.0
 21
-767.68017815170776
 31
0.0
  0
ARC
  8
0
  6
DIVIDE
 62
               4
  5
4AD
 10
-628.50000000000114
 20
-851.50920866241779
 30
0.0
 40
55.0
 50
58.789629707478369
 51
121.21037029248674
  0
ARC
  8
0
  6
DIVIDE
 62
               4
  5
4AE
 10
-628.50000000000114
 20
-757.42945526138021
 30
0.0
 40
55.0
 50
238.78962970744368
 51
301.21037029245184
  0
ARC
  8
0
  6
DIVIDE
 62
               4
  5
4AF
 10
-632.50000000000125
 20
-826.97182939769561
 30
0.0
 40
65.0
 50
59.999999999988297
 51
119.99999999997698
  0
ARC
  8
0
  6
DIVIDE
 62
               4
  5
4B0
 10
-571.50000000000114
 20
-757.42945526138044
 30
0.0
 40
55.0
 50
238.78962970744377
 51
301.21037029245201
  0
ARC
  8
0
  6
DIVIDE
 62
               4
  5
4B1
 10
-567.50000000000125
 20
-714.38852690571855
 30
0.0
 40
65.0
 50
239.99999999995379
 51
299.99999999994196
  0
LINE
  8
0
  6
DIVIDE
 62
               4
  5
4B2
 10
-542.99999999999886
 20
-774.59442362688605
 30
0.0
 11
-542.99999999999886
 21
-804.469331961899
 31
0.0
  0
LINE
  8
0
  6
DIVIDE
 62
               4
  5
4B3
 10
-656.99999999999886
 20
-766.76593267652618
 30
0.0
 11
-656.99999999999886
 21
-804.469331961899
 31
0.0
  0
ARC
  8
0
  6
DIVIDE
 62
               4
  5
4B4
 10
-632.50000000000125
 20
-714.38852690571878
 30
0.0
 40
65.0
 50
239.99999999995339
 51
247.85677929850399
  0
LINE
  8
0
  6
DIVIDE
 62
               4
  5
4B5
 10
-535.00000000000125
 20
-684.57622735824805
 30
0.0
 11
-535.00000000000125
 21
-770.68017815170708
 31
0.0
  0
LINE
  8
0
  6
DIVIDE
 62
               4
  5
4B6
 10
-665.00000000000125
 20
-684.57622735824805
 30
0.0
 11
-665.00000000000125
 21
-770.68017815170708
 31
0.0
  0
ARC
  8
0
  6
DIVIDE
 62
               4
  5
4B7
 10
571.49999999999886
 20
-851.50920866241779
 30
0.0
 40
55.0
 50
58.789629707478369
 51
121.21037029248674
  0
ARC
  8
0
  6
DIVIDE
 62
               4
  5
4B8
 10
571.49999999999886
 20
-757.42945526138021
 30
0.0
 40
55.0
 50
238.78962970744368
 51
301.21037029245184
  0
ARC
  8
0
  6
DIVIDE
 62
               4
  5
4B9
 10
567.49999999999875
 20
-826.97182939769561
 30
0.0
 40
65.0
 50
59.999999999988297
 51
119.99999999997698
  0
ARC
  8
0
  6
DIVIDE
 62
               4
  5
4BA
 10
628.49999999999886
 20
-757.42945526138044
 30
0.0
 40
55.0
 50
238.78962970744377
 51
301.21037029245201
  0
ARC
  8
0
  6
DIVIDE
 62
               4
  5
4BB
 10
632.49999999999875
 20
-714.38852690571855
 30
0.0
 40
65.0
 50
239.99999999995379
 51
299.99999999994196
  0
LINE
  8
0
  6
DIVIDE
 62
               4
  5
4BC
 10
542.99999999999898
 20
-766.76593267652709
 30
0.0
 11
542.99999999999898
 21
-804.469331961899
 31
0.0
  0
LINE
  8
0
  6
DIVIDE
 62
               4
  5
4BD
 10
656.99999999999898
 20
-774.59442362688708
 30
0.0
 11
656.99999999999898
 21
-804.469331961899
 31
0.0
  0
ARC
  8
0
  6
DIVIDE
 62
               4
  5
4BE
 10
567.49999999999875
 20
-714.38852690571878
 30
0.0
 40
65.0
 50
239.99999999995339
 51
247.85677929850399
  0
LINE
  8
0
  6
DIVIDE
 62
               4
  5
4BF
 10
664.99999999999875
 20
-684.57622735824805
 30
0.0
 11
664.99999999999875
 21
-770.68017815170708
 31
0.0
  0
LINE
  8
0
  6
DIVIDE
 62
               4
  5
4C0
 10
534.99999999999875
 20
-684.57622735824805
 30
0.0
 11
534.99999999999875
 21
-770.68017815170708
 31
0.0
  0
LINE
  8
0
  6
CONTINUOUS
 62
               3
  5
4C1
 10
519.5
 20
234.92377264175116
 30
0.0
 11
519.5
 21
176.88212774014096
 31
0.0
  0
LINE
  8
0
  6
CONTINUOUS
 62
               3
  5
4C2
 10
680.5
 20
234.92377264175116
 30
0.0
 11
680.5
 21
178.16960299472703
 31
0.0
  0
LINE
  8
0
  6
CONTINUOUS
 62
               3
  5
4C3
 10
698.50000000000045
 20
-10.076227358249184
 30
0.0
 11
698.50000000000045
 21
40.923772641751839
 31
0.0
  0
LINE
  8
0
  6
CONTINUOUS
 62
               3
  5
4C4
 10
688.5
 20
45.923772641751839
 30
0.0
 11
693.50000000000045
 21
45.923772641751839
 31
0.0
  0
LINE
  8
0
  6
CONTINUOUS
 62
               3
  5
4C5
 10
688.49999999999955
 20
-15.076227358249184
 30
0.0
 11
693.50000000000045
 21
-15.076227358249184
 31
0.0
  0
ARC
  8
0
  6
CONTINUOUS
 62
               3
  5
4C6
 10
693.50000000000045
 20
40.923772641751839
 30
0.0
 40
5.0
 50
0.0
 51
89.999999999982862
  0
ARC
  8
0
  6
CONTINUOUS
 62
               3
  5
4C7
 10
693.50000000000045
 20
-10.076227358249184
 30
0.0
 40
5.0
 50
269.99999999994731
 51
359.99999999993042
  0
ARC
  8
0
  6
CONTINUOUS
 62
               3
  5
4C8
 10
688.49999999999955
 20
-20.076227358249184
 30
0.0
 40
5.0
 50
89.999999999982862
 51
179.99999999996521
  0
LINE
  8
0
  6
CONTINUOUS
 62
               3
  5
4C9
 10
680.5
 20
178.16960299472703
 30
0.0
 11
683.5
 21
173.47824497003569
 31
0.0
  0
LINE
  8
0
  6
CONTINUOUS
 62
               3
  5
4CA
 10
519.49999999999989
 20
178.16960299472697
 30
0.0
 11
516.49999999999989
 21
173.47824497003563
 31
0.0
  0
LINE
  8
0
  6
CONTINUOUS
 62
               3
  5
4CB
 10
516.5
 20
173.4782449700358
 30
0.0
 11
516.5
 21
50.923772641751839
 31
0.0
  0
LINE
  8
0
  6
CONTINUOUS
 62
               3
  5
4CC
 10
683.5
 20
173.47824497003569
 30
0.0
 11
683.5
 21
50.923772641751839
 31
0.0
  0
ARC
  8
0
  6
CONTINUOUS
 62
               3
  5
4CD
 10
688.5
 20
50.923772641751867
 30
0.0
 40
5.0
 50
179.99999999996524
 51
269.99999999994731
  0
LINE
  8
0
  6
CONTINUOUS
 62
               3
  5
4CE
 10
501.4999999999996
 20
11.595856395828704
 30
0.0
 11
501.49999999999955
 21
40.923772641751896
 31
0.0
  0
LINE
  8
0
  6
CONTINUOUS
 62
               3
  5
4CF
 10
511.50000000000011
 20
45.923772641751896
 30
0.0
 11
506.49999999999955
 21
45.923772641751896
 31
0.0
  0
ARC
  8
0
  6
CONTINUOUS
 62
               3
  5
4D0
 10
511.50000000000011
 20
50.923772641751896
 30
0.0
 40
5.0
 50
269.99999999994793
 51
359.99999999993048
  0
ARC
  8
0
  6
CONTINUOUS
 62
               3
  5
4D1
 10
506.49999999999955
 20
40.923772641751896
 30
0.0
 40
5.0
 50
89.999999999982862
 51
179.99999999996524
  0
LINE
  8
0
  6
CONTINUOUS
 62
               3
  5
4D2
 10
683.49999999999955
 20
-239.05889233683425
 30
0.0
 11
683.49999999999955
 21
-20.076227358249184
 31
0.0
  0
LINE
  8
0
  6
CONTINUOUS
 62
               3
  5
4D3
 10
516.50000000000068
 20
-239.05889233683425
 30
0.0
 11
516.5
 21
-143.69717593874276
 31
0.0
  0
LINE
  8
0
  6
CONTINUOUS
 62
               3
  5
4D4
 10
-680.5
 20
234.92377264175116
 30
0.0
 11
-680.5
 21
178.16960299472697
 31
0.0
  0
LINE
  8
0
  6
CONTINUOUS
 62
               3
  5
4D5
 10
-519.5
 20
234.92377264175116
 30
0.0
 11
-519.5
 21
178.16960299472703
 31
0.0
  0
LINE
  8
0
  6
CONTINUOUS
 62
               3
  5
4D6
 10
-519.5
 20
178.16960299472703
 30
0.0
 11
-516.5
 21
173.47824497003569
 31
0.0
  0
LINE
  8
0
  6
CONTINUOUS
 62
               3
  5
4D7
 10
-516.5
 20
173.47824497003569
 30
0.0
 11
-516.5
 21
50.923772641751839
 31
0.0
  0
LINE
  8
0
  6
CONTINUOUS
 62
               3
  5
4D8
 10
-683.5
 20
173.4782449700358
 30
0.0
 11
-683.5
 21
50.923772641751839
 31
0.0
  0
LINE
  8
0
  6
CONTINUOUS
 62
               3
  5
4D9
 10
-511.5
 20
45.923772641751839
 30
0.0
 11
-506.49999999999955
 21
45.923772641751839
 31
0.0
  0
LINE
  8
0
  6
CONTINUOUS
 62
               3
  5
4DA
 10
-688.5
 20
45.923772641751839
 30
0.0
 11
-693.50000000000045
 21
45.923772641751839
 31
0.0
  0
LINE
  8
0
  6
CONTINUOUS
 62
               3
  5
4DB
 10
-698.50000000000045
 20
-10.076227358249213
 30
0.0
 11
-698.50000000000045
 21
40.923772641751839
 31
0.0
  0
ARC
  8
0
  6
CONTINUOUS
 62
               3
  5
4DC
 10
-511.5
 20
50.923772641751839
 30
0.0
 40
5.0
 50
179.99999999996524
 51
269.99999999994731
  0
ARC
  8
0
  6
CONTINUOUS
 62
               3
  5
4DD
 10
-693.50000000000045
 20
40.923772641751839
 30
0.0
 40
5.0
 50
89.999999999982862
 51
179.99999999996524
  0
ARC
  8
0
  6
CONTINUOUS
 62
               3
  5
4DE
 10
-688.5
 20
50.923772641751839
 30
0.0
 40
5.0
 50
269.99999999994731
 51
359.99999999993048
  0
LINE
  8
0
  6
CONTINUOUS
 62
               3
  5
4DF
 10
-688.49999999999932
 20
-15.076227358249213
 30
0.0
 11
-693.50000000000045
 21
-15.076227358249213
 31
0.0
  0
ARC
  8
0
  6
CONTINUOUS
 62
               3
  5
4E0
 10
-688.49999999999932
 20
-20.076227358249213
 30
0.0
 40
5.0
 50
0.0000000000000102
 51
89.999999999982862
  0
ARC
  8
0
  6
CONTINUOUS
 62
               3
  5
4E1
 10
-693.50000000000045
 20
-10.076227358249213
 30
0.0
 40
5.0
 50
179.99999999996518
 51
269.99999999994731
  0
LINE
  8
0
  6
CONTINUOUS
 62
               3
  5
4E2
 10
-680.5
 20
178.16960299472697
 30
0.0
 11
-683.5
 21
173.47824497003563
 31
0.0
  0
LINE
  8
0
  6
CONTINUOUS
 62
               3
  5
4E3
 10
-516.50000000000045
 20
-239.0588923368332
 30
0.0
 11
-516.50000000000045
 21
-143.69717593874282
 31
0.0
  0
LINE
  8
0
  6
CONTINUOUS
 62
               3
  5
4E4
 10
-683.49999999999955
 20
-239.0588923368332
 30
0.0
 11
-683.49999999999955
 21
-20.076227358249184
 31
0.0
  0
LINE
  8
0
  6
CONTINUOUS
 62
               3
  5
4E5
 10
-80.499999999999957
 20
234.92377264175116
 30
0.0
 11
-80.499999999999957
 21
176.88212774014096
 31
0.0
  0
LINE
  8
0
  6
CONTINUOUS
 62
               3
  5
4E6
 10
80.499999999999986
 20
234.92377264175116
 30
0.0
 11
80.499999999999986
 21
178.16960299472703
 31
0.0
  0
LINE
  8
0
  6
CONTINUOUS
 62
               3
  5
4E7
 10
-83.500000000000057
 20
173.47824497003575
 30
0.0
 11
-83.500000000000057
 21
50.923772641751725
 31
0.0
  0
LINE
  8
0
  6
CONTINUOUS
 62
               3
  5
4E8
 10
83.499999999999872
 20
50.923772641751725
 30
0.0
 11
83.499999999999872
 21
173.47824497003575
 31
0.0
  0
LINE
  8
0
  6
CONTINUOUS
 62
               3
  5
4E9
 10
80.499999999999957
 20
178.16960299472703
 30
0.0
 11
83.499999999999872
 21
173.47824497003575
 31
0.0
  0
LINE
  8
0
  6
CONTINUOUS
 62
               3
  5
4EA
 10
51.142730799461745
 20
574.88961674424354
 30
0.0
 11
-59.049077718101145
 21
574.88961674424377
 31
0.0
  0
LINE
  8
0
  6
CONTINUOUS
 62
               3
  5
4EB
 10
51.142730799461745
 20
574.88961674424354
 30
0.0
 11
59.049077718102595
 21
574.88961674424377
 31
0.0
  0
LINE
  8
0
  6
CONTINUOUS
 62
               3
  5
4EC
 10
-59.049077718101145
 20
574.88961674424377
 30
0.0
 11
-60.60816954860455
 21
611.78585510638777
 31
0.0
  0
LINE
  8
0
  6
CONTINUOUS
 62
               3
  5
4ED
 10
59.049077718102595
 20
574.88961674424377
 30
0.0
 11
60.608169548605716
 21
611.78585510638777
 31
0.0
  0
LINE
  8
0
  6
CONTINUOUS
 62
               3
  5
4EE
 10
-127.9999999999998
 20
637.34053902614141
 30
0.0
 11
-81.576492803302457
 21
635.37886179218378
 31
0.0
  0
LINE
  8
0
  6
CONTINUOUS
 62
               3
  5
4EF
 10
-127.9999999999998
 20
768.43869446234544
 30
0.0
 11
-81.576492803302529
 21
770.40037169630318
 31
0.0
  0
LINE
  8
0
  6
CONTINUOUS
 62
               3
  5
4F0
 10
-127.9999999999998
 20
644.97903784189714
 30
0.0
 11
-127.9999999999998
 21
768.43869446234544
 31
0.0
  0
LINE
  8
0
  6
CONTINUOUS
 62
               3
  5
4F1
 10
-88.5
 20
45.923772641751867
 30
0.0
 11
-93.500000000000512
 21
45.923772641751867
 31
0.0
  0
LINE
  8
0
  6
CONTINUOUS
 62
               3
  5
4F2
 10
-98.500000000000441
 20
11.595856395828669
 30
0.0
 11
-98.500000000000512
 21
40.923772641751867
 31
0.0
  0
ARC
  8
0
  6
CONTINUOUS
 62
               3
  5
4F3
 10
-93.500000000000512
 20
40.923772641751867
 30
0.0
 40
5.0
 50
89.999999999982535
 51
179.99999999996524
  0
ARC
  8
0
  6
CONTINUOUS
 62
               3
  5
4F4
 10
-88.5
 20
50.923772641751867
 30
0.0
 40
5.0
 50
269.99999999994782
 51
359.99999999993048
  0
LINE
  8
0
  6
CONTINUOUS
 62
               3
  5
4F5
 10
88.499999999999929
 20
45.923772641751867
 30
0.0
 11
93.500000000000441
 21
45.923772641751867
 31
0.0
  0
ARC
  8
0
  6
CONTINUOUS
 62
               3
  5
4F6
 10
88.499999999999929
 20
50.923772641751867
 30
0.0
 40
5.0
 50
179.99999999996524
 51
269.99999999994782
  0
ARC
  8
0
  6
CONTINUOUS
 62
               3
  5
4F7
 10
93.500000000000441
 20
40.923772641751867
 30
0.0
 40
5.0
 50
0.0
 51
89.999999999982535
  0
LINE
  8
0
  6
CONTINUOUS
 62
               3
  5
4F8
 10
-80.500000000000114
 20
178.16960299472697
 30
0.0
 11
-83.500000000000057
 21
173.47824497003575
 31
0.0
  0
LINE
  8
0
  6
CONTINUOUS
 62
               3
  5
4F9
 10
-103.32550251648796
 20
6.5989022607331904
 30
0.0
 11
-128.0000000000002
 21
5.73724982178679
 31
0.0
  0
LINE
  8
0
  6
CONTINUOUS
 62
               3
  5
4FA
 10
-128.0000000000002
 20
6.5989022607331904
 30
0.0
 11
-128.0000000000002
 21
-118.49051428367508
 31
0.0
  0
ARC
  8
0
  6
CONTINUOUS
 62
               3
  5
4FB
 10
-103.50000000000044
 20
11.595856395828669
 30
0.0
 40
5.0
 50
271.99999999994714
 51
359.99999999993037
  0
ARC
  8
0
  6
CONTINUOUS
 62
               3
  5
4FC
 10
-99.303856113757632
 20
-130.39331982498584
 30
0.0
 40
2.5
 50
44.999999999992532
 51
87.999999999983118
  0
LINE
  8
0
  6
CONTINUOUS
 62
               3
  5
4FD
 10
-128.0000000000002
 20
-118.38452341174535
 30
0.0
 11
-128.0000000000002
 21
-126.8897045382853
 31
0.0
  0
LINE
  8
0
  6
CONTINUOUS
 62
               3
  5
4FE
 10
-99.216607372001391
 20
-127.89484275743807
 30
0.0
 11
-128.0000000000002
 21
-126.8897045382853
 31
0.0
  0
LINE
  8
0
  6
CONTINUOUS
 62
               3
  5
4FF
 10
-97.536089160791306
 20
-128.62555287201943
 30
0.0
 11
-84.232233047033702
 21
-141.92940898577638
 31
0.0
  0
ARC
  8
0
  6
CONTINUOUS
 62
               3
  5
500
 10
-86.000000000000028
 20
-143.69717593874279
 30
0.0
 40
2.5
 50
0.0
 51
44.999999999992987
  0
LINE
  8
0
  6
CONTINUOUS
 62
               3
  5
501
 10
-83.499999999999346
 20
-239.05889233683422
 30
0.0
 11
-83.499999999999346
 21
-143.69717593874279
 31
0.0
  0
CIRCLE
  8
0
  6
CONTINUOUS
 62
               3
  5
502
 10
600.0
 20
-60.576227358249341
 30
0.0
 40
66.099999999999994
  0
LINE
  8
0
  6
CONTINUOUS
 62
               3
  5
503
 10
471.99999999999977
 20
-118.49051428367505
 30
0.0
 11
471.99999999999977
 21
5.7372498217868184
 31
0.0
  0
LINE
  8
0
  6
CONTINUOUS
 62
               3
  5
504
 10
471.99999999999977
 20
-118.38452341174532
 30
0.0
 11
471.99999999999977
 21
-126.88970453828527
 31
0.0
  0
LINE
  8
0
  6
CONTINUOUS
 62
               3
  5
505
 10
496.67449748351203
 20
6.5989022607332188
 30
0.0
 11
471.99999999999977
 21
5.7372498217868184
 31
0.0
  0
ARC
  8
0
  6
CONTINUOUS
 62
               3
  5
506
 10
496.49999999999955
 20
11.595856395828697
 30
0.0
 40
5.0
 50
271.99999999994697
 51
359.99999999993037
  0
ARC
  8
0
  6
CONTINUOUS
 62
               3
  5
507
 10
500.69614388624234
 20
-130.39331982498581
 30
0.0
 40
2.5
 50
44.999999999992305
 51
87.999999999983118
  0
LINE
  8
0
  6
CONTINUOUS
 62
               3
  5
508
 10
500.78339262799864
 20
-127.89484275743804
 30
0.0
 11
471.99999999999977
 21
-126.88970453828527
 31
0.0
  0
LINE
  8
0
  6
CONTINUOUS
 62
               3
  5
509
 10
502.46391083920867
 20
-128.6255528720194
 30
0.0
 11
515.76776695296633
 21
-141.92940898577635
 31
0.0
  0
ARC
  8
0
  6
CONTINUOUS
 62
               3
  5
50A
 10
514.0
 20
-143.69717593874276
 30
0.0
 40
2.5
 50
0.0
 51
44.999999999992532
  0
LINE
  8
0
  6
CONTINUOUS
 62
               3
  5
50B
 10
513.14531195079815
 20
-125.57622735824924
 30
0.0
 11
505.26481940744895
 21
-131.42646144025954
 31
0.0
  0
LINE
  8
0
  6
CONTINUOUS
 62
               3
  5
50C
 10
-471.99999999999972
 20
-118.38452341174538
 30
0.0
 11
-471.99999999999972
 21
-126.88970453828533
 31
0.0
  0
ARC
  8
0
  6
CONTINUOUS
 62
               3
  5
50D
 10
-500.69614388624234
 20
-130.39331982498589
 30
0.0
 40
2.5
 50
91.999999999982577
 51
134.99999999997252
  0
LINE
  8
0
  6
CONTINUOUS
 62
               3
  5
50E
 10
-500.78339262799864
 20
-127.89484275743811
 30
0.0
 11
-471.99999999999972
 21
-126.88970453828533
 31
0.0
  0
LINE
  8
0
  6
CONTINUOUS
 62
               3
  5
50F
 10
-502.46391083920867
 20
-128.62555287201945
 30
0.0
 11
-515.76776695296633
 21
-141.92940898577643
 31
0.0
  0
ARC
  8
0
  6
CONTINUOUS
 62
               3
  5
510
 10
-514.0
 20
-143.69717593874282
 30
0.0
 40
2.5
 50
134.99999999997252
 51
179.99999999996507
  0
LINE
  8
0
  6
CONTINUOUS
 62
               3
  5
511
 10
-513.14531195079815
 20
-125.57622735824931
 30
0.0
 11
-505.26481940744895
 21
-131.42646144025963
 31
0.0
  0
LINE
  8
0
  6
CONTINUOUS
 62
               3
  5
512
 10
-471.99999999999972
 20
-118.38452341174538
 30
0.0
 11
-471.99999999999972
 21
5.7372498217867545
 31
0.0
  0
LINE
  8
0
  6
CONTINUOUS
 62
               3
  5
513
 10
-496.67449748351203
 20
6.5989022607331549
 30
0.0
 11
-471.99999999999972
 21
5.7372498217867545
 31
0.0
  0
LINE
  8
0
  6
CONTINUOUS
 62
               3
  5
514
 10
-501.49999999999955
 20
11.59585639582864
 30
0.0
 11
-501.49999999999955
 21
40.923772641751825
 31
0.0
  0
ARC
  8
0
  6
CONTINUOUS
 62
               3
  5
515
 10
-506.49999999999955
 20
40.923772641751825
 30
0.0
 40
5.0
 50
0.0
 51
89.999999999982862
  0
ARC
  8
0
  6
CONTINUOUS
 62
               3
  5
516
 10
-496.49999999999955
 20
11.595856395828633
 30
0.0
 40
5.0
 50
179.99999999996524
 51
267.99999999994884
  0
CIRCLE
  8
0
  6
CONTINUOUS
 62
               3
  5
517
 10
-600.0
 20
-60.576227358249568
 30
0.0
 40
66.099999999999994
  0
LINE
  8
0
  6
CONTINUOUS
 62
               3
  5
518
 10
-144.99999999999994
 20
-601.57622735825009
 30
0.0
 11
-144.99999999999994
 21
-602.57622735825009
 31
0.0
  0
LINE
  8
0
  6
CONTINUOUS
 62
               3
  5
519
 10
-144.99999999999994
 20
-603.57622735825009
 30
0.0
 11
-144.99999999999994
 21
-602.57622735825009
 31
0.0
  0
LINE
  8
0
  6
CONTINUOUS
 62
               3
  5
51A
 10
-94.749999999999943
 20
-600.07622735824953
 30
0.0
 11
-94.749999999999943
 21
-601.57622735824964
 31
0.0
  0
LINE
  8
0
  6
CONTINUOUS
 62
               3
  5
51B
 10
-94.749999999999943
 20
-603.57622735824975
 30
0.0
 11
-94.749999999999943
 21
-605.07622735824987
 31
0.0
  0
ARC
  8
0
  6
CONTINUOUS
 62
               3
  5
51C
 10
-75.999999999999943
 20
-543.57622735824953
 30
0.0
 40
4.0
 50
89.999999999964984
 51
179.99999999993119
  0
ARC
  8
0
  6
CONTINUOUS
 62
               3
  5
51D
 10
-78.999999999999886
 20
-540.57622735824964
 30
0.0
 40
1.0000000000000004
 50
89.999999999963975
 51
179.99999999992795
  0
ARC
  8
0
  6
CONTINUOUS
 62
               3
  5
51E
 10
-78.999999999999886
 20
-540.57622735824964
 30
0.0
 40
1.9999999999999996
 50
89.999999999965596
 51
179.99999999993119
  0
LINE
  8
0
  6
CONTINUOUS
 62
               3
  5
51F
 10
-80.999999999999943
 20
-540.57622735824964
 30
0.0
 11
-80.999999999999943
 21
-600.57622735824964
 31
0.0
  0
LINE
  8
0
  6
CONTINUOUS
 62
               3
  5
520
 10
-80.000000000000114
 20
-540.57622735824964
 30
0.0
 11
-80.000000000000114
 21
-600.57622735824964
 31
0.0
  0
ARC
  8
0
  6
CONTINUOUS
 62
               3
  5
521
 10
-81.999999999999886
 20
-600.57622735824964
 30
0.0
 40
1.9999999999999996
 50
269.99999999989598
 51
359.99999999986238
  0
ARC
  8
0
  6
CONTINUOUS
 62
               3
  5
522
 10
-81.999999999999886
 20
-600.57622735824964
 30
0.0
 40
1.0000000000000004
 50
269.99999999989598
 51
359.99999999986238
  0
LINE
  8
0
  6
CONTINUOUS
 62
               3
  5
523
 10
-81.999999999999886
 20
-602.57622735824953
 30
0.0
 11
-144.99999999999994
 21
-602.57622735825009
 31
0.0
  0
LINE
  8
0
  6
CONTINUOUS
 62
               3
  5
524
 10
-81.999999999999886
 20
-601.57622735824964
 30
0.0
 11
-144.99999999999994
 21
-601.57622735825009
 31
0.0
  0
LINE
  8
0
  6
CONTINUOUS
 62
               3
  5
525
 10
-65.000000000000114
 20
-538.57622735824953
 30
0.0
 11
-78.999999999999886
 21
-538.57622735824953
 31
0.0
  0
LINE
  8
0
  6
CONTINUOUS
 62
               3
  5
526
 10
-65.000000000000114
 20
-538.57622735824953
 30
0.0
 11
-65.000000000000114
 21
-539.57622735824941
 31
0.0
  0
ARC
  8
0
  6
CONTINUOUS
 62
               3
  5
527
 10
-78.99999999999892
 20
-666.07622735824941
 30
0.0
 40
1.0000000000000004
 50
179.99999999993446
 51
269.99999999989598
  0
ARC
  8
0
  6
CONTINUOUS
 62
               3
  5
528
 10
-78.99999999999892
 20
-666.07622735824941
 30
0.0
 40
1.9999999999999996
 50
179.99999999993119
 51
269.99999999989723
  0
ARC
  8
0
  6
CONTINUOUS
 62
               3
  5
529
 10
-75.999999999999091
 20
-663.07622735824964
 30
0.0
 40
4.0
 50
179.99999999993119
 51
269.9999999998974
  0
LINE
  8
0
  6
CONTINUOUS
 62
               3
  5
52A
 10
-80.999999999999091
 20
-666.07622735824941
 30
0.0
 11
-80.999999999999943
 21
-604.57622735824964
 31
0.0
  0
LINE
  8
0
  6
CONTINUOUS
 62
               3
  5
52B
 10
-79.999999999998977
 20
-666.07622735824941
 30
0.0
 11
-80.0
 21
-604.57622735824964
 31
0.0
  0
ARC
  8
0
  6
CONTINUOUS
 62
               3
  5
52C
 10
-81.999999999999886
 20
-604.57622735824964
 30
0.0
 40
1.9999999999999996
 50
0.0
 51
89.999999999965596
  0
ARC
  8
0
  6
CONTINUOUS
 62
               3
  5
52D
 10
-81.999999999999886
 20
-604.57622735824964
 30
0.0
 40
1.0000000000000004
 50
0.0
 51
89.99999999996723
  0
LINE
  8
0
  6
CONTINUOUS
 62
               3
  5
52E
 10
-81.999999999999886
 20
-603.57622735824953
 30
0.0
 11
-144.99999999999994
 21
-603.57622735825009
 31
0.0
  0
LINE
  8
0
  6
CONTINUOUS
 62
               3
  5
52F
 10
-77.000000000000171
 20
-562.57622735824953
 30
0.0
 11
-77.000000000000171
 21
-644.07622735824964
 31
0.0
  0
LINE
  8
0
  6
CONTINUOUS
 62
               3
  5
530
 10
-87.249999999999943
 20
-600.07622735824953
 30
0.0
 11
-94.749999999999943
 21
-600.07622735824953
 31
0.0
  0
LINE
  8
0
  6
CONTINUOUS
 62
               3
  5
531
 10
-87.249999999999943
 20
-605.07622735824953
 30
0.0
 11
-94.749999999999943
 21
-605.07622735824987
 31
0.0
  0
LINE
  8
0
  6
CONTINUOUS
 62
               3
  5
532
 10
-87.249999999999943
 20
-600.07622735824953
 30
0.0
 11
-87.249999999999943
 21
-601.57622735824964
 31
0.0
  0
LINE
  8
0
  6
CONTINUOUS
 62
               3
  5
533
 10
-87.249999999999943
 20
-603.57622735824953
 30
0.0
 11
-87.249999999999943
 21
-605.07622735824953
 31
0.0
  0
LINE
  8
0
  6
CONTINUOUS
 62
               3
  5
534
 10
-62.000000000000171
 20
-681.57622735824896
 30
0.0
 11
-62.000000000000171
 21
-667.07622735824964
 31
0.0
  0
LINE
  8
0
  6
CONTINUOUS
 62
               3
  5
535
 10
-64.999999999998977
 20
-668.07622735824941
 30
0.0
 11
-78.99999999999892
 21
-668.07622735824964
 31
0.0
  0
LINE
  8
0
  6
CONTINUOUS
 62
               3
  5
536
 10
-64.999999999998977
 20
-668.07622735824941
 30
0.0
 11
-64.999999999998977
 21
-667.07622735824964
 31
0.0
  0
LINE
  8
0
  6
CONTINUOUS
 62
               3
  5
537
 10
-65.0
 20
-681.57622735824896
 30
0.0
 11
65.0
 21
-681.57622735824896
 31
0.0
  0
LINE
  8
0
  6
CONTINUOUS
 62
               3
  5
538
 10
0.0
 20
-539.57622735824884
 30
0.0
 11
-78.999999999999886
 21
-539.57622735824953
 31
0.0
  0
LINE
  8
0
  6
CONTINUOUS
 62
               3
  5
539
 10
0.0
 20
-667.0762273582485
 30
0.0
 11
-78.99999999999892
 21
-667.07622735824964
 31
0.0
  0
LINE
  8
0
  6
CONTINUOUS
 62
               3
  5
53A
 10
0.0
 20
-644.07622735824896
 30
0.0
 11
-79.999999999999147
 21
-644.07622735824964
 31
0.0
  0
LINE
  8
0
  6
CONTINUOUS
 62
               3
  5
53B
 10
-80.000000000000114
 20
-562.57622735824953
 30
0.0
 11
0.0
 21
-562.57622735824953
 31
0.0
  0
ARC
  8
0
  6
CONTINUOUS
 62
               3
  5
53C
 10
75.999999999999829
 20
-543.57622735824953
 30
0.0
 40
4.0
 50
0.0000000000341973
 51
90.000000000000199
  0
ARC
  8
0
  6
CONTINUOUS
 62
               3
  5
53D
 10
78.999999999999773
 20
-540.57622735824964
 30
0.0
 40
1.0000000000000004
 50
0.0000000000325689
 51
90.000000000001023
  0
ARC
  8
0
  6
CONTINUOUS
 62
               3
  5
53E
 10
78.999999999999773
 20
-540.57622735824964
 30
0.0
 40
1.9999999999999996
 50
0.0000000000358258
 51
89.999999999999389
  0
LINE
  8
0
  6
CONTINUOUS
 62
               3
  5
53F
 10
80.999999999999829
 20
-540.57622735824964
 30
0.0
 11
80.999999999999829
 21
-600.57622735824964
 31
0.0
  0
LINE
  8
0
  6
CONTINUOUS
 62
               3
  5
540
 10
80.0
 20
-540.57622735824964
 30
0.0
 11
80.0
 21
-600.57622735824964
 31
0.0
  0
ARC
  8
0
  6
CONTINUOUS
 62
               3
  5
541
 10
81.999999999999886
 20
-600.57622735824964
 30
0.0
 40
1.9999999999999996
 50
180.00000000003541
 51
269.99999999999983
  0
ARC
  8
0
  6
CONTINUOUS
 62
               3
  5
542
 10
81.999999999999886
 20
-600.57622735824964
 30
0.0
 40
1.0000000000000004
 50
180.00000000003217
 51
269.99999999999983
  0
LINE
  8
0
  6
CONTINUOUS
 62
               3
  5
543
 10
81.999999999999886
 20
-602.57622735824953
 30
0.0
 11
145.0
 21
-602.57622735825009
 31
0.0
  0
LINE
  8
0
  6
CONTINUOUS
 62
               3
  5
544
 10
81.999999999999886
 20
-601.57622735824964
 30
0.0
 11
145.0
 21
-601.57622735825009
 31
0.0
  0
LINE
  8
0
  6
CONTINUOUS
 62
               3
  5
545
 10
65.0
 20
-538.57622735824953
 30
0.0
 11
78.999999999999773
 21
-538.57622735824953
 31
0.0
  0
LINE
  8
0
  6
CONTINUOUS
 62
               3
  5
546
 10
0.0
 20
-539.57622735824884
 30
0.0
 11
78.999999999999773
 21
-539.57622735824953
 31
0.0
  0
LINE
  8
0
  6
CONTINUOUS
 62
               3
  5
547
 10
65.0
 20
-538.57622735824953
 30
0.0
 11
65.0
 21
-539.57622735824941
 31
0.0
  0
LINE
  8
0
  6
CONTINUOUS
 62
               3
  5
548
 10
64.999999999998863
 20
-668.07622735824941
 30
0.0
 11
78.99999999999892
 21
-668.07622735824964
 31
0.0
  0
ARC
  8
0
  6
CONTINUOUS
 62
               3
  5
549
 10
78.99999999999892
 20
-666.07622735824941
 30
0.0
 40
1.0000000000000004
 50
269.99999999999983
 51
359.99999999996663
  0
ARC
  8
0
  6
CONTINUOUS
 62
               3
  5
54A
 10
78.99999999999892
 20
-666.07622735824941
 30
0.0
 40
1.9999999999999996
 50
269.99999999999818
 51
359.99999999996339
  0
ARC
  8
0
  6
CONTINUOUS
 62
               3
  5
54B
 10
75.999999999998977
 20
-663.07622735824964
 30
0.0
 40
4.0
 50
269.99999999999818
 51
359.99999999996339
  0
LINE
  8
0
  6
CONTINUOUS
 62
               3
  5
54C
 10
64.999999999998863
 20
-668.07622735824941
 30
0.0
 11
64.999999999998863
 21
-667.07622735824964
 31
0.0
  0
LINE
  8
0
  6
CONTINUOUS
 62
               3
  5
54D
 10
80.999999999998806
 20
-666.07622735824941
 30
0.0
 11
80.999999999999829
 21
-604.57622735824964
 31
0.0
  0
LINE
  8
0
  6
CONTINUOUS
 62
               3
  5
54E
 10
79.999999999998863
 20
-666.07622735824941
 30
0.0
 11
79.999999999999886
 21
-604.57622735824964
 31
0.0
  0
LINE
  8
0
  6
CONTINUOUS
 62
               3
  5
54F
 10
0.0
 20
-667.0762273582485
 30
0.0
 11
78.99999999999892
 21
-667.07622735824964
 31
0.0
  0
LINE
  8
0
  6
CONTINUOUS
 62
               3
  5
550
 10
0.0
 20
-644.07622735824896
 30
0.0
 11
79.999999999999147
 21
-644.07622735824964
 31
0.0
  0
ARC
  8
0
  6
CONTINUOUS
 62
               3
  5
551
 10
81.999999999999886
 20
-604.57622735824964
 30
0.0
 40
1.9999999999999996
 50
89.999999999999389
 51
179.99999999996376
  0
ARC
  8
0
  6
CONTINUOUS
 62
               3
  5
552
 10
81.999999999999886
 20
-604.57622735824964
 30
0.0
 40
1.0000000000000004
 50
89.999999999997769
 51
179.99999999996703
  0
LINE
  8
0
  6
CONTINUOUS
 62
               3
  5
553
 10
81.999999999999886
 20
-603.57622735824953
 30
0.0
 11
145.0
 21
-603.57622735825009
 31
0.0
  0
LINE
  8
0
  6
CONTINUOUS
 62
               3
  5
554
 10
80.0
 20
-562.57622735824953
 30
0.0
 11
0.0
 21
-562.57622735824953
 31
0.0
  0
LINE
  8
0
  6
CONTINUOUS
 62
               3
  5
555
 10
76.999999999999886
 20
-562.57622735824953
 30
0.0
 11
76.999999999999886
 21
-644.07622735824964
 31
0.0
  0
LINE
  8
0
  6
CONTINUOUS
 62
               3
  5
556
 10
145.0
 20
-601.57622735825009
 30
0.0
 11
145.0
 21
-602.57622735825009
 31
0.0
  0
LINE
  8
0
  6
CONTINUOUS
 62
               3
  5
557
 10
145.0
 20
-603.57622735825009
 30
0.0
 11
145.0
 21
-602.57622735825009
 31
0.0
  0
LINE
  8
0
  6
CONTINUOUS
 62
               3
  5
558
 10
87.249999999999829
 20
-600.07622735824953
 30
0.0
 11
94.749999999999829
 21
-600.07622735824953
 31
0.0
  0
LINE
  8
0
  6
CONTINUOUS
 62
               3
  5
559
 10
87.249999999999829
 20
-605.07622735824953
 30
0.0
 11
94.749999999999829
 21
-605.07622735824987
 31
0.0
  0
LINE
  8
0
  6
CONTINUOUS
 62
               3
  5
55A
 10
87.249999999999829
 20
-600.07622735824953
 30
0.0
 11
87.249999999999829
 21
-601.57622735824964
 31
0.0
  0
LINE
  8
0
  6
CONTINUOUS
 62
               3
  5
55B
 10
87.249999999999829
 20
-603.57622735824953
 30
0.0
 11
87.249999999999829
 21
-605.07622735824953
 31
0.0
  0
LINE
  8
0
  6
CONTINUOUS
 62
               3
  5
55C
 10
94.749999999999829
 20
-600.07622735824953
 30
0.0
 11
94.749999999999829
 21
-601.57622735824964
 31
0.0
  0
LINE
  8
0
  6
CONTINUOUS
 62
               3
  5
55D
 10
94.749999999999829
 20
-603.57622735824975
 30
0.0
 11
94.749999999999829
 21
-605.07622735824987
 31
0.0
  0
LINE
  8
0
  6
CONTINUOUS
 62
               3
  5
55E
 10
61.999999999999886
 20
-681.57622735824896
 30
0.0
 11
61.999999999999886
 21
-667.07622735824964
 31
0.0
  0
LINE
  8
0
  6
CONTINUOUS
 62
               3
  5
55F
 10
-66.500000000000028
 20
-388.2659774036249
 30
0.0
 11
-62.999999999999915
 21
-487.78331242503702
 31
0.0
  0
LINE
  8
0
  6
CONTINUOUS
 62
               3
  5
560
 10
66.500000000000085
 20
-388.2659774036249
 30
0.0
 11
63.000000000000142
 21
-487.78331242503702
 31
0.0
  0
LINE
  8
0
  6
CONTINUOUS
 62
               3
  5
561
 10
-83.499999999999432
 20
-239.05889233683419
 30
0.0
 11
-66.500000000000028
 21
-388.2659774036249
 31
0.0
  0
LINE
  8
0
  6
CONTINUOUS
 62
               3
  5
562
 10
83.499999999999488
 20
-239.05889233683453
 30
0.0
 11
66.500000000000085
 21
-388.2659774036249
 31
0.0
  0
LINE
  8
0
  6
CONTINUOUS
 62
               3
  5
563
 10
-666.5
 20
-388.2659774036249
 30
0.0
 11
-662.99999999999989
 21
-487.78331242503702
 31
0.0
  0
LINE
  8
0
  6
CONTINUOUS
 62
               3
  5
564
 10
-533.49999999999989
 20
-388.2659774036249
 30
0.0
 11
-536.99999999999989
 21
-487.78331242503702
 31
0.0
  0
LINE
  8
0
  6
CONTINUOUS
 62
               3
  5
565
 10
-683.49999999999943
 20
-239.05889233683419
 30
0.0
 11
-666.5
 21
-388.2659774036249
 31
0.0
  0
LINE
  8
0
  6
CONTINUOUS
 62
               3
  5
566
 10
-516.50000000000057
 20
-239.05889233683453
 30
0.0
 11
-533.49999999999989
 21
-388.2659774036249
 31
0.0
  0
LINE
  8
0
  6
CONTINUOUS
 62
               3
  5
567
 10
-662.0
 20
-684.57622735824805
 30
0.0
 11
-662.0
 21
-669.57622735824896
 31
0.0
  0
ARC
  8
0
  6
CONTINUOUS
 62
               3
  5
568
 10
-675.9999999999992
 20
-543.57622735824998
 30
0.0
 40
4.0
 50
89.999999999965596
 51
179.99999999993119
  0
LINE
  8
0
  6
CONTINUOUS
 62
               3
  5
569
 10
-679.9999999999992
 20
-543.57622735824759
 30
0.0
 11
-679.99999999999943
 21
-562.57622735824998
 31
0.0
  0
LINE
  8
0
  6
CONTINUOUS
 62
               3
  5
56A
 10
-615.9999999999992
 20
-539.57622735824941
 30
0.0
 11
-675.99999999999795
 21
-539.57622735824998
 31
0.0
  0
LINE
  8
0
  6
CONTINUOUS
 62
               3
  5
56B
 10
-615.9999999999992
 20
-670.57622735824805
 30
0.0
 11
-583.99999999999875
 21
-670.57622735824759
 31
0.0
  0
ARC
  8
0
  6
CONTINUOUS
 62
               3
  5
56C
 10
-675.99999999999898
 20
-665.57622735824896
 30
0.0
 40
4.0
 50
179.99999999993119
 51
269.99999999989683
  0
LINE
  8
0
  6
CONTINUOUS
 62
               3
  5
56D
 10
-679.99999999999898
 20
-665.57622735824896
 30
0.0
 11
-679.99999999999886
 21
-647.07622735824873
 31
0.0
  0
LINE
  8
0
  6
CONTINUOUS
 62
               3
  5
56E
 10
-615.9999999999992
 20
-669.57622735824827
 30
0.0
 11
-676.00000000000239
 21
-669.57622735824896
 31
0.0
  0
LINE
  8
0
  6
CONTINUOUS
 62
               3
  5
56F
 10
-615.9999999999992
 20
-647.07622735824827
 30
0.0
 11
-679.99999999999898
 21
-647.07622735824873
 31
0.0
  0
LINE
  8
0
  6
CONTINUOUS
 62
               3
  5
570
 10
-679.99999999999943
 20
-562.57622735824998
 30
0.0
 11
-615.9999999999992
 21
-562.57622735824998
 31
0.0
  0
LINE
  8
0
  6
CONTINUOUS
 62
               3
  5
571
 10
-676.99999999999943
 20
-562.57622735824998
 30
0.0
 11
-677.0
 21
-647.07622735824873
 31
0.0
  0
LINE
  8
0
  6
CONTINUOUS
 62
               3
  5
572
 10
-583.9999999999992
 20
-539.57622735824941
 30
0.0
 11
-524.00000000000171
 21
-539.57622735824998
 31
0.0
  0
LINE
  8
0
  6
CONTINUOUS
 62
               3
  5
573
 10
-583.99999999999875
 20
-669.57622735824827
 30
0.0
 11
-524.0000000000008
 21
-669.57622735824896
 31
0.0
  0
LINE
  8
0
  6
CONTINUOUS
 62
               3
  5
574
 10
-583.99999999999875
 20
-647.07622735824827
 30
0.0
 11
-520.00000000000068
 21
-647.07622735824873
 31
0.0
  0
LINE
  8
0
  6
CONTINUOUS
 62
               3
  5
575
 10
-519.9999999999992
 20
-562.57622735824998
 30
0.0
 11
-583.9999999999992
 21
-562.57622735824998
 31
0.0
  0
LINE
  8
0
  6
CONTINUOUS
 62
               3
  5
576
 10
-537.99999999999989
 20
-684.57622735824805
 30
0.0
 11
-537.99999999999989
 21
-669.57622735824896
 31
0.0
  0
LINE
  8
0
  6
CONTINUOUS
 62
               3
  5
577
 10
-615.9999999999992
 20
-538.57622735824998
 30
0.0
 11
-615.9999999999992
 21
-670.57622735824805
 31
0.0
  0
LINE
  8
0
  6
CONTINUOUS
 62
               3
  5
578
 10
-583.99999999999875
 20
-670.57622735824759
 30
0.0
 11
-583.9999999999992
 21
-538.57622735824998
 31
0.0
  0
LINE
  8
0
  6
CONTINUOUS
 62
               3
  5
579
 10
-615.99999999999989
 20
-538.57622735824998
 30
0.0
 11
-583.99999999999989
 21
-538.57622735824998
 31
0.0
  0
LINE
  8
0
  6
CONTINUOUS
 62
               3
  5
57A
 10
-615.9999999999992
 20
-605.57622735824873
 30
0.0
 11
-583.99999999999875
 21
-605.57622735824873
 31
0.0
  0
LINE
  8
0
  6
CONTINUOUS
 62
               3
  5
57B
 10
-615.9999999999992
 20
-604.57622735824896
 30
0.0
 11
-583.99999999999875
 21
-604.57622735824896
 31
0.0
  0
LINE
  8
0
  6
CONTINUOUS
 62
               3
  5
57C
 10
-615.9999999999992
 20
-606.57622735824896
 30
0.0
 11
-583.99999999999875
 21
-606.57622735824896
 31
0.0
  0
ARC
  8
0
  6
CONTINUOUS
 62
               3
  5
57D
 10
-524.00000000000045
 20
-543.57622735824998
 30
0.0
 40
4.0
 50
0.0000000000341973
 51
89.999999999999801
  0
LINE
  8
0
  6
CONTINUOUS
 62
               3
  5
57E
 10
-520.00000000000045
 20
-543.57622735824759
 30
0.0
 11
-520.00000000000023
 21
-562.57622735824998
 31
0.0
  0
ARC
  8
0
  6
CONTINUOUS
 62
               3
  5
57F
 10
-524.0000000000008
 20
-665.57622735824896
 30
0.0
 40
4.0
 50
269.99999999999778
 51
359.99999999996339
  0
LINE
  8
0
  6
CONTINUOUS
 62
               3
  5
580
 10
-520.00000000000068
 20
-665.57622735824896
 30
0.0
 11
-520.0000000000008
 21
-647.07622735824873
 31
0.0
  0
LINE
  8
0
  6
CONTINUOUS
 62
               3
  5
581
 10
-523.00000000000023
 20
-562.57622735824998
 30
0.0
 11
-522.99999999999966
 21
-647.07622735824873
 31
0.0
  0
LINE
  8
0
  6
CONTINUOUS
 62
               3
  5
582
 10
-536.99999999999966
 20
-487.78331242503702
 30
0.0
 11
-536.99999999999966
 21
-539.57622735824953
 31
0.0
  0
LINE
  8
0
  6
CONTINUOUS
 62
               3
  5
583
 10
-662.99999999999966
 20
-487.78331242503702
 30
0.0
 11
-662.99999999999966
 21
-539.57622735824918
 31
0.0
  0
LINE
  8
0
  6
CONTINUOUS
 62
               3
  5
584
 10
-665.00000000000125
 20
-684.57622735824805
 30
0.0
 11
-535.00000000000125
 21
-684.57622735824805
 31
0.0
  0
LINE
  8
0
  6
CONTINUOUS
 62
               3
  5
585
 10
533.5
 20
-388.2659774036249
 30
0.0
 11
537.00000000000011
 21
-487.78331242503702
 31
0.0
  0
LINE
  8
0
  6
CONTINUOUS
 62
               3
  5
586
 10
666.50000000000011
 20
-388.2659774036249
 30
0.0
 11
663.00000000000011
 21
-487.78331242503702
 31
0.0
  0
LINE
  8
0
  6
CONTINUOUS
 62
               3
  5
587
 10
516.50000000000057
 20
-239.05889233683419
 30
0.0
 11
533.5
 21
-388.2659774036249
 31
0.0
  0
LINE
  8
0
  6
CONTINUOUS
 62
               3
  5
588
 10
683.49999999999943
 20
-239.05889233683453
 30
0.0
 11
666.50000000000011
 21
-388.2659774036249
 31
0.0
  0
LINE
  8
0
  6
CONTINUOUS
 62
               3
  5
589
 10
538.0
 20
-684.57622735824805
 30
0.0
 11
538.0
 21
-669.57622735824896
 31
0.0
  0
ARC
  8
0
  6
CONTINUOUS
 62
               3
  5
58A
 10
524.0000000000008
 20
-543.57622735824998
 30
0.0
 40
4.0
 50
89.999999999964786
 51
179.99999999993119
  0
LINE
  8
0
  6
CONTINUOUS
 62
               3
  5
58B
 10
520.0000000000008
 20
-543.57622735824759
 30
0.0
 11
520.00000000000057
 21
-562.57622735824998
 31
0.0
  0
LINE
  8
0
  6
CONTINUOUS
 62
               3
  5
58C
 10
584.0000000000008
 20
-539.57622735824941
 30
0.0
 11
524.00000000000205
 21
-539.57622735824998
 31
0.0
  0
LINE
  8
0
  6
CONTINUOUS
 62
               3
  5
58D
 10
584.0000000000008
 20
-670.57622735824805
 30
0.0
 11
616.00000000000125
 21
-670.57622735824759
 31
0.0
  0
ARC
  8
0
  6
CONTINUOUS
 62
               3
  5
58E
 10
524.00000000000102
 20
-665.57622735824896
 30
0.0
 40
4.0
 50
179.99999999993119
 51
269.99999999989763
  0
LINE
  8
0
  6
CONTINUOUS
 62
               3
  5
58F
 10
520.00000000000102
 20
-665.57622735824896
 30
0.0
 11
520.00000000000114
 21
-647.07622735824873
 31
0.0
  0
LINE
  8
0
  6
CONTINUOUS
 62
               3
  5
590
 10
584.0000000000008
 20
-669.57622735824827
 30
0.0
 11
523.99999999999761
 21
-669.57622735824896
 31
0.0
  0
LINE
  8
0
  6
CONTINUOUS
 62
               3
  5
591
 10
584.0000000000008
 20
-647.07622735824827
 30
0.0
 11
520.00000000000102
 21
-647.07622735824873
 31
0.0
  0
LINE
  8
0
  6
CONTINUOUS
 62
               3
  5
592
 10
520.00000000000057
 20
-562.57622735824998
 30
0.0
 11
584.0000000000008
 21
-562.57622735824998
 31
0.0
  0
LINE
  8
0
  6
CONTINUOUS
 62
               3
  5
593
 10
523.00000000000057
 20
-562.57622735824998
 30
0.0
 11
523.0
 21
-647.07622735824873
 31
0.0
  0
LINE
  8
0
  6
CONTINUOUS
 62
               3
  5
594
 10
616.0000000000008
 20
-539.57622735824941
 30
0.0
 11
675.99999999999829
 21
-539.57622735824998
 31
0.0
  0
LINE
  8
0
  6
CONTINUOUS
 62
               3
  5
595
 10
616.00000000000125
 20
-669.57622735824827
 30
0.0
 11
675.9999999999992
 21
-669.57622735824896
 31
0.0
  0
LINE
  8
0
  6
CONTINUOUS
 62
               3
  5
596
 10
616.00000000000125
 20
-647.07622735824827
 30
0.0
 11
679.99999999999932
 21
-647.07622735824873
 31
0.0
  0
LINE
  8
0
  6
CONTINUOUS
 62
               3
  5
597
 10
680.0000000000008
 20
-562.57622735824998
 30
0.0
 11
616.0000000000008
 21
-562.57622735824998
 31
0.0
  0
LINE
  8
0
  6
CONTINUOUS
 62
               3
  5
598
 10
662.00000000000011
 20
-684.57622735824805
 30
0.0
 11
662.00000000000011
 21
-669.57622735824896
 31
0.0
  0
LINE
  8
0
  6
CONTINUOUS
 62
               3
  5
599
 10
584.0000000000008
 20
-538.57622735824998
 30
0.0
 11
584.0000000000008
 21
-670.57622735824805
 31
0.0
  0
LINE
  8
0
  6
CONTINUOUS
 62
               3
  5
59A
 10
616.00000000000125
 20
-670.57622735824759
 30
0.0
 11
616.0000000000008
 21
-538.57622735824998
 31
0.0
  0
LINE
  8
0
  6
CONTINUOUS
 62
               3
  5
59B
 10
584.00000000000011
 20
-538.57622735824998
 30
0.0
 11
616.00000000000011
 21
-538.57622735824998
 31
0.0
  0
LINE
  8
0
  6
CONTINUOUS
 62
               3
  5
59C
 10
584.0000000000008
 20
-605.57622735824873
 30
0.0
 11
616.00000000000125
 21
-605.57622735824873
 31
0.0
  0
LINE
  8
0
  6
CONTINUOUS
 62
               3
  5
59D
 10
584.0000000000008
 20
-604.57622735824896
 30
0.0
 11
616.00000000000125
 21
-604.57622735824896
 31
0.0
  0
LINE
  8
0
  6
CONTINUOUS
 62
               3
  5
59E
 10
584.0000000000008
 20
-606.57622735824896
 30
0.0
 11
616.00000000000125
 21
-606.57622735824896
 31
0.0
  0
ARC
  8
0
  6
CONTINUOUS
 62
               3
  5
59F
 10
675.99999999999955
 20
-543.57622735824998
 30
0.0
 40
4.0
 50
0.0000000000341973
 51
89.999999999999801
  0
LINE
  8
0
  6
CONTINUOUS
 62
               3
  5
5A0
 10
679.99999999999955
 20
-543.57622735824759
 30
0.0
 11
679.99999999999977
 21
-562.57622735824998
 31
0.0
  0
ARC
  8
0
  6
CONTINUOUS
 62
               3
  5
5A1
 10
675.9999999999992
 20
-665.57622735824896
 30
0.0
 40
4.0
 50
269.99999999999778
 51
359.99999999996339
  0
LINE
  8
0
  6
CONTINUOUS
 62
               3
  5
5A2
 10
679.99999999999932
 20
-665.57622735824896
 30
0.0
 11
679.9999999999992
 21
-647.07622735824873
 31
0.0
  0
LINE
  8
0
  6
CONTINUOUS
 62
               3
  5
5A3
 10
676.99999999999977
 20
-562.57622735824998
 30
0.0
 11
677.00000000000034
 21
-647.07622735824873
 31
0.0
  0
LINE
  8
0
  6
CONTINUOUS
 62
               3
  5
5A4
 10
663.00000000000034
 20
-487.78331242503702
 30
0.0
 11
663.00000000000034
 21
-539.57622735824953
 31
0.0
  0
LINE
  8
0
  6
CONTINUOUS
 62
               3
  5
5A5
 10
537.00000000000034
 20
-487.78331242503702
 30
0.0
 11
537.00000000000034
 21
-539.57622735824918
 31
0.0
  0
LINE
  8
0
  6
CONTINUOUS
 62
               3
  5
5A6
 10
534.99999999999875
 20
-684.57622735824805
 30
0.0
 11
664.99999999999875
 21
-684.57622735824805
 31
0.0
  0
CIRCLE
  8
0
  6
CONTINUOUS
 62
               3
  5
5A7
 10
0.0
 20
-60.57622735824954
 30
0.0
 40
66.099999999999994
  0
LINE
  8
0
  6
CONTINUOUS
 62
               3
  5
5A8
 10
128.00000000000034
 20
-118.38452341174531
 30
0.0
 11
128.00000000000028
 21
5.7372498217868397
 31
0.0
  0
LINE
  8
0
  6
CONTINUOUS
 62
               3
  5
5A9
 10
128.00000000000034
 20
-118.38452341174531
 30
0.0
 11
128.00000000000034
 21
-126.88970453828526
 31
0.0
  0
LINE
  8
0
  6
CONTINUOUS
 62
               3
  5
5AA
 10
103.32550251648804
 20
6.598902260733233
 30
0.0
 11
128.00000000000028
 21
5.7372498217868397
 31
0.0
  0
ARC
  8
0
  6
CONTINUOUS
 62
               3
  5
5AB
 10
103.50000000000053
 20
11.595856395828712
 30
0.0
 40
5.0
 50
179.99999999996524
 51
267.9999999999485
  0
ARC
  8
0
  6
CONTINUOUS
 62
               3
  5
5AC
 10
99.30385611375776
 20
-130.39331982498578
 30
0.0
 40
2.5
 50
91.999999999981938
 51
134.99999999997252
  0
LINE
  8
0
  6
CONTINUOUS
 62
               3
  5
5AD
 10
99.216607372001519
 20
-127.89484275743803
 30
0.0
 11
128.00000000000034
 21
-126.88970453828526
 31
0.0
  0
LINE
  8
0
  6
CONTINUOUS
 62
               3
  5
5AE
 10
97.536089160791434
 20
-128.6255528720194
 30
0.0
 11
84.232233047033844
 21
-141.92940898577635
 31
0.0
  0
ARC
  8
0
  6
CONTINUOUS
 62
               3
  5
5AF
 10
86.000000000000171
 20
-143.69717593874276
 30
0.0
 40
2.5
 50
134.99999999997252
 51
179.99999999996507
  0
LINE
  8
0
  6
CONTINUOUS
 62
               3
  5
5B0
 10
83.499999999999517
 20
-239.05889233683419
 30
0.0
 11
83.499999999999488
 21
-143.69717593874276
 31
0.0
  0
LINE
  8
0
  6
CONTINUOUS
 62
               3
  5
5B1
 10
98.500000000000526
 20
11.595856395828704
 30
0.0
 11
98.500000000000583
 21
40.92377264175191
 31
0.0
  0
LINE
  8
0
  6
CONTINUOUS
 62
               3
  5
5B2
 10
128.00000000000037
 20
645.24688594478232
 30
0.0
 11
128.00000000000048
 21
768.43869446234532
 31
0.0
  0
LINE
  8
0
  6
CONTINUOUS
 62
               3
  5
5B3
 10
128.00000000000037
 20
637.3405390261413
 30
0.0
 11
81.576492803303026
 21
635.37886179218367
 31
0.0
  0
LINE
  8
0
  6
CONTINUOUS
 62
               3
  5
5B4
 10
128.00000000000048
 20
768.43869446234532
 30
0.0
 11
81.576492803303211
 21
770.40037169630307
 31
0.0
  0
LINE
  8
0
  6
CONTINUOUS
 62
               3
  5
5B5
 10
-674.99999999999955
 20
265.42377264175093
 30
0.0
 11
-525.00000000000023
 21
265.42377264175093
 31
0.0
  0
LINE
  8
0
  6
CONTINUOUS
 62
               3
  5
5B6
 10
-688.49999999999977
 20
255.42377264175093
 30
0.0
 11
-688.49999999999977
 21
248.42377264175127
 31
0.0
  0
LINE
  8
0
  6
CONTINUOUS
 62
               3
  5
5B7
 10
-688.49999999999977
 20
255.42377264175093
 30
0.0
 11
-674.99999999999955
 21
265.42377264175093
 31
0.0
  0
LINE
  8
0
  6
CONTINUOUS
 62
               3
  5
5B8
 10
-511.5
 20
255.42377264175093
 30
0.0
 11
-511.5
 21
248.42377264175127
 31
0.0
  0
LINE
  8
0
  6
CONTINUOUS
 62
               3
  5
5B9
 10
-511.5
 20
255.42377264175093
 30
0.0
 11
-525.00000000000023
 21
265.42377264175093
 31
0.0
  0
ARC
  8
0
  6
CONTINUOUS
 62
               3
  5
5BA
 10
-685.49999999999955
 20
243.42377264175127
 30
0.0
 40
5.0
 50
0.0
 51
89.999999999982862
  0
LINE
  8
0
  6
CONTINUOUS
 62
               3
  5
5BB
 10
-688.49999999999977
 20
248.42377264175127
 30
0.0
 11
-685.49999999999955
 21
248.42377264175127
 31
0.0
  0
ARC
  8
0
  6
CONTINUOUS
 62
               3
  5
5BC
 10
-514.49999999999955
 20
243.42377264175127
 30
0.0
 40
5.0
 50
89.999999999982862
 51
179.99999999996507
  0
LINE
  8
0
  6
CONTINUOUS
 62
               3
  5
5BD
 10
-511.5
 20
248.42377264175127
 30
0.0
 11
-514.49999999999955
 21
248.42377264175127
 31
0.0
  0
LINE
  8
0
  6
CONTINUOUS
 62
               3
  5
5BE
 10
-680.49999999999955
 20
243.42377264175127
 30
0.0
 11
-680.49999999999977
 21
234.92377264175138
 31
0.0
  0
LINE
  8
0
  6
CONTINUOUS
 62
               3
  5
5BF
 10
-519.49999999999955
 20
243.42377264175127
 30
0.0
 11
-519.49999999999955
 21
234.92377264175138
 31
0.0
  0
LINE
  8
0
  6
CONTINUOUS
 62
               3
  5
5C0
 10
-74.999999999999545
 20
265.42377264175093
 30
0.0
 11
74.999999999999773
 21
265.42377264175093
 31
0.0
  0
LINE
  8
0
  6
CONTINUOUS
 62
               3
  5
5C1
 10
-88.499999999999773
 20
255.42377264175093
 30
0.0
 11
-88.499999999999773
 21
248.42377264175127
 31
0.0
  0
LINE
  8
0
  6
CONTINUOUS
 62
               3
  5
5C2
 10
-88.499999999999773
 20
255.42377264175093
 30
0.0
 11
-74.999999999999545
 21
265.42377264175093
 31
0.0
  0
LINE
  8
0
  6
CONTINUOUS
 62
               3
  5
5C3
 10
88.5
 20
255.42377264175093
 30
0.0
 11
88.5
 21
248.42377264175127
 31
0.0
  0
LINE
  8
0
  6
CONTINUOUS
 62
               3
  5
5C4
 10
88.5
 20
255.42377264175093
 30
0.0
 11
74.999999999999773
 21
265.42377264175093
 31
0.0
  0
ARC
  8
0
  6
CONTINUOUS
 62
               3
  5
5C5
 10
-85.499999999999545
 20
243.42377264175127
 30
0.0
 40
5.0
 50
0.0
 51
89.999999999982705
  0
LINE
  8
0
  6
CONTINUOUS
 62
               3
  5
5C6
 10
-88.499999999999773
 20
248.42377264175127
 30
0.0
 11
-85.499999999999545
 21
248.42377264175127
 31
0.0
  0
ARC
  8
0
  6
CONTINUOUS
 62
               3
  5
5C7
 10
85.500000000000455
 20
243.42377264175127
 30
0.0
 40
5.0
 50
89.999999999982535
 51
179.99999999996507
  0
LINE
  8
0
  6
CONTINUOUS
 62
               3
  5
5C8
 10
88.5
 20
248.42377264175127
 30
0.0
 11
85.500000000000455
 21
248.42377264175127
 31
0.0
  0
LINE
  8
0
  6
CONTINUOUS
 62
               3
  5
5C9
 10
-80.499999999999545
 20
243.42377264175127
 30
0.0
 11
-80.499999999999773
 21
234.92377264175138
 31
0.0
  0
LINE
  8
0
  6
CONTINUOUS
 62
               3
  5
5CA
 10
80.500000000000455
 20
243.42377264175127
 30
0.0
 11
80.500000000000455
 21
234.92377264175138
 31
0.0
  0
LINE
  8
0
  6
CONTINUOUS
 62
               3
  5
5CB
 10
525.00000000000045
 20
265.42377264175093
 30
0.0
 11
674.99999999999977
 21
265.42377264175093
 31
0.0
  0
LINE
  8
0
  6
CONTINUOUS
 62
               3
  5
5CC
 10
511.50000000000023
 20
255.42377264175093
 30
0.0
 11
511.50000000000023
 21
248.42377264175127
 31
0.0
  0
LINE
  8
0
  6
CONTINUOUS
 62
               3
  5
5CD
 10
511.50000000000023
 20
255.42377264175093
 30
0.0
 11
525.00000000000045
 21
265.42377264175093
 31
0.0
  0
LINE
  8
0
  6
CONTINUOUS
 62
               3
  5
5CE
 10
688.5
 20
255.42377264175093
 30
0.0
 11
688.5
 21
248.42377264175127
 31
0.0
  0
LINE
  8
0
  6
CONTINUOUS
 62
               3
  5
5CF
 10
688.5
 20
255.42377264175093
 30
0.0
 11
674.99999999999977
 21
265.42377264175093
 31
0.0
  0
ARC
  8
0
  6
CONTINUOUS
 62
               3
  5
5D0
 10
514.50000000000045
 20
243.42377264175127
 30
0.0
 40
5.0
 50
0.0
 51
89.999999999982862
  0
LINE
  8
0
  6
CONTINUOUS
 62
               3
  5
5D1
 10
511.50000000000023
 20
248.42377264175127
 30
0.0
 11
514.50000000000045
 21
248.42377264175127
 31
0.0
  0
ARC
  8
0
  6
CONTINUOUS
 62
               3
  5
5D2
 10
685.50000000000045
 20
243.42377264175127
 30
0.0
 40
5.0
 50
89.999999999982862
 51
179.99999999996507
  0
LINE
  8
0
  6
CONTINUOUS
 62
               3
  5
5D3
 10
688.5
 20
248.42377264175127
 30
0.0
 11
685.50000000000045
 21
248.42377264175127
 31
0.0
  0
LINE
  8
0
  6
CONTINUOUS
 62
               3
  5
5D4
 10
519.50000000000045
 20
243.42377264175127
 30
0.0
 11
519.50000000000023
 21
234.92377264175138
 31
0.0
  0
LINE
  8
0
  6
CONTINUOUS
 62
               3
  5
5D5
 10
680.50000000000045
 20
243.42377264175127
 30
0.0
 11
680.50000000000045
 21
234.92377264175138
 31
0.0
  0
LINE
  8
0
  6
CONTINUOUS
 62
               3
  5
5D6
 10
-88.895147757918991
 20
731.38961674424354
 30
0.0
 11
-85.200321902451364
 21
731.38961674424354
 31
0.0
  0
LINE
  8
0
  6
CONTINUOUS
 62
               3
  5
5D7
 10
-74.270810292853852
 20
792.11783698755562
 30
0.0
 11
-12.239976031154566
 21
800.63313059540769
 31
0.0
  0
LINE
  8
0
  6
CONTINUOUS
 62
               3
  5
5D8
 10
12.239976031155397
 20
800.63313059540769
 30
0.0
 11
74.270810292854279
 21
792.11783698755562
 31
0.0
  0
ARC
  8
0
  6
CONTINUOUS
 62
               3
  5
5D9
 10
0.0000000000004157
 20
711.4693319618998
 30
0.0
 40
90.0
 50
82.183566393513914
 51
97.816433606451298
  0
LINE
  8
0
  6
CONTINUOUS
 62
               3
  5
5DA
 10
97.74351385116428
 20
715.12959277539881
 30
0.0
 11
89.228220243311924
 21
777.16042703709809
 31
0.0
  0
ARC
  8
0
  6
CONTINUOUS
 62
               3
  5
5DB
 10
8.5797152176563323
 20
702.88961674424377
 30
0.0
 40
90.0
 50
352.18356639346172
 51
367.81643360639902
  0
LINE
  8
0
  6
CONTINUOUS
 62
               3
  5
5DC
 10
89.228220243311924
 20
628.61880645138945
 30
0.0
 11
97.74351385116428
 21
690.64964071308873
 31
0.0
  0
LINE
  8
0
  6
CONTINUOUS
 62
               3
  5
5DD
 10
-74.270810292853739
 20
613.66139650093169
 30
0.0
 11
-12.239976031154566
 21
605.14610289307961
 31
0.0
  0
ARC
  8
0
  6
CONTINUOUS
 62
               3
  5
5DE
 10
0.0000000000004157
 20
694.30990152658774
 30
0.0
 40
90.0
 50
262.18356639347917
 51
277.81643360641647
  0
ARC
  8
0
  6
CONTINUOUS
 62
               3
  5
5DF
 10
-71.890814953462709
 20
774.78043169770694
 30
0.0
 40
17.5
 50
97.816433606451085
 51
172.1835663934952
  0
ARC
  8
0
  6
CONTINUOUS
 62
               3
  5
5E0
 10
71.890814953463135
 20
774.78043169770717
 30
0.0
 40
17.5
 50
7.8164336064679656
 51
82.183566393513985
  0
ARC
  8
0
  6
CONTINUOUS
 62
               3
  5
5E1
 10
71.890814953463192
 20
630.99880179078059
 30
0.0
 40
17.5
 50
277.81643360641647
 51
352.18356639346132
  0
ARC
  8
0
  6
CONTINUOUS
 62
               3
  5
5E2
 10
-71.890814953462595
 20
630.99880179078036
 30
0.0
 40
17.5
 50
187.81643360643486
 51
262.18356639347957
  0
LINE
  8
0
  6
CONTINUOUS
 62
               3
  5
5E3
 10
-97.743513851163641
 20
715.12959277539892
 30
0.0
 11
-89.228220243311227
 21
777.1604270370982
 31
0.0
  0
LINE
  8
0
  6
CONTINUOUS
 62
               3
  5
5E4
 10
-89.228220243311355
 20
628.61880645138956
 30
0.0
 11
-97.743513851163669
 21
690.64964071308884
 31
0.0
  0
ARC
  8
0
  6
CONTINUOUS
 62
               3
  5
5E5
 10
-8.5797152176557034
 20
702.88961674424377
 30
0.0
 40
90.0
 50
172.18356639349651
 51
187.8164336064338
  0
LINE
  8
0
  6
CONTINUOUS
 62
               3
  5
5E6
 10
74.270810292854279
 20
613.66139650093157
 30
0.0
 11
12.239976031155091
 21
605.14610289307961
 31
0.0
  0
ARC
  8
0
  6
CONTINUOUS
 62
               3
  5
5E7
 10
-47.604863957990574
 20
631.26715568947975
 30
0.0
 40
2.5
 50
56.389448470462327
 51
87.999999999982776
  0
ARC
  8
0
  6
CONTINUOUS
 62
               3
  5
5E8
 10
0.0000000000002558
 20
702.88961674424377
 30
0.0
 40
88.5
 50
76.938975885051988
 51
103.06102411463802
  0
ARC
  8
0
  6
CONTINUOUS
 62
               3
  5
5E9
 10
-34.999999999999972
 20
785.80523650312864
 30
0.0
 40
15.0
 50
292.88538047610245
 51
359.99999999993059
  0
ARC
  8
0
  6
CONTINUOUS
 62
               3
  5
5EA
 10
35.000000000000313
 20
785.80523650312875
 30
0.0
 40
15.0
 50
179.9999999999653
 51
247.11461952379301
  0
LINE
  8
0
  6
CONTINUOUS
 62
               3
  5
5EB
 10
-19.999999999999744
 20
783.95903144547367
 30
0.0
 11
-19.999999999999744
 21
789.10011494486844
 31
0.0
  0
LINE
  8
0
  6
CONTINUOUS
 62
               3
  5
5EC
 10
20.000000000000256
 20
785.80523650312875
 30
0.0
 11
20.000000000000256
 21
789.10011494486844
 31
0.0
  0
CIRCLE
  8
0
  6
CONTINUOUS
 62
               3
  5
5ED
 10
0.0000000000002558
 20
702.88961674424377
 30
0.0
 40
75.0
  0
ARC
  8
0
  6
CONTINUOUS
 62
               3
  5
5EE
 10
0.0000000000002558
 20
702.88961674424377
 30
0.0
 40
80.500000000000043
 50
105.06541275407906
 51
165.61435521392212
  0
ARC
  8
0
  6
CONTINUOUS
 62
               3
  5
5EF
 10
0.0000000000002558
 20
702.88961674424377
 30
0.0
 40
80.500000000000043
 50
195.06541275406153
 51
254.93458724585153
  0
ARC
  8
0
  6
CONTINUOUS
 62
               3
  5
5F0
 10
0.0000000000002558
 20
702.88961674424377
 30
0.0
 40
88.5
 50
166.93897588513781
 51
193.06102411472381
  0
ARC
  8
0
  6
CONTINUOUS
 62
               3
  5
5F1
 10
-82.915619758884731
 20
737.88961674424377
 30
0.0
 40
15.0
 50
269.99999999994782
 51
337.11461952377596
  0
LINE
  8
0
  6
CONTINUOUS
 62
               3
  5
5F2
 10
-86.210498200625324
 20
682.88961674424377
 30
0.0
 11
-82.915619758884731
 21
682.88961674424377
 31
0.0
  0
LINE
  8
0
  6
CONTINUOUS
 62
               3
  5
5F3
 10
-86.210498200625324
 20
722.88961674424377
 30
0.0
 11
-81.069414701229647
 21
722.88961674424377
 31
0.0
  0
ARC
  8
0
  6
CONTINUOUS
 62
               3
  5
5F4
 10
-82.915619758884731
 20
667.88961674424377
 30
0.0
 40
15.0
 50
22.885380476153959
 51
89.999999999982592
  0
ARC
  8
0
  6
CONTINUOUS
 62
               3
  5
5F5
 10
0.0000000000002558
 20
702.88961674424365
 30
0.0
 40
88.5
 50
256.93897588508594
 51
283.06102411467197
  0
ARC
  8
0
  6
CONTINUOUS
 62
               3
  5
5F6
 10
35.000000000000199
 20
619.97399698535878
 30
0.0
 40
15.0
 50
112.88538047613693
 51
179.9999999999653
  0
ARC
  8
0
  6
CONTINUOUS
 62
               3
  5
5F7
 10
-34.999999999999744
 20
619.97399698535878
 30
0.0
 40
15.0
 50
359.99999999993059
 51
427.11461952375919
  0
LINE
  8
0
  6
CONTINUOUS
 62
               3
  5
5F8
 10
20.000000000000256
 20
616.67911854361842
 30
0.0
 11
20.000000000000256
 21
619.97399698535878
 31
0.0
  0
LINE
  8
0
  6
CONTINUOUS
 62
               3
  5
5F9
 10
-19.999999999999744
 20
616.67911854361842
 30
0.0
 11
-19.999999999999744
 21
619.97399698535878
 31
0.0
  0
ARC
  8
0
  6
CONTINUOUS
 62
               3
  5
5FA
 10
0.0000000000002558
 20
702.88961674424377
 30
0.0
 40
88.5
 50
346.93897588503427
 51
373.06102411462018
  0
LINE
  8
0
  6
CONTINUOUS
 62
               3
  5
5FB
 10
82.915619758885256
 20
682.88961674424377
 30
0.0
 11
86.210498200625167
 21
682.88961674424377
 31
0.0
  0
LINE
  8
0
  6
CONTINUOUS
 62
               3
  5
5FC
 10
82.915619758885256
 20
722.88961674424377
 30
0.0
 11
86.210498200625167
 21
722.88961674424377
 31
0.0
  0
ARC
  8
0
  6
CONTINUOUS
 62
               3
  5
5FD
 10
82.915619758885256
 20
737.88961674424377
 30
0.0
 40
15.0
 50
202.88538047611956
 51
269.99999999994782
  0
ARC
  8
0
  6
CONTINUOUS
 62
               3
  5
5FE
 10
82.915619758885256
 20
667.88961674424377
 30
0.0
 40
15.0
 50
89.99999999998262
 51
157.11461952381123
  0
ARC
  8
0
  6
CONTINUOUS
 62
               3
  5
5FF
 10
0.0000000000002558
 20
702.88961674424377
 30
0.0
 40
80.500000000000043
 50
15.065412754096309
 51
74.934587245886249
  0
ARC
  8
0
  6
CONTINUOUS
 62
               3
  5
600
 10
0.0000000000002558
 20
702.88961674424377
 30
0.0
 40
80.500000000000043
 50
285.06541275404408
 51
344.93458724583411
  0
ARC
  8
0
  6
CONTINUOUS
 62
               3
  5
601
 10
0.0000000000003553
 20
702.88961674424377
 30
0.0
 40
83.499999999999901
 50
236.38944847042708
 51
256.14173134477483
  0
ARC
  8
0
  6
CONTINUOUS
 62
               3
  5
602
 10
-48.393892694184146
 20
776.98604816913587
 30
0.0
 40
5.0
 50
271.99999999994748
 51
303.14937354327907
  0
ARC
  8
0
  6
CONTINUOUS
 62
               3
  5
603
 10
0.0000000000003553
 20
702.88961674424377
 30
0.0
 40
83.499999999999901
 50
103.85826865515553
 51
166.14173134479228
  0
ARC
  8
0
  6
CONTINUOUS
 62
               3
  5
604
 10
0.0000000000003553
 20
702.88961674424377
 30
0.0
 40
83.499999999999901
 50
103.06102411478059
 51
166.14173134479228
  0
ARC
  8
0
  6
CONTINUOUS
 62
               3
  5
605
 10
0.0000000000003553
 20
702.88961674424377
 30
0.0
 40
83.499999999999901
 50
193.85826865513812
 51
256.14173134477483
  0
ARC
  8
0
  6
CONTINUOUS
 62
               3
  5
606
 10
0.0000000000003553
 20
702.88961674424377
 30
0.0
 40
83.499999999999901
 50
193.85826865513812
 51
236.38944847042708
  0
ARC
  8
0
  6
CONTINUOUS
 62
               3
  5
607
 10
-74.096431424891477
 20
654.49572405004869
 30
0.0
 40
5.0
 50
2.0000000000036477
 51
33.14937354333685
  0
ARC
  8
0
  6
CONTINUOUS
 62
               3
  5
608
 10
74.096431424892344
 20
654.49572405006097
 30
0.0
 40
5.0
 50
146.85062645663493
 51
177.99999999996729
  0
ARC
  8
0
  6
CONTINUOUS
 62
               3
  5
609
 10
0.0000000000003553
 20
702.88961674424377
 30
0.0
 40
83.499999999999901
 50
13.858268655172918
 51
76.141731344809685
  0
ARC
  8
0
  6
CONTINUOUS
 62
               3
  5
60A
 10
0.0000000000003553
 20
702.88961674424377
 30
0.0
 40
83.499999999999901
 50
283.06102411474581
 51
346.14173134475743
  0
CIRCLE
  8
0
  6
CONTINUOUS
 62
               3
  5
60B
 10
609.28652321630818
 20
-1142.4330918712988
 30
0.0
 40
75.0
  0
CIRCLE
  8
0
  6
CONTINUOUS
 62
               3
  5
60C
 10
609.28652321630818
 20
-1142.4330918712988
 30
0.0
 40
52.5
  0
LINE
  8
0
  6
CONTINUOUS
 62
               3
  5
60D
 10
523.07602501568272
 20
-1122.4330918712988
 30
0.0
 11
537.00236174230258
 21
-1122.4330918712988
 31
0.0
  0
LINE
  8
0
  6
CONTINUOUS
 62
               3
  5
60E
 10
537.00236174230258
 20
-1162.4330918712988
 30
0.0
 11
523.07602501568272
 21
-1162.4330918712988
 31
0.0
  0
ARC
  8
0
  6
CONTINUOUS
 62
               3
  5
60F
 10
609.28652321630818
 20
-1142.4330918712988
 30
0.0
 40
88.5
 50
166.93897588510336
 51
193.06102411468945
  0
LINE
  8
0
  6
CONTINUOUS
 62
               3
  5
610
 10
589.28652321630807
 20
-1228.6435900719237
 30
0.0
 11
589.28652321630807
 21
-1214.7172533453038
 31
0.0
  0
LINE
  8
0
  6
CONTINUOUS
 62
               3
  5
611
 10
629.28652321630818
 20
-1214.7172533453038
 30
0.0
 11
629.28652321630818
 21
-1228.6435900719237
 31
0.0
  0
ARC
  8
0
  6
CONTINUOUS
 62
               3
  5
612
 10
609.28652321630818
 20
-1142.4330918712988
 30
0.0
 40
88.5
 50
256.93897588505166
 51
283.06102411463775
  0
LINE
  8
0
  6
CONTINUOUS
 62
               3
  5
613
 10
695.49702141693285
 20
-1162.4330918712988
 30
0.0
 11
681.57068469031231
 21
-1162.4330918712988
 31
0.0
  0
LINE
  8
0
  6
CONTINUOUS
 62
               3
  5
614
 10
681.57068469031231
 20
-1122.4330918712988
 30
0.0
 11
695.49702141693285
 21
-1122.4330918712988
 31
0.0
  0
ARC
  8
0
  6
CONTINUOUS
 62
               3
  5
615
 10
609.28652321630818
 20
-1142.4330918712988
 30
0.0
 40
88.5
 50
346.93897588499982
 51
373.06102411458585
  0
LINE
  8
0
  6
CONTINUOUS
 62
               3
  5
616
 10
629.28652321630818
 20
-1056.2225936706732
 30
0.0
 11
629.28652321630818
 21
-1070.1489303972937
 31
0.0
  0
LINE
  8
0
  6
CONTINUOUS
 62
               3
  5
617
 10
589.28652321630807
 20
-1070.1489303972937
 30
0.0
 11
589.28652321630807
 21
-1056.2225936706732
 31
0.0
  0
ARC
  8
0
  6
CONTINUOUS
 62
               3
  5
618
 10
609.28652321630818
 20
-1142.4330918712988
 30
0.0
 40
88.5
 50
76.938975885155216
 51
103.06102411474124
  0
LINE
  8
0
  6
CONTINUOUS
 62
               3
  5
619
 10
561.6183996954469
 20
-1164.4330918712992
 30
0.0
 11
656.95464673716799
 21
-1164.4330918712992
 31
0.0
  0
ARC
  8
0
  6
CONTINUOUS
 62
               3
  5
61A
 10
621.79013486568931
 20
-1133.7266942436797
 30
0.0
 40
54.763804151667173
 50
141.3859176367566
 51
145.15009542087031
  0
ARC
  8
0
  6
CONTINUOUS
 62
               3
  5
61B
 10
609.28652321630818
 20
-1142.4330918712988
 30
0.0
 40
51.5
 50
334.71098847326505
 51
410.95932736340404
  0
ARC
  8
0
  6
CONTINUOUS
 62
               3
  5
61C
 10
609.28652321630818
 20
-1142.4330918712988
 30
0.0
 40
51.5
 50
129.04067263628559
 51
205.28901152642416
  0
ARC
  8
0
  6
CONTINUOUS
 62
               3
  5
61D
 10
609.28652321630818
 20
-1142.4330918712988
 30
0.0
 40
77.5
 50
104.95524831658301
 51
128.57288309095932
  0
ARC
  8
0
  6
CONTINUOUS
 62
               3
  5
61E
 10
609.28652321630818
 20
-1142.4330918712988
 30
0.0
 40
77.5
 50
14.9552483166347
 51
75.044751683313535
  0
ARC
  8
0
  6
CONTINUOUS
 62
               3
  5
61F
 10
609.28652321630818
 20
-1142.4330918712988
 30
0.0
 40
77.5
 50
321.42711690878122
 51
345.04475168315804
  0
LINE
  8
0
  6
CONTINUOUS
 62
               3
  5
620
 10
469.28652321630801
 20
-1197.4330918712988
 30
0.0
 11
469.95807934227224
 21
-1197.4330918712988
 31
0.0
  0
LINE
  8
0
  6
CONTINUOUS
 62
               3
  5
621
 10
472.4580793422727
 20
-1199.9330918712988
 30
0.0
 11
469.95807934227224
 21
-1197.4330918712988
 31
0.0
  0
LINE
  8
0
  6
CONTINUOUS
 62
               3
  5
622
 10
469.28652321630801
 20
-1087.4330918712988
 30
0.0
 11
469.95807934227224
 21
-1087.4330918712988
 31
0.0
  0
LINE
  8
0
  6
CONTINUOUS
 62
               3
  5
623
 10
472.45807934227224
 20
-1084.9330918712988
 30
0.0
 11
469.95807934227224
 21
-1087.4330918712988
 31
0.0
  0
LINE
  8
0
  6
CONTINUOUS
 62
               3
  5
624
 10
469.95807934227224
 20
-1087.4330918712988
 30
0.0
 11
469.95807934227224
 21
-1197.4330918712988
 31
0.0
  0
LINE
  8
0
  6
CONTINUOUS
 62
               3
  5
625
 10
563.79618742993011
 20
-1081.7434948529572
 30
0.0
 11
472.45807934227224
 21
-1084.9330918712988
 31
0.0
  0
LINE
  8
0
  6
CONTINUOUS
 62
               3
  5
626
 10
544.45005149975691
 20
-1202.4471069362664
 30
0.0
 11
472.45807934227281
 21
-1199.9330918712988
 31
0.0
  0
LINE
  8
0
  6
CONTINUOUS
 62
               3
  5
627
 10
464.28652321630801
 20
-1087.6046479972629
 30
0.0
 11
464.28652321630801
 21
-1197.5330918712989
 31
0.0
  0
LINE
  8
0
  6
CONTINUOUS
 62
               3
  5
628
 10
469.28652321630801
 20
-1200.0330918712989
 30
0.0
 11
469.28652321630801
 21
-1084.8330918712988
 31
0.0
  0
LINE
  8
0
  6
CONTINUOUS
 62
               3
  5
629
 10
469.28652321630801
 20
-1084.8330918712988
 30
0.0
 11
466.78652321630801
 21
-1084.8330918712988
 31
0.0
  0
LINE
  8
0
  6
CONTINUOUS
 62
               3
  5
62A
 10
469.28652321630801
 20
-1200.0330918712989
 30
0.0
 11
466.78652321630801
 21
-1200.0330918712989
 31
0.0
  0
ARC
  8
0
  6
CONTINUOUS
 62
               3
  5
62B
 10
466.78652321630801
 20
-1197.5330918712989
 30
0.0
 40
2.5
 50
179.99999999989538
 51
269.99999999984436
  0
ARC
  8
0
  6
CONTINUOUS
 62
               3
  5
62C
 10
466.78652321630801
 20
-1087.3330918712988
 30
0.0
 40
2.5
 50
89.999999999948997
 51
179.99999999989538
  0
LINE
  8
0
  6
CONTINUOUS
 62
               3
  5
62D
 10
576.84812004969035
 20
-1102.433091871299
 30
0.0
 11
609.28652321630818
 21
-1102.433091871299
 31
0.0
  0
LINE
  8
0
  6
CONTINUOUS
 62
               3
  5
62E
 10
609.28652321630818
 20
-1102.433091871299
 30
0.0
 11
643.29019948814687
 21
-1102.433091871299
 31
0.0
  0
LINE
  8
0
  6
CONTINUOUS
 62
               3
  5
62F
 10
472.4580793422727
 20
-1199.9330918712988
 30
0.0
 11
472.45807934227224
 21
-1084.9330918712988
 31
0.0
  0
ARC
  8
0
  6
CONTINUOUS
 62
               3
  5
630
 10
563.62168994641752
 20
-1076.7465407178618
 30
0.0
 40
5.0
 50
271.99999999984402
 51
304.806757870252
  0
LINE
  8
0
  6
CONTINUOUS
 62
               3
  5
631
 10
664.28652321630796
 20
-1282.4330918712988
 30
0.0
 11
664.28652321630796
 21
-1281.7615357453344
 31
0.0
  0
LINE
  8
0
  6
CONTINUOUS
 62
               3
  5
632
 10
666.78652321630796
 20
-1279.261535745334
 30
0.0
 11
664.28652321630796
 21
-1281.7615357453344
 31
0.0
  0
LINE
  8
0
  6
CONTINUOUS
 62
               3
  5
633
 10
554.28652321630784
 20
-1282.4330918712988
 30
0.0
 11
554.28652321630784
 21
-1281.7615357453344
 31
0.0
  0
LINE
  8
0
  6
CONTINUOUS
 62
               3
  5
634
 10
551.78652321630784
 20
-1279.2615357453344
 30
0.0
 11
554.28652321630784
 21
-1281.7615357453344
 31
0.0
  0
LINE
  8
0
  6
CONTINUOUS
 62
               3
  5
635
 10
554.28652321630784
 20
-1281.7615357453344
 30
0.0
 11
664.28652321630796
 21
-1281.7615357453344
 31
0.0
  0
LINE
  8
0
  6
CONTINUOUS
 62
               3
  5
636
 10
554.45807934227196
 20
-1287.4330918712988
 30
0.0
 11
664.38652321630809
 21
-1287.4330918712988
 31
0.0
  0
LINE
  8
0
  6
CONTINUOUS
 62
               3
  5
637
 10
666.88652321630809
 20
-1282.4330918712988
 30
0.0
 11
551.68652321630793
 21
-1282.4330918712988
 31
0.0
  0
LINE
  8
0
  6
CONTINUOUS
 62
               3
  5
638
 10
551.68652321630793
 20
-1282.4330918712988
 30
0.0
 11
551.68652321630793
 21
-1284.9330918712988
 31
0.0
  0
LINE
  8
0
  6
CONTINUOUS
 62
               3
  5
639
 10
666.88652321630809
 20
-1282.4330918712988
 30
0.0
 11
666.88652321630809
 21
-1284.9330918712988
 31
0.0
  0
ARC
  8
0
  6
CONTINUOUS
 62
               3
  5
63A
 10
664.38652321630809
 20
-1284.9330918712988
 30
0.0
 40
2.5
 50
269.99999999984567
 51
359.99999999979076
  0
ARC
  8
0
  6
CONTINUOUS
 62
               3
  5
63B
 10
554.18652321630793
 20
-1284.9330918712988
 30
0.0
 40
2.5
 50
179.99999999989538
 51
269.99999999984567
  0
LINE
  8
0
  6
CONTINUOUS
 62
               3
  5
63C
 10
666.78652321630796
 20
-1279.261535745334
 30
0.0
 11
551.78652321630784
 21
-1279.2615357453344
 31
0.0
  0
LINE
  8
0
  6
CONTINUOUS
 62
               3
  5
63D
 10
669.9761202346491
 20
-1187.9234276576774
 30
0.0
 11
666.78652321630796
 21
-1279.261535745334
 31
0.0
  0
ARC
  8
0
  6
CONTINUOUS
 62
               3
  5
63E
 10
674.97307436974472
 20
-1188.0979251411898
 30
0.0
 40
5.0
 50
145.19324212948862
 51
177.99999999989819
  0
LINE
  8
0
  6
CONTINUOUS
 62
               3
  5
63F
 10
549.27250815133993
 20
-1207.2695635878497
 30
0.0
 11
551.78652321630784
 21
-1279.2615357453344
 31
0.0
  0
ARC
  8
0
  6
CONTINUOUS
 62
               3
  5
640
 10
544.27555401624454
 20
-1207.4440610713621
 30
0.0
 40
5.0
 50
1.9999999999958187
 51
87.99999999994921
  0
LINE
  8
0
  6
CONTINUOUS
 62
               3
  5
641
 10
534.28652321630807
 20
-1450.9325256198831
 30
0.0
 11
684.28652321630818
 21
-1450.9325256198831
 31
0.0
  0
LINE
  8
0
  6
CONTINUOUS
 62
               3
  5
642
 10
520.78652321630784
 20
-1460.9325256198831
 30
0.0
 11
520.78652321630784
 21
-1467.9325256198827
 31
0.0
  0
LINE
  8
0
  6
CONTINUOUS
 62
               3
  5
643
 10
520.78652321630784
 20
-1460.9325256198831
 30
0.0
 11
534.28652321630807
 21
-1450.9325256198831
 31
0.0
  0
ARC
  8
0
  6
CONTINUOUS
 62
               3
  5
644
 10
532.28652321630807
 20
-1472.5151013148384
 30
0.0
 40
4.9999999999999991
 50
0.0
 51
66.421821521760023
  0
LINE
  8
0
  6
CONTINUOUS
 62
               3
  5
645
 10
520.78652321630784
 20
-1467.9325256198827
 30
0.0
 11
697.78652321630773
 21
-1467.9325256198827
 31
0.0
  0
ARC
  8
0
  6
CONTINUOUS
 62
               3
  5
646
 10
554.28652321630807
 20
-1557.9325256198831
 30
0.0
 40
19.999999999999996
 50
148.21166938286279
 51
167.26981986159123
  0
LINE
  8
0
  6
CONTINUOUS
 62
               3
  5
647
 10
537.28652321630807
 20
-1472.5151013148384
 30
0.0
 11
537.28652321630807
 21
-1547.3968718670303
 31
0.0
  0
LINE
  8
0
  6
CONTINUOUS
 62
               3
  5
648
 10
681.28652321630796
 20
-1542.3968718670299
 30
0.0
 11
681.28652321630796
 21
-1472.5151013148384
 31
0.0
  0
LINE
  8
0
  6
CONTINUOUS
 62
               3
  5
649
 10
537.28652321630807
 20
-1547.3968718670303
 30
0.0
 11
680.78652321630841
 21
-1547.3968718670303
 31
0.0
  0
LINE
  8
0
  6
CONTINUOUS
 62
               3
  5
64A
 10
589.28652321630807
 20
-1467.9325256198827
 30
0.0
 11
589.28652321630807
 21
-1450.9325256198831
 31
0.0
  0
LINE
  8
0
  6
CONTINUOUS
 62
               3
  5
64B
 10
629.28652321630818
 20
-1450.9325256198831
 30
0.0
 11
629.28652321630818
 21
-1467.9325256198827
 31
0.0
  0
LINE
  8
0
  6
CONTINUOUS
 62
               3
  5
64C
 10
589.28652321630807
 20
-1460.9325256198831
 30
0.0
 11
629.28652321630818
 21
-1460.9325256198831
 31
0.0
  0
LINE
  8
0
  6
CONTINUOUS
 62
               3
  5
64D
 10
537.00236174230258
 20
-1450.9325256198831
 30
0.0
 11
537.00236174230258
 21
-1467.9325256198827
 31
0.0
  0
LINE
  8
0
  6
CONTINUOUS
 62
               3
  5
64E
 10
523.07602501568272
 20
-1460.9325256198831
 30
0.0
 11
523.07602501568272
 21
-1467.9325256198827
 31
0.0
  0
LINE
  8
0
  6
CONTINUOUS
 62
               3
  5
64F
 10
520.78652321630784
 20
-1460.9325256198831
 30
0.0
 11
523.07602501568272
 21
-1460.9325256198831
 31
0.0
  0
LINE
  8
0
  6
CONTINUOUS
 62
               3
  5
650
 10
523.07602501568272
 20
-1460.9325256198831
 30
0.0
 11
537.00236174230258
 21
-1450.9325256198831
 31
0.0
  0
LINE
  8
0
  6
CONTINUOUS
 62
               3
  5
651
 10
697.78652321630773
 20
-1460.9325256198831
 30
0.0
 11
697.78652321630773
 21
-1467.9325256198827
 31
0.0
  0
LINE
  8
0
  6
CONTINUOUS
 62
               3
  5
652
 10
697.78652321630773
 20
-1460.9325256198831
 30
0.0
 11
684.28652321630818
 21
-1450.9325256198831
 31
0.0
  0
ARC
  8
0
  6
CONTINUOUS
 62
               3
  5
653
 10
686.28652321630796
 20
-1472.5151013148384
 30
0.0
 40
4.9999999999999991
 50
113.57817847813573
 51
179.99999999989538
  0
LINE
  8
0
  6
CONTINUOUS
 62
               3
  5
654
 10
681.57068469031231
 20
-1450.9325256198831
 30
0.0
 11
681.57068469031231
 21
-1467.9325256198827
 31
0.0
  0
LINE
  8
0
  6
CONTINUOUS
 62
               3
  5
655
 10
695.49702141693331
 20
-1460.9325256198831
 30
0.0
 11
695.49702141693331
 21
-1467.9325256198827
 31
0.0
  0
LINE
  8
0
  6
CONTINUOUS
 62
               3
  5
656
 10
697.78652321630773
 20
-1460.9325256198831
 30
0.0
 11
695.49702141693331
 21
-1460.9325256198831
 31
0.0
  0
LINE
  8
0
  6
CONTINUOUS
 62
               3
  5
657
 10
695.49702141693331
 20
-1460.9325256198831
 30
0.0
 11
681.57068469031231
 21
-1450.9325256198831
 31
0.0
  0
ARC
  8
0
  6
CONTINUOUS
 62
               3
  5
658
 10
544.28652321630807
 20
-1679.4325256198831
 30
0.0
 40
2.4999999999999996
 50
89.99999999994769
 51
269.99999999984567
  0
ARC
  8
0
  6
CONTINUOUS
 62
               3
  5
659
 10
684.28652321630818
 20
-1679.4325256198831
 30
0.0
 40
2.4999999999999996
 50
269.99999999984567
 51
449.99999999974102
  0
LINE
  8
0
  6
CONTINUOUS
 62
               3
  5
65A
 10
469.28652321630801
 20
-1671.9325256198831
 30
0.0
 11
469.95807934227236
 21
-1671.9325256198831
 31
0.0
  0
LINE
  8
0
  6
CONTINUOUS
 62
               3
  5
65B
 10
472.45807934227247
 20
-1674.4325256198824
 30
0.0
 11
469.95807934227236
 21
-1671.9325256198831
 31
0.0
  0
LINE
  8
0
  6
CONTINUOUS
 62
               3
  5
65C
 10
472.45807934227327
 20
-1674.4325256198831
 30
0.0
 11
514.62318959855065
 21
-1675.9049637157373
 31
0.0
  0
LINE
  8
0
  6
CONTINUOUS
 62
               3
  5
65D
 10
532.82205712224049
 20
-1692.2042150461691
 30
0.0
 11
517.98422602097082
 21
-1677.3663839448998
 31
0.0
  0
ARC
  8
0
  6
CONTINUOUS
 62
               3
  5
65E
 10
529.28652321630807
 20
-1695.7397489521022
 30
0.0
 40
4.9999999999999991
 50
0.0
 51
44.999999999973191
  0
LINE
  8
0
  6
CONTINUOUS
 62
               3
  5
65F
 10
469.28652321630801
 20
-1561.9325256198831
 30
0.0
 11
469.95807934227236
 21
-1561.9325256198831
 31
0.0
  0
LINE
  8
0
  6
CONTINUOUS
 62
               3
  5
660
 10
472.45807934227247
 20
-1559.4325256198831
 30
0.0
 11
469.95807934227236
 21
-1561.9325256198831
 31
0.0
  0
LINE
  8
0
  6
CONTINUOUS
 62
               3
  5
661
 10
472.45807934227236
 20
-1559.4325256198831
 30
0.0
 11
530.07555554444662
 21
-1557.4204790147307
 31
0.0
  0
LINE
  8
0
  6
CONTINUOUS
 62
               3
  5
662
 10
469.95807934227236
 20
-1561.9325256198831
 30
0.0
 11
469.95807934227236
 21
-1671.9325256198831
 31
0.0
  0
LINE
  8
0
  6
CONTINUOUS
 62
               3
  5
663
 10
469.28652321630801
 20
-1674.532525619883
 30
0.0
 11
469.28652321630801
 21
-1559.3325256198832
 31
0.0
  0
LINE
  8
0
  6
CONTINUOUS
 62
               3
  5
664
 10
469.28652321630801
 20
-1559.3325256198832
 30
0.0
 11
466.78652321630801
 21
-1559.3325256198832
 31
0.0
  0
ARC
  8
0
  6
CONTINUOUS
 62
               3
  5
665
 10
466.78652321630801
 20
-1561.8325256198832
 30
0.0
 40
2.5
 50
89.999999999948997
 51
179.99999999989538
  0
LINE
  8
0
  6
CONTINUOUS
 62
               3
  5
666
 10
464.28652321630801
 20
-1561.8325256198832
 30
0.0
 11
464.28652321630801
 21
-1672.032525619883
 31
0.0
  0
LINE
  8
0
  6
CONTINUOUS
 62
               3
  5
667
 10
469.28652321630801
 20
-1674.532525619883
 30
0.0
 11
466.78652321630801
 21
-1674.532525619883
 31
0.0
  0
ARC
  8
0
  6
CONTINUOUS
 62
               3
  5
668
 10
466.78652321630801
 20
-1672.032525619883
 30
0.0
 40
2.5
 50
179.99999999989538
 51
269.99999999984436
  0
LINE
  8
0
  6
CONTINUOUS
 62
               3
  5
669
 10
472.45807934227247
 20
-1559.4325256198831
 30
0.0
 11
472.45807934227327
 21
-1674.4325256198831
 31
0.0
  0
ARC
  8
0
  6
CONTINUOUS
 62
               3
  5
66A
 10
514.44869211503817
 20
-1680.9019178508327
 30
0.0
 40
5.0
 50
44.999999999975493
 51
87.999999999949253
  0
ARC
  8
0
  6
CONTINUOUS
 62
               3
  5
66B
 10
529.90105806093425
 20
-1552.4235248796354
 30
0.0
 40
5.0
 50
271.99999999984408
 51
347.26981986148661
  0
CIRCLE
  8
0
  6
CONTINUOUS
 62
               3
  5
66C
 10
609.28652321630818
 20
-1616.9325256198831
 30
0.0
 40
48.5
  0
CIRCLE
  8
0
  6
CONTINUOUS
 62
               3
  5
66D
 10
609.28652321630818
 20
-1616.9325256198831
 30
0.0
 40
47.299999999999997
  0
LINE
  8
0
  6
CONTINUOUS
 62
               3
  5
66E
 10
577.46671806291351
 20
-1648.7523307732777
 30
0.0
 11
575.84037246618436
 21
-1650.3786763700068
 31
0.0
  0
LINE
  8
0
  6
CONTINUOUS
 62
               3
  5
66F
 10
641.10632836970274
 20
-1648.7523307732777
 30
0.0
 11
642.73267396643189
 21
-1650.3786763700068
 31
0.0
  0
ARC
  8
0
  6
CONTINUOUS
 62
               3
  5
670
 10
609.28652321630818
 20
-1616.9325256198831
 30
0.0
 40
45.0
 50
224.99999999987043
 51
314.99999999981884
  0
CIRCLE
  8
0
  6
CONTINUOUS
 62
               3
  5
671
 10
609.28652321630818
 20
-1616.9325256198831
 30
0.0
 40
57.600000000000001
  0
ARC
  8
0
  6
CONTINUOUS
 62
               3
  5
672
 10
586.78652321630852
 20
-1679.4325256198831
 30
0.0
 40
2.4999999999999996
 50
269.99999999984567
 51
449.99999999974102
  0
ARC
  8
0
  6
CONTINUOUS
 62
               3
  5
673
 10
631.78652321630864
 20
-1679.4325256198831
 30
0.0
 40
2.4999999999999996
 50
89.99999999994769
 51
269.99999999984567
  0
LINE
  8
0
  6
CONTINUOUS
 62
               3
  5
674
 10
544.28652321630807
 20
-1681.9325256198831
 30
0.0
 11
586.78652321630852
 21
-1681.9325256198831
 31
0.0
  0
LINE
  8
0
  6
CONTINUOUS
 62
               3
  5
675
 10
544.28652321630807
 20
-1676.9325256198831
 30
0.0
 11
586.78652321630852
 21
-1676.9325256198831
 31
0.0
  0
LINE
  8
0
  6
CONTINUOUS
 62
               3
  5
676
 10
631.78652321630864
 20
-1676.9325256198831
 30
0.0
 11
684.28652321630818
 21
-1676.9325256198831
 31
0.0
  0
LINE
  8
0
  6
CONTINUOUS
 62
               3
  5
677
 10
631.78652321630864
 20
-1681.9325256198831
 30
0.0
 11
684.28652321630818
 21
-1681.9325256198831
 31
0.0
  0
CIRCLE
  8
0
  6
CONTINUOUS
 62
               3
  5
678
 10
609.28652321630818
 20
-1142.4330918712988
 30
0.0
 40
59.0
  0
INSERT
  8
0
  6
CONTINUOUS
  5
679
  2
GROUP_1
 10
0.0
 20
0.0
 30
0.0
  0
INSERT
  8
0
  6
CONTINUOUS
  5
67A
  2
GROUP_2
 10
0.0
 20
0.0
 30
0.0
  0
INSERT
  8
0
  6
CONTINUOUS
  5
67B
  2
GROUP_3
 10
0.0
 20
0.0
 30
0.0
  0
INSERT
  8
0
  6
CONTINUOUS
  5
67C
  2
GROUP_4
 10
0.0
 20
0.0
 30
0.0
  0
INSERT
  8
0
  6
CONTINUOUS
  5
67D
  2
GROUP_5
 10
0.0
 20
0.0
 30
0.0
  0
INSERT
  8
0
  6
CONTINUOUS
  5
67E
  2
GROUP_6
 10
0.0
 20
0.0
 30
0.0
  0
INSERT
  8
0
  6
CONTINUOUS
  5
67F
  2
GROUP_7
 10
0.0
 20
0.0
 30
0.0
  0
INSERT
  8
0
  6
CONTINUOUS
  5
680
  2
GROUP_8
 10
0.0
 20
0.0
 30
0.0
  0
INSERT
  8
0
  6
CONTINUOUS
  5
681
  2
GROUP_9
 10
0.0
 20
0.0
 30
0.0
  0
INSERT
  8
0
  6
CONTINUOUS
  5
682
  2
GROUP_10
 10
0.0
 20
0.0
 30
0.0
  0
INSERT
  8
0
  6
CONTINUOUS
  5
683
  2
GROUP_11
 10
0.0
 20
0.0
 30
0.0
  0
INSERT
  8
0
  6
CONTINUOUS
  5
684
  2
GROUP_12
 10
0.0
 20
0.0
 30
0.0
  0
INSERT
  8
0
  6
CONTINUOUS
  5
685
  2
GROUP_13
 10
0.0
 20
0.0
 30
0.0
  0
LINE
  8
0
  6
DASHED2
 62
               7
  5
686
 10
57.000000000000057
 20
-499.57622735824884
 30
0.0
 11
57.000000000000057
 21
-539.57622735824941
 31
0.0
  0
LINE
  8
0
  6
DASHED2
 62
               7
  5
687
 10
-57.0
 20
-499.57622735824884
 30
0.0
 11
-57.0
 21
-539.5762273582493
 31
0.0
  0
LINE
  8
0
  6
DASHED2
 62
               7
  5
688
 10
-542.99999999999966
 20
-499.57622735824941
 30
0.0
 11
-542.99999999999966
 21
-539.57622735824953
 31
0.0
  0
LINE
  8
0
  6
DASHED2
 62
               7
  5
689
 10
-656.99999999999977
 20
-499.57622735824941
 30
0.0
 11
-656.99999999999977
 21
-539.57622735824918
 31
0.0
  0
LINE
  8
0
  6
DASHED2
 62
               7
  5
68A
 10
657.00000000000034
 20
-499.57622735824941
 30
0.0
 11
657.00000000000034
 21
-539.57622735824953
 31
0.0
  0
LINE
  8
0
  6
DASHED2
 62
               7
  5
68B
 10
543.00000000000023
 20
-499.57622735824941
 30
0.0
 11
543.00000000000023
 21
-539.57622735824918
 31
0.0
  0
CIRCLE
  8
0
  6
CONTINUOUS
 62
               7
  5
68C
 10
-392.13776905046853
 20
-1206.6175274430898
 30
0.0
 40
38.0
  0
CIRCLE
  8
0
  6
CONTINUOUS
 62
               7
  5
68D
 10
-392.13776905046853
 20
-1206.6175274430898
 30
0.0
 40
33.5
  0
LINE
  8
0
  6
CONTINUOUS
 62
               7
  5
68E
 10
-247.63776905046853
 20
-1155.6175274430898
 30
0.0
 11
-247.63776905046853
 21
-1244.6122913224153
 31
0.0
  0
LINE
  8
0
  6
CONTINUOUS
 62
               7
  5
68F
 10
-247.03776905046851
 20
-1155.6175274430898
 30
0.0
 11
-247.63776905046853
 21
-1155.6175274430898
 31
0.0
  0
LINE
  8
0
  6
CONTINUOUS
 62
               7
  5
690
 10
-282.63776905046853
 20
-1243.6175274430898
 30
0.0
 11
-282.63776905046853
 21
-1169.6175274430898
 31
0.0
  0
LINE
  8
0
  6
CONTINUOUS
 62
               7
  5
691
 10
-189.63776905046853
 20
-1243.6175274430898
 30
0.0
 11
-189.63776905046853
 21
-1156.6175274430898
 31
0.0
  0
LINE
  8
0
  6
CONTINUOUS
 62
               7
  5
692
 10
-247.63776905046853
 20
-1155.6175274430898
 30
0.0
 11
-190.63776905046853
 21
-1155.6175274430898
 31
0.0
  0
LINE
  8
0
  6
CONTINUOUS
 62
               7
  5
693
 10
-281.63776905046853
 20
-1244.6175274430898
 30
0.0
 11
-190.63776905046853
 21
-1244.6175274430898
 31
0.0
  0
LINE
  8
0
  6
CONTINUOUS
 62
               7
  5
694
 10
-190.63776905046853
 20
-1155.6175274430898
 30
0.0
 11
-189.63776905046853
 21
-1156.6175274430898
 31
0.0
  0
LINE
  8
0
  6
CONTINUOUS
 62
               7
  5
695
 10
-189.63776905046853
 20
-1243.6175274430898
 30
0.0
 11
-190.63776905046853
 21
-1244.6175274430898
 31
0.0
  0
LINE
  8
0
  6
CONTINUOUS
 62
               7
  5
696
 10
-281.63776905046853
 20
-1168.6175274430898
 30
0.0
 11
-247.63776905046853
 21
-1168.6175274430898
 31
0.0
  0
CIRCLE
  8
0
  6
CONTINUOUS
 62
               7
  5
697
 10
-392.13776905046853
 20
-1200.1175274430898
 30
0.0
 40
44.5
  0
LINE
  8
0
  6
CONTINUOUS
 62
               7
  5
698
 10
-281.63776905046853
 20
-1168.6175274430898
 30
0.0
 11
-282.63776905046853
 21
-1169.6175274430898
 31
0.0
  0
LINE
  8
0
  6
CONTINUOUS
 62
               7
  5
699
 10
-282.63776905046853
 20
-1243.6175274430898
 30
0.0
 11
-281.63776905046853
 21
-1244.6175274430898
 31
0.0
  0
LINE
  8
0
  6
CONTINUOUS
 62
               7
  5
69A
 10
-536.63776905046836
 20
-1155.6175274430896
 30
0.0
 11
-536.63776905046836
 21
-1244.6122913224151
 31
0.0
  0
LINE
  8
0
  6
CONTINUOUS
 62
               7
  5
69B
 10
-537.23776905046827
 20
-1155.6175274430896
 30
0.0
 11
-536.63776905046836
 21
-1155.6175274430896
 31
0.0
  0
LINE
  8
0
  6
CONTINUOUS
 62
               7
  5
69C
 10
-501.63776905046853
 20
-1243.6175274430896
 30
0.0
 11
-501.63776905046842
 21
-1169.6175274430896
 31
0.0
  0
LINE
  8
0
  6
CONTINUOUS
 62
               7
  5
69D
 10
-594.63776905046836
 20
-1243.6175274430896
 30
0.0
 11
-594.63776905046836
 21
-1156.6175274430896
 31
0.0
  0
LINE
  8
0
  6
CONTINUOUS
 62
               7
  5
69E
 10
-536.63776905046836
 20
-1155.6175274430896
 30
0.0
 11
-593.63776905046836
 21
-1155.6175274430896
 31
0.0
  0
LINE
  8
0
  6
CONTINUOUS
 62
               7
  5
69F
 10
-502.63776905046853
 20
-1244.6175274430896
 30
0.0
 11
-593.63776905046836
 21
-1244.6175274430896
 31
0.0
  0
LINE
  8
0
  6
CONTINUOUS
 62
               7
  5
6A0
 10
-593.63776905046836
 20
-1155.6175274430896
 30
0.0
 11
-594.63776905046836
 21
-1156.6175274430896
 31
0.0
  0
LINE
  8
0
  6
CONTINUOUS
 62
               7
  5
6A1
 10
-594.63776905046836
 20
-1243.6175274430896
 30
0.0
 11
-593.63776905046836
 21
-1244.6175274430896
 31
0.0
  0
LINE
  8
0
  6
CONTINUOUS
 62
               7
  5
6A2
 10
-502.63776905046842
 20
-1168.6175274430896
 30
0.0
 11
-536.63776905046836
 21
-1168.6175274430896
 31
0.0
  0
LINE
  8
0
  6
CONTINUOUS
 62
               7
  5
6A3
 10
-502.63776905046842
 20
-1168.6175274430896
 30
0.0
 11
-501.63776905046842
 21
-1169.6175274430896
 31
0.0
  0
LINE
  8
0
  6
CONTINUOUS
 62
               7
  5
6A4
 10
-501.63776905046853
 20
-1243.6175274430896
 30
0.0
 11
-502.63776905046853
 21
-1244.6175274430896
 31
0.0
  0
LINE
  8
0
  6
CONTINUOUS
 62
               7
  5
6A5
 10
-349.58372644623506
 20
-1048.1496433740549
 30
0.0
 11
-438.57849032556061
 21
-1048.1496433740547
 31
0.0
  0
LINE
  8
0
  6
CONTINUOUS
 62
               7
  5
6A6
 10
-349.58372644623506
 20
-1047.5496433740548
 30
0.0
 11
-349.58372644623506
 21
-1048.1496433740549
 31
0.0
  0
LINE
  8
0
  6
CONTINUOUS
 62
               7
  5
6A7
 10
-431.08372644623506
 20
-1083.1496433740547
 30
0.0
 11
-357.08372644623506
 21
-1083.1496433740549
 31
0.0
  0
LINE
  8
0
  6
CONTINUOUS
 62
               7
  5
6A8
 10
-437.58372644623495
 20
-990.14964337405468
 30
0.0
 11
-350.58372644623506
 21
-990.1496433740549
 31
0.0
  0
LINE
  8
0
  6
CONTINUOUS
 62
               7
  5
6A9
 10
-349.58372644623506
 20
-1048.1496433740549
 30
0.0
 11
-349.58372644623506
 21
-991.1496433740549
 31
0.0
  0
LINE
  8
0
  6
CONTINUOUS
 62
               7
  5
6AA
 10
-432.08372644623506
 20
-1082.1496433740547
 30
0.0
 11
-432.08372644623506
 21
-1048.1496433740547
 31
0.0
  0
LINE
  8
0
  6
CONTINUOUS
 62
               7
  5
6AB
 10
-349.58372644623506
 20
-991.1496433740549
 30
0.0
 11
-350.58372644623506
 21
-990.1496433740549
 31
0.0
  0
LINE
  8
0
  6
CONTINUOUS
 62
               7
  5
6AC
 10
-437.58372644623495
 20
-990.14964337405468
 30
0.0
 11
-438.58372644623495
 21
-991.14964337405468
 31
0.0
  0
LINE
  8
0
  6
CONTINUOUS
 62
               7
  5
6AD
 10
-356.08372644623506
 20
-1082.1496433740549
 30
0.0
 11
-356.08372644623506
 21
-1048.1496433740547
 31
0.0
  0
LINE
  8
0
  6
CONTINUOUS
 62
               7
  5
6AE
 10
-356.08372644623506
 20
-1082.1496433740549
 30
0.0
 11
-357.08372644623506
 21
-1083.1496433740549
 31
0.0
  0
LINE
  8
0
  6
CONTINUOUS
 62
               7
  5
6AF
 10
-431.08372644623506
 20
-1083.1496433740547
 30
0.0
 11
-432.08372644623506
 21
-1082.1496433740547
 31
0.0
  0
LINE
  8
0
  6
CONTINUOUS
 62
               7
  5
6B0
 10
-438.58372644623506
 20
-1048.1496433740547
 30
0.0
 11
-438.58372644623506
 21
-991.14964337405468
 31
0.0
  0
LINE
  8
0
  6
CONTINUOUS
 62
               7
  5
6B1
 10
216.63392368588114
 20
-1243.6175274430898
 30
0.0
 11
216.63392368588114
 21
-1185.6175274430898
 31
0.0
  0
LINE
  8
0
  6
CONTINUOUS
 62
               7
  5
6B2
 10
242.23392368588105
 20
-1155.6175274430898
 30
0.0
 11
242.23392368588105
 21
-1244.6175274430898
 31
0.0
  0
LINE
  8
0
  6
CONTINUOUS
 62
               7
  5
6B3
 10
242.83392368588119
 20
-1155.6175274430898
 30
0.0
 11
242.23392368588105
 21
-1155.6175274430898
 31
0.0
  0
LINE
  8
0
  6
CONTINUOUS
 62
               7
  5
6B4
 10
300.23392368588128
 20
-1243.6175274430898
 30
0.0
 11
300.23392368588128
 21
-1156.6175274430898
 31
0.0
  0
CIRCLE
  8
0
  6
CONTINUOUS
 62
               7
  5
6B5
 10
120.87790746063816
 20
-1214.6175274430898
 30
0.0
 40
30.0
  0
CIRCLE
  8
0
  6
CONTINUOUS
 62
               7
  5
6B6
 10
120.87790746063816
 20
-1214.6175274430898
 30
0.0
 40
25.5
  0
CIRCLE
  8
0
  6
CONTINUOUS
 62
               7
  5
6B7
 10
120.87790746063816
 20
-1200.1175274430898
 30
0.0
 40
44.5
  0
LINE
  8
0
  6
CONTINUOUS
 62
               7
  5
6B8
 10
242.36837543136147
 20
-1155.6175274430898
 30
0.0
 11
299.23392368588128
 21
-1155.6175274430898
 31
0.0
  0
LINE
  8
0
  6
CONTINUOUS
 62
               7
  5
6B9
 10
217.63392368588114
 20
-1244.6175274430898
 30
0.0
 11
299.23392368588128
 21
-1244.6175274430898
 31
0.0
  0
LINE
  8
0
  6
CONTINUOUS
 62
               7
  5
6BA
 10
217.63392368588114
 20
-1184.6175274430898
 30
0.0
 11
242.23392368588105
 21
-1184.6175274430898
 31
0.0
  0
LINE
  8
0
  6
CONTINUOUS
 62
               7
  5
6BB
 10
217.63392368588114
 20
-1184.6175274430898
 30
0.0
 11
216.63392368588114
 21
-1185.6175274430898
 31
0.0
  0
LINE
  8
0
  6
CONTINUOUS
 62
               7
  5
6BC
 10
299.23392368588128
 20
-1155.6175274430898
 30
0.0
 11
300.23392368588128
 21
-1156.6175274430898
 31
0.0
  0
LINE
  8
0
  6
CONTINUOUS
 62
               7
  5
6BD
 10
216.63392368588114
 20
-1243.6175274430898
 30
0.0
 11
217.63392368588114
 21
-1244.6175274430898
 31
0.0
  0
LINE
  8
0
  6
CONTINUOUS
 62
               7
  5
6BE
 10
300.23392368588128
 20
-1243.6175274430898
 30
0.0
 11
299.23392368588128
 21
-1244.6175274430898
 31
0.0
  0
LINE
  8
0
  6
CONTINUOUS
 62
               7
  5
6BF
 10
25.121891235395381
 20
-1243.6175274430898
 30
0.0
 11
25.121891235395381
 21
-1185.6175274430898
 31
0.0
  0
LINE
  8
0
  6
CONTINUOUS
 62
               7
  5
6C0
 10
-0.4781087646046416
 20
-1155.6175274430898
 30
0.0
 11
-0.4781087646046416
 21
-1244.6175274430898
 31
0.0
  0
LINE
  8
0
  6
CONTINUOUS
 62
               7
  5
6C1
 10
-1.0781087646046643
 20
-1155.6175274430898
 30
0.0
 11
-0.4781087646046416
 21
-1155.6175274430898
 31
0.0
  0
LINE
  8
0
  6
CONTINUOUS
 62
               7
  5
6C2
 10
-58.478108764604642
 20
-1243.6175274430898
 30
0.0
 11
-58.478108764604642
 21
-1156.6175274430898
 31
0.0
  0
LINE
  8
0
  6
CONTINUOUS
 62
               7
  5
6C3
 10
-0.6125605100849469
 20
-1155.6175274430898
 30
0.0
 11
-57.478108764604642
 21
-1155.6175274430898
 31
0.0
  0
LINE
  8
0
  6
CONTINUOUS
 62
               7
  5
6C4
 10
24.121891235395381
 20
-1244.6175274430898
 30
0.0
 11
-57.478108764604642
 21
-1244.6175274430898
 31
0.0
  0
LINE
  8
0
  6
CONTINUOUS
 62
               7
  5
6C5
 10
24.121891235395381
 20
-1184.6175274430898
 30
0.0
 11
-0.4781087646046416
 21
-1184.6175274430898
 31
0.0
  0
LINE
  8
0
  6
CONTINUOUS
 62
               7
  5
6C6
 10
24.121891235395381
 20
-1184.6175274430898
 30
0.0
 11
25.121891235395381
 21
-1185.6175274430898
 31
0.0
  0
LINE
  8
0
  6
CONTINUOUS
 62
               7
  5
6C7
 10
-57.478108764604642
 20
-1155.6175274430898
 30
0.0
 11
-58.478108764604642
 21
-1156.6175274430898
 31
0.0
  0
LINE
  8
0
  6
CONTINUOUS
 62
               7
  5
6C8
 10
25.121891235395381
 20
-1243.6175274430898
 30
0.0
 11
24.121891235395381
 21
-1244.6175274430898
 31
0.0
  0
LINE
  8
0
  6
CONTINUOUS
 62
               7
  5
6C9
 10
-58.478108764604642
 20
-1243.6175274430898
 30
0.0
 11
-57.478108764604642
 21
-1244.6175274430898
 31
0.0
  0
LINE
  8
0
  6
CONTINUOUS
 62
               7
  5
6CA
 10
91.877907460638383
 20
-1093.861511217847
 30
0.0
 11
149.87790746063837
 21
-1093.861511217847
 31
0.0
  0
LINE
  8
0
  6
CONTINUOUS
 62
               7
  5
6CB
 10
165.37790746063837
 20
-1068.2615112178469
 30
0.0
 11
76.377907460638383
 21
-1068.2615112178469
 31
0.0
  0
LINE
  8
0
  6
CONTINUOUS
 62
               7
  5
6CC
 10
165.37790746063837
 20
-1067.661511217847
 30
0.0
 11
165.37790746063837
 21
-1068.2615112178469
 31
0.0
  0
LINE
  8
0
  6
CONTINUOUS
 62
               7
  5
6CD
 10
77.377907460638383
 20
-1010.2615112178469
 30
0.0
 11
164.37790746063837
 21
-1010.2615112178469
 31
0.0
  0
LINE
  8
0
  6
CONTINUOUS
 62
               7
  5
6CE
 10
165.37790746063837
 20
-1068.1270594723667
 30
0.0
 11
165.37790746063837
 21
-1011.2615112178469
 31
0.0
  0
LINE
  8
0
  6
CONTINUOUS
 62
               7
  5
6CF
 10
90.877907460638383
 20
-1092.861511217847
 30
0.0
 11
90.877907460638383
 21
-1068.2615112178469
 31
0.0
  0
LINE
  8
0
  6
CONTINUOUS
 62
               7
  5
6D0
 10
150.87790746063837
 20
-1092.861511217847
 30
0.0
 11
150.87790746063837
 21
-1068.2615112178469
 31
0.0
  0
LINE
  8
0
  6
CONTINUOUS
 62
               7
  5
6D1
 10
150.87790746063837
 20
-1092.861511217847
 30
0.0
 11
149.87790746063837
 21
-1093.861511217847
 31
0.0
  0
LINE
  8
0
  6
CONTINUOUS
 62
               7
  5
6D2
 10
165.37790746063837
 20
-1011.2615112178469
 30
0.0
 11
164.37790746063837
 21
-1010.2615112178469
 31
0.0
  0
LINE
  8
0
  6
CONTINUOUS
 62
               7
  5
6D3
 10
91.877907460638383
 20
-1093.861511217847
 30
0.0
 11
90.877907460638383
 21
-1092.861511217847
 31
0.0
  0
LINE
  8
0
  6
CONTINUOUS
 62
               7
  5
6D4
 10
77.377907460638383
 20
-1010.2615112178469
 30
0.0
 11
76.377907460638383
 21
-1011.2615112178469
 31
0.0
  0
LINE
  8
0
  6
CONTINUOUS
 62
               7
  5
6D5
 10
76.377907460638383
 20
-1068.1270594723665
 30
0.0
 11
76.377907460638383
 21
-1011.2615112178469
 31
0.0
  0
CIRCLE
  8
0
  6
CONTINUOUS
 62
               7
  5
6D6
 10
609.28652321630818
 20
-1631.4325256198831
 30
0.0
 40
25.5
  0
CIRCLE
  8
0
  6
CONTINUOUS
 62
               7
  5
6D7
 10
609.28652321630818
 20
-1616.9325256198831
 30
0.0
 40
44.5
  0
CIRCLE
  8
0
  6
CONTINUOUS
 62
               7
  5
6D8
 10
609.28652321630818
 20
-1631.4325256198831
 30
0.0
 40
30.0
  0
LINE
  8
0
  6
CONTINUOUS
 62
               7
  5
6D9
 10
580.28652321630807
 20
-1313.0330918712987
 30
0.0
 11
638.28652321630818
 21
-1313.0330918712987
 31
0.0
  0
LINE
  8
0
  6
CONTINUOUS
 62
               7
  5
6DA
 10
653.78652321630818
 20
-1287.4330918712988
 30
0.0
 11
564.78652321630807
 21
-1287.4330918712988
 31
0.0
  0
LINE
  8
0
  6
CONTINUOUS
 62
               7
  5
6DB
 10
653.78652321630818
 20
-1286.8330918712988
 30
0.0
 11
653.78652321630818
 21
-1287.4330918712988
 31
0.0
  0
LINE
  8
0
  6
CONTINUOUS
 62
               7
  5
6DC
 10
565.78652321630807
 20
-1229.4330918712988
 30
0.0
 11
652.78652321630818
 21
-1229.4330918712988
 31
0.0
  0
LINE
  8
0
  6
CONTINUOUS
 62
               7
  5
6DD
 10
653.78652321630818
 20
-1287.2986401258183
 30
0.0
 11
653.78652321630818
 21
-1230.4330918712988
 31
0.0
  0
LINE
  8
0
  6
CONTINUOUS
 62
               7
  5
6DE
 10
579.28652321630807
 20
-1312.0330918712987
 30
0.0
 11
579.28652321630807
 21
-1287.4330918712988
 31
0.0
  0
LINE
  8
0
  6
CONTINUOUS
 62
               7
  5
6DF
 10
639.28652321630818
 20
-1312.0330918712987
 30
0.0
 11
639.28652321630818
 21
-1287.4330918712988
 31
0.0
  0
LINE
  8
0
  6
CONTINUOUS
 62
               7
  5
6E0
 10
639.28652321630818
 20
-1312.0330918712987
 30
0.0
 11
638.28652321630818
 21
-1313.0330918712987
 31
0.0
  0
LINE
  8
0
  6
CONTINUOUS
 62
               7
  5
6E1
 10
653.78652321630818
 20
-1230.4330918712988
 30
0.0
 11
652.78652321630818
 21
-1229.4330918712988
 31
0.0
  0
LINE
  8
0
  6
CONTINUOUS
 62
               7
  5
6E2
 10
580.28652321630807
 20
-1313.0330918712987
 30
0.0
 11
579.28652321630807
 21
-1312.0330918712987
 31
0.0
  0
LINE
  8
0
  6
CONTINUOUS
 62
               7
  5
6E3
 10
565.78652321630807
 20
-1229.4330918712988
 30
0.0
 11
564.78652321630807
 21
-1230.4330918712988
 31
0.0
  0
LINE
  8
0
  6
CONTINUOUS
 62
               7
  5
6E4
 10
564.78652321630807
 20
-1287.2986401258183
 30
0.0
 11
564.78652321630807
 21
-1230.4330918712988
 31
0.0
  0
LINE
  8
0
  6
CONTINUOUS
 62
               7
  5
6E5
 10
464.28652321630801
 20
-1572.4325256198831
 30
0.0
 11
464.28652321630801
 21
-1661.4272894992087
 31
0.0
  0
LINE
  8
0
  6
CONTINUOUS
 62
               7
  5
6E6
 10
464.88652321630803
 20
-1572.4325256198831
 30
0.0
 11
464.28652321630801
 21
-1572.4325256198831
 31
0.0
  0
LINE
  8
0
  6
CONTINUOUS
 62
               7
  5
6E7
 10
429.28652321630801
 20
-1660.4325256198831
 30
0.0
 11
429.28652321630801
 21
-1586.4325256198831
 31
0.0
  0
LINE
  8
0
  6
CONTINUOUS
 62
               7
  5
6E8
 10
522.28652321630807
 20
-1660.4325256198831
 30
0.0
 11
522.28652321630807
 21
-1573.4325256198831
 31
0.0
  0
LINE
  8
0
  6
CONTINUOUS
 62
               7
  5
6E9
 10
464.28652321630801
 20
-1572.4325256198831
 30
0.0
 11
521.28652321630807
 21
-1572.4325256198831
 31
0.0
  0
LINE
  8
0
  6
CONTINUOUS
 62
               7
  5
6EA
 10
430.28652321630801
 20
-1661.4325256198831
 30
0.0
 11
521.28652321630807
 21
-1661.4325256198831
 31
0.0
  0
LINE
  8
0
  6
CONTINUOUS
 62
               7
  5
6EB
 10
521.28652321630807
 20
-1572.4325256198831
 30
0.0
 11
522.28652321630807
 21
-1573.4325256198831
 31
0.0
  0
LINE
  8
0
  6
CONTINUOUS
 62
               7
  5
6EC
 10
522.28652321630807
 20
-1660.4325256198831
 30
0.0
 11
521.28652321630807
 21
-1661.4325256198831
 31
0.0
  0
LINE
  8
0
  6
CONTINUOUS
 62
               7
  5
6ED
 10
430.28652321630801
 20
-1585.4325256198831
 30
0.0
 11
464.28652321630801
 21
-1585.4325256198831
 31
0.0
  0
LINE
  8
0
  6
CONTINUOUS
 62
               7
  5
6EE
 10
430.28652321630801
 20
-1585.4325256198831
 30
0.0
 11
429.28652321630801
 21
-1586.4325256198831
 31
0.0
  0
LINE
  8
0
  6
CONTINUOUS
 62
               7
  5
6EF
 10
429.28652321630801
 20
-1660.4325256198831
 30
0.0
 11
430.28652321630801
 21
-1661.4325256198831
 31
0.0
  0
LINE
  8
0
  6
CONTINUOUS
 62
               7
  5
6F0
 10
464.28652321630801
 20
-1186.9330918712985
 30
0.0
 11
464.28652321630824
 21
-1097.938327991973
 31
0.0
  0
LINE
  8
0
  6
CONTINUOUS
 62
               7
  5
6F1
 10
464.88652321630815
 20
-1186.9330918712985
 30
0.0
 11
464.28652321630801
 21
-1186.9330918712985
 31
0.0
  0
LINE
  8
0
  6
CONTINUOUS
 62
               7
  5
6F2
 10
429.28652321630824
 20
-1105.4330918712985
 30
0.0
 11
429.28652321630801
 21
-1179.4330918712985
 31
0.0
  0
LINE
  8
0
  6
CONTINUOUS
 62
               7
  5
6F3
 10
522.2865232163083
 20
-1098.9330918712988
 30
0.0
 11
522.28652321630807
 21
-1185.9330918712985
 31
0.0
  0
LINE
  8
0
  6
CONTINUOUS
 62
               7
  5
6F4
 10
464.28652321630801
 20
-1186.9330918712985
 30
0.0
 11
521.28652321630807
 21
-1186.9330918712985
 31
0.0
  0
LINE
  8
0
  6
CONTINUOUS
 62
               7
  5
6F5
 10
430.28652321630824
 20
-1104.4330918712985
 30
0.0
 11
464.28652321630824
 21
-1104.4330918712985
 31
0.0
  0
LINE
  8
0
  6
CONTINUOUS
 62
               7
  5
6F6
 10
521.28652321630807
 20
-1186.9330918712985
 30
0.0
 11
522.28652321630807
 21
-1185.9330918712985
 31
0.0
  0
LINE
  8
0
  6
CONTINUOUS
 62
               7
  5
6F7
 10
522.2865232163083
 20
-1098.9330918712988
 30
0.0
 11
521.2865232163083
 21
-1097.9330918712988
 31
0.0
  0
LINE
  8
0
  6
CONTINUOUS
 62
               7
  5
6F8
 10
430.28652321630801
 20
-1180.4330918712985
 30
0.0
 11
464.28652321630824
 21
-1180.4330918712985
 31
0.0
  0
LINE
  8
0
  6
CONTINUOUS
 62
               7
  5
6F9
 10
430.28652321630801
 20
-1180.4330918712985
 30
0.0
 11
429.28652321630801
 21
-1179.4330918712985
 31
0.0
  0
LINE
  8
0
  6
CONTINUOUS
 62
               7
  5
6FA
 10
429.28652321630824
 20
-1105.4330918712985
 30
0.0
 11
430.28652321630824
 21
-1104.4330918712985
 31
0.0
  0
LINE
  8
0
  6
CONTINUOUS
 62
               7
  5
6FB
 10
464.28652321630824
 20
-1097.9330918712985
 30
0.0
 11
521.2865232163083
 21
-1097.9330918712985
 31
0.0
  0
CIRCLE
  8
0
  6
DASHED
 62
               7
  5
6FC
 10
-392.13776905046853
 20
-1200.1175274430898
 30
0.0
 40
40.0
  0
CIRCLE
  8
0
  6
DASHED
 62
               7
  5
6FD
 10
120.87790746063816
 20
-1200.1175274430898
 30
0.0
 40
40.0
  0
CIRCLE
  8
0
  6
DASHED
 62
               7
  5
6FE
 10
609.28652321630818
 20
-1616.9325256198831
 30
0.0
 40
40.0
  0
POINT
  8
0
  6
CONTINUOUS
 62
               5
  5
6FF
 10
-392.13776905046853
 20
-1200.1175274430898
 30
0.0
  0
POINT
  8
0
  6
CONTINUOUS
 62
               5
  5
700
 10
-218.9076975405082
 20
-1201.4083215179787
 30
0.0
  0
POINT
  8
0
  6
CONTINUOUS
 62
               5
  5
701
 10
-565.36784056042859
 20
-1201.4083215179785
 30
0.0
  0
POINT
  8
0
  6
CONTINUOUS
 62
               5
  5
702
 10
-395.37452052112411
 20
-1019.4195718640945
 30
0.0
  0
POINT
  8
0
  6
CONTINUOUS
 62
               5
  5
703
 10
493.01659472626835
 20
-1618.223319694772
 30
0.0
  0
POINT
  8
0
  6
CONTINUOUS
 62
               5
  5
704
 10
493.01659472626847
 20
-1141.1422977964096
 30
0.0
  0
TEXT
  8
0
 62
               3
  5
705
 10
-392.13776905046853
 20
-1284.6175274430896
 30
0.0
 40
40.0
  1
EMB_80×65
 41
0.8
 72
               1
 11
-392.13776905046853
 21
-1284.6175274430896
 31
0.0
 73
               3
  0
TEXT
  8
0
 62
               3
  5
706
 10
120.87790746063816
 20
-1284.6175274430898
 30
0.0
 40
40.0
  1
EMB_80×50
 41
0.8
 72
               1
 11
120.87790746063816
 21
-1284.6175274430898
 31
0.0
 73
               3
  0
TEXT
  8
0
 62
               3
  5
707
 10
605.58911923866788
 20
-962.98672336607956
 30
0.0
 40
40.0
  1
EMB使用例
 41
0.8
 72
               1
 11
605.58911923866788
 21
-962.98672336607956
 31
0.0
 73
               3
  0
TEXT
  8
0
 62
               3
  5
708
 10
-123.74270409089071
 20
-908.62658746573993
 30
0.0
 40
35.0
  1
横枝管に呼び６５、５０の管を接続するときは、EMBをご使用ください。
 41
0.8
 72
               1
 11
-123.74270409089071
 21
-908.62658746573993
 31
0.0
 73
               3
  0
ENDSEC
  0
EOF
