  0
SECTION
  2
HEADER
  9
$ACADVER
  1
AC1009
  9
$INSBASE
 10
0.0
 20
0.0
 30
0.0
  9
$EXTMIN
 10
-641.28625489580429
 20
-1569.690841753734
 30
0.0
  9
$EXTMAX
 10
744.43500906164365
 20
695.42042476353117
 30
0.0
  9
$LIMMIN
 10
-684.59004439447449
 20
-1640.4755688323985
  9
$LIMMAX
 10
787.73879856031385
 20
766.20515184219573
  9
$ORTHOMODE
 70
               0
  9
$REGENMODE
 70
               1
  9
$FILLMODE
 70
               1
  9
$QTEXTMODE
 70
               0
  9
$MIRRTEXT
 70
               1
  9
$DRAGMODE
 70
               2
  9
$LTSCALE
 40
1.0
  9
$OSMODE
 70
               0
  9
$ATTMODE
 70
               1
  9
$TEXTSIZE
 40
0.2
  9
$TRACEWID
 40
0.05
  9
$TEXTSTYLE
  7
STANDARD
  9
$CLAYER
  8
0
  9
$CELTYPE
  6
CONTINUOUS
  9
$CECOLOR
 62
             256
  9
$DIMSCALE
 40
1.0
  9
$DIMASZ
 40
0.18
  9
$DIMEXO
 40
0.0625
  9
$DIMDLI
 40
0.38
  9
$DIMRND
 40
0.0
  9
$DIMDLE
 40
0.0
  9
$DIMEXE
 40
0.18
  9
$DIMTP
 40
0.0
  9
$DIMTM
 40
0.0
  9
$DIMTXT
 40
0.18
  9
$DIMCEN
 40
0.09
  9
$DIMTSZ
 40
0.0
  9
$DIMTOL
 70
               0
  9
$DIMLIM
 70
               0
  9
$DIMTIH
 70
               1
  9
$DIMTOH
 70
               1
  9
$DIMSE1
 70
               0
  9
$DIMSE2
 70
               0
  9
$DIMTAD
 70
               0
  9
$DIMZIN
 70
               0
  9
$DIMBLK
  1

  9
$DIMASO
 70
               1
  9
$DIMSHO
 70
               1
  9
$DIMPOST
  1

  9
$DIMAPOST
  1

  9
$DIMALT
 70
               0
  9
$DIMALTD
 70
               2
  9
$DIMALTF
 40
25.399999999999999
  9
$DIMLFAC
 40
1.0
  9
$DIMTOFL
 70
               0
  9
$DIMTVP
 40
0.0
  9
$DIMTIX
 70
               0
  9
$DIMSOXD
 70
               0
  9
$DIMSAH
 70
               0
  9
$DIMBLK1
  1

  9
$DIMBLK2
  1

  9
$DIMSTYLE
  2
STANDARD
  9
$DIMCLRD
 70
               0
  9
$DIMCLRE
 70
               0
  9
$DIMCLRT
 70
               0
  9
$DIMTFAC
 40
1.0
  9
$DIMGAP
 40
0.09
  9
$LUNITS
 70
               2
  9
$LUPREC
 70
               4
  9
$AXISMODE
 70
               0
  9
$AXISUNIT
 10
0.0
 20
0.0
  9
$SKETCHINC
 40
0.1
  9
$FILLETRAD
 40
0.0
  9
$AUNITS
 70
               0
  9
$AUPREC
 70
               0
  9
$MENU
  1
acad
  9
$ELEVATION
 40
0.0
  9
$PELEVATION
 40
0.0
  9
$THICKNESS
 40
0.0
  9
$LIMCHECK
 70
               0
  9
$BLIPMODE
 70
               1
  9
$CHAMFERA
 40
0.0
  9
$CHAMFERB
 40
0.0
  9
$SKPOLY
 70
               0
  9
$TDCREATE
 40
0.000000000
  9
$TDUPDATE
 40
0.000000000
  9
$TDINDWG
 40
0.0000000000
  9
$TDUSRTIMER
 40
0.0000000000
  9
$USRTIMER
 70
               1
  9
$ANGBASE
 50
0.0
  9
$ANGDIR
 70
               0
  9
$PDMODE
 70
               0
  9
$PDSIZE
 40
1.0
  9
$PLINEWID
 40
0.0
  9
$COORDS
 70
               1
  9
$SPLFRAME
 70
               0
  9
$SPLINETYPE
 70
               6
  9
$SPLINESEGS
 70
               8
  9
$ATTDIA
 70
               0
  9
$ATTREQ
 70
               1
  9
$HANDLING
 70
               1
  9
$HANDSEED
  5
571
  9
$SURFTAB1
 70
               6
  9
$SURFTAB2
 70
               6
  9
$SURFTYPE
 70
               6
  9
$SURFU
 70
               6
  9
$SURFV
 70
               6
  9
$UCSNAME
  2

  9
$UCSORG
 10
0.0
 20
0.0
 30
0.0
  9
$UCSXDIR
 10
1.0
 20
0.0
 30
0.0
  9
$UCSYDIR
 10
0.0
 20
1.0
 30
0.0
  9
$PUCSNAME
  2

  9
$PUCSORG
 10
0.0
 20
0.0
 30
0.0
  9
$PUCSXDIR
 10
1.0
 20
0.0
 30
0.0
  9
$PUCSYDIR
 10
0.0
 20
1.0
 30
0.0
  9
$USERI1
 70
               0
  9
$USERI2
 70
               0
  9
$USERI3
 70
               0
  9
$USERI4
 70
               0
  9
$USERI5
 70
               0
  9
$USERR1
 40
0.0
  9
$USERR2
 40
0.0
  9
$USERR3
 40
0.0
  9
$USERR4
 40
0.0
  9
$USERR5
 40
0.0
  9
$WORLDVIEW
 70
               1
  9
$SHADEDGE
 70
               3
  9
$SHADEDIF
 70
              70
  9
$TILEMODE
 70
               1
  9
$MAXACTVP
 70
              16
  9
$PINSBASE
 10
0.0
 20
0.0
 30
0.0
  9
$PLIMCHECK
 70
               0
  9
$PEXTMIN
 10
1.0000000000000000E+20
 20
1.0000000000000000E+20
 30
1.0000000000000000E+20
  9
$PEXTMAX
 10
-1.0000000000000000E+20
 20
-1.0000000000000000E+20
 30
-1.0000000000000000E+20
  9
$PLIMMIN
 10
0.0
 20
0.0
  9
$PLIMMAX
 10
12.0
 20
9.0
  9
$UNITMODE
 70
               0
  9
$VISRETAIN
 70
               0
  9
$PLINEGEN
 70
               1
  9
$PSLTSCALE
 70
               0
  9
$TREEDEPTH
 70
            3020
  9
$DWGCODEPAGE
  3
dos932
  0
ENDSEC
  0
SECTION
  2
TABLES
  0
TABLE
  2
VPORT
 70
               1
  0
VPORT
  2
*ACTIVE
 70
               0
 10
0.0
 20
0.0
 11
1.0
 21
1.0
 12
51.574377082919682
 22
-437.13520849510138
 13
0.0
 23
0.0
 14
1.0
 24
1.0
 15
0.0
 25
0.0
 16
0.0
 26
0.0
 36
1.0
 17
0.0
 27
0.0
 37
0.0
 40
2406.6807206745943
 41
0.6117674148908683
 42
50.0
 43
0.0
 44
0.0
 50
0.0
 51
0.0
 71
               0
 72
             100
 73
               1
 74
               1
 75
               0
 76
               0
 77
               0
 78
               0
  0
ENDTAB
  0
TABLE
  2
LTYPE
 70
              26
  0
LTYPE
  2
CONTINUOUS
 70
               0
  3
Solid line
 72
              65
 73
               0
 40
0.0
  0
LTYPE
  2
HIDDENX2
 70
               0
  3
CADPAC FUSION LINETYPE
 72
              65
 73
               2
 40
47.560000000000002
 49
35.670000000000002
 49
-11.890000000000001
  0
LTYPE
  2
HIDDEN
 70
               0
  3
CADPAC FUSION LINETYPE
 72
              65
 73
               2
 40
35.670000000000002
 49
23.780000000000001
 49
-11.890000000000001
  0
LTYPE
  2
HIDDEN2
 70
               0
  3
CADPAC FUSION LINETYPE
 72
              65
 73
               2
 40
29.725000000000001
 49
17.835000000000001
 49
-11.890000000000001
  0
LTYPE
  2
DASHED
 70
               0
  3
CADPAC FUSION LINETYPE
 72
              65
 73
               2
 40
35.670000000000002
 49
23.780000000000001
 49
-11.890000000000001
  0
LTYPE
  2
DASHED2
 70
               0
  3
CADPAC FUSION LINETYPE
 72
              65
 73
               2
 40
26.752500000000001
 49
17.835000000000001
 49
-8.9175000000000004
  0
LTYPE
  2
DASHEDX2
 70
               0
  3
CADPAC FUSION LINETYPE
 72
              65
 73
               2
 40
53.505000000000003
 49
35.670000000000002
 49
-17.835000000000001
  0
LTYPE
  2
DOTX2
 70
               0
  3
CADPAC FUSION LINETYPE
 72
              65
 73
               2
 40
14.862500000000001
 49
0.0
 49
-14.862500000000001
  0
LTYPE
  2
DOT
 70
               0
  3
CADPAC FUSION LINETYPE
 72
              65
 73
               2
 40
11.890000000000001
 49
0.0
 49
-11.890000000000001
  0
LTYPE
  2
DOTS
 70
               0
  3
CADPAC FUSION LINETYPE
 72
              65
 73
               2
 40
11.890000000000001
 49
0.0
 49
-11.890000000000001
  0
LTYPE
  2
DOT2
 70
               0
  3
CADPAC FUSION LINETYPE
 72
              65
 73
               2
 40
8.9175000000000004
 49
0.0
 49
-8.9175000000000004
  0
LTYPE
  2
CENTERX2
 70
               0
  3
CADPAC FUSION LINETYPE
 72
              65
 73
               4
 40
71.340000000000003
 49
29.725000000000001
 49
-14.862500000000001
 49
11.890000000000001
 49
-14.862500000000001
  0
LTYPE
  2
CENTER
 70
               0
  3
CADPAC FUSION LINETYPE
 72
              65
 73
               4
 40
54.694000000000003
 49
23.780000000000001
 49
-11.890000000000001
 49
7.1340000000000003
 49
-11.890000000000001
  0
LTYPE
  2
CENTER2
 70
               0
  3
CADPAC FUSION LINETYPE
 72
              65
 73
               4
 40
38.048000000000002
 49
17.835000000000001
 49
-8.9175000000000004
 49
2.3780000000000001
 49
-8.9175000000000004
  0
LTYPE
  2
DASHDOTX2
 70
               0
  3
CADPAC FUSION LINETYPE
 72
              65
 73
               4
 40
59.450000000000003
 49
29.725000000000001
 49
-14.862500000000001
 49
0.0
 49
-14.862500000000001
  0
LTYPE
  2
DASHDOT
 70
               0
  3
CADPAC FUSION LINETYPE
 72
              65
 73
               4
 40
47.560000000000002
 49
23.780000000000001
 49
-11.890000000000001
 49
0.0
 49
-11.890000000000001
  0
LTYPE
  2
DASHDOT2
 70
               0
  3
CADPAC FUSION LINETYPE
 72
              65
 73
               4
 40
35.670000000000002
 49
17.835000000000001
 49
-8.9175000000000004
 49
0.0
 49
-8.9175000000000004
  0
LTYPE
  2
DIVIDEX2
 70
               0
  3
CADPAC FUSION LINETYPE
 72
              65
 73
               6
 40
74.3125
 49
29.725000000000001
 49
-14.862500000000001
 49
0.0
 49
-14.862500000000001
 49
0.0
 49
-14.862500000000001
  0
LTYPE
  2
DIVIDE
 70
               0
  3
CADPAC FUSION LINETYPE
 72
              65
 73
               6
 40
59.450000000000003
 49
23.780000000000001
 49
-11.890000000000001
 49
0.0
 49
-11.890000000000001
 49
0.0
 49
-11.890000000000001
  0
LTYPE
  2
DIVIDE2
 70
               0
  3
CADPAC FUSION LINETYPE
 72
              65
 73
               6
 40
44.587500000000006
 49
17.835000000000001
 49
-8.9175000000000004
 49
0.0
 49
-8.9175000000000004
 49
0.0
 49
-8.9175000000000004
  0
LTYPE
  2
BORDERX2
 70
               0
  3
CADPAC FUSION LINETYPE
 72
              65
 73
               6
 40
104.03750000000001
 49
29.725000000000001
 49
-14.862500000000001
 49
29.725000000000001
 49
-14.862500000000001
 49
0.0
 49
-14.862500000000001
  0
LTYPE
  2
BORDER
 70
               0
  3
CADPAC FUSION LINETYPE
 72
              65
 73
               6
 40
83.230000000000004
 49
23.780000000000001
 49
-11.890000000000001
 49
23.780000000000001
 49
-11.890000000000001
 49
0.0
 49
-11.890000000000001
  0
LTYPE
  2
BORDER2
 70
               0
  3
CADPAC FUSION LINETYPE
 72
              65
 73
               6
 40
62.422499999999999
 49
17.835000000000001
 49
-8.9175000000000004
 49
17.835000000000001
 49
-8.9175000000000004
 49
0.0
 49
-8.9175000000000004
  0
LTYPE
  2
PHANTOMX2
 70
               0
  3
CADPAC FUSION LINETYPE
 72
              65
 73
               6
 40
89.175000000000011
 49
29.725000000000001
 49
-11.890000000000001
 49
11.890000000000001
 49
-11.890000000000001
 49
11.890000000000001
 49
-11.890000000000001
  0
LTYPE
  2
PHANTOM
 70
               0
  3
CADPAC FUSION LINETYPE
 72
              65
 73
               6
 40
73.718000000000004
 49
23.780000000000001
 49
-11.890000000000001
 49
7.1340000000000003
 49
-11.890000000000001
 49
7.1340000000000003
 49
-11.890000000000001
  0
LTYPE
  2
PHANTOM2
 70
               0
  3
CADPAC FUSION LINETYPE
 72
              65
 73
               6
 40
63.017000000000003
 49
17.835000000000001
 49
-11.890000000000001
 49
4.7560000000000002
 49
-11.890000000000001
 49
4.7560000000000002
 49
-11.890000000000001
  0
ENDTAB
  0
TABLE
  2
LAYER
 70
             256
  0
LAYER
  2
0
 70
               0
 62
               7
  6
CONTINUOUS
  0
LAYER
  2
LAYER001
 70
               0
 62
               7
  6
CONTINUOUS
  0
LAYER
  2
LAYER002
 70
               0
 62
               7
  6
CONTINUOUS
  0
LAYER
  2
LAYER003
 70
               0
 62
               7
  6
CONTINUOUS
  0
LAYER
  2
LAYER004
 70
               0
 62
               7
  6
CONTINUOUS
  0
LAYER
  2
LAYER005
 70
               0
 62
               7
  6
CONTINUOUS
  0
LAYER
  2
LAYER006
 70
               0
 62
               7
  6
CONTINUOUS
  0
LAYER
  2
LAYER007
 70
               0
 62
               7
  6
CONTINUOUS
  0
LAYER
  2
LAYER008
 70
               0
 62
               7
  6
CONTINUOUS
  0
LAYER
  2
LAYER009
 70
               0
 62
               7
  6
CONTINUOUS
  0
LAYER
  2
LAYER010
 70
               0
 62
               7
  6
CONTINUOUS
  0
LAYER
  2
LAYER011
 70
               0
 62
               7
  6
CONTINUOUS
  0
LAYER
  2
LAYER012
 70
               0
 62
               7
  6
CONTINUOUS
  0
LAYER
  2
LAYER013
 70
               0
 62
               7
  6
CONTINUOUS
  0
LAYER
  2
LAYER014
 70
               0
 62
               7
  6
CONTINUOUS
  0
LAYER
  2
LAYER015
 70
               0
 62
               7
  6
CONTINUOUS
  0
LAYER
  2
LAYER016
 70
               0
 62
               7
  6
CONTINUOUS
  0
LAYER
  2
LAYER017
 70
               0
 62
               7
  6
CONTINUOUS
  0
LAYER
  2
LAYER018
 70
               0
 62
               7
  6
CONTINUOUS
  0
LAYER
  2
LAYER019
 70
               0
 62
               7
  6
CONTINUOUS
  0
LAYER
  2
LAYER020
 70
               0
 62
               7
  6
CONTINUOUS
  0
LAYER
  2
LAYER021
 70
               0
 62
               7
  6
CONTINUOUS
  0
LAYER
  2
LAYER022
 70
               0
 62
               7
  6
CONTINUOUS
  0
LAYER
  2
LAYER023
 70
               0
 62
               7
  6
CONTINUOUS
  0
LAYER
  2
LAYER024
 70
               0
 62
               7
  6
CONTINUOUS
  0
LAYER
  2
LAYER025
 70
               0
 62
               7
  6
CONTINUOUS
  0
LAYER
  2
LAYER026
 70
               0
 62
               7
  6
CONTINUOUS
  0
LAYER
  2
LAYER027
 70
               0
 62
               7
  6
CONTINUOUS
  0
LAYER
  2
LAYER028
 70
               0
 62
               7
  6
CONTINUOUS
  0
LAYER
  2
LAYER029
 70
               0
 62
               7
  6
CONTINUOUS
  0
LAYER
  2
LAYER030
 70
               0
 62
               7
  6
CONTINUOUS
  0
LAYER
  2
LAYER031
 70
               0
 62
               7
  6
CONTINUOUS
  0
LAYER
  2
LAYER032
 70
               0
 62
               7
  6
CONTINUOUS
  0
LAYER
  2
LAYER033
 70
               0
 62
               7
  6
CONTINUOUS
  0
LAYER
  2
LAYER034
 70
               0
 62
               7
  6
CONTINUOUS
  0
LAYER
  2
LAYER035
 70
               0
 62
               7
  6
CONTINUOUS
  0
LAYER
  2
LAYER036
 70
               0
 62
               7
  6
CONTINUOUS
  0
LAYER
  2
LAYER037
 70
               0
 62
               7
  6
CONTINUOUS
  0
LAYER
  2
LAYER038
 70
               0
 62
               7
  6
CONTINUOUS
  0
LAYER
  2
LAYER039
 70
               0
 62
               7
  6
CONTINUOUS
  0
LAYER
  2
LAYER040
 70
               0
 62
               7
  6
CONTINUOUS
  0
LAYER
  2
LAYER041
 70
               0
 62
               7
  6
CONTINUOUS
  0
LAYER
  2
LAYER042
 70
               0
 62
               7
  6
CONTINUOUS
  0
LAYER
  2
LAYER043
 70
               0
 62
               7
  6
CONTINUOUS
  0
LAYER
  2
LAYER044
 70
               0
 62
               7
  6
CONTINUOUS
  0
LAYER
  2
LAYER045
 70
               0
 62
               7
  6
CONTINUOUS
  0
LAYER
  2
LAYER046
 70
               0
 62
               7
  6
CONTINUOUS
  0
LAYER
  2
LAYER047
 70
               0
 62
               7
  6
CONTINUOUS
  0
LAYER
  2
LAYER048
 70
               0
 62
               7
  6
CONTINUOUS
  0
LAYER
  2
LAYER049
 70
               0
 62
               7
  6
CONTINUOUS
  0
LAYER
  2
LAYER050
 70
               0
 62
               7
  6
CONTINUOUS
  0
LAYER
  2
LAYER051
 70
               0
 62
               7
  6
CONTINUOUS
  0
LAYER
  2
LAYER052
 70
               0
 62
               7
  6
CONTINUOUS
  0
LAYER
  2
LAYER053
 70
               0
 62
               7
  6
CONTINUOUS
  0
LAYER
  2
LAYER054
 70
               0
 62
               7
  6
CONTINUOUS
  0
LAYER
  2
LAYER055
 70
               0
 62
               7
  6
CONTINUOUS
  0
LAYER
  2
LAYER056
 70
               0
 62
               7
  6
CONTINUOUS
  0
LAYER
  2
LAYER057
 70
               0
 62
               7
  6
CONTINUOUS
  0
LAYER
  2
LAYER058
 70
               0
 62
               7
  6
CONTINUOUS
  0
LAYER
  2
LAYER059
 70
               0
 62
               7
  6
CONTINUOUS
  0
LAYER
  2
LAYER060
 70
               0
 62
               7
  6
CONTINUOUS
  0
LAYER
  2
LAYER061
 70
               0
 62
               7
  6
CONTINUOUS
  0
LAYER
  2
LAYER062
 70
               0
 62
               7
  6
CONTINUOUS
  0
LAYER
  2
LAYER063
 70
               0
 62
               7
  6
CONTINUOUS
  0
LAYER
  2
LAYER064
 70
               0
 62
               7
  6
CONTINUOUS
  0
LAYER
  2
LAYER065
 70
               0
 62
               7
  6
CONTINUOUS
  0
LAYER
  2
LAYER066
 70
               0
 62
               7
  6
CONTINUOUS
  0
LAYER
  2
LAYER067
 70
               0
 62
               7
  6
CONTINUOUS
  0
LAYER
  2
LAYER068
 70
               0
 62
               7
  6
CONTINUOUS
  0
LAYER
  2
LAYER069
 70
               0
 62
               7
  6
CONTINUOUS
  0
LAYER
  2
LAYER070
 70
               0
 62
               7
  6
CONTINUOUS
  0
LAYER
  2
LAYER071
 70
               0
 62
               7
  6
CONTINUOUS
  0
LAYER
  2
LAYER072
 70
               0
 62
               7
  6
CONTINUOUS
  0
LAYER
  2
LAYER073
 70
               0
 62
               7
  6
CONTINUOUS
  0
LAYER
  2
LAYER074
 70
               0
 62
               7
  6
CONTINUOUS
  0
LAYER
  2
LAYER075
 70
               0
 62
               7
  6
CONTINUOUS
  0
LAYER
  2
LAYER076
 70
               0
 62
               7
  6
CONTINUOUS
  0
LAYER
  2
LAYER077
 70
               0
 62
               7
  6
CONTINUOUS
  0
LAYER
  2
LAYER078
 70
               0
 62
               7
  6
CONTINUOUS
  0
LAYER
  2
LAYER079
 70
               0
 62
               7
  6
CONTINUOUS
  0
LAYER
  2
LAYER080
 70
               0
 62
               7
  6
CONTINUOUS
  0
LAYER
  2
LAYER081
 70
               0
 62
               7
  6
CONTINUOUS
  0
LAYER
  2
LAYER082
 70
               0
 62
               7
  6
CONTINUOUS
  0
LAYER
  2
LAYER083
 70
               0
 62
               7
  6
CONTINUOUS
  0
LAYER
  2
LAYER084
 70
               0
 62
               7
  6
CONTINUOUS
  0
LAYER
  2
LAYER085
 70
               0
 62
               7
  6
CONTINUOUS
  0
LAYER
  2
LAYER086
 70
               0
 62
               7
  6
CONTINUOUS
  0
LAYER
  2
LAYER087
 70
               0
 62
               7
  6
CONTINUOUS
  0
LAYER
  2
LAYER088
 70
               0
 62
               7
  6
CONTINUOUS
  0
LAYER
  2
LAYER089
 70
               0
 62
               7
  6
CONTINUOUS
  0
LAYER
  2
LAYER090
 70
               0
 62
               7
  6
CONTINUOUS
  0
LAYER
  2
LAYER091
 70
               0
 62
               7
  6
CONTINUOUS
  0
LAYER
  2
LAYER092
 70
               0
 62
               7
  6
CONTINUOUS
  0
LAYER
  2
LAYER093
 70
               0
 62
               7
  6
CONTINUOUS
  0
LAYER
  2
LAYER094
 70
               0
 62
               7
  6
CONTINUOUS
  0
LAYER
  2
LAYER095
 70
               0
 62
               7
  6
CONTINUOUS
  0
LAYER
  2
LAYER096
 70
               0
 62
               7
  6
CONTINUOUS
  0
LAYER
  2
LAYER097
 70
               0
 62
               7
  6
CONTINUOUS
  0
LAYER
  2
LAYER098
 70
               0
 62
               7
  6
CONTINUOUS
  0
LAYER
  2
LAYER099
 70
               0
 62
               7
  6
CONTINUOUS
  0
LAYER
  2
LAYER100
 70
               0
 62
               7
  6
CONTINUOUS
  0
LAYER
  2
LAYER101
 70
               0
 62
               7
  6
CONTINUOUS
  0
LAYER
  2
LAYER102
 70
               0
 62
               7
  6
CONTINUOUS
  0
LAYER
  2
LAYER103
 70
               0
 62
               7
  6
CONTINUOUS
  0
LAYER
  2
LAYER104
 70
               0
 62
               7
  6
CONTINUOUS
  0
LAYER
  2
LAYER105
 70
               0
 62
               7
  6
CONTINUOUS
  0
LAYER
  2
LAYER106
 70
               0
 62
               7
  6
CONTINUOUS
  0
LAYER
  2
LAYER107
 70
               0
 62
               7
  6
CONTINUOUS
  0
LAYER
  2
LAYER108
 70
               0
 62
               7
  6
CONTINUOUS
  0
LAYER
  2
LAYER109
 70
               0
 62
               7
  6
CONTINUOUS
  0
LAYER
  2
LAYER110
 70
               0
 62
               7
  6
CONTINUOUS
  0
LAYER
  2
LAYER111
 70
               0
 62
               7
  6
CONTINUOUS
  0
LAYER
  2
LAYER112
 70
               0
 62
               7
  6
CONTINUOUS
  0
LAYER
  2
LAYER113
 70
               0
 62
               7
  6
CONTINUOUS
  0
LAYER
  2
LAYER114
 70
               0
 62
               7
  6
CONTINUOUS
  0
LAYER
  2
LAYER115
 70
               0
 62
               7
  6
CONTINUOUS
  0
LAYER
  2
LAYER116
 70
               0
 62
               7
  6
CONTINUOUS
  0
LAYER
  2
LAYER117
 70
               0
 62
               7
  6
CONTINUOUS
  0
LAYER
  2
LAYER118
 70
               0
 62
               7
  6
CONTINUOUS
  0
LAYER
  2
LAYER119
 70
               0
 62
               7
  6
CONTINUOUS
  0
LAYER
  2
LAYER120
 70
               0
 62
               7
  6
CONTINUOUS
  0
LAYER
  2
LAYER121
 70
               0
 62
               7
  6
CONTINUOUS
  0
LAYER
  2
LAYER122
 70
               0
 62
               7
  6
CONTINUOUS
  0
LAYER
  2
LAYER123
 70
               0
 62
               7
  6
CONTINUOUS
  0
LAYER
  2
LAYER124
 70
               0
 62
               7
  6
CONTINUOUS
  0
LAYER
  2
LAYER125
 70
               0
 62
               7
  6
CONTINUOUS
  0
LAYER
  2
LAYER126
 70
               0
 62
               7
  6
CONTINUOUS
  0
LAYER
  2
LAYER127
 70
               0
 62
               7
  6
CONTINUOUS
  0
LAYER
  2
LAYER128
 70
               0
 62
               7
  6
CONTINUOUS
  0
LAYER
  2
LAYER129
 70
               0
 62
               7
  6
CONTINUOUS
  0
LAYER
  2
LAYER130
 70
               0
 62
               7
  6
CONTINUOUS
  0
LAYER
  2
LAYER131
 70
               0
 62
               7
  6
CONTINUOUS
  0
LAYER
  2
LAYER132
 70
               0
 62
               7
  6
CONTINUOUS
  0
LAYER
  2
LAYER133
 70
               0
 62
               7
  6
CONTINUOUS
  0
LAYER
  2
LAYER134
 70
               0
 62
               7
  6
CONTINUOUS
  0
LAYER
  2
LAYER135
 70
               0
 62
               7
  6
CONTINUOUS
  0
LAYER
  2
LAYER136
 70
               0
 62
               7
  6
CONTINUOUS
  0
LAYER
  2
LAYER137
 70
               0
 62
               7
  6
CONTINUOUS
  0
LAYER
  2
LAYER138
 70
               0
 62
               7
  6
CONTINUOUS
  0
LAYER
  2
LAYER139
 70
               0
 62
               7
  6
CONTINUOUS
  0
LAYER
  2
LAYER140
 70
               0
 62
               7
  6
CONTINUOUS
  0
LAYER
  2
LAYER141
 70
               0
 62
               7
  6
CONTINUOUS
  0
LAYER
  2
LAYER142
 70
               0
 62
               7
  6
CONTINUOUS
  0
LAYER
  2
LAYER143
 70
               0
 62
               7
  6
CONTINUOUS
  0
LAYER
  2
LAYER144
 70
               0
 62
               7
  6
CONTINUOUS
  0
LAYER
  2
LAYER145
 70
               0
 62
               7
  6
CONTINUOUS
  0
LAYER
  2
LAYER146
 70
               0
 62
               7
  6
CONTINUOUS
  0
LAYER
  2
LAYER147
 70
               0
 62
               7
  6
CONTINUOUS
  0
LAYER
  2
LAYER148
 70
               0
 62
               7
  6
CONTINUOUS
  0
LAYER
  2
LAYER149
 70
               0
 62
               7
  6
CONTINUOUS
  0
LAYER
  2
LAYER150
 70
               0
 62
               7
  6
CONTINUOUS
  0
LAYER
  2
LAYER151
 70
               0
 62
               7
  6
CONTINUOUS
  0
LAYER
  2
LAYER152
 70
               0
 62
               7
  6
CONTINUOUS
  0
LAYER
  2
LAYER153
 70
               0
 62
               7
  6
CONTINUOUS
  0
LAYER
  2
LAYER154
 70
               0
 62
               7
  6
CONTINUOUS
  0
LAYER
  2
LAYER155
 70
               0
 62
               7
  6
CONTINUOUS
  0
LAYER
  2
LAYER156
 70
               0
 62
               7
  6
CONTINUOUS
  0
LAYER
  2
LAYER157
 70
               0
 62
               7
  6
CONTINUOUS
  0
LAYER
  2
LAYER158
 70
               0
 62
               7
  6
CONTINUOUS
  0
LAYER
  2
LAYER159
 70
               0
 62
               7
  6
CONTINUOUS
  0
LAYER
  2
LAYER160
 70
               0
 62
               7
  6
CONTINUOUS
  0
LAYER
  2
LAYER161
 70
               0
 62
               7
  6
CONTINUOUS
  0
LAYER
  2
LAYER162
 70
               0
 62
               7
  6
CONTINUOUS
  0
LAYER
  2
LAYER163
 70
               0
 62
               7
  6
CONTINUOUS
  0
LAYER
  2
LAYER164
 70
               0
 62
               7
  6
CONTINUOUS
  0
LAYER
  2
LAYER165
 70
               0
 62
               7
  6
CONTINUOUS
  0
LAYER
  2
LAYER166
 70
               0
 62
               7
  6
CONTINUOUS
  0
LAYER
  2
LAYER167
 70
               0
 62
               7
  6
CONTINUOUS
  0
LAYER
  2
LAYER168
 70
               0
 62
               7
  6
CONTINUOUS
  0
LAYER
  2
LAYER169
 70
               0
 62
               7
  6
CONTINUOUS
  0
LAYER
  2
LAYER170
 70
               0
 62
               7
  6
CONTINUOUS
  0
LAYER
  2
LAYER171
 70
               0
 62
               7
  6
CONTINUOUS
  0
LAYER
  2
LAYER172
 70
               0
 62
               7
  6
CONTINUOUS
  0
LAYER
  2
LAYER173
 70
               0
 62
               7
  6
CONTINUOUS
  0
LAYER
  2
LAYER174
 70
               0
 62
               7
  6
CONTINUOUS
  0
LAYER
  2
LAYER175
 70
               0
 62
               7
  6
CONTINUOUS
  0
LAYER
  2
LAYER176
 70
               0
 62
               7
  6
CONTINUOUS
  0
LAYER
  2
LAYER177
 70
               0
 62
               7
  6
CONTINUOUS
  0
LAYER
  2
LAYER178
 70
               0
 62
               7
  6
CONTINUOUS
  0
LAYER
  2
LAYER179
 70
               0
 62
               7
  6
CONTINUOUS
  0
LAYER
  2
LAYER180
 70
               0
 62
               7
  6
CONTINUOUS
  0
LAYER
  2
LAYER181
 70
               0
 62
               7
  6
CONTINUOUS
  0
LAYER
  2
LAYER182
 70
               0
 62
               7
  6
CONTINUOUS
  0
LAYER
  2
LAYER183
 70
               0
 62
               7
  6
CONTINUOUS
  0
LAYER
  2
LAYER184
 70
               0
 62
               7
  6
CONTINUOUS
  0
LAYER
  2
LAYER185
 70
               0
 62
               7
  6
CONTINUOUS
  0
LAYER
  2
LAYER186
 70
               0
 62
               7
  6
CONTINUOUS
  0
LAYER
  2
LAYER187
 70
               0
 62
               7
  6
CONTINUOUS
  0
LAYER
  2
LAYER188
 70
               0
 62
               7
  6
CONTINUOUS
  0
LAYER
  2
LAYER189
 70
               0
 62
               7
  6
CONTINUOUS
  0
LAYER
  2
LAYER190
 70
               0
 62
               7
  6
CONTINUOUS
  0
LAYER
  2
LAYER191
 70
               0
 62
               7
  6
CONTINUOUS
  0
LAYER
  2
LAYER192
 70
               0
 62
               7
  6
CONTINUOUS
  0
LAYER
  2
LAYER193
 70
               0
 62
               7
  6
CONTINUOUS
  0
LAYER
  2
LAYER194
 70
               0
 62
               7
  6
CONTINUOUS
  0
LAYER
  2
LAYER195
 70
               0
 62
               7
  6
CONTINUOUS
  0
LAYER
  2
LAYER196
 70
               0
 62
               7
  6
CONTINUOUS
  0
LAYER
  2
LAYER197
 70
               0
 62
               7
  6
CONTINUOUS
  0
LAYER
  2
LAYER198
 70
               0
 62
               7
  6
CONTINUOUS
  0
LAYER
  2
LAYER199
 70
               0
 62
               7
  6
CONTINUOUS
  0
LAYER
  2
LAYER200
 70
               0
 62
               7
  6
CONTINUOUS
  0
LAYER
  2
LAYER201
 70
               0
 62
               7
  6
CONTINUOUS
  0
LAYER
  2
LAYER202
 70
               0
 62
               7
  6
CONTINUOUS
  0
LAYER
  2
LAYER203
 70
               0
 62
               7
  6
CONTINUOUS
  0
LAYER
  2
LAYER204
 70
               0
 62
               7
  6
CONTINUOUS
  0
LAYER
  2
LAYER205
 70
               0
 62
               7
  6
CONTINUOUS
  0
LAYER
  2
LAYER206
 70
               0
 62
               7
  6
CONTINUOUS
  0
LAYER
  2
LAYER207
 70
               0
 62
               7
  6
CONTINUOUS
  0
LAYER
  2
LAYER208
 70
               0
 62
               7
  6
CONTINUOUS
  0
LAYER
  2
LAYER209
 70
               0
 62
               7
  6
CONTINUOUS
  0
LAYER
  2
LAYER210
 70
               0
 62
               7
  6
CONTINUOUS
  0
LAYER
  2
LAYER211
 70
               0
 62
               7
  6
CONTINUOUS
  0
LAYER
  2
LAYER212
 70
               0
 62
               7
  6
CONTINUOUS
  0
LAYER
  2
LAYER213
 70
               0
 62
               7
  6
CONTINUOUS
  0
LAYER
  2
LAYER214
 70
               0
 62
               7
  6
CONTINUOUS
  0
LAYER
  2
LAYER215
 70
               0
 62
               7
  6
CONTINUOUS
  0
LAYER
  2
LAYER216
 70
               0
 62
               7
  6
CONTINUOUS
  0
LAYER
  2
LAYER217
 70
               0
 62
               7
  6
CONTINUOUS
  0
LAYER
  2
LAYER218
 70
               0
 62
               7
  6
CONTINUOUS
  0
LAYER
  2
LAYER219
 70
               0
 62
               7
  6
CONTINUOUS
  0
LAYER
  2
LAYER220
 70
               0
 62
               7
  6
CONTINUOUS
  0
LAYER
  2
LAYER221
 70
               0
 62
               7
  6
CONTINUOUS
  0
LAYER
  2
LAYER222
 70
               0
 62
               7
  6
CONTINUOUS
  0
LAYER
  2
LAYER223
 70
               0
 62
               7
  6
CONTINUOUS
  0
LAYER
  2
LAYER224
 70
               0
 62
               7
  6
CONTINUOUS
  0
LAYER
  2
LAYER225
 70
               0
 62
               7
  6
CONTINUOUS
  0
LAYER
  2
LAYER226
 70
               0
 62
               7
  6
CONTINUOUS
  0
LAYER
  2
LAYER227
 70
               0
 62
               7
  6
CONTINUOUS
  0
LAYER
  2
LAYER228
 70
               0
 62
               7
  6
CONTINUOUS
  0
LAYER
  2
LAYER229
 70
               0
 62
               7
  6
CONTINUOUS
  0
LAYER
  2
LAYER230
 70
               0
 62
               7
  6
CONTINUOUS
  0
LAYER
  2
LAYER231
 70
               0
 62
               7
  6
CONTINUOUS
  0
LAYER
  2
LAYER232
 70
               0
 62
               7
  6
CONTINUOUS
  0
LAYER
  2
LAYER233
 70
               0
 62
               7
  6
CONTINUOUS
  0
LAYER
  2
LAYER234
 70
               0
 62
               7
  6
CONTINUOUS
  0
LAYER
  2
LAYER235
 70
               0
 62
               7
  6
CONTINUOUS
  0
LAYER
  2
LAYER236
 70
               0
 62
               7
  6
CONTINUOUS
  0
LAYER
  2
LAYER237
 70
               0
 62
               7
  6
CONTINUOUS
  0
LAYER
  2
LAYER238
 70
               0
 62
               7
  6
CONTINUOUS
  0
LAYER
  2
LAYER239
 70
               0
 62
               7
  6
CONTINUOUS
  0
LAYER
  2
LAYER240
 70
               0
 62
               7
  6
CONTINUOUS
  0
LAYER
  2
LAYER241
 70
               0
 62
               7
  6
CONTINUOUS
  0
LAYER
  2
LAYER242
 70
               0
 62
               7
  6
CONTINUOUS
  0
LAYER
  2
LAYER243
 70
               0
 62
               7
  6
CONTINUOUS
  0
LAYER
  2
LAYER244
 70
               0
 62
               7
  6
CONTINUOUS
  0
LAYER
  2
LAYER245
 70
               0
 62
               7
  6
CONTINUOUS
  0
LAYER
  2
LAYER246
 70
               0
 62
               7
  6
CONTINUOUS
  0
LAYER
  2
LAYER247
 70
               0
 62
               7
  6
CONTINUOUS
  0
LAYER
  2
LAYER248
 70
               0
 62
               7
  6
CONTINUOUS
  0
LAYER
  2
LAYER249
 70
               0
 62
               7
  6
CONTINUOUS
  0
LAYER
  2
LAYER250
 70
               0
 62
               7
  6
CONTINUOUS
  0
LAYER
  2
LAYER251
 70
               0
 62
               7
  6
CONTINUOUS
  0
LAYER
  2
LAYER252
 70
               0
 62
               7
  6
CONTINUOUS
  0
LAYER
  2
LAYER253
 70
               0
 62
               7
  6
CONTINUOUS
  0
LAYER
  2
LAYER254
 70
               0
 62
               7
  6
CONTINUOUS
  0
LAYER
  2
LAYER255
 70
               0
 62
               7
  6
CONTINUOUS
  0
ENDTAB
  0
TABLE
  2
STYLE
 70
               1
  0
STYLE
  2
STANDARD
 70
               0
 40
0.0
 41
0.8
 50
0.0
 71
               0
 42
40.0
  3
MS PGothic.ttf
  4

  0
ENDTAB
  0
TABLE
  2
VIEW
 70
               0
  0
VIEW
  2
QQQQ
 70
               0
 40
2406.6807206745943
 10
51.574377082919682
 20
-437.13520849510138
 41
1472.3288429547883
 11
0.0
 21
0.0
 31
1.0
 12
100.0
 22
100.0
 32
0.0
 42
50.0
 43
0.0
 44
0.0
 50
0.0
 71
               0
  0
ENDTAB
  0
TABLE
  2
UCS
 70
               0
  0
ENDTAB
  0
TABLE
  2
APPID
 70
               1
  0
APPID
  2
ACAD
 70
               0
  0
ENDTAB
  0
TABLE
  2
DIMSTYLE
 70
               1
  0
DIMSTYLE
  2
STANDARD
 70
               0
  3

  4

  5

  6

  7

 40
1.0
 41
0.18
 42
0.0625
 43
0.38
 44
0.18
 45
0.0
 46
0.0
 47
0.0
 48
0.0
140
0.18
141
0.09
142
0.0
143
25.399999999999999
144
1.0
145
0.0
146
1.0
147
0.09
 71
               0
 72
               0
 73
               1
 74
               1
 75
               0
 76
               0
 77
               0
 78
               0
170
               0
171
               2
172
               0
173
               0
174
               0
175
               0
176
               0
177
               0
178
               0
  0
ENDTAB
  0
ENDSEC
  0
SECTION
  2
BLOCKS
  0
BLOCK
  8
0
  5
139
  2
GROUP_1
 70
               0
 10
0.0
 20
0.0
 30
0.0
  3
GROUP_1
  0
LINE
  8
0
  6
CONTINUOUS
 62
               4
  5
13A
 10
-85.845206175333431
 20
-52.379615784105027
 30
0.0
 11
-71.104997676106237
 21
-37.639407284877635
 31
0.0
  0
LINE
  8
0
  6
CONTINUOUS
 62
               4
  5
13B
 10
46.813146419524131
 20
-61.142619390419284
 30
0.0
 11
70.316358525065993
 21
-37.63940728487735
 31
0.0
  0
LINE
  8
0
  6
CONTINUOUS
 62
               4
  5
13C
 10
-7.6087060229992431
 20
-44.853793732356692
 30
0.0
 11
-0.3943195755199298
 21
-37.63940728487735
 31
0.0
  0
LINE
  8
0
  6
CONTINUOUS
 62
               4
  5
13D
 10
-78.917807433402729
 20
-186.87357324334613
 30
0.0
 11
46.813146419524131
 21
-61.142619390419284
 31
0.0
  0
LINE
  8
0
  6
CONTINUOUS
 62
               4
  5
13E
 10
-83.500000000000043
 20
-120.74508770935741
 30
0.0
 11
-7.6087060229992431
 21
-44.853793732356692
 31
0.0
  0
LINE
  8
0
  6
CONTINUOUS
 62
               4
  5
13F
 10
-71.676354165863088
 20
-250.34279807639234
 30
0.0
 11
82.999999999999886
 21
-95.66644391052931
 31
0.0
  0
LINE
  8
0
  6
CONTINUOUS
 62
               4
  5
140
 10
4.3096169580928887
 20
-245.06750505302233
 30
0.0
 11
81.031764357874067
 21
-168.34535765324119
 31
0.0
  0
LINE
  8
0
  6
CONTINUOUS
 62
               4
  5
141
 10
-50.316346743434039
 20
-299.69346875454926
 30
0.0
 11
4.3096169580928887
 21
-245.06750505302233
 31
0.0
  0
LINE
  8
0
  6
CONTINUOUS
 62
               4
  5
142
 10
20.394331357152183
 20
-299.69346875454903
 30
0.0
 11
71.925088835709971
 21
-248.16271127599111
 31
0.0
  0
ENDBLK
  8
0
  5
143
  0
BLOCK
  8
0
  5
144
  2
GROUP_2
 70
               0
 10
0.0
 20
0.0
 30
0.0
  3
GROUP_2
  0
LINE
  8
0
  6
CONTINUOUS
 62
               4
  5
145
 10
-571.67415235915678
 20
-250.36209626968571
 30
0.0
 11
-416.5
 21
-95.187943910528944
 31
0.0
  0
LINE
  8
0
  6
CONTINUOUS
 62
               4
  5
146
 10
-578.91560562669633
 20
-186.89287143663955
 30
0.0
 11
-429.66214147493451
 21
-37.639407284877635
 31
0.0
  0
LINE
  8
0
  6
CONTINUOUS
 62
               4
  5
147
 10
-583.50000000000045
 20
-50.055909608771756
 30
0.0
 11
-571.0834976761065
 21
-37.639407284877635
 31
0.0
  0
LINE
  8
0
  6
CONTINUOUS
 62
               4
  5
148
 10
-550.31634674343479
 20
-299.7149687545496
 30
0.0
 11
-418.97100458069337
 21
-168.36962659180836
 31
0.0
  0
LINE
  8
0
  6
CONTINUOUS
 62
               4
  5
149
 10
-479.60566864284868
 20
-299.7149687545496
 30
0.0
 11
-428.07768010285747
 21
-248.18698021455839
 31
0.0
  0
LINE
  8
0
  6
CONTINUOUS
 62
               4
  5
14A
 10
-583.5
 20
-120.76658770935707
 30
0.0
 11
-502.8917278522714
 21
-40.158315561628612
 31
0.0
  0
ENDBLK
  8
0
  5
14B
  0
BLOCK
  8
0
  5
14C
  2
GROUP_3
 70
               0
 10
0.0
 20
0.0
 30
0.0
  3
GROUP_3
  0
LINE
  8
0
  6
CONTINUOUS
 62
               4
  5
14D
 10
428.32584764084328
 20
-250.36209626968571
 30
0.0
 11
583.5
 21
-95.187943910528944
 31
0.0
  0
LINE
  8
0
  6
CONTINUOUS
 62
               4
  5
14E
 10
421.0843943733035
 20
-186.89287143663955
 30
0.0
 11
570.33785852506549
 21
-37.639407284877635
 31
0.0
  0
LINE
  8
0
  6
CONTINUOUS
 62
               4
  5
14F
 10
416.49999999999937
 20
-50.055909608771756
 30
0.0
 11
428.91650232389344
 21
-37.639407284877635
 31
0.0
  0
LINE
  8
0
  6
CONTINUOUS
 62
               4
  5
150
 10
449.68365325656526
 20
-299.7149687545496
 30
0.0
 11
581.02899541930651
 21
-168.36962659180836
 31
0.0
  0
LINE
  8
0
  6
CONTINUOUS
 62
               4
  5
151
 10
520.39433135715126
 20
-299.7149687545496
 30
0.0
 11
571.92231989714242
 21
-248.18698021455839
 31
0.0
  0
LINE
  8
0
  6
CONTINUOUS
 62
               4
  5
152
 10
416.50000000000006
 20
-120.76658770935707
 30
0.0
 11
497.10827214772854
 21
-40.158315561628612
 31
0.0
  0
ENDBLK
  8
0
  5
153
  0
ENDSEC
  0
SECTION
  2
ENTITIES
  0
LINE
  8
0
  6
CONTINUOUS
 62
               4
  5
154
 10
-58.000000000000099
 20
-299.6394072848779
 30
0.0
 11
-74.999999999999986
 21
-150.63940728487745
 31
0.0
  0
LINE
  8
0
  6
CONTINUOUS
 62
               4
  5
155
 10
76.999999999999886
 20
-150.75297551513268
 30
0.0
 11
60.271775600348874
 21
-297.36763168452887
 31
0.0
  0
LINE
  8
0
  6
CONTINUOUS
 62
               4
  5
156
 10
58.000000000000128
 20
-299.63940728487734
 30
0.0
 11
60.271775600348874
 21
-297.36763168452887
 31
0.0
  0
LINE
  8
0
  6
CONTINUOUS
 62
               4
  5
157
 10
74.499999999999886
 20
-150.61101522731315
 30
0.0
 11
57.49676513365047
 21
-299.6394072848779
 31
0.0
  0
LINE
  8
0
  6
CONTINUOUS
 62
               4
  5
158
 10
76.750000000000114
 20
-150.73877948635067
 30
0.0
 11
59.994274553678807
 21
-297.59480924456375
 31
0.0
  0
LINE
  8
0
  6
CONTINUOUS
 62
               4
  5
159
 10
57.49676513365047
 20
-299.6394072848779
 30
0.0
 11
60.271775600348874
 21
-297.36763168452887
 31
0.0
  0
LINE
  8
0
  6
CONTINUOUS
 62
               4
  5
15A
 10
-558.00000000000011
 20
-299.6394072848779
 30
0.0
 11
-575.0
 21
-150.63940728487745
 31
0.0
  0
LINE
  8
0
  6
CONTINUOUS
 62
               4
  5
15B
 10
-441.99999999999989
 20
-299.6394072848779
 30
0.0
 11
-429.45190901929942
 21
-189.6590804540279
 31
0.0
  0
LINE
  8
0
  6
CONTINUOUS
 62
               4
  5
15C
 10
491.78299999999973
 20
-37.639407284877635
 30
0.0
 11
491.78299999999973
 21
-299.69346875454954
 31
0.0
  0
LINE
  8
0
  6
CONTINUOUS
 62
               4
  5
15D
 10
508.2169999999997
 20
-37.725327436411035
 30
0.0
 11
508.2169999999997
 21
-299.69346875454954
 31
0.0
  0
LINE
  8
0
  6
CONTINUOUS
 62
               4
  5
15E
 10
493.99999999999983
 20
-36.639407284877407
 30
0.0
 11
493.99999999999983
 21
-297.42169315420051
 31
0.0
  0
LINE
  8
0
  6
CONTINUOUS
 62
               4
  5
15F
 10
505.9999999999996
 20
-297.42169315420051
 30
0.0
 11
505.9999999999996
 21
-36.639407284877407
 31
0.0
  0
LINE
  8
0
  6
CONTINUOUS
 62
               4
  5
160
 10
493.99999999999983
 20
-297.42169315420051
 30
0.0
 11
505.9999999999996
 21
-297.42169315420051
 31
0.0
  0
LINE
  8
0
  6
CONTINUOUS
 62
               4
  5
161
 10
491.78299999999973
 20
-299.69346875454954
 30
0.0
 11
493.99999999999983
 21
-297.42169315420051
 31
0.0
  0
LINE
  8
0
  6
CONTINUOUS
 62
               4
  5
162
 10
505.9999999999996
 20
-297.42169315420051
 30
0.0
 11
508.2169999999997
 21
-299.69346875454954
 31
0.0
  0
LINE
  8
0
  6
CONTINUOUS
 62
               4
  5
163
 10
558.0
 20
-299.69346875454954
 30
0.0
 11
575.0
 21
-150.48638368776028
 31
0.0
  0
LINE
  8
0
  6
CONTINUOUS
 62
               4
  5
164
 10
441.99999999999994
 20
-299.69346875454954
 30
0.0
 11
425.00000000000006
 21
-150.48638368776028
 31
0.0
  0
CIRCLE
  8
0
  6
CONTINUOUS
 62
               4
  5
165
 10
-0.0000000000000711
 20
543.36059271512227
 30
0.0
 40
75.0
  0
CIRCLE
  8
0
  6
CONTINUOUS
 62
               4
  5
166
 10
-0.0000000000000711
 20
543.36059271512227
 30
0.0
 40
52.5
  0
LINE
  8
0
  6
CONTINUOUS
 62
               4
  5
167
 10
-86.21049820062531
 20
563.36059271512227
 30
0.0
 11
-72.284161474005444
 21
563.36059271512227
 31
0.0
  0
LINE
  8
0
  6
CONTINUOUS
 62
               4
  5
168
 10
-72.284161474005444
 20
523.36059271512227
 30
0.0
 11
-86.21049820062531
 21
523.36059271512227
 31
0.0
  0
ARC
  8
0
  6
CONTINUOUS
 62
               4
  5
169
 10
-0.0000000000000711
 20
543.36059271512227
 30
0.0
 40
88.5
 50
166.93897588510336
 51
193.06102411468945
  0
LINE
  8
0
  6
CONTINUOUS
 62
               4
  5
16A
 10
-20.000000000000071
 20
457.15009451449743
 30
0.0
 11
-20.000000000000071
 21
471.07643124111729
 31
0.0
  0
LINE
  8
0
  6
CONTINUOUS
 62
               4
  5
16B
 10
19.999999999999929
 20
471.07643124111729
 30
0.0
 11
19.999999999999929
 21
457.15009451449743
 31
0.0
  0
ARC
  8
0
  6
CONTINUOUS
 62
               4
  5
16C
 10
-0.0000000000000711
 20
543.36059271512227
 30
0.0
 40
88.5
 50
256.93897588505172
 51
283.06102411463769
  0
LINE
  8
0
  6
CONTINUOUS
 62
               4
  5
16D
 10
86.210498200624585
 20
523.36059271512227
 30
0.0
 11
72.284161474004179
 21
523.36059271512227
 31
0.0
  0
LINE
  8
0
  6
CONTINUOUS
 62
               4
  5
16E
 10
72.284161474004179
 20
563.36059271512227
 30
0.0
 11
86.210498200624585
 21
563.36059271512227
 31
0.0
  0
ARC
  8
0
  6
CONTINUOUS
 62
               4
  5
16F
 10
-0.0000000000000711
 20
543.36059271512227
 30
0.0
 40
88.5
 50
346.93897588499982
 51
373.06102411458585
  0
LINE
  8
0
  6
CONTINUOUS
 62
               4
  5
170
 10
19.999999999999929
 20
629.57109091574785
 30
0.0
 11
19.999999999999929
 21
615.6447541891273
 31
0.0
  0
LINE
  8
0
  6
CONTINUOUS
 62
               4
  5
171
 10
-20.000000000000071
 20
615.6447541891273
 30
0.0
 11
-20.000000000000071
 21
629.57109091574785
 31
0.0
  0
ARC
  8
0
  6
CONTINUOUS
 62
               4
  5
172
 10
-0.0000000000000711
 20
543.36059271512227
 30
0.0
 40
88.5
 50
76.938975885155202
 51
103.06102411474124
  0
LINE
  8
0
  6
CONTINUOUS
 62
               4
  5
173
 10
-47.66812352086113
 20
521.36059271512181
 30
0.0
 11
47.668123520859851
 21
521.36059271512181
 31
0.0
  0
ARC
  8
0
  6
CONTINUOUS
 62
               4
  5
174
 10
12.503611649381057
 20
552.06699034274129
 30
0.0
 40
54.763804151667173
 50
141.38591763675663
 51
145.15009542087034
  0
ARC
  8
0
  6
CONTINUOUS
 62
               4
  5
175
 10
-0.0000000000000711
 20
543.36059271512227
 30
0.0
 40
51.5
 50
334.71098847326505
 51
410.95932736340404
  0
ARC
  8
0
  6
CONTINUOUS
 62
               4
  5
176
 10
-0.0000000000000711
 20
543.36059271512227
 30
0.0
 40
51.5
 50
129.04067263628565
 51
205.28901152642416
  0
ARC
  8
0
  6
CONTINUOUS
 62
               4
  5
177
 10
-0.0000000000000711
 20
543.36059271512227
 30
0.0
 40
77.5
 50
14.955248316634696
 51
75.044751683313493
  0
LINE
  8
0
  6
CONTINUOUS
 62
               4
  5
178
 10
-32.438403166617675
 20
583.36059271512204
 30
0.0
 11
-0.0000000000000711
 21
583.36059271512204
 31
0.0
  0
LINE
  8
0
  6
CONTINUOUS
 62
               4
  5
179
 10
-0.0000000000000711
 20
583.36059271512204
 30
0.0
 11
34.003676271838614
 21
583.36059271512204
 31
0.0
  0
LINE
  8
0
  6
CONTINUOUS
 62
               4
  5
17A
 10
-140.00000000000006
 20
488.36059271512232
 30
0.0
 11
-139.32844387403583
 21
488.36059271512232
 31
0.0
  0
LINE
  8
0
  6
CONTINUOUS
 62
               4
  5
17B
 10
-136.82844387403537
 20
485.86059271512232
 30
0.0
 11
-139.32844387403583
 21
488.36059271512232
 31
0.0
  0
LINE
  8
0
  6
CONTINUOUS
 62
               4
  5
17C
 10
-140.00000000000006
 20
598.36059271512227
 30
0.0
 11
-139.32844387403583
 21
598.36059271512227
 31
0.0
  0
LINE
  8
0
  6
CONTINUOUS
 62
               4
  5
17D
 10
-136.82844387403583
 20
600.86059271512227
 30
0.0
 11
-139.32844387403583
 21
598.36059271512227
 31
0.0
  0
LINE
  8
0
  6
CONTINUOUS
 62
               4
  5
17E
 10
-139.32844387403583
 20
598.36059271512227
 30
0.0
 11
-139.32844387403583
 21
488.36059271512232
 31
0.0
  0
LINE
  8
0
  6
CONTINUOUS
 62
               4
  5
17F
 10
-145.00000000000006
 20
598.46059271512536
 30
0.0
 11
-145.00000000000006
 21
488.2605927151223
 31
0.0
  0
LINE
  8
0
  6
CONTINUOUS
 62
               4
  5
180
 10
-140.00000000000006
 20
485.7605927151223
 30
0.0
 11
-140.00000000000006
 21
600.9605927151224
 31
0.0
  0
LINE
  8
0
  6
CONTINUOUS
 62
               4
  5
181
 10
-140.00000000000006
 20
600.9605927151224
 30
0.0
 11
-142.50000000000006
 21
600.9605927151224
 31
0.0
  0
LINE
  8
0
  6
CONTINUOUS
 62
               4
  5
182
 10
-140.00000000000006
 20
485.7605927151223
 30
0.0
 11
-142.50000000000006
 21
485.7605927151223
 31
0.0
  0
ARC
  8
0
  6
CONTINUOUS
 62
               4
  5
183
 10
-142.50000000000006
 20
488.2605927151223
 30
0.0
 40
2.5
 50
179.99999999989669
 51
269.99999999984499
  0
ARC
  8
0
  6
CONTINUOUS
 62
               4
  5
184
 10
-142.50000000000006
 20
598.4605927151224
 30
0.0
 40
2.5
 50
89.999999999948344
 51
179.99999999989538
  0
LINE
  8
0
  6
CONTINUOUS
 62
               4
  5
185
 10
-136.82844387403537
 20
485.86059271512232
 30
0.0
 11
-136.82844387403583
 21
600.86059271512227
 31
0.0
  0
LINE
  8
0
  6
CONTINUOUS
 62
               4
  5
186
 10
-45.490335786377983
 20
604.05018973346387
 30
0.0
 11
-136.82844387403583
 21
600.86059271512227
 31
0.0
  0
ARC
  8
0
  6
CONTINUOUS
 62
               4
  5
187
 10
-45.664833269890501
 20
609.04714386855949
 30
0.0
 40
5.0
 50
271.99999999984362
 51
304.80675787025234
  0
ARC
  8
0
  6
CONTINUOUS
 62
               4
  5
188
 10
-0.0000000000000711
 20
543.36059271512227
 30
0.0
 40
77.5
 50
104.95524831658292
 51
128.57288309100846
  0
LINE
  8
0
  6
CONTINUOUS
 62
               4
  5
189
 10
-64.836471716551145
 20
483.34657765015459
 30
0.0
 11
-136.82844387403534
 21
485.86059271512232
 31
0.0
  0
LINE
  8
0
  6
CONTINUOUS
 62
               4
  5
18A
 10
-55.000000000000178
 20
403.36059271512244
 30
0.0
 11
-55.000000000000178
 21
404.03214884108667
 31
0.0
  0
LINE
  8
0
  6
CONTINUOUS
 62
               4
  5
18B
 10
-57.500000000000178
 20
406.53214884108667
 30
0.0
 11
-55.000000000000178
 21
404.03214884108667
 31
0.0
  0
LINE
  8
0
  6
CONTINUOUS
 62
               4
  5
18C
 10
-57.600000000000179
 20
403.36059271512244
 30
0.0
 11
-57.600000000000179
 21
400.86059271512244
 31
0.0
  0
ARC
  8
0
  6
CONTINUOUS
 62
               4
  5
18D
 10
-55.100000000000179
 20
400.86059271512244
 30
0.0
 40
2.5
 50
179.99999999989669
 51
269.9999999998447
  0
LINE
  8
0
  6
CONTINUOUS
 62
               4
  5
18E
 10
-60.014015064968156
 20
478.52412099857139
 30
0.0
 11
-57.500000000000178
 21
406.53214884108667
 31
0.0
  0
ARC
  8
0
  6
CONTINUOUS
 62
               4
  5
18F
 10
-65.010969200063641
 20
478.34962351505914
 30
0.0
 40
5.0
 50
1.9999999999964764
 51
87.999999999949523
  0
LINE
  8
0
  6
CONTINUOUS
 62
               4
  5
190
 10
54.999999999999815
 20
403.36059271512244
 30
0.0
 11
54.999999999999815
 21
404.03214884108667
 31
0.0
  0
LINE
  8
0
  6
CONTINUOUS
 62
               4
  5
191
 10
57.499999999999787
 20
406.53214884108712
 30
0.0
 11
54.999999999999815
 21
404.03214884108667
 31
0.0
  0
LINE
  8
0
  6
CONTINUOUS
 62
               4
  5
192
 10
-55.000000000000178
 20
404.03214884108667
 30
0.0
 11
54.999999999999815
 21
404.03214884108667
 31
0.0
  0
LINE
  8
0
  6
CONTINUOUS
 62
               4
  5
193
 10
-54.828443874036061
 20
398.36059271512244
 30
0.0
 11
55.099999999999824
 21
398.36059271512244
 31
0.0
  0
LINE
  8
0
  6
CONTINUOUS
 62
               4
  5
194
 10
57.599999999999824
 20
403.36059271512244
 30
0.0
 11
-57.600000000000179
 21
403.36059271512244
 31
0.0
  0
LINE
  8
0
  6
CONTINUOUS
 62
               4
  5
195
 10
57.599999999999824
 20
403.36059271512244
 30
0.0
 11
57.599999999999824
 21
400.86059271512244
 31
0.0
  0
ARC
  8
0
  6
CONTINUOUS
 62
               4
  5
196
 10
55.099999999999824
 20
400.86059271512244
 30
0.0
 40
2.5
 50
269.99999999984436
 51
359.99999999979207
  0
LINE
  8
0
  6
CONTINUOUS
 62
               4
  5
197
 10
57.499999999999787
 20
406.53214884108712
 30
0.0
 11
-57.500000000000178
 21
406.53214884108667
 31
0.0
  0
LINE
  8
0
  6
CONTINUOUS
 62
               4
  5
198
 10
60.741868731206154
 20
499.36712293788253
 30
0.0
 11
57.499999999999815
 21
406.53214884108712
 31
0.0
  0
ARC
  8
0
  6
CONTINUOUS
 62
               4
  5
199
 10
-0.0000000000000711
 20
543.36059271512227
 30
0.0
 40
77.5
 50
321.42711690890394
 51
345.04475168315804
  0
LINE
  8
0
  6
CONTINUOUS
 62
               4
  5
19A
 10
-74.999999999999986
 20
193.36059271512238
 30
0.0
 11
75.0
 21
193.36059271512238
 31
0.0
  0
LINE
  8
0
  6
CONTINUOUS
 62
               4
  5
19B
 10
-88.500000000000213
 20
183.36059271512238
 30
0.0
 11
-88.500000000000213
 21
176.36059271512272
 31
0.0
  0
LINE
  8
0
  6
CONTINUOUS
 62
               4
  5
19C
 10
-88.500000000000213
 20
183.36059271512238
 30
0.0
 11
-74.999999999999986
 21
193.36059271512238
 31
0.0
  0
ARC
  8
0
  6
CONTINUOUS
 62
               4
  5
19D
 10
-76.999999999999872
 20
171.778017020167
 30
0.0
 40
4.9999999999999991
 50
0.0
 51
66.421821521759782
  0
LINE
  8
0
  6
CONTINUOUS
 62
               4
  5
19E
 10
-88.500000000000213
 20
176.36059271512272
 30
0.0
 11
88.499999999999659
 21
176.36059271512272
 31
0.0
  0
LINE
  8
0
  6
CONTINUOUS
 62
               4
  5
19F
 10
-71.999999999999872
 20
171.778017020167
 30
0.0
 11
-71.999999999999872
 21
96.896246467975175
 31
0.0
  0
LINE
  8
0
  6
CONTINUOUS
 62
               4
  5
1A0
 10
71.999999999999886
 20
101.89624646797574
 30
0.0
 11
71.999999999999886
 21
171.778017020167
 31
0.0
  0
LINE
  8
0
  6
CONTINUOUS
 62
               4
  5
1A1
 10
-71.999999999999872
 20
96.896246467975175
 30
0.0
 11
71.500000000000341
 21
96.896246467975175
 31
0.0
  0
LINE
  8
0
  6
CONTINUOUS
 62
               4
  5
1A2
 10
-19.999999999999986
 20
176.36059271512272
 30
0.0
 11
-19.999999999999986
 21
193.36059271512238
 31
0.0
  0
LINE
  8
0
  6
CONTINUOUS
 62
               4
  5
1A3
 10
20.000000000000014
 20
193.36059271512238
 30
0.0
 11
20.000000000000014
 21
176.36059271512272
 31
0.0
  0
LINE
  8
0
  6
CONTINUOUS
 62
               4
  5
1A4
 10
-19.999999999999986
 20
183.36059271512238
 30
0.0
 11
20.000000000000014
 21
183.36059271512238
 31
0.0
  0
LINE
  8
0
  6
CONTINUOUS
 62
               4
  5
1A5
 10
-72.284161474005359
 20
193.36059271512238
 30
0.0
 11
-72.284161474005359
 21
176.36059271512272
 31
0.0
  0
LINE
  8
0
  6
CONTINUOUS
 62
               4
  5
1A6
 10
-86.210498200625224
 20
183.36059271512238
 30
0.0
 11
-86.210498200625224
 21
176.36059271512272
 31
0.0
  0
LINE
  8
0
  6
CONTINUOUS
 62
               4
  5
1A7
 10
-88.500000000000213
 20
183.36059271512238
 30
0.0
 11
-86.210498200625224
 21
183.36059271512238
 31
0.0
  0
LINE
  8
0
  6
CONTINUOUS
 62
               4
  5
1A8
 10
-86.210498200625224
 20
183.36059271512238
 30
0.0
 11
-72.284161474005359
 21
193.36059271512238
 31
0.0
  0
LINE
  8
0
  6
CONTINUOUS
 62
               4
  5
1A9
 10
88.499999999999659
 20
183.36059271512238
 30
0.0
 11
88.499999999999659
 21
176.36059271512272
 31
0.0
  0
LINE
  8
0
  6
CONTINUOUS
 62
               4
  5
1AA
 10
88.499999999999659
 20
183.36059271512238
 30
0.0
 11
75.0
 21
193.36059271512238
 31
0.0
  0
ARC
  8
0
  6
CONTINUOUS
 62
               4
  5
1AB
 10
76.999999999999886
 20
171.778017020167
 30
0.0
 40
4.9999999999999991
 50
113.57817847813655
 51
179.99999999989603
  0
LINE
  8
0
  6
CONTINUOUS
 62
               4
  5
1AC
 10
72.284161474004236
 20
193.36059271512238
 30
0.0
 11
72.284161474004236
 21
176.36059271512272
 31
0.0
  0
LINE
  8
0
  6
CONTINUOUS
 62
               4
  5
1AD
 10
86.210498200625238
 20
183.36059271512238
 30
0.0
 11
86.210498200625238
 21
176.36059271512272
 31
0.0
  0
LINE
  8
0
  6
CONTINUOUS
 62
               4
  5
1AE
 10
88.499999999999659
 20
183.36059271512238
 30
0.0
 11
86.210498200625238
 21
183.36059271512238
 31
0.0
  0
LINE
  8
0
  6
CONTINUOUS
 62
               4
  5
1AF
 10
86.210498200625238
 20
183.36059271512238
 30
0.0
 11
72.284161474004236
 21
193.36059271512238
 31
0.0
  0
ARC
  8
0
  6
CONTINUOUS
 62
               4
  5
1B0
 10
-64.999999999999986
 20
-35.13940728487762
 30
0.0
 40
2.4999999999999996
 50
89.999999999948159
 51
269.99999999984476
  0
ARC
  8
0
  6
CONTINUOUS
 62
               4
  5
1B1
 10
75.0
 20
-35.13940728487762
 30
0.0
 40
2.4999999999999996
 50
269.99999999984499
 51
449.99999999974102
  0
LINE
  8
0
  6
CONTINUOUS
 62
               4
  5
1B2
 10
-74.999999999999986
 20
-150.63940728487745
 30
0.0
 11
-46.368107792056875
 21
-150.63940728487745
 31
0.0
  0
LINE
  8
0
  6
CONTINUOUS
 62
               4
  5
1B3
 10
-1.9728332801508799
 20
-150.63940728487745
 30
0.0
 11
74.496765133649774
 21
-150.63940728487745
 31
0.0
  0
LINE
  8
0
  6
CONTINUOUS
 62
               4
  5
1B4
 10
76.999999999999886
 20
96.896246467975175
 30
0.0
 11
71.999999999999886
 21
101.89624646797517
 31
0.0
  0
LINE
  8
0
  6
CONTINUOUS
 62
               4
  5
1B5
 10
76.999999999999886
 20
-36.639407284877393
 30
0.0
 11
76.999999999999886
 21
-150.75297551513268
 31
0.0
  0
ARC
  8
0
  6
CONTINUOUS
 62
               4
  5
1B6
 10
54.499999999999886
 20
86.36059271512238
 30
0.0
 40
19.999999999999996
 50
0.0
 51
31.788330617033484
  0
LINE
  8
0
  6
CONTINUOUS
 62
               4
  5
1B7
 10
71.500000000000341
 20
96.896246467975175
 30
0.0
 11
71.500000000000341
 21
101.89624646797574
 31
0.0
  0
LINE
  8
0
  6
CONTINUOUS
 62
               4
  5
1B8
 10
71.999999999999886
 20
101.89624646797517
 30
0.0
 11
71.500000000000341
 21
101.89624646797517
 31
0.0
  0
LINE
  8
0
  6
CONTINUOUS
 62
               4
  5
1B9
 10
76.750000000000114
 20
96.646246467975175
 30
0.0
 11
71.500000000000341
 21
101.89624646797517
 31
0.0
  0
LINE
  8
0
  6
CONTINUOUS
 62
               4
  5
1BA
 10
76.750000000000114
 20
96.646246467975175
 30
0.0
 11
76.999999999999886
 21
96.896246467975175
 31
0.0
  0
LINE
  8
0
  6
CONTINUOUS
 62
               4
  5
1BB
 10
74.499999999999886
 20
-37.63940728487762
 30
0.0
 11
74.499999999999886
 21
-150.61101522731315
 31
0.0
  0
LINE
  8
0
  6
CONTINUOUS
 62
               4
  5
1BC
 10
76.750000000000114
 20
-36.924764392013458
 30
0.0
 11
76.750000000000114
 21
-150.73877948635067
 31
0.0
  0
LINE
  8
0
  6
CONTINUOUS
 62
               4
  5
1BD
 10
74.496765133649774
 20
-150.63940728487745
 30
0.0
 11
76.999999999999886
 21
-150.75297551513268
 31
0.0
  0
LINE
  8
0
  6
CONTINUOUS
 62
               4
  5
1BE
 10
76.999999999999886
 20
96.896246467975175
 30
0.0
 11
76.999999999999886
 21
-33.639407284877507
 31
0.0
  0
LINE
  8
0
  6
CONTINUOUS
 62
               4
  5
1BF
 10
76.750000000000114
 20
96.646246467975175
 30
0.0
 11
76.750000000000114
 21
-33.35405017774201
 31
0.0
  0
LINE
  8
0
  6
CONTINUOUS
 62
               4
  5
1C0
 10
74.499999999999886
 20
86.36059271512238
 30
0.0
 11
74.499999999999886
 21
-32.63940728487762
 31
0.0
  0
LINE
  8
0
  6
CONTINUOUS
 62
               4
  5
1C1
 10
58.141132586505933
 20
-204.27089274396025
 30
0.0
 11
-65.512000000000498
 21
-100.51359479670742
 31
0.0
  0
ARC
  8
0
  6
CONTINUOUS
 62
               4
  5
1C2
 10
-914.27232010053945
 20
-1245.072011923656
 30
0.0
 40
1424.9238755783815
 50
50.18995614625684
 51
53.440796050721552
  0
ARC
  8
0
  6
CONTINUOUS
 62
               4
  5
1C3
 10
63.57938883703298
 20
-79.713724772914304
 30
0.0
 40
130.75634311527989
 50
189.15312334026754
 51
212.76918311271189
  0
ARC
  8
0
  6
CONTINUOUS
 62
               4
  5
1C4
 10
61.364025499551076
 20
-69.57970402167399
 30
0.0
 40
134.72974192119386
 50
216.90649751129573
 51
268.62928723405531
  0
ARC
  8
0
  6
CONTINUOUS
 62
               4
  5
1C5
 10
-733.63034809850819
 20
-1028.7330545987693
 30
0.0
 40
1143.0835201141012
 50
46.158732653416578
 51
50.202696616646634
  0
LINE
  8
0
  6
CONTINUOUS
 62
               4
  5
1C6
 10
-74.999999999999972
 20
-51.44663061709673
 30
0.0
 11
-74.999999999999986
 21
-150.63940728487745
 31
0.0
  0
ARC
  8
0
  6
CONTINUOUS
 62
               4
  5
1C7
 10
-54.999999999999986
 20
86.36059271512238
 30
0.0
 40
19.999999999999996
 50
148.21166938286288
 51
167.26981986159129
  0
LINE
  8
0
  6
CONTINUOUS
 62
               4
  5
1C8
 10
-140.0
 20
82.360592715122266
 30
0.0
 11
-139.3284438740356
 21
82.360592715122266
 31
0.0
  0
LINE
  8
0
  6
CONTINUOUS
 62
               4
  5
1C9
 10
-136.82844387403554
 20
84.860592715122493
 30
0.0
 11
-139.3284438740356
 21
82.360592715122266
 31
0.0
  0
LINE
  8
0
  6
CONTINUOUS
 62
               4
  5
1CA
 10
-136.8284438740356
 20
84.860592715122436
 30
0.0
 11
-79.210967671861297
 21
86.872639320274686
 31
0.0
  0
LINE
  8
0
  6
CONTINUOUS
 62
               4
  5
1CB
 10
-140.0
 20
84.960592715122402
 30
0.0
 11
-142.5
 21
84.960592715122402
 31
0.0
  0
ARC
  8
0
  6
CONTINUOUS
 62
               4
  5
1CC
 10
-142.5
 20
82.460592715122402
 30
0.0
 40
2.5
 50
89.999999999948344
 51
179.99999999989603
  0
ARC
  8
0
  6
CONTINUOUS
 62
               4
  5
1CD
 10
-79.385465155373794
 20
91.869593455370136
 30
0.0
 40
5.0
 50
271.9999999998434
 51
347.26981986148633
  0
LINE
  8
0
  6
CONTINUOUS
 62
               4
  5
1CE
 10
-140.0
 20
-27.63940728487762
 30
0.0
 11
-139.3284438740356
 21
-27.63940728487762
 31
0.0
  0
LINE
  8
0
  6
CONTINUOUS
 62
               4
  5
1CF
 10
-136.82844387403554
 20
-30.139407284876881
 30
0.0
 11
-139.3284438740356
 21
-27.63940728487762
 31
0.0
  0
LINE
  8
0
  6
CONTINUOUS
 62
               4
  5
1D0
 10
-139.3284438740356
 20
82.360592715122266
 30
0.0
 11
-139.3284438740356
 21
-27.63940728487762
 31
0.0
  0
LINE
  8
0
  6
CONTINUOUS
 62
               4
  5
1D1
 10
-140.0
 20
-30.239407284877615
 30
0.0
 11
-140.0
 21
84.960592715122402
 31
0.0
  0
LINE
  8
0
  6
CONTINUOUS
 62
               4
  5
1D2
 10
-145.0
 20
82.460592715122402
 30
0.0
 11
-145.0
 21
-27.739407284877615
 31
0.0
  0
LINE
  8
0
  6
CONTINUOUS
 62
               4
  5
1D3
 10
-140.0
 20
-30.239407284877615
 30
0.0
 11
-142.5
 21
-30.239407284877615
 31
0.0
  0
ARC
  8
0
  6
CONTINUOUS
 62
               4
  5
1D4
 10
-142.5
 20
-27.739407284877615
 30
0.0
 40
2.5
 50
179.9999999998962
 51
269.99999999984499
  0
LINE
  8
0
  6
CONTINUOUS
 62
               4
  5
1D5
 10
-136.82844387403554
 20
84.860592715122493
 30
0.0
 11
-136.8284438740348
 21
-30.13940728487762
 31
0.0
  0
LINE
  8
0
  6
CONTINUOUS
 62
               4
  5
1D6
 10
-136.8284438740348
 20
-30.13940728487762
 30
0.0
 11
-94.663333617757374
 21
-31.611845380731666
 31
0.0
  0
ARC
  8
0
  6
CONTINUOUS
 62
               4
  5
1D7
 10
-79.999999999999972
 20
-51.44663061709673
 30
0.0
 40
4.9999999999999991
 50
0.0
 51
44.999999999973191
  0
ARC
  8
0
  6
CONTINUOUS
 62
               4
  5
1D8
 10
-94.837831101269913
 20
-36.608799515827116
 30
0.0
 40
5.0
 50
44.999999999974911
 51
87.99999999994894
  0
LINE
  8
0
  6
CONTINUOUS
 62
               4
  5
1D9
 10
-91.302297195336166
 20
-33.073265609895401
 30
0.0
 11
-86.736155520353805
 21
-37.63940728487762
 31
0.0
  0
LINE
  8
0
  6
CONTINUOUS
 62
               4
  5
1DA
 10
-76.46446609406749
 20
-47.911096711163623
 30
0.0
 11
-86.736155520353805
 21
-37.63940728487762
 31
0.0
  0
ARC
  8
0
  6
CONTINUOUS
 62
               4
  5
1DB
 10
22.500000000000583
 20
-35.13940728487762
 30
0.0
 40
2.4999999999999996
 50
191.22079972969246
 51
269.9999999998447
  0
LINE
  8
0
  6
CONTINUOUS
 62
               4
  5
1DC
 10
-64.999999999999986
 20
-32.63940728487762
 30
0.0
 11
-27.734635386101601
 21
-32.63940728487762
 31
0.0
  0
LINE
  8
0
  6
CONTINUOUS
 62
               4
  5
1DD
 10
27.734635386101601
 20
-32.63940728487762
 30
0.0
 11
75.0
 21
-32.63940728487762
 31
0.0
  0
LINE
  8
0
  6
CONTINUOUS
 62
               4
  5
1DE
 10
26.787357092479454
 20
55.360592715122266
 30
0.0
 11
-26.787357092479446
 21
55.360592715122266
 31
0.0
  0
CIRCLE
  8
0
  6
CONTINUOUS
 62
               4
  5
1DF
 10
0.0
 20
27.36059271512238
 30
0.0
 40
48.5
  0
CIRCLE
  8
0
  6
CONTINUOUS
 62
               4
  5
1E0
 10
0.0
 20
27.36059271512238
 30
0.0
 40
38.75
  0
CIRCLE
  8
0
  6
CONTINUOUS
 62
               4
  5
1E1
 10
0.0
 20
27.36059271512238
 30
0.0
 40
47.299999999999997
  0
LINE
  8
0
  6
CONTINUOUS
 62
               4
  5
1E2
 10
-31.819805153394604
 20
-4.4592124382721749
 30
0.0
 11
-33.446150750123699
 21
-6.085558035001327
 31
0.0
  0
LINE
  8
0
  6
CONTINUOUS
 62
               4
  5
1E3
 10
31.819805153394668
 20
-4.4592124382721749
 30
0.0
 11
33.446150750123763
 21
-6.0855580350012133
 31
0.0
  0
ARC
  8
0
  6
CONTINUOUS
 62
               4
  5
1E4
 10
0.0
 20
27.36059271512238
 30
0.0
 40
45.0
 50
224.99999999987045
 51
314.99999999981878
  0
CIRCLE
  8
0
  6
CONTINUOUS
 62
               4
  5
1E5
 10
0.0
 20
27.36059271512238
 30
0.0
 40
43.0
  0
LINE
  8
0
  6
CONTINUOUS
 62
               4
  5
1E6
 10
575.0
 20
193.36059271512238
 30
0.0
 11
425.00000000000006
 21
193.36059271512238
 31
0.0
  0
LINE
  8
0
  6
CONTINUOUS
 62
               4
  5
1E7
 10
588.50000000000023
 20
183.36059271512238
 30
0.0
 11
588.50000000000023
 21
176.36059271512272
 31
0.0
  0
LINE
  8
0
  6
CONTINUOUS
 62
               4
  5
1E8
 10
588.50000000000023
 20
183.36059271512238
 30
0.0
 11
575.0
 21
193.36059271512238
 31
0.0
  0
ARC
  8
0
  6
CONTINUOUS
 62
               4
  5
1E9
 10
577.0
 20
171.778017020167
 30
0.0
 40
4.9999999999999991
 50
113.57817847813625
 51
179.99999999989603
  0
LINE
  8
0
  6
CONTINUOUS
 62
               4
  5
1EA
 10
588.50000000000023
 20
176.36059271512272
 30
0.0
 11
411.49999999999983
 21
176.36059271512272
 31
0.0
  0
ARC
  8
0
  6
CONTINUOUS
 62
               4
  5
1EB
 10
555.0
 20
86.36059271512238
 30
0.0
 40
19.999999999999996
 50
0.0
 51
31.78833061703353
  0
LINE
  8
0
  6
CONTINUOUS
 62
               4
  5
1EC
 10
572.0
 20
171.778017020167
 30
0.0
 11
572.0
 21
96.896246467975175
 31
0.0
  0
LINE
  8
0
  6
CONTINUOUS
 62
               4
  5
1ED
 10
428.00000000000017
 20
96.896246467975175
 30
0.0
 11
428.00000000000017
 21
171.778017020167
 31
0.0
  0
LINE
  8
0
  6
CONTINUOUS
 62
               4
  5
1EE
 10
520.0
 20
176.36059271512272
 30
0.0
 11
520.0
 21
193.36059271512238
 31
0.0
  0
LINE
  8
0
  6
CONTINUOUS
 62
               4
  5
1EF
 10
480.00000000000006
 20
193.36059271512238
 30
0.0
 11
480.00000000000006
 21
176.36059271512272
 31
0.0
  0
LINE
  8
0
  6
CONTINUOUS
 62
               4
  5
1F0
 10
520.0
 20
183.36059271512238
 30
0.0
 11
480.00000000000006
 21
183.36059271512238
 31
0.0
  0
LINE
  8
0
  6
CONTINUOUS
 62
               4
  5
1F1
 10
572.2841614740048
 20
193.36059271512238
 30
0.0
 11
572.2841614740048
 21
176.36059271512272
 31
0.0
  0
LINE
  8
0
  6
CONTINUOUS
 62
               4
  5
1F2
 10
586.21049820062535
 20
183.36059271512238
 30
0.0
 11
586.21049820062535
 21
176.36059271512272
 31
0.0
  0
LINE
  8
0
  6
CONTINUOUS
 62
               4
  5
1F3
 10
588.50000000000023
 20
183.36059271512238
 30
0.0
 11
586.21049820062535
 21
183.36059271512238
 31
0.0
  0
LINE
  8
0
  6
CONTINUOUS
 62
               4
  5
1F4
 10
586.21049820062535
 20
183.36059271512238
 30
0.0
 11
572.2841614740048
 21
193.36059271512238
 31
0.0
  0
LINE
  8
0
  6
CONTINUOUS
 62
               4
  5
1F5
 10
411.49999999999983
 20
183.36059271512238
 30
0.0
 11
411.49999999999983
 21
176.36059271512272
 31
0.0
  0
LINE
  8
0
  6
CONTINUOUS
 62
               4
  5
1F6
 10
411.49999999999983
 20
183.36059271512238
 30
0.0
 11
425.00000000000006
 21
193.36059271512238
 31
0.0
  0
ARC
  8
0
  6
CONTINUOUS
 62
               4
  5
1F7
 10
423.00000000000017
 20
171.778017020167
 30
0.0
 40
4.9999999999999991
 50
0.0
 51
66.421821521759654
  0
LINE
  8
0
  6
CONTINUOUS
 62
               4
  5
1F8
 10
427.71583852599525
 20
193.36059271512238
 30
0.0
 11
427.71583852599525
 21
176.36059271512272
 31
0.0
  0
LINE
  8
0
  6
CONTINUOUS
 62
               4
  5
1F9
 10
413.78950179937482
 20
183.36059271512238
 30
0.0
 11
413.78950179937482
 21
176.36059271512272
 31
0.0
  0
LINE
  8
0
  6
CONTINUOUS
 62
               4
  5
1FA
 10
411.49999999999983
 20
183.36059271512238
 30
0.0
 11
413.78950179937482
 21
183.36059271512238
 31
0.0
  0
LINE
  8
0
  6
CONTINUOUS
 62
               4
  5
1FB
 10
413.78950179937482
 20
183.36059271512238
 30
0.0
 11
427.71583852599525
 21
193.36059271512238
 31
0.0
  0
LINE
  8
0
  6
CONTINUOUS
 62
               4
  5
1FC
 10
572.0
 20
96.896246467975175
 30
0.0
 11
511.72700000000026
 21
96.896246467975175
 31
0.0
  0
LINE
  8
0
  6
CONTINUOUS
 62
               4
  5
1FD
 10
488.27299999999985
 20
96.896246467975175
 30
0.0
 11
428.00000000000017
 21
96.896246467975175
 31
0.0
  0
ARC
  8
0
  6
CONTINUOUS
 62
               4
  5
1FE
 10
575.0
 20
-35.13940728487762
 30
0.0
 40
2.4999999999999996
 50
269.99999999984567
 51
449.99999999974102
  0
LINE
  8
0
  6
CONTINUOUS
 62
               4
  5
1FF
 10
508.2169999999997
 20
-32.63940728487762
 30
0.0
 11
575.0
 21
-32.63940728487762
 31
0.0
  0
LINE
  8
0
  6
CONTINUOUS
 62
               4
  5
200
 10
575.0
 20
86.36059271512238
 30
0.0
 11
575.0
 21
-32.63940728487762
 31
0.0
  0
ARC
  8
0
  6
CONTINUOUS
 62
               4
  5
201
 10
474.21603418803392
 20
86.36059271512238
 30
0.0
 40
17.566965811965957
 50
0.0
 51
36.851448659209801
  0
LINE
  8
0
  6
CONTINUOUS
 62
               4
  5
202
 10
511.72700000000026
 20
101.89624646797517
 30
0.0
 11
488.27299999999985
 21
101.89624646797517
 31
0.0
  0
ARC
  8
0
  6
CONTINUOUS
 62
               4
  5
203
 10
525.78396581196557
 20
86.36059271512238
 30
0.0
 40
17.566965811965957
 50
143.14855134068659
 51
179.99999999989643
  0
LINE
  8
0
  6
CONTINUOUS
 62
               4
  5
204
 10
488.27299999999985
 20
96.896246467975175
 30
0.0
 11
488.27299999999985
 21
101.89624646797517
 31
0.0
  0
LINE
  8
0
  6
CONTINUOUS
 62
               4
  5
205
 10
511.72700000000026
 20
96.896246467975175
 30
0.0
 11
511.72700000000026
 21
101.89624646797517
 31
0.0
  0
LINE
  8
0
  6
CONTINUOUS
 62
               4
  5
206
 10
488.27299999999985
 20
101.89624646797517
 30
0.0
 11
493.99999999999983
 21
96.896246467975175
 31
0.0
  0
LINE
  8
0
  6
CONTINUOUS
 62
               4
  5
207
 10
505.99999999999972
 20
96.896246467975175
 30
0.0
 11
511.72700000000026
 21
101.89624646797517
 31
0.0
  0
LINE
  8
0
  6
CONTINUOUS
 62
               4
  5
208
 10
493.99999999999983
 20
96.896246467975175
 30
0.0
 11
505.99999999999972
 21
96.896246467975175
 31
0.0
  0
LINE
  8
0
  6
CONTINUOUS
 62
               4
  5
209
 10
505.99999999999972
 20
-33.639407284877507
 30
0.0
 11
493.99999999999983
 21
-33.639407284877507
 31
0.0
  0
ARC
  8
0
  6
CONTINUOUS
 62
               4
  5
20A
 10
491.93835546658482
 20
-35.05348713334422
 30
0.0
 40
2.4999999999999996
 50
34.446185822124086
 51
93.562780573740966
  0
ARC
  8
0
  6
CONTINUOUS
 62
               4
  5
20B
 10
508.06164453341529
 20
-35.05348713334422
 30
0.0
 40
2.4999999999999996
 50
86.437219426154229
 51
145.55381417777124
  0
LINE
  8
0
  6
CONTINUOUS
 62
               4
  5
20C
 10
491.78299999999984
 20
86.36059271512238
 30
0.0
 11
491.78299999999984
 21
-32.63940728487762
 31
0.0
  0
LINE
  8
0
  6
CONTINUOUS
 62
               4
  5
20D
 10
508.2169999999997
 20
86.36059271512238
 30
0.0
 11
508.2169999999997
 21
-32.63940728487762
 31
0.0
  0
LINE
  8
0
  6
CONTINUOUS
 62
               4
  5
20E
 10
505.99999999999972
 20
-33.639407284877507
 30
0.0
 11
505.99999999999972
 21
96.896246467975175
 31
0.0
  0
LINE
  8
0
  6
CONTINUOUS
 62
               4
  5
20F
 10
493.99999999999983
 20
96.896246467975175
 30
0.0
 11
493.99999999999983
 21
-33.639407284877507
 31
0.0
  0
LINE
  8
0
  6
CONTINUOUS
 62
               4
  5
210
 10
505.99999999999972
 20
-36.639407284877393
 30
0.0
 11
493.99999999999983
 21
-36.639407284877393
 31
0.0
  0
ARC
  8
0
  6
CONTINUOUS
 62
               4
  5
211
 10
491.93835546658482
 20
-35.225327436411021
 30
0.0
 40
2.4999999999999996
 50
266.43721942615383
 51
325.55381417779273
  0
ARC
  8
0
  6
CONTINUOUS
 62
               4
  5
212
 10
508.06164453341529
 20
-35.225327436411021
 30
0.0
 40
2.4999999999999996
 50
214.44618582210353
 51
273.56278057374317
  0
ARC
  8
0
  6
CONTINUOUS
 62
               4
  5
213
 10
360.68129117650477
 20
-227.27213506728498
 30
0.0
 40
204.24864340422488
 50
353.49999999993162
 51
373.4368021674054
  0
ARC
  8
0
  6
CONTINUOUS
 62
               4
  5
214
 10
398.37230094456578
 20
-224.98771799787727
 30
0.0
 40
167.18634723772169
 50
351.25933879886691
 51
375.67746336847057
  0
ARC
  8
0
  6
CONTINUOUS
 62
               4
  5
215
 10
485.02192705347233
 20
-154.78363334134201
 30
0.0
 40
59.149634972654262
 50
186.49999999996388
 51
236.78754046664218
  0
ARC
  8
0
  6
CONTINUOUS
 62
               4
  5
216
 10
505.92691953069397
 20
-142.93461624259032
 30
0.0
 40
81.261593956721953
 50
186.49999999996388
 51
229.00792456449784
  0
LINE
  8
0
  6
CONTINUOUS
 62
               4
  5
217
 10
575.0
 20
-150.48638368776028
 30
0.0
 11
425.00000000000006
 21
-150.48638368776025
 31
0.0
  0
LINE
  8
0
  6
CONTINUOUS
 62
               4
  5
218
 10
575.0
 20
-37.63940728487762
 30
0.0
 11
575.0
 21
-150.48638368776028
 31
0.0
  0
LINE
  8
0
  6
CONTINUOUS
 62
               4
  5
219
 10
360.00000000000006
 20
-27.63940728487762
 30
0.0
 11
360.67155612596446
 21
-27.63940728487762
 31
0.0
  0
LINE
  8
0
  6
CONTINUOUS
 62
               4
  5
21A
 10
363.17155612596451
 20
-30.139407284876881
 30
0.0
 11
360.67155612596446
 21
-27.63940728487762
 31
0.0
  0
LINE
  8
0
  6
CONTINUOUS
 62
               4
  5
21B
 10
360.00000000000006
 20
82.360592715122266
 30
0.0
 11
360.67155612596446
 21
82.360592715122266
 31
0.0
  0
LINE
  8
0
  6
CONTINUOUS
 62
               4
  5
21C
 10
363.17155612596451
 20
84.860592715122493
 30
0.0
 11
360.67155612596446
 21
82.360592715122266
 31
0.0
  0
LINE
  8
0
  6
CONTINUOUS
 62
               4
  5
21D
 10
360.67155612596446
 20
82.360592715122266
 30
0.0
 11
360.67155612596446
 21
-27.63940728487762
 31
0.0
  0
LINE
  8
0
  6
CONTINUOUS
 62
               4
  5
21E
 10
360.00000000000006
 20
-30.239407284877615
 30
0.0
 11
360.00000000000006
 21
84.960592715122402
 31
0.0
  0
LINE
  8
0
  6
CONTINUOUS
 62
               4
  5
21F
 10
360.00000000000006
 20
84.960592715122402
 30
0.0
 11
357.50000000000006
 21
84.960592715122402
 31
0.0
  0
ARC
  8
0
  6
CONTINUOUS
 62
               4
  5
220
 10
357.50000000000006
 20
82.460592715122402
 30
0.0
 40
2.5
 50
89.999999999948997
 51
179.99999999989603
  0
LINE
  8
0
  6
CONTINUOUS
 62
               4
  5
221
 10
355.00000000000006
 20
82.460592715122402
 30
0.0
 11
355.00000000000006
 21
-27.739407284877615
 31
0.0
  0
LINE
  8
0
  6
CONTINUOUS
 62
               4
  5
222
 10
360.00000000000006
 20
-30.239407284877615
 30
0.0
 11
357.50000000000006
 21
-30.239407284877615
 31
0.0
  0
ARC
  8
0
  6
CONTINUOUS
 62
               4
  5
223
 10
357.50000000000006
 20
-27.739407284877615
 30
0.0
 40
2.5
 50
179.9999999998962
 51
269.99999999984436
  0
LINE
  8
0
  6
CONTINUOUS
 62
               4
  5
224
 10
363.17155612596451
 20
84.860592715122493
 30
0.0
 11
363.17155612596525
 21
-30.13940728487762
 31
0.0
  0
ARC
  8
0
  6
CONTINUOUS
 62
               4
  5
225
 10
435.00000000000006
 20
-35.13940728487762
 30
0.0
 40
2.4999999999999996
 50
89.99999999994769
 51
269.99999999984436
  0
LINE
  8
0
  6
CONTINUOUS
 62
               4
  5
226
 10
363.17155612596525
 20
-30.13940728487762
 30
0.0
 11
405.33666638224264
 21
-31.611845380731666
 31
0.0
  0
ARC
  8
0
  6
CONTINUOUS
 62
               4
  5
227
 10
420.00000000000006
 20
-51.44663061709673
 30
0.0
 40
4.9999999999999991
 50
0.0
 51
44.999999999972957
  0
ARC
  8
0
  6
CONTINUOUS
 62
               4
  5
228
 10
405.16216889873016
 20
-36.608799515827116
 30
0.0
 40
5.0
 50
44.99999999997474
 51
87.999999999949225
  0
LINE
  8
0
  6
CONTINUOUS
 62
               4
  5
229
 10
363.17155612596446
 20
84.860592715122436
 30
0.0
 11
420.78903232813872
 21
86.872639320274686
 31
0.0
  0
ARC
  8
0
  6
CONTINUOUS
 62
               4
  5
22A
 10
420.61453484462623
 20
91.869593455370136
 30
0.0
 40
5.0
 50
271.99999999984334
 51
347.26981986148633
  0
ARC
  8
0
  6
CONTINUOUS
 62
               4
  5
22B
 10
445.00000000000006
 20
86.36059271512238
 30
0.0
 40
19.999999999999996
 50
148.21166938286285
 51
167.26981986159126
  0
LINE
  8
0
  6
CONTINUOUS
 62
               4
  5
22C
 10
435.00000000000006
 20
-32.63940728487762
 30
0.0
 11
491.78299999999984
 21
-32.63940728487762
 31
0.0
  0
ARC
  8
0
  6
CONTINUOUS
 62
               4
  5
22D
 10
357.49999999998965
 20
-27.73940728489444
 30
0.0
 40
2.5
 50
179.9999999998962
 51
269.99999999984436
  0
LINE
  8
0
  6
CONTINUOUS
 62
               4
  5
22E
 10
425.00000000000006
 20
-150.48638368776028
 30
0.0
 11
425.00000000000006
 21
-51.44663061709673
 31
0.0
  0
LINE
  8
0
  6
CONTINUOUS
 62
               4
  5
22F
 10
413.26384447964625
 20
-37.63940728487762
 30
0.0
 11
423.53553390593396
 21
-47.911096711165101
 31
0.0
  0
LINE
  8
0
  6
CONTINUOUS
 62
               4
  5
230
 10
413.26384447964625
 20
-37.63940728487762
 30
0.0
 11
408.69770280466389
 21
-33.073265609895401
 31
0.0
  0
LINE
  8
0
  6
CONTINUOUS
 62
               4
  5
231
 10
-575.0
 20
193.36059271512238
 30
0.0
 11
-425.00000000000057
 21
193.36059271512238
 31
0.0
  0
LINE
  8
0
  6
CONTINUOUS
 62
               4
  5
232
 10
-588.50000000000023
 20
183.36059271512238
 30
0.0
 11
-588.50000000000023
 21
176.36059271512272
 31
0.0
  0
LINE
  8
0
  6
CONTINUOUS
 62
               4
  5
233
 10
-588.50000000000023
 20
183.36059271512238
 30
0.0
 11
-575.0
 21
193.36059271512238
 31
0.0
  0
ARC
  8
0
  6
CONTINUOUS
 62
               4
  5
234
 10
-576.99999999999989
 20
171.778017020167
 30
0.0
 40
4.9999999999999991
 50
0.0
 51
66.421821521759654
  0
LINE
  8
0
  6
CONTINUOUS
 62
               4
  5
235
 10
-588.50000000000023
 20
176.36059271512272
 30
0.0
 11
-411.50000000000034
 21
176.36059271512272
 31
0.0
  0
ARC
  8
0
  6
CONTINUOUS
 62
               4
  5
236
 10
-555.0
 20
86.36059271512238
 30
0.0
 40
19.999999999999996
 50
148.21166938286299
 51
179.99999999989646
  0
LINE
  8
0
  6
CONTINUOUS
 62
               4
  5
237
 10
-571.99999999999989
 20
171.778017020167
 30
0.0
 11
-571.99999999999989
 21
96.896246467975175
 31
0.0
  0
LINE
  8
0
  6
CONTINUOUS
 62
               4
  5
238
 10
-428.00000000000011
 20
96.896246467975175
 30
0.0
 11
-428.00000000000011
 21
171.778017020167
 31
0.0
  0
LINE
  8
0
  6
CONTINUOUS
 62
               4
  5
239
 10
-575.0
 20
-37.63940728487762
 30
0.0
 11
-575.0
 21
-150.63940728487745
 31
0.0
  0
LINE
  8
0
  6
CONTINUOUS
 62
               4
  5
23A
 10
-571.99999999999989
 20
96.896246467975175
 30
0.0
 11
-428.00000000000011
 21
96.896246467975175
 31
0.0
  0
LINE
  8
0
  6
CONTINUOUS
 62
               4
  5
23B
 10
-520.0
 20
176.36059271512272
 30
0.0
 11
-520.0
 21
193.36059271512238
 31
0.0
  0
LINE
  8
0
  6
CONTINUOUS
 62
               4
  5
23C
 10
-480.00000000000057
 20
193.36059271512238
 30
0.0
 11
-480.00000000000057
 21
176.36059271512272
 31
0.0
  0
LINE
  8
0
  6
CONTINUOUS
 62
               4
  5
23D
 10
-520.0
 20
183.36059271512238
 30
0.0
 11
-480.00000000000057
 21
183.36059271512238
 31
0.0
  0
LINE
  8
0
  6
CONTINUOUS
 62
               4
  5
23E
 10
-572.28416147400424
 20
193.36059271512238
 30
0.0
 11
-572.28416147400424
 21
176.36059271512272
 31
0.0
  0
LINE
  8
0
  6
CONTINUOUS
 62
               4
  5
23F
 10
-586.21049820062512
 20
183.36059271512238
 30
0.0
 11
-586.21049820062512
 21
176.36059271512272
 31
0.0
  0
LINE
  8
0
  6
CONTINUOUS
 62
               4
  5
240
 10
-588.50000000000023
 20
183.36059271512238
 30
0.0
 11
-586.21049820062512
 21
183.36059271512238
 31
0.0
  0
LINE
  8
0
  6
CONTINUOUS
 62
               4
  5
241
 10
-586.21049820062512
 20
183.36059271512238
 30
0.0
 11
-572.28416147400424
 21
193.36059271512238
 31
0.0
  0
LINE
  8
0
  6
CONTINUOUS
 62
               4
  5
242
 10
-411.50000000000034
 20
183.36059271512238
 30
0.0
 11
-411.50000000000034
 21
176.36059271512272
 31
0.0
  0
LINE
  8
0
  6
CONTINUOUS
 62
               4
  5
243
 10
-411.50000000000034
 20
183.36059271512238
 30
0.0
 11
-425.00000000000057
 21
193.36059271512238
 31
0.0
  0
ARC
  8
0
  6
CONTINUOUS
 62
               4
  5
244
 10
-423.00000000000011
 20
171.778017020167
 30
0.0
 40
4.9999999999999991
 50
113.57817847813625
 51
179.99999999989603
  0
LINE
  8
0
  6
CONTINUOUS
 62
               4
  5
245
 10
-427.7158385259952
 20
193.36059271512238
 30
0.0
 11
-427.7158385259952
 21
176.36059271512272
 31
0.0
  0
LINE
  8
0
  6
CONTINUOUS
 62
               4
  5
246
 10
-413.78950179937476
 20
183.36059271512238
 30
0.0
 11
-413.78950179937476
 21
176.36059271512272
 31
0.0
  0
LINE
  8
0
  6
CONTINUOUS
 62
               4
  5
247
 10
-411.50000000000034
 20
183.36059271512238
 30
0.0
 11
-413.78950179937476
 21
183.36059271512238
 31
0.0
  0
LINE
  8
0
  6
CONTINUOUS
 62
               4
  5
248
 10
-413.78950179937476
 20
183.36059271512238
 30
0.0
 11
-427.7158385259952
 21
193.36059271512238
 31
0.0
  0
ARC
  8
0
  6
CONTINUOUS
 62
               4
  5
249
 10
-575.0
 20
-35.13940728487762
 30
0.0
 40
2.4999999999999996
 50
89.99999999994769
 51
269.99999999984436
  0
LINE
  8
0
  6
CONTINUOUS
 62
               4
  5
24A
 10
-575.0
 20
86.36059271512238
 30
0.0
 11
-575.0
 21
-32.63940728487762
 31
0.0
  0
LINE
  8
0
  6
CONTINUOUS
 62
               4
  5
24B
 10
-575.0
 20
-150.50788368776062
 30
0.0
 11
-441.05099999999987
 21
-150.50788368776028
 31
0.0
  0
ARC
  8
0
  6
CONTINUOUS
 62
               4
  5
24C
 10
-778.92922884912468
 20
-272.18028209922318
 30
0.0
 40
359.11818398045398
 50
13.303286818137401
 51
28.552443501612977
  0
ARC
  8
0
  6
CONTINUOUS
 62
               4
  5
24D
 10
-500.33118646999407
 20
-163.93360619665395
 30
0.0
 40
73.327111796148202
 50
342.62945642124168
 51
419.8368916055386
  0
LINE
  8
0
  6
CONTINUOUS
 62
               4
  5
24E
 10
-428.24363345646071
 20
-150.50788368776028
 30
0.0
 11
-425.00000000000051
 21
-150.50788368776028
 31
0.0
  0
LINE
  8
0
  6
CONTINUOUS
 62
               4
  5
24F
 10
-427.47543193129042
 20
-172.23447090829632
 30
0.0
 11
-425.00000000000051
 21
-150.50788368776062
 31
0.0
  0
LINE
  8
0
  6
CONTINUOUS
 62
               4
  5
250
 10
-425.0
 20
-51.44663061709673
 30
0.0
 11
-425.0
 21
-150.63940728487745
 31
0.0
  0
ARC
  8
0
  6
CONTINUOUS
 62
               4
  5
251
 10
-420.0
 20
-51.44663061709673
 30
0.0
 40
4.9999999999999991
 50
134.99999999999199
 51
179.99999999996524
  0
ARC
  8
0
  6
CONTINUOUS
 62
               4
  5
252
 10
-405.1621688987301
 20
-36.608799515827116
 30
0.0
 40
5.0
 50
92.000000000016485
 51
134.99999999999019
  0
LINE
  8
0
  6
CONTINUOUS
 62
               4
  5
253
 10
-408.69770280466383
 20
-33.073265609895401
 30
0.0
 11
-413.2638444796462
 21
-37.63940728487762
 31
0.0
  0
LINE
  8
0
  6
CONTINUOUS
 62
               4
  5
254
 10
-423.53553390593248
 20
-47.911096711163623
 30
0.0
 11
-413.2638444796462
 21
-37.63940728487762
 31
0.0
  0
ARC
  8
0
  6
CONTINUOUS
 62
               4
  5
255
 10
-435.0
 20
-35.13940728487762
 30
0.0
 40
2.4999999999999996
 50
270.0000000000515
 51
449.99999999994691
  0
LINE
  8
0
  6
CONTINUOUS
 62
               4
  5
256
 10
-360.0
 20
82.360592715122266
 30
0.0
 11
-360.6715561259644
 21
82.360592715122266
 31
0.0
  0
LINE
  8
0
  6
CONTINUOUS
 62
               4
  5
257
 10
-363.17155612596446
 20
84.860592715122493
 30
0.0
 11
-360.6715561259644
 21
82.360592715122266
 31
0.0
  0
LINE
  8
0
  6
CONTINUOUS
 62
               4
  5
258
 10
-360.0
 20
84.960592715122402
 30
0.0
 11
-357.5
 21
84.960592715122402
 31
0.0
  0
ARC
  8
0
  6
CONTINUOUS
 62
               4
  5
259
 10
-357.5
 20
82.460592715122402
 30
0.0
 40
2.5
 50
0.000000000069046
 51
90.000000000016726
  0
LINE
  8
0
  6
CONTINUOUS
 62
               4
  5
25A
 10
-360.0
 20
-27.63940728487762
 30
0.0
 11
-360.6715561259644
 21
-27.63940728487762
 31
0.0
  0
LINE
  8
0
  6
CONTINUOUS
 62
               4
  5
25B
 10
-363.17155612596446
 20
-30.139407284876881
 30
0.0
 11
-360.6715561259644
 21
-27.63940728487762
 31
0.0
  0
LINE
  8
0
  6
CONTINUOUS
 62
               4
  5
25C
 10
-360.6715561259644
 20
82.360592715122266
 30
0.0
 11
-360.6715561259644
 21
-27.63940728487762
 31
0.0
  0
LINE
  8
0
  6
CONTINUOUS
 62
               4
  5
25D
 10
-360.0
 20
-30.239407284877615
 30
0.0
 11
-360.0
 21
84.960592715122402
 31
0.0
  0
LINE
  8
0
  6
CONTINUOUS
 62
               4
  5
25E
 10
-355.0
 20
82.460592715122402
 30
0.0
 11
-355.0
 21
-27.739407284877615
 31
0.0
  0
LINE
  8
0
  6
CONTINUOUS
 62
               4
  5
25F
 10
-360.0
 20
-30.239407284877615
 30
0.0
 11
-357.5
 21
-30.239407284877615
 31
0.0
  0
ARC
  8
0
  6
CONTINUOUS
 62
               4
  5
260
 10
-357.5
 20
-27.739407284877615
 30
0.0
 40
2.5
 50
270.00000000005019
 51
359.99999999999949
  0
LINE
  8
0
  6
CONTINUOUS
 62
               4
  5
261
 10
-363.17155612596446
 20
84.860592715122493
 30
0.0
 11
-363.1715561259652
 21
-30.13940728487762
 31
0.0
  0
LINE
  8
0
  6
CONTINUOUS
 62
               4
  5
262
 10
-363.1715561259652
 20
-30.13940728487762
 30
0.0
 11
-405.33666638224264
 21
-31.611845380731666
 31
0.0
  0
ARC
  8
0
  6
CONTINUOUS
 62
               4
  5
263
 10
-445.0
 20
86.36059271512238
 30
0.0
 40
19.999999999999996
 50
12.730180138373973
 51
31.788330617102307
  0
LINE
  8
0
  6
CONTINUOUS
 62
               4
  5
264
 10
-363.1715561259644
 20
84.860592715122436
 30
0.0
 11
-420.78903232813872
 21
86.872639320274686
 31
0.0
  0
ARC
  8
0
  6
CONTINUOUS
 62
               4
  5
265
 10
-420.61453484462618
 20
91.869593455370136
 30
0.0
 40
5.0
 50
192.73018013840917
 51
268.00000000005247
  0
LINE
  8
0
  6
CONTINUOUS
 62
               4
  5
266
 10
-435.0
 20
-32.63940728487762
 30
0.0
 11
-472.26536461389782
 21
-32.639407284877613
 31
0.0
  0
LINE
  8
0
  6
CONTINUOUS
 62
               4
  5
267
 10
-575.0
 20
-32.63940728487762
 30
0.0
 11
-527.73463538610201
 21
-32.63940728487762
 31
0.0
  0
CIRCLE
  8
0
  6
CONTINUOUS
 62
               4
  5
268
 10
0.0
 20
27.36059271512238
 30
0.0
 40
57.600000000000001
  0
ARC
  8
0
  6
CONTINUOUS
 62
               4
  5
269
 10
22.5
 20
-35.13940728487762
 30
0.0
 40
2.4999999999999996
 50
191.22079972969777
 51
269.9999999998447
  0
ARC
  8
0
  6
CONTINUOUS
 62
               4
  5
26A
 10
-22.5
 20
-35.13940728487762
 30
0.0
 40
2.4999999999999996
 50
269.9999999998447
 51
348.77920027019775
  0
CIRCLE
  8
0
  6
CONTINUOUS
 62
               4
  5
26B
 10
-499.99999999999994
 20
27.360592715122493
 30
0.0
 40
57.5
  0
ARC
  8
0
  6
CONTINUOUS
 62
               4
  5
26C
 10
-522.49999999999943
 20
-35.139407284877606
 30
0.0
 40
2.4999999999999996
 50
269.99999999984436
 51
348.77920027019394
  0
ARC
  8
0
  6
CONTINUOUS
 62
               4
  5
26D
 10
-477.49999999999943
 20
-35.139407284877606
 30
0.0
 40
2.4999999999999996
 50
191.2207997296924
 51
269.99999999984436
  0
LINE
  8
0
  6
CONTINUOUS
 62
               4
  5
26E
 10
-526.7873570924794
 20
55.360592715122266
 30
0.0
 11
-473.21264290752055
 21
55.360592715122266
 31
0.0
  0
CIRCLE
  8
0
  6
CONTINUOUS
 62
               4
  5
26F
 10
-500.0
 20
27.36059271512238
 30
0.0
 40
48.5
  0
CIRCLE
  8
0
  6
CONTINUOUS
 62
               4
  5
270
 10
-500.0
 20
27.36059271512238
 30
0.0
 40
38.75
  0
CIRCLE
  8
0
  6
CONTINUOUS
 62
               4
  5
271
 10
-500.0
 20
27.36059271512238
 30
0.0
 40
47.299999999999997
  0
LINE
  8
0
  6
CONTINUOUS
 62
               4
  5
272
 10
-468.18019484660539
 20
-4.4592124382721749
 30
0.0
 11
-466.55384924987629
 21
-6.085558035001327
 31
0.0
  0
LINE
  8
0
  6
CONTINUOUS
 62
               4
  5
273
 10
-531.81980515339467
 20
-4.4592124382721749
 30
0.0
 11
-533.44615075012371
 21
-6.0855580350012133
 31
0.0
  0
ARC
  8
0
  6
CONTINUOUS
 62
               4
  5
274
 10
-500.0
 20
27.36059271512238
 30
0.0
 40
45.0
 50
225.0000000000768
 51
315.00000000002512
  0
CIRCLE
  8
0
  6
CONTINUOUS
 62
               4
  5
275
 10
-500.0
 20
27.36059271512238
 30
0.0
 40
43.0
  0
LINE
  8
0
  6
CONTINUOUS
 62
               4
  5
276
 10
-91.000000000000497
 20
-417.38462907220003
 30
0.0
 11
-91.000000000000497
 21
-407.51034286514425
 31
0.0
  0
LINE
  8
0
  6
CONTINUOUS
 62
               4
  5
277
 10
90.999999999999261
 20
-417.38462907220003
 30
0.0
 11
90.999999999999261
 21
-407.51034286514425
 31
0.0
  0
LINE
  8
0
  6
CONTINUOUS
 62
               4
  5
278
 10
-65.500000000001521
 20
-516.63940728487637
 30
0.0
 11
65.500000000000398
 21
-516.63940728487637
 31
0.0
  0
LINE
  8
0
  6
CONTINUOUS
 62
               4
  5
279
 10
-565.50000000000091
 20
-516.63940728487637
 30
0.0
 11
-434.49999999999903
 21
-516.63940728487637
 31
0.0
  0
LINE
  8
0
  6
CONTINUOUS
 62
               4
  5
27A
 10
434.49999999999903
 20
-516.63940728487637
 30
0.0
 11
565.50000000000091
 21
-516.63940728487637
 31
0.0
  0
CIRCLE
  8
0
  6
CONTINUOUS
 62
               4
  5
27B
 10
0.0000000000000426
 20
543.36059271512227
 30
0.0
 40
59.0
  0
POINT
  8
0
  6
CONTINUOUS
 62
               4
  5
27C
 10
-247.03776905046874
 20
-986.00878819631271
 30
0.0
  0
POINT
  8
0
  6
CONTINUOUS
 62
               4
  5
27D
 10
-537.23776905046861
 20
-986.00878819631248
 30
0.0
  0
POINT
  8
0
  6
CONTINUOUS
 62
               4
  5
27E
 10
-349.58372644623529
 20
-877.94090412727769
 30
0.0
  0
POINT
  8
0
  6
CONTINUOUS
 62
               4
  5
27F
 10
242.83392368588096
 20
-986.00878819631271
 30
0.0
  0
POINT
  8
0
  6
CONTINUOUS
 62
               4
  5
280
 10
-1.0781087646048917
 20
-986.00878819631271
 30
0.0
  0
POINT
  8
0
  6
CONTINUOUS
 62
               4
  5
281
 10
165.37790746063814
 20
-898.05277197106989
 30
0.0
  0
LINE
  8
0
  6
CONTINUOUS
 62
               4
  5
282
 10
686.28652321630784
 20
-1377.7881326202532
 30
0.0
 11
681.28652321630784
 21
-1372.7881326202532
 31
0.0
  0
ARC
  8
0
  6
CONTINUOUS
 62
               4
  5
283
 10
663.78652321630784
 20
-1388.323786373106
 30
0.0
 40
19.999999999999996
 50
0.0
 51
31.78833061703342
  0
LINE
  8
0
  6
CONTINUOUS
 62
               4
  5
284
 10
680.7865232163083
 20
-1377.7881326202532
 30
0.0
 11
680.7865232163083
 21
-1372.7881326202528
 31
0.0
  0
LINE
  8
0
  6
CONTINUOUS
 62
               4
  5
285
 10
681.28652321630784
 20
-1372.7881326202532
 30
0.0
 11
680.7865232163083
 21
-1372.7881326202532
 31
0.0
  0
LINE
  8
0
  6
CONTINUOUS
 62
               4
  5
286
 10
686.03652321630807
 20
-1378.0381326202532
 30
0.0
 11
680.7865232163083
 21
-1372.7881326202532
 31
0.0
  0
LINE
  8
0
  6
CONTINUOUS
 62
               4
  5
287
 10
686.03652321630807
 20
-1378.0381326202532
 30
0.0
 11
686.28652321630784
 21
-1377.7881326202532
 31
0.0
  0
LINE
  8
0
  6
CONTINUOUS
 62
               4
  5
288
 10
686.28652321630784
 20
-1377.7881326202532
 30
0.0
 11
686.28652321630784
 21
-1508.4768099702233
 31
0.0
  0
LINE
  8
0
  6
CONTINUOUS
 62
               4
  5
289
 10
686.03652321630807
 20
-1378.0381326202532
 30
0.0
 11
686.03652321630807
 21
-1508.1914528630878
 31
0.0
  0
LINE
  8
0
  6
CONTINUOUS
 62
               4
  5
28A
 10
683.78652321630784
 20
-1388.1707627759888
 30
0.0
 11
683.78652321630784
 21
-1507.323786373106
 31
0.0
  0
POINT
  8
0
  6
CONTINUOUS
 62
               4
  5
28B
 10
653.78652321630784
 20
-1117.2243526245218
 30
0.0
  0
POINT
  8
0
  6
CONTINUOUS
 62
               4
  5
28C
 10
464.88652321630781
 20
-1402.823786373106
 30
0.0
  0
POINT
  8
0
  6
CONTINUOUS
 62
               4
  5
28D
 10
464.88652321630792
 20
-1017.3243526245215
 30
0.0
  0
LINE
  8
0
  6
DASHDOT
 62
               4
  5
28E
 10
500.00000000000006
 20
213.36059271512238
 30
0.0
 11
500.00000000000006
 21
-411.63940728487762
 31
0.0
  0
LINE
  8
0
  6
DASHDOT
 62
               4
  5
28F
 10
500.00000000000006
 20
-651.86059271512227
 30
0.0
 11
500.00000000000006
 21
-362.63940728487762
 31
0.0
  0
LINE
  8
0
  6
DASHDOT
 62
               4
  5
290
 10
-0.0000000000000711
 20
651.86059271512227
 30
0.0
 11
-0.0000000000000568
 21
337.05415645881459
 31
0.0
  0
LINE
  8
0
  6
DASHDOT
 62
               4
  5
291
 10
-194.76049541400863
 20
543.36059271512227
 30
0.0
 11
108.50000000000017
 21
543.36059271512227
 31
0.0
  0
LINE
  8
0
  6
DASHDOT
 62
               4
  5
292
 10
68.525224775224729
 20
27.36059271512238
 30
0.0
 11
-68.175574425574496
 21
27.36059271512238
 31
0.0
  0
LINE
  8
0
  6
DASHDOT
 62
               4
  5
293
 10
451.53136564910136
 20
27.36059271512238
 30
0.0
 11
313.63233043019278
 21
27.360592715122408
 31
0.0
  0
LINE
  8
0
  6
DASHDOT
 62
               4
  5
294
 10
-325.75028201470292
 20
27.36059271512238
 30
0.0
 11
-408.1755744255745
 21
27.36059271512238
 31
0.0
  0
LINE
  8
0
  6
DASHDOT
 62
               4
  5
295
 10
-174.24971798529708
 20
27.36059271512238
 30
0.0
 11
-91.824425574425504
 21
27.36059271512238
 31
0.0
  0
LINE
  8
0
  6
DASHDOT
 62
               4
  5
296
 10
-568.52522477522473
 20
27.36059271512238
 30
0.0
 11
-431.8244255744255
 21
27.36059271512238
 31
0.0
  0
LINE
  8
0
  6
DASHDOT
 62
               4
  5
297
 10
-125.00000000000055
 20
-290.64930528687228
 30
0.0
 11
-125.00000000000055
 21
-455.0276669063627
 31
0.0
  0
LINE
  8
0
  6
DASHDOT
 62
               4
  5
298
 10
124.99999999999943
 20
-290.64930528687228
 30
0.0
 11
124.99999999999943
 21
-455.0276669063627
 31
0.0
  0
LINE
  8
0
  6
DASHDOT
 62
               4
  5
299
 10
0.0
 20
-651.86059271512227
 30
0.0
 11
0.0
 21
-362.63940728487762
 31
0.0
  0
LINE
  8
0
  6
DASHDOT
 62
               4
  5
29A
 10
0.0
 20
213.36059271512238
 30
0.0
 11
0.0
 21
-411.63940728487762
 31
0.0
  0
LINE
  8
0
  6
DASHDOT
 62
               4
  5
29B
 10
-500.00000000000063
 20
213.36059271512238
 30
0.0
 11
-500.00000000000063
 21
-411.63940728487762
 31
0.0
  0
LINE
  8
0
  6
DASHDOT
 62
               4
  5
29C
 10
-500.00000000000063
 20
-651.86059271512227
 30
0.0
 11
-500.00000000000063
 21
-362.63940728487762
 31
0.0
  0
LINE
  8
0
  6
DASHDOT
 62
               4
  5
29D
 10
-392.13776905046876
 20
-1095.0087881963127
 30
0.0
 11
-392.13776905046865
 21
-966.00878819631271
 31
0.0
  0
LINE
  8
0
  6
DASHDOT
 62
               4
  5
29E
 10
-450.13776905046876
 20
-1037.0087881963127
 30
0.0
 11
-334.13776905046876
 21
-1037.0087881963127
 31
0.0
  0
LINE
  8
0
  6
DASHDOT
 62
               4
  5
29F
 10
-461.9409475345762
 20
-1030.5087881963127
 30
0.0
 11
-327.63776905046876
 21
-1030.5087881963127
 31
0.0
  0
LINE
  8
0
  6
DASHDOT
 62
               4
  5
2A0
 10
-268.23776905046867
 20
-1030.5087881963127
 30
0.0
 11
-169.63776905046876
 21
-1030.5087881963127
 31
0.0
  0
LINE
  8
0
  6
DASHDOT
 62
               4
  5
2A1
 10
-302.63776905046876
 20
-1037.0087881963127
 30
0.0
 11
-228.23776905046878
 21
-1037.0087881963127
 31
0.0
  0
LINE
  8
0
  6
DASHDOT
 62
               4
  5
2A2
 10
-516.03776905046857
 20
-1030.5087881963125
 30
0.0
 11
-614.63776905046871
 21
-1030.5087881963123
 31
0.0
  0
LINE
  8
0
  6
DASHDOT
 62
               4
  5
2A3
 10
-481.63776905046876
 20
-1037.0087881963125
 30
0.0
 11
-556.03776905046857
 21
-1037.0087881963125
 31
0.0
  0
LINE
  8
0
  6
DASHDOT
 62
               4
  5
2A4
 10
-394.08372644623529
 20
-933.5409041272776
 30
0.0
 11
-394.08372644623529
 21
-800.5409041272776
 31
0.0
  0
LINE
  8
0
  6
DASHDOT
 62
               4
  5
2A5
 10
221.63392368588092
 20
-1030.5087881963127
 30
0.0
 11
320.23392368588105
 21
-1030.5087881963127
 31
0.0
  0
LINE
  8
0
  6
DASHDOT
 62
               4
  5
2A6
 10
196.63392368588092
 20
-1045.0087881963127
 30
0.0
 11
261.63392368588092
 21
-1045.0087881963127
 31
0.0
  0
LINE
  8
0
  6
DASHDOT
 62
               4
  5
2A7
 10
70.877907460637928
 20
-1045.0087881963127
 30
0.0
 11
170.87790746063814
 21
-1045.0087881963127
 31
0.0
  0
LINE
  8
0
  6
DASHDOT
 62
               4
  5
2A8
 10
120.87790746063793
 20
-1095.0087881963127
 30
0.0
 11
120.87790746063816
 21
-966.00878819631271
 31
0.0
  0
LINE
  8
0
  6
DASHDOT
 62
               4
  5
2A9
 10
56.377907460637928
 20
-1030.5087881963127
 30
0.0
 11
190.92191724058915
 21
-1030.5087881963127
 31
0.0
  0
LINE
  8
0
  6
DASHDOT
 62
               4
  5
2AA
 10
20.121891235395154
 20
-1030.5087881963127
 30
0.0
 11
-78.478108764604869
 21
-1030.5087881963127
 31
0.0
  0
LINE
  8
0
  6
DASHDOT
 62
               4
  5
2AB
 10
45.121891235395154
 20
-1045.0087881963127
 30
0.0
 11
-19.878108764604846
 21
-1045.0087881963127
 31
0.0
  0
LINE
  8
0
  6
DASHDOT
 62
               4
  5
2AC
 10
120.87790746063816
 20
-944.25277197106993
 30
0.0
 11
120.87790746063816
 21
-820.6527719710698
 31
0.0
  0
LINE
  8
0
  6
DASHDOT
 62
               4
  5
2AD
 10
609.28652321630784
 20
-864.32435262452168
 30
0.0
 11
609.28652321630784
 21
-1134.871139424348
 31
0.0
  0
LINE
  8
0
  6
DASHDOT
 62
               4
  5
2AE
 10
447.2865232163079
 20
-972.82435262452168
 30
0.0
 11
717.78652321630807
 21
-972.82435262452168
 31
0.0
  0
LINE
  8
0
  6
DASHDOT
 62
               4
  5
2AF
 10
677.81174799153268
 20
-1447.323786373106
 30
0.0
 11
447.55790992287956
 21
-1447.323786373106
 31
0.0
  0
LINE
  8
0
  6
DASHDOT
 62
               4
  5
2B0
 10
609.28652321630784
 20
-1261.323786373106
 30
0.0
 11
609.28652321630784
 21
-1512.323786373106
 31
0.0
  0
LINE
  8
0
  6
DASHDOT
 62
               4
  5
2B1
 10
559.28652321630784
 20
-1461.823786373106
 30
0.0
 11
659.28652321630807
 21
-1461.823786373106
 31
0.0
  0
LINE
  8
0
  6
DASHDOT
 62
               4
  5
2B2
 10
609.28652321630784
 20
-1163.4243526245218
 30
0.0
 11
609.28652321630784
 21
-1039.8243526245215
 31
0.0
  0
LINE
  8
0
  6
DASHDOT
 62
               4
  5
2B3
 10
409.28652321630778
 20
-1453.823786373106
 30
0.0
 11
483.68652321630776
 21
-1453.823786373106
 31
0.0
  0
LINE
  8
0
  6
DASHDOT
 62
               4
  5
2B4
 10
409.28652321630801
 20
-972.82435262452145
 30
0.0
 11
542.28652321630807
 21
-972.82435262452145
 31
0.0
  0
LINE
  8
0
  6
DASHED2
 62
               4
  5
2B5
 10
56.999999999999901
 20
-311.63940728487762
 30
0.0
 11
56.999999999999901
 21
-411.63940728487762
 31
0.0
  0
LINE
  8
0
  6
DASHED2
 62
               4
  5
2B6
 10
-57.132845554130952
 20
-311.63940728487762
 30
0.0
 11
-57.132845554130952
 21
-411.73783503032882
 31
0.0
  0
LINE
  8
0
  6
DASHED2
 62
               4
  5
2B7
 10
-57.132845554130952
 20
-311.63940728487762
 30
0.0
 11
56.999999999999901
 21
-311.63940728487762
 31
0.0
  0
LINE
  8
0
  6
DASHED2
 62
               4
  5
2B8
 10
56.999999999999901
 20
-311.63940728487762
 30
0.0
 11
58.000000000000128
 21
-310.63940728487739
 31
0.0
  0
LINE
  8
0
  6
DASHED2
 62
               4
  5
2B9
 10
-57.132845554130952
 20
-311.63940728487762
 30
0.0
 11
-58.000000000000099
 21
-310.77225283900844
 31
0.0
  0
LINE
  8
0
  6
DASHED2
 62
               4
  5
2BA
 10
58.000000000000128
 20
-310.63940728487739
 30
0.0
 11
58.000000000000128
 21
-299.63940728487785
 31
0.0
  0
LINE
  8
0
  6
DASHED2
 62
               4
  5
2BB
 10
-58.000000000000099
 20
-310.77225283900844
 30
0.0
 11
-58.000000000000099
 21
-299.6394072848779
 31
0.0
  0
LINE
  8
0
  6
DASHED2
 62
               4
  5
2BC
 10
-56.999999999999872
 20
128.36059271512238
 30
0.0
 11
56.999999999999886
 21
128.36059271512238
 31
0.0
  0
LINE
  8
0
  6
DASHED2
 62
               4
  5
2BD
 10
443.00000000000017
 20
128.36059271512238
 30
0.0
 11
557.0
 21
128.36059271512238
 31
0.0
  0
LINE
  8
0
  6
DASHED2
 62
               4
  5
2BE
 10
-557.00000000000045
 20
128.36059271512238
 30
0.0
 11
-443.00000000000068
 21
128.36059271512238
 31
0.0
  0
LINE
  8
0
  6
DASHED2
 62
               4
  5
2BF
 10
-57.50000000000297
 20
-426.63940728487876
 30
0.0
 11
-57.50000000000297
 21
-491.63940728487648
 31
0.0
  0
LINE
  8
0
  6
DASHED2
 62
               4
  5
2C0
 10
0.0000000000000142
 20
-411.63940728487762
 30
0.0
 11
-57.000000000000156
 21
-411.63940728487762
 31
0.0
  0
LINE
  8
0
  6
DASHED2
 62
               4
  5
2C1
 10
-57.50000000000297
 20
-426.63940728487876
 30
0.0
 11
-0.0000000000011227
 21
-426.63940728487762
 31
0.0
  0
LINE
  8
0
  6
DASHED2
 62
               4
  5
2C2
 10
0.0000000000000142
 20
-411.63940728487762
 30
0.0
 11
56.999999999999901
 21
-411.63940728487762
 31
0.0
  0
LINE
  8
0
  6
DASHED2
 62
               4
  5
2C3
 10
57.50000000000172
 20
-426.63940728487876
 30
0.0
 11
0.0000000000000142
 21
-426.63940728487762
 31
0.0
  0
LINE
  8
0
  6
DASHED2
 62
               4
  5
2C4
 10
57.50000000000172
 20
-426.63940728487876
 30
0.0
 11
57.50000000000172
 21
-491.63940728487648
 31
0.0
  0
LINE
  8
0
  6
DASHED2
 62
               4
  5
2C5
 10
-136.76000000000073
 20
-411.63940728487717
 30
0.0
 11
-136.76000000000073
 21
-403.11327878556995
 31
0.0
  0
LINE
  8
0
  6
DASHED2
 62
               4
  5
2C6
 10
-130.87102725426632
 20
-403.11327878556995
 30
0.0
 11
-130.87102725426632
 21
-411.63940728487717
 31
0.0
  0
LINE
  8
0
  6
DASHED2
 62
               4
  5
2C7
 10
-133.81551362713338
 20
-402.03940728487703
 30
0.0
 11
-116.18448637286745
 21
-402.03940728487703
 31
0.0
  0
LINE
  8
0
  6
DASHED2
 62
               4
  5
2C8
 10
-113.24000000000039
 20
-411.63940728487717
 30
0.0
 11
-113.24000000000039
 21
-403.11327878556995
 31
0.0
  0
LINE
  8
0
  6
DASHED2
 62
               4
  5
2C9
 10
-119.12897274573508
 20
-411.63940728487717
 30
0.0
 11
-119.12897274573508
 21
-403.11327878556995
 31
0.0
  0
ARC
  8
0
  6
DASHED2
 62
               4
  5
2CA
 10
-133.81551362713338
 20
-406.61313886899302
 30
0.0
 40
4.5737315841157447
 50
49.925579661602562
 51
130.07442033832857
  0
ARC
  8
0
  6
DASHED2
 62
               4
  5
2CB
 10
-116.18448637286745
 20
-406.61313886899302
 30
0.0
 40
4.5737315841157686
 50
49.925579661602882
 51
130.07442033832876
  0
ARC
  8
0
  6
DASHED2
 62
               4
  5
2CC
 10
-125.00000000000055
 20
-418.62526555439752
 30
0.0
 40
16.58585826952007
 50
69.269184858534402
 51
110.73081514139702
  0
LINE
  8
0
  6
DASHED2
 62
               4
  5
2CD
 10
-136.76000000000215
 20
-413.63940728487751
 30
0.0
 11
-136.76000000000215
 21
-422.16553578418473
 31
0.0
  0
LINE
  8
0
  6
DASHED2
 62
               4
  5
2CE
 10
-130.87102725426774
 20
-422.16553578418473
 30
0.0
 11
-130.87102725426774
 21
-413.63940728487751
 31
0.0
  0
LINE
  8
0
  6
DASHED2
 62
               4
  5
2CF
 10
-133.81551362713481
 20
-423.2394072848773
 30
0.0
 11
-116.18448637286916
 21
-423.2394072848773
 31
0.0
  0
LINE
  8
0
  6
DASHED2
 62
               4
  5
2D0
 10
-113.24000000000181
 20
-413.63940728487751
 30
0.0
 11
-113.24000000000181
 21
-422.16553578418473
 31
0.0
  0
LINE
  8
0
  6
DASHED2
 62
               4
  5
2D1
 10
-119.12897274573622
 20
-413.63940728487751
 30
0.0
 11
-119.12897274573622
 21
-422.16553578418473
 31
0.0
  0
ARC
  8
0
  6
DASHED2
 62
               4
  5
2D2
 10
-133.81551362713481
 20
-418.66567570076188
 30
0.0
 40
4.5737315841157447
 50
229.92557966153424
 51
310.07442033826061
  0
ARC
  8
0
  6
DASHED2
 62
               4
  5
2D3
 10
-116.18448637286916
 20
-418.66567570076188
 30
0.0
 40
4.5737315841157686
 50
229.92557966153441
 51
310.07442033826021
  0
ARC
  8
0
  6
DASHED2
 62
               4
  5
2D4
 10
-125.00000000000198
 20
-406.65354901535738
 30
0.0
 40
16.58585826952007
 50
249.26918485846539
 51
290.73081514132792
  0
LINE
  8
0
  6
DASHED2
 62
               4
  5
2D5
 10
-131.00000000000051
 20
-423.2394072848773
 30
0.0
 11
-131.00000000000051
 21
-433.75877352720192
 31
0.0
  0
LINE
  8
0
  6
DASHED2
 62
               4
  5
2D6
 10
-119.00000000000061
 20
-423.2394072848773
 30
0.0
 11
-119.00000000000061
 21
-433.75877352720192
 31
0.0
  0
LINE
  8
0
  6
DASHED2
 62
               4
  5
2D7
 10
-129.80000000000075
 20
-434.95877352720231
 30
0.0
 11
-120.20000000000066
 21
-434.95877352720231
 31
0.0
  0
LINE
  8
0
  6
DASHED2
 62
               4
  5
2D8
 10
-131.00000000000051
 20
-433.75877352720192
 30
0.0
 11
-129.80000000000075
 21
-434.95877352720231
 31
0.0
  0
LINE
  8
0
  6
DASHED2
 62
               4
  5
2D9
 10
-119.00000000000061
 20
-433.75877352720192
 30
0.0
 11
-120.20000000000066
 21
-434.95877352720231
 31
0.0
  0
LINE
  8
0
  6
DASHED2
 62
               4
  5
2DA
 10
-136.76000000000073
 20
-411.63940728487717
 30
0.0
 11
-113.24000000000039
 21
-411.63940728487717
 31
0.0
  0
LINE
  8
0
  6
DASHED2
 62
               4
  5
2DB
 10
-113.24000000000181
 20
-413.63940728487751
 30
0.0
 11
-136.76000000000215
 21
-413.63940728487751
 31
0.0
  0
LINE
  8
0
  6
DASHED2
 62
               4
  5
2DC
 10
-131.00000000000051
 20
-296.57582780894836
 30
0.0
 11
-131.00000000000051
 21
-402.03940728487703
 31
0.0
  0
LINE
  8
0
  6
DASHED2
 62
               4
  5
2DD
 10
-119.00000000000061
 20
-296.57582780894836
 30
0.0
 11
-119.00000000000061
 21
-402.03940728487703
 31
0.0
  0
LINE
  8
0
  6
DASHED2
 62
               4
  5
2DE
 10
-119.00000000000061
 20
-296.57582780894836
 30
0.0
 11
-131.00000000000051
 21
-296.57582780894836
 31
0.0
  0
LINE
  8
0
  6
DASHED2
 62
               4
  5
2DF
 10
136.75999999999959
 20
-411.63940728487717
 30
0.0
 11
136.75999999999959
 21
-403.11327878556995
 31
0.0
  0
LINE
  8
0
  6
DASHED2
 62
               4
  5
2E0
 10
130.87102725426519
 20
-403.11327878556995
 30
0.0
 11
130.87102725426519
 21
-411.63940728487717
 31
0.0
  0
LINE
  8
0
  6
DASHED2
 62
               4
  5
2E1
 10
133.81551362713225
 20
-402.03940728487703
 30
0.0
 11
116.18448637286633
 21
-402.03940728487703
 31
0.0
  0
LINE
  8
0
  6
DASHED2
 62
               4
  5
2E2
 10
113.23999999999927
 20
-411.63940728487717
 30
0.0
 11
113.23999999999927
 21
-403.11327878556995
 31
0.0
  0
LINE
  8
0
  6
DASHED2
 62
               4
  5
2E3
 10
119.12897274573396
 20
-411.63940728487717
 30
0.0
 11
119.12897274573396
 21
-403.11327878556995
 31
0.0
  0
ARC
  8
0
  6
DASHED2
 62
               4
  5
2E4
 10
133.81551362713225
 20
-406.61313886899302
 30
0.0
 40
4.5737315841157447
 50
49.925579661636654
 51
130.0744203383627
  0
ARC
  8
0
  6
DASHED2
 62
               4
  5
2E5
 10
116.18448637286633
 20
-406.61313886899302
 30
0.0
 40
4.5737315841157686
 50
49.925579661636384
 51
130.07442033836222
  0
ARC
  8
0
  6
DASHED2
 62
               4
  5
2E6
 10
124.99999999999943
 20
-418.62526555439752
 30
0.0
 40
16.58585826952007
 50
69.26918485856821
 51
110.73081514143077
  0
LINE
  8
0
  6
DASHED2
 62
               4
  5
2E7
 10
136.76000000000101
 20
-413.63940728487751
 30
0.0
 11
136.76000000000101
 21
-422.16553578418473
 31
0.0
  0
LINE
  8
0
  6
DASHED2
 62
               4
  5
2E8
 10
130.87102725426661
 20
-422.16553578418473
 30
0.0
 11
130.87102725426661
 21
-413.63940728487751
 31
0.0
  0
LINE
  8
0
  6
DASHED2
 62
               4
  5
2E9
 10
133.81551362713367
 20
-423.2394072848773
 30
0.0
 11
116.18448637286804
 21
-423.2394072848773
 31
0.0
  0
LINE
  8
0
  6
DASHED2
 62
               4
  5
2EA
 10
113.24000000000069
 20
-413.63940728487751
 30
0.0
 11
113.24000000000069
 21
-422.16553578418473
 31
0.0
  0
LINE
  8
0
  6
DASHED2
 62
               4
  5
2EB
 10
119.1289727457351
 20
-413.63940728487751
 30
0.0
 11
119.1289727457351
 21
-422.16553578418473
 31
0.0
  0
ARC
  8
0
  6
DASHED2
 62
               4
  5
2EC
 10
133.81551362713367
 20
-418.66567570076188
 30
0.0
 40
4.5737315841157447
 50
229.9255796616352
 51
310.07442033836156
  0
ARC
  8
0
  6
DASHED2
 62
               4
  5
2ED
 10
116.18448637286804
 20
-418.66567570076188
 30
0.0
 40
4.5737315841157686
 50
229.925579661635
 51
310.07442033836077
  0
ARC
  8
0
  6
DASHED2
 62
               4
  5
2EE
 10
125.00000000000085
 20
-406.65354901535738
 30
0.0
 40
16.58585826952007
 50
249.26918485856763
 51
290.7308151414303
  0
LINE
  8
0
  6
DASHED2
 62
               4
  5
2EF
 10
130.99999999999937
 20
-423.2394072848773
 30
0.0
 11
130.99999999999937
 21
-433.75877352720192
 31
0.0
  0
LINE
  8
0
  6
DASHED2
 62
               4
  5
2F0
 10
118.99999999999949
 20
-423.2394072848773
 30
0.0
 11
118.99999999999949
 21
-433.75877352720192
 31
0.0
  0
LINE
  8
0
  6
DASHED2
 62
               4
  5
2F1
 10
129.79999999999961
 20
-434.95877352720231
 30
0.0
 11
120.19999999999953
 21
-434.95877352720231
 31
0.0
  0
LINE
  8
0
  6
DASHED2
 62
               4
  5
2F2
 10
130.99999999999937
 20
-433.75877352720192
 30
0.0
 11
129.79999999999961
 21
-434.95877352720231
 31
0.0
  0
LINE
  8
0
  6
DASHED2
 62
               4
  5
2F3
 10
118.99999999999949
 20
-433.75877352720192
 30
0.0
 11
120.19999999999953
 21
-434.95877352720231
 31
0.0
  0
LINE
  8
0
  6
DASHED2
 62
               4
  5
2F4
 10
136.75999999999959
 20
-411.63940728487717
 30
0.0
 11
113.23999999999927
 21
-411.63940728487717
 31
0.0
  0
LINE
  8
0
  6
DASHED2
 62
               4
  5
2F5
 10
113.24000000000069
 20
-413.63940728487751
 30
0.0
 11
136.76000000000101
 21
-413.63940728487751
 31
0.0
  0
LINE
  8
0
  6
DASHED2
 62
               4
  5
2F6
 10
130.99999999999937
 20
-296.57582780894836
 30
0.0
 11
130.99999999999937
 21
-402.03940728487703
 31
0.0
  0
LINE
  8
0
  6
DASHED2
 62
               4
  5
2F7
 10
118.99999999999949
 20
-296.57582780894836
 30
0.0
 11
118.99999999999949
 21
-402.03940728487703
 31
0.0
  0
LINE
  8
0
  6
DASHED2
 62
               4
  5
2F8
 10
118.99999999999949
 20
-296.57582780894836
 30
0.0
 11
130.99999999999937
 21
-296.57582780894836
 31
0.0
  0
LINE
  8
0
  6
DASHED2
 62
               4
  5
2F9
 10
-556.99999999999909
 20
-311.7149687545496
 30
0.0
 11
-556.99999999999909
 21
-411.63940728487762
 31
0.0
  0
LINE
  8
0
  6
DASHED2
 62
               4
  5
2FA
 10
-557.50000000000239
 20
-426.63940728487876
 30
0.0
 11
-557.50000000000239
 21
-491.63940728487648
 31
0.0
  0
LINE
  8
0
  6
DASHED2
 62
               4
  5
2FB
 10
-499.99999999999943
 20
-411.63940728487762
 30
0.0
 11
-556.99999999999955
 21
-411.63940728487762
 31
0.0
  0
LINE
  8
0
  6
DASHED2
 62
               4
  5
2FC
 10
-557.50000000000239
 20
-426.63940728487876
 30
0.0
 11
-500.00000000000057
 21
-426.63940728487762
 31
0.0
  0
LINE
  8
0
  6
DASHED2
 62
               4
  5
2FD
 10
-443.00000000000011
 20
-311.7149687545496
 30
0.0
 11
-442.99999999999983
 21
-411.63940728487762
 31
0.0
  0
LINE
  8
0
  6
DASHED2
 62
               4
  5
2FE
 10
-499.99999999999943
 20
-411.63940728487762
 30
0.0
 11
-442.99999999999955
 21
-411.63940728487762
 31
0.0
  0
LINE
  8
0
  6
DASHED2
 62
               4
  5
2FF
 10
-442.49999999999773
 20
-426.63940728487876
 30
0.0
 11
-499.99999999999943
 21
-426.63940728487762
 31
0.0
  0
LINE
  8
0
  6
DASHED2
 62
               4
  5
300
 10
-442.49999999999773
 20
-426.63940728487876
 30
0.0
 11
-442.49999999999773
 21
-491.63940728487648
 31
0.0
  0
LINE
  8
0
  6
DASHED2
 62
               4
  5
301
 10
-511.76000000000022
 20
-411.63940728487762
 30
0.0
 11
-511.76000000000022
 21
-403.1132787855704
 31
0.0
  0
LINE
  8
0
  6
DASHED2
 62
               4
  5
302
 10
-505.87102725426575
 20
-403.1132787855704
 30
0.0
 11
-505.87102725426575
 21
-411.63940728487762
 31
0.0
  0
LINE
  8
0
  6
DASHED2
 62
               4
  5
303
 10
-508.81551362713287
 20
-402.03940728487748
 30
0.0
 11
-491.1844863728669
 21
-402.03940728487748
 31
0.0
  0
LINE
  8
0
  6
DASHED2
 62
               4
  5
304
 10
-488.2399999999999
 20
-411.63940728487762
 30
0.0
 11
-488.2399999999999
 21
-403.1132787855704
 31
0.0
  0
LINE
  8
0
  6
DASHED2
 62
               4
  5
305
 10
-494.12897274573459
 20
-411.63940728487762
 30
0.0
 11
-494.12897274573459
 21
-403.1132787855704
 31
0.0
  0
ARC
  8
0
  6
DASHED2
 62
               4
  5
306
 10
-508.81551362713287
 20
-406.61313886899347
 30
0.0
 40
4.5737315841157447
 50
49.925579661602832
 51
130.07442033832857
  0
ARC
  8
0
  6
DASHED2
 62
               4
  5
307
 10
-491.1844863728669
 20
-406.61313886899347
 30
0.0
 40
4.5737315841157686
 50
49.925579661602747
 51
130.07442033832857
  0
ARC
  8
0
  6
DASHED2
 62
               4
  5
308
 10
-500.0
 20
-418.62526555439797
 30
0.0
 40
16.58585826952007
 50
69.269184858534501
 51
110.73081514139706
  0
LINE
  8
0
  6
DASHED2
 62
               4
  5
309
 10
-511.76000000000158
 20
-413.63940728487796
 30
0.0
 11
-511.76000000000158
 21
-422.16553578418518
 31
0.0
  0
LINE
  8
0
  6
DASHED2
 62
               4
  5
30A
 10
-505.87102725426723
 20
-422.16553578418518
 30
0.0
 11
-505.87102725426723
 21
-413.63940728487796
 31
0.0
  0
LINE
  8
0
  6
DASHED2
 62
               4
  5
30B
 10
-508.81551362713424
 20
-423.23940728487776
 30
0.0
 11
-491.18448637286861
 21
-423.23940728487776
 31
0.0
  0
LINE
  8
0
  6
DASHED2
 62
               4
  5
30C
 10
-488.24000000000126
 20
-413.63940728487796
 30
0.0
 11
-488.24000000000126
 21
-422.16553578418518
 31
0.0
  0
LINE
  8
0
  6
DASHED2
 62
               4
  5
30D
 10
-494.12897274573572
 20
-413.63940728487796
 30
0.0
 11
-494.12897274573572
 21
-422.16553578418518
 31
0.0
  0
ARC
  8
0
  6
DASHED2
 62
               4
  5
30E
 10
-508.81551362713424
 20
-418.66567570076234
 30
0.0
 40
4.5737315841157447
 50
229.92557966153416
 51
310.07442033826044
  0
ARC
  8
0
  6
DASHED2
 62
               4
  5
30F
 10
-491.18448637286861
 20
-418.66567570076234
 30
0.0
 40
4.5737315841157686
 50
229.92557966153416
 51
310.07442033825998
  0
ARC
  8
0
  6
DASHED2
 62
               4
  5
310
 10
-500.00000000000148
 20
-406.65354901535784
 30
0.0
 40
16.58585826952007
 50
249.26918485846539
 51
290.73081514132798
  0
LINE
  8
0
  6
DASHED2
 62
               4
  5
311
 10
-506.0
 20
-423.23940728487776
 30
0.0
 11
-506.0
 21
-433.75877352720238
 31
0.0
  0
LINE
  8
0
  6
DASHED2
 62
               4
  5
312
 10
-494.00000000000011
 20
-423.23940728487776
 30
0.0
 11
-494.00000000000011
 21
-433.75877352720238
 31
0.0
  0
LINE
  8
0
  6
DASHED2
 62
               4
  5
313
 10
-504.80000000000018
 20
-434.95877352720277
 30
0.0
 11
-495.20000000000016
 21
-434.95877352720277
 31
0.0
  0
LINE
  8
0
  6
DASHED2
 62
               4
  5
314
 10
-506.0
 20
-433.75877352720238
 30
0.0
 11
-504.80000000000018
 21
-434.95877352720277
 31
0.0
  0
LINE
  8
0
  6
DASHED2
 62
               4
  5
315
 10
-494.00000000000011
 20
-433.75877352720238
 30
0.0
 11
-495.20000000000016
 21
-434.95877352720277
 31
0.0
  0
LINE
  8
0
  6
DASHED2
 62
               4
  5
316
 10
-511.76000000000022
 20
-411.63940728487762
 30
0.0
 11
-488.2399999999999
 21
-411.63940728487762
 31
0.0
  0
LINE
  8
0
  6
DASHED2
 62
               4
  5
317
 10
-488.24000000000126
 20
-413.63940728487796
 30
0.0
 11
-511.76000000000158
 21
-413.63940728487796
 31
0.0
  0
LINE
  8
0
  6
DASHED2
 62
               4
  5
318
 10
-506.0
 20
-296.57582780894882
 30
0.0
 11
-506.0
 21
-402.03940728487748
 31
0.0
  0
LINE
  8
0
  6
DASHED2
 62
               4
  5
319
 10
-494.00000000000011
 20
-296.57582780894882
 30
0.0
 11
-494.00000000000011
 21
-402.03940728487748
 31
0.0
  0
LINE
  8
0
  6
DASHED2
 62
               4
  5
31A
 10
-494.00000000000011
 20
-296.57582780894882
 30
0.0
 11
-506.0
 21
-296.57582780894882
 31
0.0
  0
LINE
  8
0
  6
DASHED2
 62
               4
  5
31B
 10
-557.13284555413088
 20
-311.7149687545496
 30
0.0
 11
-443.00000000000011
 21
-311.7149687545496
 31
0.0
  0
LINE
  8
0
  6
DASHED2
 62
               4
  5
31C
 10
-443.00000000000011
 20
-311.7149687545496
 30
0.0
 11
-441.99999999999989
 21
-310.71496875454937
 31
0.0
  0
LINE
  8
0
  6
DASHED2
 62
               4
  5
31D
 10
-557.13284555413088
 20
-311.7149687545496
 30
0.0
 11
-558.00000000000011
 21
-310.84781430868043
 31
0.0
  0
LINE
  8
0
  6
DASHED2
 62
               4
  5
31E
 10
-558.00000000000011
 20
-310.84781430868043
 30
0.0
 11
-558.00000000000011
 21
-299.71496875454989
 31
0.0
  0
LINE
  8
0
  6
DASHED2
 62
               4
  5
31F
 10
-441.99999999999989
 20
-310.71496875454937
 30
0.0
 11
-441.99999999999989
 21
-299.71496875454983
 31
0.0
  0
LINE
  8
0
  6
DASHED2
 62
               4
  5
320
 10
443.00000000000097
 20
-311.7149687545496
 30
0.0
 11
443.00000000000097
 21
-411.63940728487762
 31
0.0
  0
LINE
  8
0
  6
DASHED2
 62
               4
  5
321
 10
442.49999999999761
 20
-426.63940728487876
 30
0.0
 11
442.49999999999761
 21
-491.63940728487648
 31
0.0
  0
LINE
  8
0
  6
DASHED2
 62
               4
  5
322
 10
500.00000000000063
 20
-411.63940728487762
 30
0.0
 11
443.0000000000004
 21
-411.63940728487762
 31
0.0
  0
LINE
  8
0
  6
DASHED2
 62
               4
  5
323
 10
442.49999999999761
 20
-426.63940728487876
 30
0.0
 11
499.99999999999949
 21
-426.63940728487762
 31
0.0
  0
LINE
  8
0
  6
DASHED2
 62
               4
  5
324
 10
557.0
 20
-311.7149687545496
 30
0.0
 11
557.00000000000023
 21
-411.63940728487762
 31
0.0
  0
LINE
  8
0
  6
DASHED2
 62
               4
  5
325
 10
500.00000000000063
 20
-411.63940728487762
 30
0.0
 11
557.00000000000045
 21
-411.63940728487762
 31
0.0
  0
LINE
  8
0
  6
DASHED2
 62
               4
  5
326
 10
557.50000000000227
 20
-426.63940728487876
 30
0.0
 11
500.00000000000063
 21
-426.63940728487762
 31
0.0
  0
LINE
  8
0
  6
DASHED2
 62
               4
  5
327
 10
557.50000000000227
 20
-426.63940728487876
 30
0.0
 11
557.50000000000227
 21
-491.63940728487648
 31
0.0
  0
LINE
  8
0
  6
DASHED2
 62
               4
  5
328
 10
488.23999999999972
 20
-411.63940728487762
 30
0.0
 11
488.23999999999972
 21
-403.1132787855704
 31
0.0
  0
LINE
  8
0
  6
DASHED2
 62
               4
  5
329
 10
494.12897274573419
 20
-403.1132787855704
 30
0.0
 11
494.12897274573419
 21
-411.63940728487762
 31
0.0
  0
LINE
  8
0
  6
DASHED2
 62
               4
  5
32A
 10
491.18448637286718
 20
-402.03940728487748
 30
0.0
 11
508.81551362713316
 21
-402.03940728487748
 31
0.0
  0
LINE
  8
0
  6
DASHED2
 62
               4
  5
32B
 10
511.76000000000016
 20
-411.63940728487762
 30
0.0
 11
511.76000000000016
 21
-403.1132787855704
 31
0.0
  0
LINE
  8
0
  6
DASHED2
 62
               4
  5
32C
 10
505.87102725426547
 20
-411.63940728487762
 30
0.0
 11
505.87102725426547
 21
-403.1132787855704
 31
0.0
  0
ARC
  8
0
  6
DASHED2
 62
               4
  5
32D
 10
491.18448637286718
 20
-406.61313886899347
 30
0.0
 40
4.5737315841157447
 50
49.925579661602285
 51
130.07442033832857
  0
ARC
  8
0
  6
DASHED2
 62
               4
  5
32E
 10
508.81551362713316
 20
-406.61313886899347
 30
0.0
 40
4.5737315841157686
 50
49.925579661602747
 51
130.07442033832857
  0
ARC
  8
0
  6
DASHED2
 62
               4
  5
32F
 10
499.99999999999994
 20
-418.62526555439797
 30
0.0
 40
16.58585826952007
 50
69.269184858534302
 51
110.73081514139687
  0
LINE
  8
0
  6
DASHED2
 62
               4
  5
330
 10
488.23999999999836
 20
-413.63940728487796
 30
0.0
 11
488.23999999999836
 21
-422.16553578418518
 31
0.0
  0
LINE
  8
0
  6
DASHED2
 62
               4
  5
331
 10
494.12897274573282
 20
-422.16553578418518
 30
0.0
 11
494.12897274573282
 21
-413.63940728487796
 31
0.0
  0
LINE
  8
0
  6
DASHED2
 62
               4
  5
332
 10
491.18448637286582
 20
-423.23940728487776
 30
0.0
 11
508.81551362713134
 21
-423.23940728487776
 31
0.0
  0
LINE
  8
0
  6
DASHED2
 62
               4
  5
333
 10
511.7599999999988
 20
-413.63940728487796
 30
0.0
 11
511.7599999999988
 21
-422.16553578418518
 31
0.0
  0
LINE
  8
0
  6
DASHED2
 62
               4
  5
334
 10
505.87102725426433
 20
-413.63940728487796
 30
0.0
 11
505.87102725426433
 21
-422.16553578418518
 31
0.0
  0
ARC
  8
0
  6
DASHED2
 62
               4
  5
335
 10
491.18448637286582
 20
-418.66567570076234
 30
0.0
 40
4.5737315841157447
 50
229.92557966153464
 51
310.07442033826101
  0
ARC
  8
0
  6
DASHED2
 62
               4
  5
336
 10
508.81551362713134
 20
-418.66567570076234
 30
0.0
 40
4.5737315841157686
 50
229.92557966153464
 51
310.07442033826055
  0
ARC
  8
0
  6
DASHED2
 62
               4
  5
337
 10
499.99999999999858
 20
-406.65354901535784
 30
0.0
 40
16.58585826952007
 50
249.26918485846539
 51
290.73081514132798
  0
LINE
  8
0
  6
DASHED2
 62
               4
  5
338
 10
493.99999999999994
 20
-423.23940728487776
 30
0.0
 11
493.99999999999994
 21
-433.75877352720238
 31
0.0
  0
LINE
  8
0
  6
DASHED2
 62
               4
  5
339
 10
505.99999999999994
 20
-423.23940728487776
 30
0.0
 11
505.99999999999994
 21
-433.75877352720238
 31
0.0
  0
LINE
  8
0
  6
DASHED2
 62
               4
  5
33A
 10
495.19999999999976
 20
-434.95877352720277
 30
0.0
 11
504.7999999999999
 21
-434.95877352720277
 31
0.0
  0
LINE
  8
0
  6
DASHED2
 62
               4
  5
33B
 10
493.99999999999994
 20
-433.75877352720238
 30
0.0
 11
495.19999999999976
 21
-434.95877352720277
 31
0.0
  0
LINE
  8
0
  6
DASHED2
 62
               4
  5
33C
 10
505.99999999999994
 20
-433.75877352720238
 30
0.0
 11
504.7999999999999
 21
-434.95877352720277
 31
0.0
  0
LINE
  8
0
  6
DASHED2
 62
               4
  5
33D
 10
488.23999999999972
 20
-411.63940728487762
 30
0.0
 11
511.76000000000016
 21
-411.63940728487762
 31
0.0
  0
LINE
  8
0
  6
DASHED2
 62
               4
  5
33E
 10
511.7599999999988
 20
-413.63940728487796
 30
0.0
 11
488.23999999999836
 21
-413.63940728487796
 31
0.0
  0
LINE
  8
0
  6
DASHED2
 62
               4
  5
33F
 10
442.86715444586906
 20
-311.7149687545496
 30
0.0
 11
557.0
 21
-311.7149687545496
 31
0.0
  0
LINE
  8
0
  6
DASHED2
 62
               4
  5
340
 10
557.0
 20
-311.7149687545496
 30
0.0
 11
558.00000000000023
 21
-310.71496875454937
 31
0.0
  0
LINE
  8
0
  6
DASHED2
 62
               4
  5
341
 10
442.86715444586906
 20
-311.7149687545496
 30
0.0
 11
441.99999999999989
 21
-310.84781430868043
 31
0.0
  0
LINE
  8
0
  6
DASHED2
 62
               4
  5
342
 10
493.99999999999994
 20
-296.57582780894882
 30
0.0
 11
493.99999999999994
 21
-402.03940728487748
 31
0.0
  0
LINE
  8
0
  6
DASHED2
 62
               4
  5
343
 10
505.99999999999994
 20
-296.57582780894882
 30
0.0
 11
505.99999999999994
 21
-402.03940728487748
 31
0.0
  0
LINE
  8
0
  6
DASHED2
 62
               4
  5
344
 10
505.99999999999994
 20
-296.57582780894882
 30
0.0
 11
493.99999999999994
 21
-296.57582780894882
 31
0.0
  0
LINE
  8
0
  6
DASHED2
 62
               4
  5
345
 10
552.28652321630796
 20
-1346.323786373106
 30
0.0
 11
666.28652321630784
 21
-1346.323786373106
 31
0.0
  0
ARC
  8
0
  6
DIVIDE
 62
               4
  5
346
 10
-28.500000000000497
 20
-658.57238858904611
 30
0.0
 40
55.0
 50
58.789629707478362
 51
121.21037029248673
  0
ARC
  8
0
  6
DIVIDE
 62
               4
  5
347
 10
-28.500000000000497
 20
-564.49263518800853
 30
0.0
 40
55.0
 50
238.78962970744368
 51
301.21037029245184
  0
ARC
  8
0
  6
DIVIDE
 62
               4
  5
348
 10
-32.500000000000554
 20
-634.03500932432394
 30
0.0
 40
65.0
 50
59.999999999988262
 51
119.99999999997692
  0
ARC
  8
0
  6
DIVIDE
 62
               4
  5
349
 10
28.499999999999531
 20
-564.49263518800876
 30
0.0
 40
55.0
 50
238.78962970744377
 51
301.21037029245201
  0
ARC
  8
0
  6
DIVIDE
 62
               4
  5
34A
 10
32.499999999999446
 20
-521.45170683234687
 30
0.0
 40
65.0
 50
239.99999999995379
 51
299.99999999994202
  0
LINE
  8
0
  6
DIVIDE
 62
               4
  5
34B
 10
-57.000000000000441
 20
-573.82911260315541
 30
0.0
 11
-57.000000000000441
 21
-611.53251188852732
 31
0.0
  0
LINE
  8
0
  6
DIVIDE
 62
               4
  5
34C
 10
56.999999999999616
 20
-581.6576035535154
 30
0.0
 11
56.999999999999616
 21
-611.53251188852732
 31
0.0
  0
ARC
  8
0
  6
DIVIDE
 62
               4
  5
34D
 10
-32.500000000000554
 20
-521.4517068323471
 30
0.0
 40
65.0
 50
239.99999999995339
 51
247.85677929850399
  0
LINE
  8
0
  6
DIVIDE
 62
               4
  5
34E
 10
64.999999999999432
 20
-491.63940728487648
 30
0.0
 11
64.999999999999432
 21
-577.7433580783354
 31
0.0
  0
LINE
  8
0
  6
DIVIDE
 62
               4
  5
34F
 10
-65.000000000000554
 20
-491.63940728487648
 30
0.0
 11
-65.000000000000554
 21
-577.7433580783354
 31
0.0
  0
ARC
  8
0
  6
DIVIDE
 62
               4
  5
350
 10
-528.5
 20
-658.57238858904611
 30
0.0
 40
55.0
 50
58.789629707478369
 51
121.21037029248674
  0
ARC
  8
0
  6
DIVIDE
 62
               4
  5
351
 10
-528.5
 20
-564.49263518800853
 30
0.0
 40
55.0
 50
238.78962970744368
 51
301.21037029245184
  0
ARC
  8
0
  6
DIVIDE
 62
               4
  5
352
 10
-532.5
 20
-634.03500932432394
 30
0.0
 40
65.0
 50
59.999999999988248
 51
119.99999999997692
  0
ARC
  8
0
  6
DIVIDE
 62
               4
  5
353
 10
-471.49999999999989
 20
-564.49263518800876
 30
0.0
 40
55.0
 50
238.78962970744377
 51
301.21037029245201
  0
ARC
  8
0
  6
DIVIDE
 62
               4
  5
354
 10
-467.5
 20
-521.45170683234687
 30
0.0
 40
65.0
 50
239.99999999995379
 51
299.99999999994202
  0
LINE
  8
0
  6
DIVIDE
 62
               4
  5
355
 10
-556.99999999999989
 20
-573.82911260315541
 30
0.0
 11
-556.99999999999989
 21
-611.53251188852732
 31
0.0
  0
LINE
  8
0
  6
DIVIDE
 62
               4
  5
356
 10
-442.99999999999983
 20
-581.6576035535154
 30
0.0
 11
-442.99999999999983
 21
-611.53251188852732
 31
0.0
  0
ARC
  8
0
  6
DIVIDE
 62
               4
  5
357
 10
-532.5
 20
-521.4517068323471
 30
0.0
 40
65.0
 50
239.99999999995339
 51
247.85677929850399
  0
LINE
  8
0
  6
DIVIDE
 62
               4
  5
358
 10
-435.0
 20
-491.63940728487648
 30
0.0
 11
-435.0
 21
-577.7433580783354
 31
0.0
  0
LINE
  8
0
  6
DIVIDE
 62
               4
  5
359
 10
-565.0
 20
-491.63940728487648
 30
0.0
 11
-565.0
 21
-577.7433580783354
 31
0.0
  0
ARC
  8
0
  6
DIVIDE
 62
               4
  5
35A
 10
471.50000000000006
 20
-658.57238858904611
 30
0.0
 40
55.0
 50
58.789629707478369
 51
121.21037029248674
  0
ARC
  8
0
  6
DIVIDE
 62
               4
  5
35B
 10
471.50000000000006
 20
-564.49263518800853
 30
0.0
 40
55.0
 50
238.78962970744368
 51
301.21037029245184
  0
ARC
  8
0
  6
DIVIDE
 62
               4
  5
35C
 10
467.49999999999994
 20
-634.03500932432394
 30
0.0
 40
65.0
 50
59.999999999988297
 51
119.99999999997692
  0
ARC
  8
0
  6
DIVIDE
 62
               4
  5
35D
 10
528.50000000000023
 20
-564.49263518800876
 30
0.0
 40
55.0
 50
238.78962970744377
 51
301.21037029245201
  0
ARC
  8
0
  6
DIVIDE
 62
               4
  5
35E
 10
532.5
 20
-521.45170683234687
 30
0.0
 40
65.0
 50
239.99999999995379
 51
299.99999999994196
  0
LINE
  8
0
  6
DIVIDE
 62
               4
  5
35F
 10
443.00000000000011
 20
-573.82911260315541
 30
0.0
 11
443.00000000000011
 21
-611.53251188852732
 31
0.0
  0
LINE
  8
0
  6
DIVIDE
 62
               4
  5
360
 10
557.00000000000023
 20
-581.6576035535154
 30
0.0
 11
557.00000000000023
 21
-611.53251188852732
 31
0.0
  0
ARC
  8
0
  6
DIVIDE
 62
               4
  5
361
 10
467.49999999999994
 20
-521.4517068323471
 30
0.0
 40
65.0
 50
239.99999999995339
 51
247.85677929850399
  0
LINE
  8
0
  6
DIVIDE
 62
               4
  5
362
 10
565.0
 20
-491.63940728487648
 30
0.0
 11
565.0
 21
-577.7433580783354
 31
0.0
  0
LINE
  8
0
  6
DIVIDE
 62
               4
  5
363
 10
435.0
 20
-491.63940728487648
 30
0.0
 11
435.0
 21
-577.7433580783354
 31
0.0
  0
LINE
  8
0
  6
CONTINUOUS
 62
               3
  5
364
 10
-66.500000000000099
 20
-295.71203187941001
 30
0.0
 11
-66.500000000000099
 21
-331.63940728487762
 31
0.0
  0
LINE
  8
0
  6
CONTINUOUS
 62
               3
  5
365
 10
66.500000000000114
 20
-295.71203187941012
 30
0.0
 11
66.500000000000114
 21
-331.63940728487762
 31
0.0
  0
LINE
  8
0
  6
CONTINUOUS
 62
               3
  5
366
 10
66.500000000000114
 20
-295.71203187941012
 30
0.0
 11
82.999999999999886
 21
-151.09434658140663
 31
0.0
  0
LINE
  8
0
  6
CONTINUOUS
 62
               3
  5
367
 10
-66.500000000000099
 20
-295.71203187941001
 30
0.0
 11
-83.499999999999957
 21
-146.71199248146627
 31
0.0
  0
LINE
  8
0
  6
CONTINUOUS
 62
               3
  5
368
 10
-66.500000000000099
 20
-299.63940728487762
 30
0.0
 11
66.500000000000114
 21
-299.63940728487762
 31
0.0
  0
LINE
  8
0
  6
CONTINUOUS
 62
               3
  5
369
 10
-66.500000000000099
 20
-331.63940728487762
 30
0.0
 11
66.500000000000114
 21
-331.63940728487762
 31
0.0
  0
LINE
  8
0
  6
CONTINUOUS
 62
               3
  5
36A
 10
-566.50000000000011
 20
-295.71203187941001
 30
0.0
 11
-583.5
 21
-146.71199248146627
 31
0.0
  0
LINE
  8
0
  6
CONTINUOUS
 62
               3
  5
36B
 10
-566.50000000000011
 20
-299.7149687545496
 30
0.0
 11
-433.49999999999989
 21
-299.7149687545496
 31
0.0
  0
LINE
  8
0
  6
CONTINUOUS
 62
               3
  5
36C
 10
-433.49999999999989
 20
-295.71203187941012
 30
0.0
 11
-416.5
 21
-146.71199248146593
 31
0.0
  0
LINE
  8
0
  6
CONTINUOUS
 62
               3
  5
36D
 10
433.49999999999983
 20
-295.71203187941001
 30
0.0
 11
416.50000000000006
 21
-146.71199248146627
 31
0.0
  0
LINE
  8
0
  6
CONTINUOUS
 62
               3
  5
36E
 10
433.49999999999983
 20
-299.7149687545496
 30
0.0
 11
566.5
 21
-299.7149687545496
 31
0.0
  0
LINE
  8
0
  6
CONTINUOUS
 62
               3
  5
36F
 10
566.5
 20
-295.71203187941012
 30
0.0
 11
583.5
 21
-146.71199248146593
 31
0.0
  0
LINE
  8
0
  6
CONTINUOUS
 62
               3
  5
370
 10
82.999999999999886
 20
101.8815278422137
 30
0.0
 11
82.999999999999886
 21
-151.09434658140663
 31
0.0
  0
LINE
  8
0
  6
CONTINUOUS
 62
               3
  5
371
 10
80.5
 20
162.86059271512283
 30
0.0
 11
80.5
 21
106.452595654079
 31
0.0
  0
LINE
  8
0
  6
CONTINUOUS
 62
               3
  5
372
 10
-83.499999999999972
 20
-55.760355865371139
 30
0.0
 11
-83.499999999999972
 21
-146.71199248146627
 31
0.0
  0
LINE
  8
0
  6
CONTINUOUS
 62
               3
  5
373
 10
81.232233047033617
 20
104.68482870111268
 30
0.0
 11
82.267766952966269
 21
103.64929479518003
 31
0.0
  0
ARC
  8
0
  6
CONTINUOUS
 62
               3
  5
374
 10
83.0
 20
106.452595654079
 30
0.0
 40
2.5
 50
179.99999999996507
 51
224.99999999995572
  0
ARC
  8
0
  6
CONTINUOUS
 62
               3
  5
375
 10
80.499999999999886
 20
101.8815278422137
 30
0.0
 40
2.5
 50
0.0
 51
44.99999999999023
  0
LINE
  8
0
  6
CONTINUOUS
 62
               3
  5
376
 10
-80.499999999999972
 20
162.86059271512283
 30
0.0
 11
-80.499999999999972
 21
99.664727410772457
 31
0.0
  0
ARC
  8
0
  6
CONTINUOUS
 62
               3
  5
377
 10
-82.999999999999972
 20
99.664727410772457
 30
0.0
 40
2.5
 50
334.58537908477388
 51
359.99999999993048
  0
LINE
  8
0
  6
CONTINUOUS
 62
               3
  5
378
 10
-97.536089160791249
 20
-40.688732798647777
 30
0.0
 11
-84.232233047033645
 21
-53.992588912404727
 31
0.0
  0
ARC
  8
0
  6
CONTINUOUS
 62
               3
  5
379
 10
-85.999999999999972
 20
-55.760355865371139
 30
0.0
 40
2.5
 50
0.0
 51
44.99999999999276
  0
LINE
  8
0
  6
CONTINUOUS
 62
               3
  5
37A
 10
-88.564599394389859
 20
-37.63940728487762
 30
0.0
 11
-95.463720450766488
 21
-42.761101508672425
 31
0.0
  0
ARC
  8
0
  6
CONTINUOUS
 62
               3
  5
37B
 10
-54.999999999999986
 20
86.36059271512238
 30
0.0
 40
28.499999999999996
 50
154.58537908480918
 51
158.50914131540105
  0
ARC
  8
0
  6
CONTINUOUS
 62
               3
  5
37C
 10
-54.999999999999986
 20
86.36059271512238
 30
0.0
 40
28.499999999999996
 50
179.27151833763236
 51
179.99999999996524
  0
ARC
  8
0
  6
CONTINUOUS
 62
               3
  5
37D
 10
-83.844756928877189
 20
97.717528821044198
 30
0.0
 40
2.5
 50
271.99999999994748
 51
338.50914131536575
  0
LINE
  8
0
  6
CONTINUOUS
 62
               3
  5
37E
 10
-83.757508187120933
 20
95.219051753496444
 30
0.0
 11
-128.00000000000014
 21
93.674069895158425
 31
0.0
  0
LINE
  8
0
  6
CONTINUOUS
 62
               3
  5
37F
 10
-99.216607372001334
 20
-39.958022684066435
 30
0.0
 11
-128.00000000000014
 21
-38.952884464913666
 31
0.0
  0
ARC
  8
0
  6
CONTINUOUS
 62
               3
  5
380
 10
-99.303856113757575
 20
-42.456499751614189
 30
0.0
 40
2.5
 50
44.99999999999276
 51
87.999999999983288
  0
LINE
  8
0
  6
CONTINUOUS
 62
               3
  5
381
 10
-12.008746812219798
 20
-37.63940728487762
 30
0.0
 11
-88.564599394389859
 21
-37.63940728487762
 31
0.0
  0
LINE
  8
0
  6
CONTINUOUS
 62
               3
  5
382
 10
82.999999999999886
 20
-37.63940728487762
 30
0.0
 11
12.008746812219783
 21
-37.639407284877613
 31
0.0
  0
LINE
  8
0
  6
CONTINUOUS
 62
               3
  5
383
 10
419.50000000000006
 20
162.86059271512283
 30
0.0
 11
419.50000000000006
 21
99.664727410772457
 31
0.0
  0
ARC
  8
0
  6
CONTINUOUS
 62
               3
  5
384
 10
555.0
 20
86.36059271512238
 30
0.0
 40
28.499999999999996
 50
0.0
 51
25.414620915156053
  0
LINE
  8
0
  6
CONTINUOUS
 62
               3
  5
385
 10
583.5
 20
-51.51035586537094
 30
0.0
 11
583.5
 21
86.36059271512238
 31
0.0
  0
ARC
  8
0
  6
CONTINUOUS
 62
               3
  5
386
 10
583.0
 20
99.664727410772457
 30
0.0
 40
2.5
 50
179.99999999996507
 51
205.4146209151223
  0
LINE
  8
0
  6
CONTINUOUS
 62
               3
  5
387
 10
580.5
 20
162.86059271512283
 30
0.0
 11
580.5
 21
99.664727410772457
 31
0.0
  0
LINE
  8
0
  6
CONTINUOUS
 62
               3
  5
388
 10
583.5
 20
-37.63940728487762
 30
0.0
 11
413.26384447964625
 21
-37.63940728487762
 31
0.0
  0
LINE
  8
0
  6
CONTINUOUS
 62
               3
  5
389
 10
583.5
 20
-51.51035586537094
 30
0.0
 11
583.5
 21
-146.71199248146593
 31
0.0
  0
ARC
  8
0
  6
CONTINUOUS
 62
               3
  5
38A
 10
400.69614388623205
 20
-42.456499751631014
 30
0.0
 40
2.5
 50
44.999999999992419
 51
87.999999999983118
  0
LINE
  8
0
  6
CONTINUOUS
 62
               3
  5
38B
 10
402.46391083919838
 20
-40.688732798664603
 30
0.0
 11
415.76776695295598
 21
-53.992588912421553
 31
0.0
  0
ARC
  8
0
  6
CONTINUOUS
 62
               3
  5
38C
 10
413.99999999998965
 20
-55.760355865387965
 30
0.0
 40
2.5
 50
0.0
 51
44.999999999992419
  0
LINE
  8
0
  6
CONTINUOUS
 62
               3
  5
38D
 10
413.26384447964625
 20
-37.63940728487762
 30
0.0
 11
405.3153224186006
 21
-43.540144378066657
 31
0.0
  0
ARC
  8
0
  6
CONTINUOUS
 62
               3
  5
38E
 10
416.99999999998965
 20
99.664727410755631
 30
0.0
 40
2.5
 50
334.58537908477393
 51
359.99999999993048
  0
ARC
  8
0
  6
CONTINUOUS
 62
               3
  5
38F
 10
444.99999999998965
 20
86.360592715105554
 30
0.0
 40
28.499999999999996
 50
154.58537908480918
 51
158.50914131540105
  0
ARC
  8
0
  6
CONTINUOUS
 62
               3
  5
390
 10
416.15524307111247
 20
97.717528821027372
 30
0.0
 40
2.5
 50
271.99999999994697
 51
338.50914131536592
  0
LINE
  8
0
  6
CONTINUOUS
 62
               3
  5
391
 10
416.50000000000006
 20
-55.760355865387965
 30
0.0
 11
416.50000000000006
 21
-146.71199248146627
 31
0.0
  0
LINE
  8
0
  6
CONTINUOUS
 62
               3
  5
392
 10
-583.5
 20
-51.51035586537094
 30
0.0
 11
-583.5
 21
-146.71199248146627
 31
0.0
  0
ARC
  8
0
  6
CONTINUOUS
 62
               3
  5
393
 10
-555.0
 20
86.36059271512238
 30
0.0
 40
28.499999999999996
 50
154.58537908480918
 51
179.99999999996524
  0
LINE
  8
0
  6
CONTINUOUS
 62
               3
  5
394
 10
-583.5
 20
-51.51035586537094
 30
0.0
 11
-583.5
 21
86.36059271512238
 31
0.0
  0
LINE
  8
0
  6
CONTINUOUS
 62
               3
  5
395
 10
-580.5
 20
162.86059271512283
 30
0.0
 11
-580.5
 21
99.664727410772457
 31
0.0
  0
ARC
  8
0
  6
CONTINUOUS
 62
               3
  5
396
 10
-583.0
 20
99.664727410772457
 30
0.0
 40
2.5
 50
334.58537908477336
 51
359.99999999993048
  0
LINE
  8
0
  6
CONTINUOUS
 62
               3
  5
397
 10
-419.5
 20
162.86059271512283
 30
0.0
 11
-419.5
 21
99.664727410772457
 31
0.0
  0
LINE
  8
0
  6
CONTINUOUS
 62
               3
  5
398
 10
-416.5
 20
-55.760355865371139
 30
0.0
 11
-416.5
 21
-146.71199248146627
 31
0.0
  0
LINE
  8
0
  6
CONTINUOUS
 62
               3
  5
399
 10
-402.46391083920872
 20
-40.688732798647777
 30
0.0
 11
-415.76776695296633
 21
-53.992588912404727
 31
0.0
  0
ARC
  8
0
  6
CONTINUOUS
 62
               3
  5
39A
 10
-414.0
 20
-55.760355865371139
 30
0.0
 40
2.5
 50
134.99999999997252
 51
179.99999999996524
  0
LINE
  8
0
  6
CONTINUOUS
 62
               3
  5
39B
 10
-413.2638444796462
 20
-37.63940728487762
 30
0.0
 11
-405.31532241861612
 21
-43.540144378055061
 31
0.0
  0
ARC
  8
0
  6
CONTINUOUS
 62
               3
  5
39C
 10
-400.6961438862424
 20
-42.456499751614189
 30
0.0
 40
2.5
 50
91.999999999982577
 51
134.99999999997252
  0
ARC
  8
0
  6
CONTINUOUS
 62
               3
  5
39D
 10
-417.0
 20
99.664727410772457
 30
0.0
 40
2.5
 50
179.99999999996507
 51
205.41462091512173
  0
ARC
  8
0
  6
CONTINUOUS
 62
               3
  5
39E
 10
-445.0
 20
86.36059271512238
 30
0.0
 40
28.499999999999996
 50
21.490858684564145
 51
25.414620915156053
  0
ARC
  8
0
  6
CONTINUOUS
 62
               3
  5
39F
 10
-416.15524307112281
 20
97.717528821044198
 30
0.0
 40
2.5
 50
201.49085868452966
 51
267.99999999994753
  0
LINE
  8
0
  6
CONTINUOUS
 62
               3
  5
3A0
 10
-509.61594343595527
 20
-37.63940728487762
 30
0.0
 11
-583.5
 21
-37.63940728487762
 31
0.0
  0
LINE
  8
0
  6
CONTINUOUS
 62
               3
  5
3A1
 10
-413.2638444796462
 20
-37.63940728487762
 30
0.0
 11
-487.99125318777891
 21
-37.639407284877613
 31
0.0
  0
CIRCLE
  8
0
  6
CONTINUOUS
 62
               3
  5
3A2
 10
0.0
 20
27.36059271512238
 30
0.0
 40
66.099999999999994
  0
CIRCLE
  8
0
  6
CONTINUOUS
 62
               3
  5
3A3
 10
-499.99999999999994
 20
27.360592715122152
 30
0.0
 40
66.099999999999994
  0
LINE
  8
0
  6
CONTINUOUS
 62
               3
  5
3A4
 10
-62.000000000000725
 20
-491.63940728487648
 30
0.0
 11
-62.000000000000725
 21
-476.63940728487739
 31
0.0
  0
LINE
  8
0
  6
CONTINUOUS
 62
               3
  5
3A5
 10
-65.000000000000554
 20
-491.63940728487648
 30
0.0
 11
64.999999999999432
 21
-491.63940728487648
 31
0.0
  0
ARC
  8
0
  6
CONTINUOUS
 62
               3
  5
3A6
 10
-75.999999999999929
 20
-350.6394072848783
 30
0.0
 40
4.0
 50
89.999999999965041
 51
179.9999999999304
  0
ARC
  8
0
  6
CONTINUOUS
 62
               3
  5
3A7
 10
-78.999999999999901
 20
-347.6394072848783
 30
0.0
 40
1.0000000000000004
 50
89.999999999964274
 51
179.99999999993119
  0
ARC
  8
0
  6
CONTINUOUS
 62
               3
  5
3A8
 10
-78.999999999999901
 20
-347.6394072848783
 30
0.0
 40
1.9999999999999996
 50
89.999999999965809
 51
179.99999999993119
  0
LINE
  8
0
  6
CONTINUOUS
 62
               3
  5
3A9
 10
-80.999999999999929
 20
-347.6394072848783
 30
0.0
 11
-81.000000000000497
 21
-410.63940728487717
 31
0.0
  0
LINE
  8
0
  6
CONTINUOUS
 62
               3
  5
3AA
 10
-80.000000000000128
 20
-347.6394072848783
 30
0.0
 11
-80.000000000000696
 21
-410.63940728487717
 31
0.0
  0
ARC
  8
0
  6
CONTINUOUS
 62
               3
  5
3AB
 10
-82.000000000000441
 20
-410.63940728487717
 30
0.0
 40
1.9999999999999996
 50
269.99999999989586
 51
359.99999999986238
  0
ARC
  8
0
  6
CONTINUOUS
 62
               3
  5
3AC
 10
-82.000000000000441
 20
-410.63940728487717
 30
0.0
 40
1.0000000000000004
 50
269.99999999989581
 51
359.99999999986238
  0
LINE
  8
0
  6
CONTINUOUS
 62
               3
  5
3AD
 10
-82.000000000000441
 20
-412.63940728487717
 30
0.0
 11
-145.00000000000057
 21
-412.63940728487762
 31
0.0
  0
LINE
  8
0
  6
CONTINUOUS
 62
               3
  5
3AE
 10
-82.000000000000441
 20
-411.63940728487717
 30
0.0
 11
-145.00000000000057
 21
-411.63940728487762
 31
0.0
  0
LINE
  8
0
  6
CONTINUOUS
 62
               3
  5
3AF
 10
-65.000000000000128
 20
-345.6394072848783
 30
0.0
 11
-78.999999999999901
 21
-345.6394072848783
 31
0.0
  0
LINE
  8
0
  6
CONTINUOUS
 62
               3
  5
3B0
 10
0.0000000000000142
 20
-346.63940728487762
 30
0.0
 11
-78.999999999999901
 21
-346.6394072848783
 31
0.0
  0
LINE
  8
0
  6
CONTINUOUS
 62
               3
  5
3B1
 10
-65.000000000000128
 20
-345.6394072848783
 30
0.0
 11
-65.000000000000128
 21
-346.63940728487819
 31
0.0
  0
LINE
  8
0
  6
CONTINUOUS
 62
               3
  5
3B2
 10
-64.999999999999559
 20
-477.63940728487717
 30
0.0
 11
-78.999999999999474
 21
-477.63940728487739
 31
0.0
  0
ARC
  8
0
  6
CONTINUOUS
 62
               3
  5
3B3
 10
-78.999999999999474
 20
-475.63940728487739
 30
0.0
 40
1.0000000000000004
 50
179.99999999993119
 51
269.99999999989586
  0
ARC
  8
0
  6
CONTINUOUS
 62
               3
  5
3B4
 10
-78.999999999999474
 20
-475.63940728487739
 30
0.0
 40
1.9999999999999996
 50
179.99999999993119
 51
269.9999999998974
  0
ARC
  8
0
  6
CONTINUOUS
 62
               3
  5
3B5
 10
-75.999999999999645
 20
-472.63940728487739
 30
0.0
 40
4.0
 50
179.99999999993119
 51
269.9999999998974
  0
LINE
  8
0
  6
CONTINUOUS
 62
               3
  5
3B6
 10
-64.999999999999559
 20
-477.63940728487717
 30
0.0
 11
-64.999999999999559
 21
-476.63940728487739
 31
0.0
  0
LINE
  8
0
  6
CONTINUOUS
 62
               3
  5
3B7
 10
-80.999999999999645
 20
-475.63940728487739
 30
0.0
 11
-81.000000000000497
 21
-414.63940728487717
 31
0.0
  0
LINE
  8
0
  6
CONTINUOUS
 62
               3
  5
3B8
 10
-79.999999999999559
 20
-475.63940728487739
 30
0.0
 11
-80.000000000000554
 21
-414.63940728487717
 31
0.0
  0
LINE
  8
0
  6
CONTINUOUS
 62
               3
  5
3B9
 10
-0.0000000000005542
 20
-476.63940728487648
 30
0.0
 11
-78.999999999999474
 21
-476.63940728487739
 31
0.0
  0
LINE
  8
0
  6
CONTINUOUS
 62
               3
  5
3BA
 10
-0.0000000000005542
 20
-454.13940728487648
 30
0.0
 11
-79.999999999999702
 21
-454.13940728487717
 31
0.0
  0
ARC
  8
0
  6
CONTINUOUS
 62
               3
  5
3BB
 10
-82.000000000000441
 20
-414.63940728487717
 30
0.0
 40
1.9999999999999996
 50
0.0000000000016284
 51
89.999999999965809
  0
ARC
  8
0
  6
CONTINUOUS
 62
               3
  5
3BC
 10
-82.000000000000441
 20
-414.63940728487717
 30
0.0
 40
1.0000000000000004
 50
0.0
 51
89.999999999967429
  0
LINE
  8
0
  6
CONTINUOUS
 62
               3
  5
3BD
 10
-82.000000000000441
 20
-413.63940728487717
 30
0.0
 11
-145.00000000000057
 21
-413.63940728487762
 31
0.0
  0
LINE
  8
0
  6
CONTINUOUS
 62
               3
  5
3BE
 10
-80.000000000000128
 20
-369.6394072848783
 30
0.0
 11
0.0000000000000142
 21
-369.6394072848783
 31
0.0
  0
LINE
  8
0
  6
CONTINUOUS
 62
               3
  5
3BF
 10
-77.000000000000156
 20
-369.6394072848783
 30
0.0
 11
-77.000000000000725
 21
-454.13940728487717
 31
0.0
  0
LINE
  8
0
  6
CONTINUOUS
 62
               3
  5
3C0
 10
-145.00000000000057
 20
-411.63940728487762
 30
0.0
 11
-145.00000000000057
 21
-412.63940728487762
 31
0.0
  0
LINE
  8
0
  6
CONTINUOUS
 62
               3
  5
3C1
 10
-145.00000000000057
 20
-413.63940728487762
 30
0.0
 11
-145.00000000000057
 21
-412.63940728487762
 31
0.0
  0
LINE
  8
0
  6
CONTINUOUS
 62
               3
  5
3C2
 10
-87.250000000000497
 20
-410.13940728487717
 30
0.0
 11
-94.750000000000497
 21
-410.13940728487717
 31
0.0
  0
LINE
  8
0
  6
CONTINUOUS
 62
               3
  5
3C3
 10
-87.250000000000497
 20
-415.13940728487717
 30
0.0
 11
-94.750000000000497
 21
-415.13940728487739
 31
0.0
  0
LINE
  8
0
  6
CONTINUOUS
 62
               3
  5
3C4
 10
-87.250000000000497
 20
-410.13940728487717
 30
0.0
 11
-87.250000000000497
 21
-411.63940728487717
 31
0.0
  0
LINE
  8
0
  6
CONTINUOUS
 62
               3
  5
3C5
 10
-87.250000000000497
 20
-413.63940728487717
 30
0.0
 11
-87.250000000000497
 21
-415.13940728487717
 31
0.0
  0
LINE
  8
0
  6
CONTINUOUS
 62
               3
  5
3C6
 10
-94.750000000000497
 20
-410.13940728487717
 30
0.0
 11
-94.750000000000497
 21
-411.63940728487717
 31
0.0
  0
LINE
  8
0
  6
CONTINUOUS
 62
               3
  5
3C7
 10
-94.750000000000497
 20
-413.63940728487739
 30
0.0
 11
-94.750000000000497
 21
-415.13940728487739
 31
0.0
  0
ARC
  8
0
  6
CONTINUOUS
 62
               3
  5
3C8
 10
75.999999999999829
 20
-350.6394072848783
 30
0.0
 40
4.0
 50
0.0000000000341973
 51
90.000000000000199
  0
ARC
  8
0
  6
CONTINUOUS
 62
               3
  5
3C9
 10
78.999999999999773
 20
-347.6394072848783
 30
0.0
 40
1.0000000000000004
 50
0.0000000000358258
 51
90.000000000001421
  0
ARC
  8
0
  6
CONTINUOUS
 62
               3
  5
3CA
 10
78.999999999999773
 20
-347.6394072848783
 30
0.0
 40
1.9999999999999996
 50
0.0000000000341973
 51
89.999999999999801
  0
LINE
  8
0
  6
CONTINUOUS
 62
               3
  5
3CB
 10
80.999999999999829
 20
-347.6394072848783
 30
0.0
 11
80.999999999999261
 21
-410.63940728487717
 31
0.0
  0
LINE
  8
0
  6
CONTINUOUS
 62
               3
  5
3CC
 10
80.0
 20
-347.6394072848783
 30
0.0
 11
79.999999999999432
 21
-410.63940728487717
 31
0.0
  0
ARC
  8
0
  6
CONTINUOUS
 62
               3
  5
3CD
 10
81.999999999999318
 20
-410.63940728487717
 30
0.0
 40
1.9999999999999996
 50
180.00000000003379
 51
269.99999999999937
  0
ARC
  8
0
  6
CONTINUOUS
 62
               3
  5
3CE
 10
81.999999999999318
 20
-410.63940728487717
 30
0.0
 40
1.0000000000000004
 50
180.00000000003541
 51
269.99999999999937
  0
LINE
  8
0
  6
CONTINUOUS
 62
               3
  5
3CF
 10
81.999999999999318
 20
-412.63940728487717
 30
0.0
 11
144.99999999999943
 21
-412.63940728487762
 31
0.0
  0
LINE
  8
0
  6
CONTINUOUS
 62
               3
  5
3D0
 10
81.999999999999318
 20
-411.63940728487717
 30
0.0
 11
144.99999999999943
 21
-411.63940728487762
 31
0.0
  0
LINE
  8
0
  6
CONTINUOUS
 62
               3
  5
3D1
 10
65.0
 20
-345.6394072848783
 30
0.0
 11
78.999999999999773
 21
-345.6394072848783
 31
0.0
  0
LINE
  8
0
  6
CONTINUOUS
 62
               3
  5
3D2
 10
0.0000000000000142
 20
-346.63940728487762
 30
0.0
 11
78.999999999999773
 21
-346.6394072848783
 31
0.0
  0
LINE
  8
0
  6
CONTINUOUS
 62
               3
  5
3D3
 10
65.0
 20
-345.6394072848783
 30
0.0
 11
65.0
 21
-346.63940728487819
 31
0.0
  0
LINE
  8
0
  6
CONTINUOUS
 62
               3
  5
3D4
 10
64.999999999998295
 20
-477.63940728487717
 30
0.0
 11
78.999999999998352
 21
-477.63940728487739
 31
0.0
  0
ARC
  8
0
  6
CONTINUOUS
 62
               3
  5
3D5
 10
78.999999999998352
 20
-475.63940728487739
 30
0.0
 40
1.0000000000000004
 50
269.99999999999937
 51
359.99999999996339
  0
ARC
  8
0
  6
CONTINUOUS
 62
               3
  5
3D6
 10
78.999999999998352
 20
-475.63940728487739
 30
0.0
 40
1.9999999999999996
 50
269.99999999999858
 51
359.99999999996339
  0
ARC
  8
0
  6
CONTINUOUS
 62
               3
  5
3D7
 10
75.999999999998408
 20
-472.63940728487739
 30
0.0
 40
4.0
 50
269.99999999999818
 51
359.99999999996419
  0
LINE
  8
0
  6
CONTINUOUS
 62
               3
  5
3D8
 10
64.999999999998295
 20
-477.63940728487717
 30
0.0
 11
64.999999999998295
 21
-476.63940728487739
 31
0.0
  0
LINE
  8
0
  6
CONTINUOUS
 62
               3
  5
3D9
 10
80.999999999998238
 20
-475.63940728487739
 30
0.0
 11
80.999999999999261
 21
-414.63940728487717
 31
0.0
  0
LINE
  8
0
  6
CONTINUOUS
 62
               3
  5
3DA
 10
79.999999999998295
 20
-475.63940728487739
 30
0.0
 11
79.999999999999318
 21
-414.63940728487717
 31
0.0
  0
LINE
  8
0
  6
CONTINUOUS
 62
               3
  5
3DB
 10
-0.0000000000005542
 20
-476.63940728487648
 30
0.0
 11
78.999999999998352
 21
-476.63940728487739
 31
0.0
  0
LINE
  8
0
  6
CONTINUOUS
 62
               3
  5
3DC
 10
-0.0000000000005542
 20
-454.13940728487648
 30
0.0
 11
79.999999999998579
 21
-454.13940728487717
 31
0.0
  0
ARC
  8
0
  6
CONTINUOUS
 62
               3
  5
3DD
 10
81.999999999999318
 20
-414.63940728487717
 30
0.0
 40
1.9999999999999996
 50
89.999999999999801
 51
179.99999999996376
  0
ARC
  8
0
  6
CONTINUOUS
 62
               3
  5
3DE
 10
81.999999999999318
 20
-414.63940728487717
 30
0.0
 40
1.0000000000000004
 50
89.999999999998167
 51
179.99999999996376
  0
LINE
  8
0
  6
CONTINUOUS
 62
               3
  5
3DF
 10
81.999999999999318
 20
-413.63940728487717
 30
0.0
 11
144.99999999999943
 21
-413.63940728487762
 31
0.0
  0
LINE
  8
0
  6
CONTINUOUS
 62
               3
  5
3E0
 10
80.0
 20
-369.6394072848783
 30
0.0
 11
0.0000000000000142
 21
-369.6394072848783
 31
0.0
  0
LINE
  8
0
  6
CONTINUOUS
 62
               3
  5
3E1
 10
76.999999999999886
 20
-369.6394072848783
 30
0.0
 11
76.999999999999318
 21
-454.13940728487717
 31
0.0
  0
LINE
  8
0
  6
CONTINUOUS
 62
               3
  5
3E2
 10
144.99999999999943
 20
-411.63940728487762
 30
0.0
 11
144.99999999999943
 21
-412.63940728487762
 31
0.0
  0
LINE
  8
0
  6
CONTINUOUS
 62
               3
  5
3E3
 10
144.99999999999943
 20
-413.63940728487762
 30
0.0
 11
144.99999999999943
 21
-412.63940728487762
 31
0.0
  0
LINE
  8
0
  6
CONTINUOUS
 62
               3
  5
3E4
 10
87.249999999999261
 20
-410.13940728487717
 30
0.0
 11
94.749999999999261
 21
-410.13940728487717
 31
0.0
  0
LINE
  8
0
  6
CONTINUOUS
 62
               3
  5
3E5
 10
87.249999999999261
 20
-415.13940728487717
 30
0.0
 11
94.749999999999261
 21
-415.13940728487739
 31
0.0
  0
LINE
  8
0
  6
CONTINUOUS
 62
               3
  5
3E6
 10
87.249999999999261
 20
-410.13940728487717
 30
0.0
 11
87.249999999999261
 21
-411.63940728487717
 31
0.0
  0
LINE
  8
0
  6
CONTINUOUS
 62
               3
  5
3E7
 10
87.249999999999261
 20
-413.63940728487717
 30
0.0
 11
87.249999999999261
 21
-415.13940728487717
 31
0.0
  0
LINE
  8
0
  6
CONTINUOUS
 62
               3
  5
3E8
 10
94.749999999999261
 20
-410.13940728487717
 30
0.0
 11
94.749999999999261
 21
-411.63940728487717
 31
0.0
  0
LINE
  8
0
  6
CONTINUOUS
 62
               3
  5
3E9
 10
94.749999999999261
 20
-413.63940728487739
 30
0.0
 11
94.749999999999261
 21
-415.13940728487739
 31
0.0
  0
LINE
  8
0
  6
CONTINUOUS
 62
               3
  5
3EA
 10
61.999999999999332
 20
-491.63940728487648
 30
0.0
 11
61.999999999999332
 21
-476.63940728487739
 31
0.0
  0
LINE
  8
0
  6
CONTINUOUS
 62
               3
  5
3EB
 10
-562.00000000000023
 20
-491.63940728487648
 30
0.0
 11
-562.00000000000023
 21
-476.63940728487739
 31
0.0
  0
LINE
  8
0
  6
CONTINUOUS
 62
               3
  5
3EC
 10
-565.0
 20
-491.63940728487648
 30
0.0
 11
-435.0
 21
-491.63940728487648
 31
0.0
  0
ARC
  8
0
  6
CONTINUOUS
 62
               3
  5
3ED
 10
-575.99999999999932
 20
-350.6394072848783
 30
0.0
 40
4.0
 50
89.999999999964786
 51
179.9999999999304
  0
LINE
  8
0
  6
CONTINUOUS
 62
               3
  5
3EE
 10
-579.99999999999932
 20
-350.63940728487592
 30
0.0
 11
-579.99999999999955
 21
-369.6394072848783
 31
0.0
  0
LINE
  8
0
  6
CONTINUOUS
 62
               3
  5
3EF
 10
-515.99999999999943
 20
-346.63940728487773
 30
0.0
 11
-575.99999999999943
 21
-346.6394072848783
 31
0.0
  0
LINE
  8
0
  6
CONTINUOUS
 62
               3
  5
3F0
 10
-515.99999999999943
 20
-477.63940728487637
 30
0.0
 11
-483.99999999999892
 21
-477.63940728487592
 31
0.0
  0
ARC
  8
0
  6
CONTINUOUS
 62
               3
  5
3F1
 10
-575.99999999999909
 20
-472.63940728487739
 30
0.0
 40
4.0
 50
179.99999999993119
 51
269.99999999989763
  0
LINE
  8
0
  6
CONTINUOUS
 62
               3
  5
3F2
 10
-579.99999999999909
 20
-472.63940728487739
 30
0.0
 11
-579.99999999999909
 21
-454.13940728487717
 31
0.0
  0
LINE
  8
0
  6
CONTINUOUS
 62
               3
  5
3F3
 10
-515.99999999999943
 20
-476.63940728487671
 30
0.0
 11
-576.00000000000261
 21
-476.63940728487739
 31
0.0
  0
LINE
  8
0
  6
CONTINUOUS
 62
               3
  5
3F4
 10
-515.99999999999943
 20
-454.1394072848766
 30
0.0
 11
-579.99999999999909
 21
-454.13940728487717
 31
0.0
  0
LINE
  8
0
  6
CONTINUOUS
 62
               3
  5
3F5
 10
-579.99999999999955
 20
-369.6394072848783
 30
0.0
 11
-515.99999999999943
 21
-369.6394072848783
 31
0.0
  0
LINE
  8
0
  6
CONTINUOUS
 62
               3
  5
3F6
 10
-576.99999999999955
 20
-369.6394072848783
 30
0.0
 11
-577.00000000000023
 21
-454.13940728487717
 31
0.0
  0
LINE
  8
0
  6
CONTINUOUS
 62
               3
  5
3F7
 10
-483.99999999999943
 20
-346.63940728487773
 30
0.0
 11
-420.99999999999966
 21
-346.6394072848783
 31
0.0
  0
LINE
  8
0
  6
CONTINUOUS
 62
               3
  5
3F8
 10
-483.99999999999892
 20
-476.63940728487671
 30
0.0
 11
-424.00000000000097
 21
-476.63940728487739
 31
0.0
  0
LINE
  8
0
  6
CONTINUOUS
 62
               3
  5
3F9
 10
-483.99999999999892
 20
-454.13940728487671
 30
0.0
 11
-420.00000000000085
 21
-454.13940728487717
 31
0.0
  0
LINE
  8
0
  6
CONTINUOUS
 62
               3
  5
3FA
 10
-419.99999999999943
 20
-369.6394072848783
 30
0.0
 11
-483.99999999999943
 21
-369.6394072848783
 31
0.0
  0
LINE
  8
0
  6
CONTINUOUS
 62
               3
  5
3FB
 10
-438.00000000000011
 20
-491.63940728487648
 30
0.0
 11
-438.00000000000011
 21
-476.63940728487739
 31
0.0
  0
LINE
  8
0
  6
CONTINUOUS
 62
               3
  5
3FC
 10
-515.99999999999943
 20
-345.6394072848783
 30
0.0
 11
-515.99999999999943
 21
-477.63940728487637
 31
0.0
  0
LINE
  8
0
  6
CONTINUOUS
 62
               3
  5
3FD
 10
-483.99999999999892
 20
-477.63940728487592
 30
0.0
 11
-483.99999999999943
 21
-345.6394072848783
 31
0.0
  0
LINE
  8
0
  6
CONTINUOUS
 62
               3
  5
3FE
 10
-516.0
 20
-345.6394072848783
 30
0.0
 11
-484.0
 21
-345.6394072848783
 31
0.0
  0
LINE
  8
0
  6
CONTINUOUS
 62
               3
  5
3FF
 10
-515.99999999999943
 20
-412.63940728487717
 30
0.0
 11
-483.99999999999892
 21
-412.63940728487717
 31
0.0
  0
LINE
  8
0
  6
CONTINUOUS
 62
               3
  5
400
 10
-515.99999999999943
 20
-411.63940728487739
 30
0.0
 11
-483.99999999999892
 21
-411.63940728487739
 31
0.0
  0
LINE
  8
0
  6
CONTINUOUS
 62
               3
  5
401
 10
-515.99999999999943
 20
-413.63940728487739
 30
0.0
 11
-483.99999999999892
 21
-413.63940728487739
 31
0.0
  0
ARC
  8
0
  6
CONTINUOUS
 62
               3
  5
402
 10
-424.00000000000063
 20
-350.6394072848783
 30
0.0
 40
4.0
 50
0.0000000000341973
 51
89.999999999999801
  0
LINE
  8
0
  6
CONTINUOUS
 62
               3
  5
403
 10
-420.00000000000063
 20
-350.63940728487592
 30
0.0
 11
-420.0000000000004
 21
-369.6394072848783
 31
0.0
  0
ARC
  8
0
  6
CONTINUOUS
 62
               3
  5
404
 10
-424.00000000000091
 20
-472.63940728487739
 30
0.0
 40
4.0
 50
269.99999999999858
 51
359.99999999996419
  0
LINE
  8
0
  6
CONTINUOUS
 62
               3
  5
405
 10
-420.00000000000085
 20
-472.63940728487739
 30
0.0
 11
-420.00000000000097
 21
-454.13940728487717
 31
0.0
  0
LINE
  8
0
  6
CONTINUOUS
 62
               3
  5
406
 10
-423.0000000000004
 20
-369.6394072848783
 30
0.0
 11
-422.99999999999983
 21
-454.13940728487717
 31
0.0
  0
LINE
  8
0
  6
CONTINUOUS
 62
               3
  5
407
 10
-566.50000000000011
 20
-331.7149687545496
 30
0.0
 11
-433.49999999999989
 21
-331.7149687545496
 31
0.0
  0
LINE
  8
0
  6
CONTINUOUS
 62
               3
  5
408
 10
-566.50000000000011
 20
-295.78759334908199
 30
0.0
 11
-566.50000000000011
 21
-331.7149687545496
 31
0.0
  0
LINE
  8
0
  6
CONTINUOUS
 62
               3
  5
409
 10
-433.49999999999989
 20
-295.7875933490821
 30
0.0
 11
-433.49999999999989
 21
-331.7149687545496
 31
0.0
  0
LINE
  8
0
  6
CONTINUOUS
 62
               3
  5
40A
 10
437.99999999999983
 20
-491.63940728487648
 30
0.0
 11
437.99999999999983
 21
-476.63940728487739
 31
0.0
  0
LINE
  8
0
  6
CONTINUOUS
 62
               3
  5
40B
 10
435.0
 20
-491.63940728487648
 30
0.0
 11
565.0
 21
-491.63940728487648
 31
0.0
  0
ARC
  8
0
  6
CONTINUOUS
 62
               3
  5
40C
 10
424.00000000000063
 20
-350.6394072848783
 30
0.0
 40
4.0
 50
89.999999999964786
 51
179.9999999999304
  0
LINE
  8
0
  6
CONTINUOUS
 62
               3
  5
40D
 10
420.00000000000063
 20
-350.63940728487592
 30
0.0
 11
420.0000000000004
 21
-369.6394072848783
 31
0.0
  0
LINE
  8
0
  6
CONTINUOUS
 62
               3
  5
40E
 10
484.00000000000063
 20
-346.63940728487773
 30
0.0
 11
424.00000000000057
 21
-346.6394072848783
 31
0.0
  0
LINE
  8
0
  6
CONTINUOUS
 62
               3
  5
40F
 10
484.00000000000063
 20
-477.63940728487637
 30
0.0
 11
516.00000000000114
 21
-477.63940728487592
 31
0.0
  0
ARC
  8
0
  6
CONTINUOUS
 62
               3
  5
410
 10
424.00000000000091
 20
-472.63940728487739
 30
0.0
 40
4.0
 50
179.99999999993119
 51
269.99999999989763
  0
LINE
  8
0
  6
CONTINUOUS
 62
               3
  5
411
 10
420.00000000000085
 20
-472.63940728487739
 30
0.0
 11
420.00000000000097
 21
-454.13940728487717
 31
0.0
  0
LINE
  8
0
  6
CONTINUOUS
 62
               3
  5
412
 10
484.00000000000063
 20
-476.63940728487671
 30
0.0
 11
423.99999999999739
 21
-476.63940728487739
 31
0.0
  0
LINE
  8
0
  6
CONTINUOUS
 62
               3
  5
413
 10
484.00000000000063
 20
-454.1394072848766
 30
0.0
 11
420.00000000000085
 21
-454.13940728487717
 31
0.0
  0
LINE
  8
0
  6
CONTINUOUS
 62
               3
  5
414
 10
420.0000000000004
 20
-369.6394072848783
 30
0.0
 11
484.00000000000063
 21
-369.6394072848783
 31
0.0
  0
LINE
  8
0
  6
CONTINUOUS
 62
               3
  5
415
 10
423.0000000000004
 20
-369.6394072848783
 30
0.0
 11
422.99999999999983
 21
-454.13940728487717
 31
0.0
  0
LINE
  8
0
  6
CONTINUOUS
 62
               3
  5
416
 10
516.00000000000068
 20
-346.63940728487773
 30
0.0
 11
579.00000000000045
 21
-346.6394072848783
 31
0.0
  0
LINE
  8
0
  6
CONTINUOUS
 62
               3
  5
417
 10
516.00000000000114
 20
-476.63940728487671
 30
0.0
 11
575.99999999999909
 21
-476.63940728487739
 31
0.0
  0
LINE
  8
0
  6
CONTINUOUS
 62
               3
  5
418
 10
516.00000000000114
 20
-454.13940728487671
 30
0.0
 11
579.99999999999909
 21
-454.13940728487717
 31
0.0
  0
LINE
  8
0
  6
CONTINUOUS
 62
               3
  5
419
 10
580.00000000000068
 20
-369.6394072848783
 30
0.0
 11
516.00000000000068
 21
-369.6394072848783
 31
0.0
  0
LINE
  8
0
  6
CONTINUOUS
 62
               3
  5
41A
 10
562.0
 20
-491.63940728487648
 30
0.0
 11
562.0
 21
-476.63940728487739
 31
0.0
  0
LINE
  8
0
  6
CONTINUOUS
 62
               3
  5
41B
 10
484.00000000000063
 20
-345.6394072848783
 30
0.0
 11
484.00000000000063
 21
-477.63940728487637
 31
0.0
  0
LINE
  8
0
  6
CONTINUOUS
 62
               3
  5
41C
 10
516.00000000000114
 20
-477.63940728487592
 30
0.0
 11
516.00000000000068
 21
-345.6394072848783
 31
0.0
  0
LINE
  8
0
  6
CONTINUOUS
 62
               3
  5
41D
 10
483.99999999999994
 20
-345.6394072848783
 30
0.0
 11
516.0
 21
-345.6394072848783
 31
0.0
  0
LINE
  8
0
  6
CONTINUOUS
 62
               3
  5
41E
 10
484.00000000000063
 20
-412.63940728487717
 30
0.0
 11
516.00000000000114
 21
-412.63940728487717
 31
0.0
  0
LINE
  8
0
  6
CONTINUOUS
 62
               3
  5
41F
 10
484.00000000000063
 20
-411.63940728487739
 30
0.0
 11
516.00000000000114
 21
-411.63940728487739
 31
0.0
  0
LINE
  8
0
  6
CONTINUOUS
 62
               3
  5
420
 10
484.00000000000063
 20
-413.63940728487739
 30
0.0
 11
516.00000000000114
 21
-413.63940728487739
 31
0.0
  0
ARC
  8
0
  6
CONTINUOUS
 62
               3
  5
421
 10
575.99999999999932
 20
-350.6394072848783
 30
0.0
 40
4.0
 50
0.0000000000341973
 51
89.999999999999801
  0
LINE
  8
0
  6
CONTINUOUS
 62
               3
  5
422
 10
579.99999999999932
 20
-350.63940728487592
 30
0.0
 11
579.99999999999955
 21
-369.6394072848783
 31
0.0
  0
ARC
  8
0
  6
CONTINUOUS
 62
               3
  5
423
 10
575.99999999999909
 20
-472.63940728487739
 30
0.0
 40
4.0
 50
269.99999999999778
 51
359.99999999996419
  0
LINE
  8
0
  6
CONTINUOUS
 62
               3
  5
424
 10
579.99999999999909
 20
-472.63940728487739
 30
0.0
 11
579.99999999999909
 21
-454.13940728487717
 31
0.0
  0
LINE
  8
0
  6
CONTINUOUS
 62
               3
  5
425
 10
576.99999999999955
 20
-369.6394072848783
 30
0.0
 11
577.00000000000023
 21
-454.13940728487717
 31
0.0
  0
LINE
  8
0
  6
CONTINUOUS
 62
               3
  5
426
 10
433.49999999999989
 20
-331.7149687545496
 30
0.0
 11
566.50000000000023
 21
-331.7149687545496
 31
0.0
  0
LINE
  8
0
  6
CONTINUOUS
 62
               3
  5
427
 10
433.49999999999989
 20
-295.78759334908199
 30
0.0
 11
433.49999999999989
 21
-331.7149687545496
 31
0.0
  0
LINE
  8
0
  6
CONTINUOUS
 62
               3
  5
428
 10
566.50000000000023
 20
-295.7875933490821
 30
0.0
 11
566.50000000000023
 21
-331.7149687545496
 31
0.0
  0
LINE
  8
0
  6
CONTINUOUS
 62
               3
  5
429
 10
-128.00000000000014
 20
-30.447703338373714
 30
0.0
 11
-128.00000000000014
 21
93.674069895158425
 31
0.0
  0
LINE
  8
0
  6
CONTINUOUS
 62
               3
  5
42A
 10
-128.00000000000014
 20
-30.447703338373714
 30
0.0
 11
-128.00000000000014
 21
-38.952884464913666
 31
0.0
  0
LINE
  8
0
  6
CONTINUOUS
 62
               3
  5
42B
 10
371.99999999999994
 20
-30.447703338373692
 30
0.0
 11
371.99999999999994
 21
-38.952884464913645
 31
0.0
  0
LINE
  8
0
  6
CONTINUOUS
 62
               3
  5
42C
 10
400.78339262799875
 20
-39.958022684066414
 30
0.0
 11
371.99999999999994
 21
-38.952884464913645
 31
0.0
  0
LINE
  8
0
  6
CONTINUOUS
 62
               3
  5
42D
 10
371.99999999999994
 20
-30.447703338373714
 30
0.0
 11
371.99999999999994
 21
93.674069895158453
 31
0.0
  0
LINE
  8
0
  6
CONTINUOUS
 62
               3
  5
42E
 10
416.24249181287911
 20
95.219051753496473
 30
0.0
 11
371.99999999999994
 21
93.674069895158453
 31
0.0
  0
LINE
  8
0
  6
CONTINUOUS
 62
               3
  5
42F
 10
-371.99999999999983
 20
-30.447703338373714
 30
0.0
 11
-371.99999999999983
 21
-38.952884464913666
 31
0.0
  0
LINE
  8
0
  6
CONTINUOUS
 62
               3
  5
430
 10
-400.78339262799869
 20
-39.958022684066435
 30
0.0
 11
-371.99999999999983
 21
-38.952884464913666
 31
0.0
  0
LINE
  8
0
  6
CONTINUOUS
 62
               3
  5
431
 10
-371.99999999999983
 20
-30.447703338373714
 30
0.0
 11
-371.99999999999983
 21
93.674069895158425
 31
0.0
  0
LINE
  8
0
  6
CONTINUOUS
 62
               3
  5
432
 10
-416.24249181287905
 20
95.219051753496444
 30
0.0
 11
-371.97333909450163
 21
93.673138875823085
 31
0.0
  0
LINE
  8
0
  6
CONTINUOUS
 62
               3
  5
433
 10
-66.159800457133755
 20
410.95986715440785
 30
0.0
 11
57.654619330593761
 21
410.95986715440785
 31
0.0
  0
LINE
  8
0
  6
CONTINUOUS
 62
               3
  5
434
 10
57.654619330593761
 20
410.95986715440785
 30
0.0
 11
66.159541158882689
 21
410.95986715440785
 31
0.0
  0
LINE
  8
0
  6
CONTINUOUS
 62
               3
  5
435
 10
-66.159801228899909
 20
410.95988925489888
 30
0.0
 11
-68.31357125158803
 21
472.6357931377425
 31
0.0
  0
ARC
  8
0
  6
CONTINUOUS
 62
               3
  5
436
 10
-70.812048319135783
 20
472.54854439598631
 30
0.0
 40
2.5
 50
1.9999999999984315
 51
87.999999999982776
  0
LINE
  8
0
  6
CONTINUOUS
 62
               3
  5
437
 10
-127.99999999999999
 20
477.04711553508645
 30
0.0
 11
-70.724799577379514
 21
475.04702146353412
 31
0.0
  0
LINE
  8
0
  6
CONTINUOUS
 62
               3
  5
438
 10
-127.99999999999999
 20
601.16888876861867
 30
0.0
 11
-127.99999999999999
 21
609.67406989515848
 31
0.0
  0
LINE
  8
0
  6
CONTINUOUS
 62
               3
  5
439
 10
-127.99999999999999
 20
477.04711553508645
 30
0.0
 11
-127.99999999999999
 21
601.16888876861844
 31
0.0
  0
LINE
  8
0
  6
CONTINUOUS
 62
               3
  5
43A
 10
-127.99999999999999
 20
609.67406989515825
 30
0.0
 11
-47.517615216234425
 21
612.4845767023387
 31
0.0
  0
LINE
  8
0
  6
CONTINUOUS
 62
               3
  5
43B
 10
66.159800457133997
 20
410.95986715440785
 30
0.0
 11
69.123983987216775
 21
495.84297749889885
 31
0.0
  0
CIRCLE
  8
0
  6
CONTINUOUS
 62
               3
  5
43C
 10
0.0000000000000426
 20
543.36059271512227
 30
0.0
 40
75.0
  0
ARC
  8
0
  6
CONTINUOUS
 62
               3
  5
43D
 10
0.0000000000000426
 20
543.36059271512227
 30
0.0
 40
88.5
 50
346.93897588503427
 51
373.06102411462024
  0
ARC
  8
0
  6
CONTINUOUS
 62
               3
  5
43E
 10
0.0000000000000426
 20
543.36059271512227
 30
0.0
 40
88.5
 50
76.938975885051988
 51
103.06102411463802
  0
ARC
  8
0
  6
CONTINUOUS
 62
               3
  5
43F
 10
0.0000000000000426
 20
543.36059271512227
 30
0.0
 40
88.5
 50
166.93897588513781
 51
193.06102411472381
  0
ARC
  8
0
  6
CONTINUOUS
 62
               3
  5
440
 10
0.0000000000000426
 20
543.36059271512227
 30
0.0
 40
88.5
 50
256.93897588508594
 51
283.06102411467197
  0
ARC
  8
0
  6
CONTINUOUS
 62
               3
  5
441
 10
0.0000000000000426
 20
543.36059271512227
 30
0.0
 40
83.499999999999901
 50
103.85826865515553
 51
123.14937354331356
  0
ARC
  8
0
  6
CONTINUOUS
 62
               3
  5
442
 10
-35.000000000000185
 20
626.27621247400725
 30
0.0
 40
15.0
 50
292.88538047610245
 51
359.99999999993059
  0
ARC
  8
0
  6
CONTINUOUS
 62
               3
  5
443
 10
35.000000000000099
 20
626.27621247400725
 30
0.0
 40
15.0
 50
179.9999999999653
 51
247.11461952379301
  0
ARC
  8
0
  6
CONTINUOUS
 62
               3
  5
444
 10
82.915619758885043
 20
578.36059271512227
 30
0.0
 40
15.0
 50
202.88538047611956
 51
269.99999999994782
  0
ARC
  8
0
  6
CONTINUOUS
 62
               3
  5
445
 10
82.915619758885043
 20
508.36059271512232
 30
0.0
 40
15.0
 50
89.999999999982649
 51
157.11461952381123
  0
ARC
  8
0
  6
CONTINUOUS
 62
               3
  5
446
 10
34.999999999999986
 20
460.44497295623734
 30
0.0
 40
15.0
 50
112.88538047613694
 51
179.9999999999653
  0
ARC
  8
0
  6
CONTINUOUS
 62
               3
  5
447
 10
-34.999999999999957
 20
460.44497295623734
 30
0.0
 40
15.0
 50
359.99999999993037
 51
427.11461952375919
  0
ARC
  8
0
  6
CONTINUOUS
 62
               3
  5
448
 10
-82.915619758884944
 20
508.36059271512232
 30
0.0
 40
15.0
 50
22.885380476153955
 51
89.999999999982606
  0
ARC
  8
0
  6
CONTINUOUS
 62
               3
  5
449
 10
-82.915619758884944
 20
578.36059271512227
 30
0.0
 40
15.0
 50
269.99999999994782
 51
337.11461952377596
  0
LINE
  8
0
  6
CONTINUOUS
 62
               3
  5
44A
 10
-86.210498200625537
 20
523.36059271512227
 30
0.0
 11
-82.915619758884944
 21
523.36059271512227
 31
0.0
  0
LINE
  8
0
  6
CONTINUOUS
 62
               3
  5
44B
 10
-86.210498200625537
 20
563.36059271512227
 30
0.0
 11
-81.06941470122986
 21
563.36059271512227
 31
0.0
  0
LINE
  8
0
  6
CONTINUOUS
 62
               3
  5
44C
 10
-19.999999999999957
 20
624.43000741635228
 30
0.0
 11
-19.999999999999957
 21
629.57109091574694
 31
0.0
  0
LINE
  8
0
  6
CONTINUOUS
 62
               3
  5
44D
 10
20.000000000000043
 20
626.27621247400725
 30
0.0
 11
20.000000000000043
 21
629.57109091574694
 31
0.0
  0
LINE
  8
0
  6
CONTINUOUS
 62
               3
  5
44E
 10
82.915619758885043
 20
523.36059271512227
 30
0.0
 11
86.210498200624954
 21
523.36059271512227
 31
0.0
  0
LINE
  8
0
  6
CONTINUOUS
 62
               3
  5
44F
 10
82.915619758885043
 20
563.36059271512227
 30
0.0
 11
86.210498200624954
 21
563.36059271512227
 31
0.0
  0
LINE
  8
0
  6
CONTINUOUS
 62
               3
  5
450
 10
20.000000000000043
 20
457.15009451449703
 30
0.0
 11
20.000000000000043
 21
460.44497295623734
 31
0.0
  0
LINE
  8
0
  6
CONTINUOUS
 62
               3
  5
451
 10
-19.999999999999957
 20
457.15009451449703
 30
0.0
 11
-19.999999999999957
 21
460.44497295623734
 31
0.0
  0
ARC
  8
0
  6
CONTINUOUS
 62
               3
  5
452
 10
0.0000000000000426
 20
543.36059271512227
 30
0.0
 40
80.500000000000043
 50
285.06541275404408
 51
344.93458724583411
  0
ARC
  8
0
  6
CONTINUOUS
 62
               3
  5
453
 10
0.0000000000000426
 20
543.36059271512227
 30
0.0
 40
80.500000000000043
 50
15.065412754096309
 51
74.934587245886235
  0
ARC
  8
0
  6
CONTINUOUS
 62
               3
  5
454
 10
0.0000000000000426
 20
543.36059271512227
 30
0.0
 40
80.500000000000043
 50
105.06541275407906
 51
165.61435521392212
  0
ARC
  8
0
  6
CONTINUOUS
 62
               3
  5
455
 10
0.0000000000000426
 20
543.36059271512227
 30
0.0
 40
80.500000000000043
 50
195.06541275406153
 51
254.93458724585153
  0
ARC
  8
0
  6
CONTINUOUS
 62
               3
  5
456
 10
-48.393892694184437
 20
617.45702414001448
 30
0.0
 40
5.0
 50
271.99999999994753
 51
303.14937354327935
  0
ARC
  8
0
  6
CONTINUOUS
 62
               3
  5
457
 10
0.0000000000000426
 20
543.36059271512227
 30
0.0
 40
83.499999999999901
 50
13.858268655172921
 51
76.141731344809685
  0
ARC
  8
0
  6
CONTINUOUS
 62
               3
  5
458
 10
0.0000000000000426
 20
543.36059271512227
 30
0.0
 40
83.499999999999901
 50
325.49436102759745
 51
346.14173134475743
  0
LINE
  8
0
  6
CONTINUOUS
 62
               3
  5
459
 10
-574.99999999999989
 20
193.36059271512238
 30
0.0
 11
-425.00000000000045
 21
193.36059271512238
 31
0.0
  0
LINE
  8
0
  6
CONTINUOUS
 62
               3
  5
45A
 10
-588.5
 20
183.36059271512238
 30
0.0
 11
-588.5
 21
176.36059271512272
 31
0.0
  0
LINE
  8
0
  6
CONTINUOUS
 62
               3
  5
45B
 10
-588.5
 20
183.36059271512238
 30
0.0
 11
-574.99999999999989
 21
193.36059271512238
 31
0.0
  0
LINE
  8
0
  6
CONTINUOUS
 62
               3
  5
45C
 10
-411.50000000000023
 20
183.36059271512238
 30
0.0
 11
-411.50000000000023
 21
176.36059271512272
 31
0.0
  0
LINE
  8
0
  6
CONTINUOUS
 62
               3
  5
45D
 10
-411.50000000000023
 20
183.36059271512238
 30
0.0
 11
-425.00000000000045
 21
193.36059271512238
 31
0.0
  0
ARC
  8
0
  6
CONTINUOUS
 62
               3
  5
45E
 10
-585.49999999999977
 20
171.36059271512272
 30
0.0
 40
5.0
 50
0.0
 51
89.999999999982862
  0
LINE
  8
0
  6
CONTINUOUS
 62
               3
  5
45F
 10
-588.5
 20
176.36059271512272
 30
0.0
 11
-585.49999999999977
 21
176.36059271512272
 31
0.0
  0
ARC
  8
0
  6
CONTINUOUS
 62
               3
  5
460
 10
-414.49999999999989
 20
171.36059271512272
 30
0.0
 40
5.0
 50
89.999999999982862
 51
179.99999999996507
  0
LINE
  8
0
  6
CONTINUOUS
 62
               3
  5
461
 10
-411.50000000000023
 20
176.36059271512272
 30
0.0
 11
-414.49999999999989
 21
176.36059271512272
 31
0.0
  0
LINE
  8
0
  6
CONTINUOUS
 62
               3
  5
462
 10
-74.999999999999901
 20
193.36059271512238
 30
0.0
 11
74.999999999999545
 21
193.36059271512238
 31
0.0
  0
LINE
  8
0
  6
CONTINUOUS
 62
               3
  5
463
 10
-88.500000000000071
 20
183.36059271512238
 30
0.0
 11
-88.500000000000071
 21
176.36059271512272
 31
0.0
  0
LINE
  8
0
  6
CONTINUOUS
 62
               3
  5
464
 10
-88.500000000000071
 20
183.36059271512238
 30
0.0
 11
-74.999999999999901
 21
193.36059271512238
 31
0.0
  0
LINE
  8
0
  6
CONTINUOUS
 62
               3
  5
465
 10
88.499999999999773
 20
183.36059271512238
 30
0.0
 11
88.499999999999773
 21
176.36059271512272
 31
0.0
  0
LINE
  8
0
  6
CONTINUOUS
 62
               3
  5
466
 10
88.499999999999773
 20
183.36059271512238
 30
0.0
 11
74.999999999999545
 21
193.36059271512238
 31
0.0
  0
ARC
  8
0
  6
CONTINUOUS
 62
               3
  5
467
 10
-85.499999999999844
 20
171.36059271512272
 30
0.0
 40
5.0
 50
0.0
 51
89.99999999998262
  0
LINE
  8
0
  6
CONTINUOUS
 62
               3
  5
468
 10
-88.500000000000071
 20
176.36059271512272
 30
0.0
 11
-85.499999999999844
 21
176.36059271512272
 31
0.0
  0
ARC
  8
0
  6
CONTINUOUS
 62
               3
  5
469
 10
85.500000000000114
 20
171.36059271512272
 30
0.0
 40
5.0
 50
89.999999999982535
 51
179.99999999996507
  0
LINE
  8
0
  6
CONTINUOUS
 62
               3
  5
46A
 10
88.499999999999773
 20
176.36059271512272
 30
0.0
 11
85.500000000000114
 21
176.36059271512272
 31
0.0
  0
LINE
  8
0
  6
CONTINUOUS
 62
               3
  5
46B
 10
425.00000000000011
 20
193.36059271512238
 30
0.0
 11
574.99999999999955
 21
193.36059271512238
 31
0.0
  0
LINE
  8
0
  6
CONTINUOUS
 62
               3
  5
46C
 10
411.49999999999994
 20
183.36059271512238
 30
0.0
 11
411.49999999999994
 21
176.36059271512272
 31
0.0
  0
LINE
  8
0
  6
CONTINUOUS
 62
               3
  5
46D
 10
411.49999999999994
 20
183.36059271512238
 30
0.0
 11
425.00000000000011
 21
193.36059271512238
 31
0.0
  0
LINE
  8
0
  6
CONTINUOUS
 62
               3
  5
46E
 10
588.49999999999977
 20
183.36059271512238
 30
0.0
 11
588.49999999999977
 21
176.36059271512272
 31
0.0
  0
LINE
  8
0
  6
CONTINUOUS
 62
               3
  5
46F
 10
588.49999999999977
 20
183.36059271512238
 30
0.0
 11
574.99999999999955
 21
193.36059271512238
 31
0.0
  0
ARC
  8
0
  6
CONTINUOUS
 62
               3
  5
470
 10
414.50000000000017
 20
171.36059271512272
 30
0.0
 40
5.0
 50
0.0
 51
89.999999999982862
  0
LINE
  8
0
  6
CONTINUOUS
 62
               3
  5
471
 10
411.49999999999994
 20
176.36059271512272
 30
0.0
 11
414.50000000000017
 21
176.36059271512272
 31
0.0
  0
ARC
  8
0
  6
CONTINUOUS
 62
               3
  5
472
 10
585.5
 20
171.36059271512272
 30
0.0
 40
5.0
 50
89.999999999982862
 51
179.99999999996507
  0
LINE
  8
0
  6
CONTINUOUS
 62
               3
  5
473
 10
588.49999999999977
 20
176.36059271512272
 30
0.0
 11
585.5
 21
176.36059271512272
 31
0.0
  0
LINE
  8
0
  6
CONTINUOUS
 62
               3
  5
474
 10
-580.49999999999977
 20
171.36059271512272
 30
0.0
 11
-580.5
 21
162.86059271512283
 31
0.0
  0
LINE
  8
0
  6
CONTINUOUS
 62
               3
  5
475
 10
-419.49999999999989
 20
171.36059271512272
 30
0.0
 11
-419.49999999999989
 21
162.86059271512283
 31
0.0
  0
LINE
  8
0
  6
CONTINUOUS
 62
               3
  5
476
 10
-80.499999999999844
 20
171.36059271512272
 30
0.0
 11
-80.499999999999957
 21
162.86059271512283
 31
0.0
  0
LINE
  8
0
  6
CONTINUOUS
 62
               3
  5
477
 10
80.500000000000114
 20
171.36059271512272
 30
0.0
 11
80.500000000000114
 21
162.86059271512283
 31
0.0
  0
LINE
  8
0
  6
CONTINUOUS
 62
               3
  5
478
 10
419.50000000000017
 20
171.36059271512272
 30
0.0
 11
419.50000000000006
 21
162.86059271512283
 31
0.0
  0
LINE
  8
0
  6
CONTINUOUS
 62
               3
  5
479
 10
580.5
 20
171.36059271512272
 30
0.0
 11
580.5
 21
162.86059271512283
 31
0.0
  0
CIRCLE
  8
0
  6
CONTINUOUS
 62
               3
  5
47A
 10
609.28652321630784
 20
-972.82435262452168
 30
0.0
 40
75.0
  0
CIRCLE
  8
0
  6
CONTINUOUS
 62
               3
  5
47B
 10
609.28652321630784
 20
-972.82435262452168
 30
0.0
 40
52.5
  0
LINE
  8
0
  6
CONTINUOUS
 62
               3
  5
47C
 10
523.0760250156826
 20
-952.82435262452168
 30
0.0
 11
537.00236174230247
 21
-952.82435262452168
 31
0.0
  0
LINE
  8
0
  6
CONTINUOUS
 62
               3
  5
47D
 10
537.00236174230247
 20
-992.82435262452168
 30
0.0
 11
523.0760250156826
 21
-992.82435262452168
 31
0.0
  0
ARC
  8
0
  6
CONTINUOUS
 62
               3
  5
47E
 10
609.28652321630784
 20
-972.82435262452168
 30
0.0
 40
88.5
 50
166.93897588510336
 51
193.06102411468945
  0
LINE
  8
0
  6
CONTINUOUS
 62
               3
  5
47F
 10
589.28652321630784
 20
-1059.0348508251466
 30
0.0
 11
589.28652321630784
 21
-1045.1085140985267
 31
0.0
  0
LINE
  8
0
  6
CONTINUOUS
 62
               3
  5
480
 10
629.28652321630784
 20
-1045.1085140985267
 30
0.0
 11
629.28652321630784
 21
-1059.0348508251466
 31
0.0
  0
ARC
  8
0
  6
CONTINUOUS
 62
               3
  5
481
 10
609.28652321630784
 20
-972.82435262452168
 30
0.0
 40
88.5
 50
256.93897588505166
 51
283.06102411463769
  0
LINE
  8
0
  6
CONTINUOUS
 62
               3
  5
482
 10
695.49702141693251
 20
-992.82435262452168
 30
0.0
 11
681.57068469031219
 21
-992.82435262452168
 31
0.0
  0
LINE
  8
0
  6
CONTINUOUS
 62
               3
  5
483
 10
681.57068469031219
 20
-952.82435262452168
 30
0.0
 11
695.49702141693251
 21
-952.82435262452168
 31
0.0
  0
ARC
  8
0
  6
CONTINUOUS
 62
               3
  5
484
 10
609.28652321630784
 20
-972.82435262452168
 30
0.0
 40
88.5
 50
346.93897588499982
 51
373.06102411458585
  0
LINE
  8
0
  6
CONTINUOUS
 62
               3
  5
485
 10
629.28652321630784
 20
-886.6138544238961
 30
0.0
 11
629.28652321630784
 21
-900.54019115051665
 31
0.0
  0
LINE
  8
0
  6
CONTINUOUS
 62
               3
  5
486
 10
589.28652321630784
 20
-900.54019115051665
 30
0.0
 11
589.28652321630784
 21
-886.6138544238961
 31
0.0
  0
ARC
  8
0
  6
CONTINUOUS
 62
               3
  5
487
 10
609.28652321630784
 20
-972.82435262452168
 30
0.0
 40
88.5
 50
76.938975885155216
 51
103.06102411474124
  0
LINE
  8
0
  6
CONTINUOUS
 62
               3
  5
488
 10
561.6183996954469
 20
-994.82435262452213
 30
0.0
 11
656.95464673716788
 21
-994.82435262452213
 31
0.0
  0
ARC
  8
0
  6
CONTINUOUS
 62
               3
  5
489
 10
621.79013486568897
 20
-964.11795499690265
 30
0.0
 40
54.763804151667173
 50
141.3859176367566
 51
145.15009542087031
  0
ARC
  8
0
  6
CONTINUOUS
 62
               3
  5
48A
 10
609.28652321630784
 20
-972.82435262452168
 30
0.0
 40
51.5
 50
334.71098847326505
 51
410.95932736340404
  0
ARC
  8
0
  6
CONTINUOUS
 62
               3
  5
48B
 10
609.28652321630784
 20
-972.82435262452168
 30
0.0
 40
51.5
 50
129.04067263628559
 51
205.28901152642416
  0
ARC
  8
0
  6
CONTINUOUS
 62
               3
  5
48C
 10
609.28652321630784
 20
-972.82435262452168
 30
0.0
 40
77.5
 50
104.95524831658301
 51
128.57288309095932
  0
ARC
  8
0
  6
CONTINUOUS
 62
               3
  5
48D
 10
609.28652321630784
 20
-972.82435262452168
 30
0.0
 40
77.5
 50
14.9552483166347
 51
75.044751683313535
  0
ARC
  8
0
  6
CONTINUOUS
 62
               3
  5
48E
 10
609.28652321630784
 20
-972.82435262452168
 30
0.0
 40
77.5
 50
321.42711690878122
 51
345.04475168315804
  0
LINE
  8
0
  6
CONTINUOUS
 62
               3
  5
48F
 10
469.28652321630778
 20
-1027.8243526245217
 30
0.0
 11
469.95807934227201
 21
-1027.8243526245217
 31
0.0
  0
LINE
  8
0
  6
CONTINUOUS
 62
               3
  5
490
 10
472.45807934227247
 20
-1030.3243526245217
 30
0.0
 11
469.95807934227201
 21
-1027.8243526245217
 31
0.0
  0
LINE
  8
0
  6
CONTINUOUS
 62
               3
  5
491
 10
469.28652321630778
 20
-917.82435262452168
 30
0.0
 11
469.95807934227201
 21
-917.82435262452168
 31
0.0
  0
LINE
  8
0
  6
CONTINUOUS
 62
               3
  5
492
 10
472.45807934227201
 20
-915.32435262452168
 30
0.0
 11
469.95807934227201
 21
-917.82435262452168
 31
0.0
  0
LINE
  8
0
  6
CONTINUOUS
 62
               3
  5
493
 10
469.95807934227201
 20
-917.82435262452168
 30
0.0
 11
469.95807934227201
 21
-1027.8243526245217
 31
0.0
  0
LINE
  8
0
  6
CONTINUOUS
 62
               3
  5
494
 10
563.79618742992989
 20
-912.13475560618008
 30
0.0
 11
472.45807934227201
 21
-915.32435262452168
 31
0.0
  0
LINE
  8
0
  6
CONTINUOUS
 62
               3
  5
495
 10
544.4500514997568
 20
-1032.8383676894894
 30
0.0
 11
472.45807934227258
 21
-1030.3243526245217
 31
0.0
  0
LINE
  8
0
  6
CONTINUOUS
 62
               3
  5
496
 10
464.28652321630778
 20
-917.9959087504858
 30
0.0
 11
464.28652321630778
 21
-1027.9243526245218
 31
0.0
  0
LINE
  8
0
  6
CONTINUOUS
 62
               3
  5
497
 10
469.28652321630778
 20
-1030.4243526245218
 30
0.0
 11
469.28652321630778
 21
-915.22435262452166
 31
0.0
  0
LINE
  8
0
  6
CONTINUOUS
 62
               3
  5
498
 10
469.28652321630778
 20
-915.22435262452166
 30
0.0
 11
466.78652321630778
 21
-915.22435262452166
 31
0.0
  0
LINE
  8
0
  6
CONTINUOUS
 62
               3
  5
499
 10
469.28652321630778
 20
-1030.4243526245218
 30
0.0
 11
466.78652321630778
 21
-1030.4243526245218
 31
0.0
  0
ARC
  8
0
  6
CONTINUOUS
 62
               3
  5
49A
 10
466.78652321630778
 20
-1027.9243526245218
 30
0.0
 40
2.5
 50
179.99999999989538
 51
269.99999999984436
  0
ARC
  8
0
  6
CONTINUOUS
 62
               3
  5
49B
 10
466.78652321630778
 20
-917.72435262452166
 30
0.0
 40
2.5
 50
89.999999999948997
 51
179.99999999989538
  0
LINE
  8
0
  6
CONTINUOUS
 62
               3
  5
49C
 10
576.84812004969035
 20
-932.82435262452191
 30
0.0
 11
609.28652321630784
 21
-932.82435262452191
 31
0.0
  0
LINE
  8
0
  6
CONTINUOUS
 62
               3
  5
49D
 10
609.28652321630784
 20
-932.82435262452191
 30
0.0
 11
643.29019948814653
 21
-932.82435262452191
 31
0.0
  0
LINE
  8
0
  6
CONTINUOUS
 62
               3
  5
49E
 10
472.45807934227247
 20
-1030.3243526245217
 30
0.0
 11
472.45807934227201
 21
-915.32435262452168
 31
0.0
  0
ARC
  8
0
  6
CONTINUOUS
 62
               3
  5
49F
 10
563.62168994641752
 20
-907.13780147108457
 30
0.0
 40
5.0
 50
271.99999999984402
 51
304.806757870252
  0
LINE
  8
0
  6
CONTINUOUS
 62
               3
  5
4A0
 10
664.28652321630784
 20
-1112.8243526245217
 30
0.0
 11
664.28652321630784
 21
-1112.1527964985573
 31
0.0
  0
LINE
  8
0
  6
CONTINUOUS
 62
               3
  5
4A1
 10
666.78652321630784
 20
-1109.6527964985569
 30
0.0
 11
664.28652321630784
 21
-1112.1527964985573
 31
0.0
  0
LINE
  8
0
  6
CONTINUOUS
 62
               3
  5
4A2
 10
554.28652321630773
 20
-1112.8243526245217
 30
0.0
 11
554.28652321630773
 21
-1112.1527964985573
 31
0.0
  0
LINE
  8
0
  6
CONTINUOUS
 62
               3
  5
4A3
 10
551.78652321630773
 20
-1109.6527964985573
 30
0.0
 11
554.28652321630773
 21
-1112.1527964985573
 31
0.0
  0
LINE
  8
0
  6
CONTINUOUS
 62
               3
  5
4A4
 10
554.28652321630773
 20
-1112.1527964985573
 30
0.0
 11
664.28652321630784
 21
-1112.1527964985573
 31
0.0
  0
LINE
  8
0
  6
CONTINUOUS
 62
               3
  5
4A5
 10
554.45807934227184
 20
-1117.8243526245217
 30
0.0
 11
664.38652321630775
 21
-1117.8243526245217
 31
0.0
  0
LINE
  8
0
  6
CONTINUOUS
 62
               3
  5
4A6
 10
666.88652321630775
 20
-1112.8243526245217
 30
0.0
 11
551.68652321630771
 21
-1112.8243526245217
 31
0.0
  0
LINE
  8
0
  6
CONTINUOUS
 62
               3
  5
4A7
 10
551.68652321630771
 20
-1112.8243526245217
 30
0.0
 11
551.68652321630771
 21
-1115.3243526245217
 31
0.0
  0
LINE
  8
0
  6
CONTINUOUS
 62
               3
  5
4A8
 10
666.88652321630775
 20
-1112.8243526245217
 30
0.0
 11
666.88652321630775
 21
-1115.3243526245217
 31
0.0
  0
ARC
  8
0
  6
CONTINUOUS
 62
               3
  5
4A9
 10
664.38652321630775
 20
-1115.3243526245217
 30
0.0
 40
2.5
 50
269.99999999984567
 51
359.99999999979076
  0
ARC
  8
0
  6
CONTINUOUS
 62
               3
  5
4AA
 10
554.18652321630771
 20
-1115.3243526245217
 30
0.0
 40
2.5
 50
179.99999999989538
 51
269.99999999984567
  0
LINE
  8
0
  6
CONTINUOUS
 62
               3
  5
4AB
 10
666.78652321630784
 20
-1109.6527964985569
 30
0.0
 11
551.78652321630773
 21
-1109.6527964985573
 31
0.0
  0
LINE
  8
0
  6
CONTINUOUS
 62
               3
  5
4AC
 10
669.97612023464899
 20
-1018.3146884109002
 30
0.0
 11
666.78652321630784
 21
-1109.6527964985569
 31
0.0
  0
ARC
  8
0
  6
CONTINUOUS
 62
               3
  5
4AD
 10
674.97307436974438
 20
-1018.4891858944127
 30
0.0
 40
5.0
 50
145.19324212948862
 51
177.99999999989819
  0
LINE
  8
0
  6
CONTINUOUS
 62
               3
  5
4AE
 10
549.27250815133971
 20
-1037.6608243410726
 30
0.0
 11
551.78652321630773
 21
-1109.6527964985573
 31
0.0
  0
ARC
  8
0
  6
CONTINUOUS
 62
               3
  5
4AF
 10
544.27555401624431
 20
-1037.8353218245848
 30
0.0
 40
5.0
 50
1.9999999999958187
 51
87.99999999994921
  0
LINE
  8
0
  6
CONTINUOUS
 62
               3
  5
4B0
 10
534.28652321630784
 20
-1281.323786373106
 30
0.0
 11
684.28652321630784
 21
-1281.323786373106
 31
0.0
  0
LINE
  8
0
  6
CONTINUOUS
 62
               3
  5
4B1
 10
520.78652321630761
 20
-1291.323786373106
 30
0.0
 11
520.78652321630761
 21
-1298.3237863731056
 31
0.0
  0
LINE
  8
0
  6
CONTINUOUS
 62
               3
  5
4B2
 10
520.78652321630761
 20
-1291.323786373106
 30
0.0
 11
534.28652321630784
 21
-1281.323786373106
 31
0.0
  0
ARC
  8
0
  6
CONTINUOUS
 62
               3
  5
4B3
 10
532.28652321630796
 20
-1302.9063620680613
 30
0.0
 40
4.9999999999999991
 50
0.0
 51
66.421821521760023
  0
LINE
  8
0
  6
CONTINUOUS
 62
               3
  5
4B4
 10
520.78652321630761
 20
-1298.3237863731056
 30
0.0
 11
697.78652321630761
 21
-1298.3237863731056
 31
0.0
  0
ARC
  8
0
  6
CONTINUOUS
 62
               3
  5
4B5
 10
554.28652321630784
 20
-1388.323786373106
 30
0.0
 40
19.999999999999996
 50
148.21166938286279
 51
167.26981986159123
  0
LINE
  8
0
  6
CONTINUOUS
 62
               3
  5
4B6
 10
537.28652321630796
 20
-1302.9063620680613
 30
0.0
 11
537.28652321630796
 21
-1377.7881326202532
 31
0.0
  0
LINE
  8
0
  6
CONTINUOUS
 62
               3
  5
4B7
 10
681.28652321630784
 20
-1372.7881326202528
 30
0.0
 11
681.28652321630784
 21
-1302.9063620680613
 31
0.0
  0
LINE
  8
0
  6
CONTINUOUS
 62
               3
  5
4B8
 10
537.28652321630796
 20
-1377.7881326202532
 30
0.0
 11
680.7865232163083
 21
-1377.7881326202532
 31
0.0
  0
LINE
  8
0
  6
CONTINUOUS
 62
               3
  5
4B9
 10
589.28652321630784
 20
-1298.3237863731056
 30
0.0
 11
589.28652321630784
 21
-1281.323786373106
 31
0.0
  0
LINE
  8
0
  6
CONTINUOUS
 62
               3
  5
4BA
 10
629.28652321630784
 20
-1281.323786373106
 30
0.0
 11
629.28652321630784
 21
-1298.3237863731056
 31
0.0
  0
LINE
  8
0
  6
CONTINUOUS
 62
               3
  5
4BB
 10
589.28652321630784
 20
-1291.323786373106
 30
0.0
 11
629.28652321630784
 21
-1291.323786373106
 31
0.0
  0
LINE
  8
0
  6
CONTINUOUS
 62
               3
  5
4BC
 10
537.00236174230247
 20
-1281.323786373106
 30
0.0
 11
537.00236174230247
 21
-1298.3237863731056
 31
0.0
  0
LINE
  8
0
  6
CONTINUOUS
 62
               3
  5
4BD
 10
523.0760250156826
 20
-1291.323786373106
 30
0.0
 11
523.0760250156826
 21
-1298.3237863731056
 31
0.0
  0
LINE
  8
0
  6
CONTINUOUS
 62
               3
  5
4BE
 10
520.78652321630761
 20
-1291.323786373106
 30
0.0
 11
523.0760250156826
 21
-1291.323786373106
 31
0.0
  0
LINE
  8
0
  6
CONTINUOUS
 62
               3
  5
4BF
 10
523.0760250156826
 20
-1291.323786373106
 30
0.0
 11
537.00236174230247
 21
-1281.323786373106
 31
0.0
  0
LINE
  8
0
  6
CONTINUOUS
 62
               3
  5
4C0
 10
697.78652321630761
 20
-1291.323786373106
 30
0.0
 11
697.78652321630761
 21
-1298.3237863731056
 31
0.0
  0
LINE
  8
0
  6
CONTINUOUS
 62
               3
  5
4C1
 10
697.78652321630761
 20
-1291.323786373106
 30
0.0
 11
684.28652321630784
 21
-1281.323786373106
 31
0.0
  0
ARC
  8
0
  6
CONTINUOUS
 62
               3
  5
4C2
 10
686.28652321630784
 20
-1302.9063620680613
 30
0.0
 40
4.9999999999999991
 50
113.57817847813573
 51
179.99999999989538
  0
LINE
  8
0
  6
CONTINUOUS
 62
               3
  5
4C3
 10
681.57068469031219
 20
-1281.323786373106
 30
0.0
 11
681.57068469031219
 21
-1298.3237863731056
 31
0.0
  0
LINE
  8
0
  6
CONTINUOUS
 62
               3
  5
4C4
 10
695.49702141693319
 20
-1291.323786373106
 30
0.0
 11
695.49702141693319
 21
-1298.3237863731056
 31
0.0
  0
LINE
  8
0
  6
CONTINUOUS
 62
               3
  5
4C5
 10
697.78652321630761
 20
-1291.323786373106
 30
0.0
 11
695.49702141693319
 21
-1291.323786373106
 31
0.0
  0
LINE
  8
0
  6
CONTINUOUS
 62
               3
  5
4C6
 10
695.49702141693319
 20
-1291.323786373106
 30
0.0
 11
681.57068469031219
 21
-1281.323786373106
 31
0.0
  0
ARC
  8
0
  6
CONTINUOUS
 62
               3
  5
4C7
 10
544.28652321630784
 20
-1509.823786373106
 30
0.0
 40
2.4999999999999996
 50
89.99999999994769
 51
269.99999999984567
  0
ARC
  8
0
  6
CONTINUOUS
 62
               3
  5
4C8
 10
684.28652321630784
 20
-1509.823786373106
 30
0.0
 40
2.4999999999999996
 50
269.99999999984567
 51
449.99999999974102
  0
LINE
  8
0
  6
CONTINUOUS
 62
               3
  5
4C9
 10
469.28652321630778
 20
-1502.323786373106
 30
0.0
 11
469.95807934227213
 21
-1502.323786373106
 31
0.0
  0
LINE
  8
0
  6
CONTINUOUS
 62
               3
  5
4CA
 10
472.45807934227224
 20
-1504.8237863731056
 30
0.0
 11
469.95807934227213
 21
-1502.323786373106
 31
0.0
  0
LINE
  8
0
  6
CONTINUOUS
 62
               3
  5
4CB
 10
472.45807934227304
 20
-1504.823786373106
 30
0.0
 11
514.62318959855043
 21
-1506.2962244689602
 31
0.0
  0
LINE
  8
0
  6
CONTINUOUS
 62
               3
  5
4CC
 10
532.82205712224038
 20
-1522.5954757993923
 30
0.0
 11
517.9842260209706
 21
-1507.7576446981229
 31
0.0
  0
ARC
  8
0
  6
CONTINUOUS
 62
               3
  5
4CD
 10
529.28652321630784
 20
-1526.1310097053251
 30
0.0
 40
4.9999999999999991
 50
0.0
 51
44.999999999973191
  0
LINE
  8
0
  6
CONTINUOUS
 62
               3
  5
4CE
 10
469.28652321630778
 20
-1392.323786373106
 30
0.0
 11
469.95807934227213
 21
-1392.323786373106
 31
0.0
  0
LINE
  8
0
  6
CONTINUOUS
 62
               3
  5
4CF
 10
472.45807934227224
 20
-1389.823786373106
 30
0.0
 11
469.95807934227213
 21
-1392.323786373106
 31
0.0
  0
LINE
  8
0
  6
CONTINUOUS
 62
               3
  5
4D0
 10
472.45807934227213
 20
-1389.823786373106
 30
0.0
 11
530.0755555444465
 21
-1387.8117397679537
 31
0.0
  0
LINE
  8
0
  6
CONTINUOUS
 62
               3
  5
4D1
 10
469.95807934227213
 20
-1392.323786373106
 30
0.0
 11
469.95807934227213
 21
-1502.323786373106
 31
0.0
  0
LINE
  8
0
  6
CONTINUOUS
 62
               3
  5
4D2
 10
469.28652321630778
 20
-1504.9237863731059
 30
0.0
 11
469.28652321630778
 21
-1389.7237863731061
 31
0.0
  0
LINE
  8
0
  6
CONTINUOUS
 62
               3
  5
4D3
 10
469.28652321630778
 20
-1389.7237863731061
 30
0.0
 11
466.78652321630778
 21
-1389.7237863731061
 31
0.0
  0
ARC
  8
0
  6
CONTINUOUS
 62
               3
  5
4D4
 10
466.78652321630778
 20
-1392.2237863731061
 30
0.0
 40
2.5
 50
89.999999999948997
 51
179.99999999989538
  0
LINE
  8
0
  6
CONTINUOUS
 62
               3
  5
4D5
 10
464.28652321630778
 20
-1392.2237863731061
 30
0.0
 11
464.28652321630778
 21
-1502.4237863731059
 31
0.0
  0
LINE
  8
0
  6
CONTINUOUS
 62
               3
  5
4D6
 10
469.28652321630778
 20
-1504.9237863731059
 30
0.0
 11
466.78652321630778
 21
-1504.9237863731059
 31
0.0
  0
ARC
  8
0
  6
CONTINUOUS
 62
               3
  5
4D7
 10
466.78652321630778
 20
-1502.4237863731059
 30
0.0
 40
2.5
 50
179.99999999989538
 51
269.99999999984436
  0
LINE
  8
0
  6
CONTINUOUS
 62
               3
  5
4D8
 10
472.45807934227224
 20
-1389.823786373106
 30
0.0
 11
472.45807934227304
 21
-1504.823786373106
 31
0.0
  0
ARC
  8
0
  6
CONTINUOUS
 62
               3
  5
4D9
 10
514.44869211503794
 20
-1511.2931786040558
 30
0.0
 40
5.0
 50
44.999999999975948
 51
87.999999999949253
  0
ARC
  8
0
  6
CONTINUOUS
 62
               3
  5
4DA
 10
529.90105806093402
 20
-1382.8147856328583
 30
0.0
 40
5.0
 50
271.99999999984408
 51
347.26981986148661
  0
CIRCLE
  8
0
  6
CONTINUOUS
 62
               3
  5
4DB
 10
609.28652321630784
 20
-1447.323786373106
 30
0.0
 40
48.5
  0
CIRCLE
  8
0
  6
CONTINUOUS
 62
               3
  5
4DC
 10
609.28652321630784
 20
-1447.323786373106
 30
0.0
 40
47.299999999999997
  0
LINE
  8
0
  6
CONTINUOUS
 62
               3
  5
4DD
 10
577.46671806291329
 20
-1479.1435915265006
 30
0.0
 11
575.84037246618414
 21
-1480.7699371232297
 31
0.0
  0
LINE
  8
0
  6
CONTINUOUS
 62
               3
  5
4DE
 10
641.10632836970262
 20
-1479.1435915265006
 30
0.0
 11
642.73267396643155
 21
-1480.7699371232297
 31
0.0
  0
ARC
  8
0
  6
CONTINUOUS
 62
               3
  5
4DF
 10
609.28652321630784
 20
-1447.323786373106
 30
0.0
 40
45.0
 50
224.99999999987043
 51
314.99999999981884
  0
CIRCLE
  8
0
  6
CONTINUOUS
 62
               3
  5
4E0
 10
609.28652321630784
 20
-1447.323786373106
 30
0.0
 40
57.600000000000001
  0
ARC
  8
0
  6
CONTINUOUS
 62
               3
  5
4E1
 10
586.78652321630852
 20
-1509.823786373106
 30
0.0
 40
2.4999999999999996
 50
269.99999999984567
 51
449.99999999974102
  0
ARC
  8
0
  6
CONTINUOUS
 62
               3
  5
4E2
 10
631.78652321630852
 20
-1509.823786373106
 30
0.0
 40
2.4999999999999996
 50
89.99999999994769
 51
269.99999999984567
  0
LINE
  8
0
  6
CONTINUOUS
 62
               3
  5
4E3
 10
544.28652321630784
 20
-1512.323786373106
 30
0.0
 11
586.78652321630852
 21
-1512.323786373106
 31
0.0
  0
LINE
  8
0
  6
CONTINUOUS
 62
               3
  5
4E4
 10
544.28652321630784
 20
-1507.323786373106
 30
0.0
 11
586.78652321630852
 21
-1507.323786373106
 31
0.0
  0
LINE
  8
0
  6
CONTINUOUS
 62
               3
  5
4E5
 10
631.78652321630852
 20
-1507.323786373106
 30
0.0
 11
684.28652321630784
 21
-1507.323786373106
 31
0.0
  0
LINE
  8
0
  6
CONTINUOUS
 62
               3
  5
4E6
 10
631.78652321630852
 20
-1512.323786373106
 30
0.0
 11
684.28652321630784
 21
-1512.323786373106
 31
0.0
  0
CIRCLE
  8
0
  6
CONTINUOUS
 62
               3
  5
4E7
 10
609.28652321630784
 20
-972.82435262452168
 30
0.0
 40
59.0
  0
INSERT
  8
0
  6
CONTINUOUS
  5
4E8
  2
GROUP_1
 10
0.0
 20
0.0
 30
0.0
  0
INSERT
  8
0
  6
CONTINUOUS
  5
4E9
  2
GROUP_2
 10
0.0
 20
0.0
 30
0.0
  0
INSERT
  8
0
  6
CONTINUOUS
  5
4EA
  2
GROUP_3
 10
0.0
 20
0.0
 30
0.0
  0
LINE
  8
LAYER001
  6
DIVIDE
 62
               4
  5
4EB
 10
-60.269964753300926
 20
-331.63940728487762
 30
0.0
 11
-60.269964753300926
 21
-346.63940728487762
 31
0.0
  0
LINE
  8
LAYER001
  6
DIVIDE
 62
               4
  5
4EC
 10
60.26996475330084
 20
-331.63940728487762
 30
0.0
 11
60.26996475330084
 21
-346.63940728487762
 31
0.0
  0
LINE
  8
LAYER001
  6
DIVIDE
 62
               4
  5
4ED
 10
-439.73003524669917
 20
-331.7149687545496
 30
0.0
 11
-439.73003524669917
 21
-346.7149687545496
 31
0.0
  0
LINE
  8
LAYER001
  6
DIVIDE
 62
               4
  5
4EE
 10
-560.26996475330088
 20
-331.7149687545496
 30
0.0
 11
-560.26996475330088
 21
-346.7149687545496
 31
0.0
  0
LINE
  8
LAYER001
  6
DIVIDE
 62
               4
  5
4EF
 10
560.26996475330088
 20
-331.7149687545496
 30
0.0
 11
560.26996475330088
 21
-346.7149687545496
 31
0.0
  0
LINE
  8
LAYER001
  6
DIVIDE
 62
               4
  5
4F0
 10
439.73003524669906
 20
-331.7149687545496
 30
0.0
 11
439.73003524669906
 21
-346.7149687545496
 31
0.0
  0
POINT
  8
0
  6
DASHDOT
 62
               5
  5
4F1
 10
0.0000000000000284
 20
543.36059271512227
 30
0.0
  0
POINT
  8
0
  6
CONTINUOUS
 62
               5
  5
4F2
 10
-392.13776905046876
 20
-1030.5087881963127
 30
0.0
  0
POINT
  8
0
  6
CONTINUOUS
 62
               5
  5
4F3
 10
-218.90769754050842
 20
-1031.7995822712016
 30
0.0
  0
POINT
  8
0
  6
CONTINUOUS
 62
               5
  5
4F4
 10
-565.36784056042893
 20
-1031.7995822712014
 30
0.0
  0
POINT
  8
0
  6
CONTINUOUS
 62
               5
  5
4F5
 10
-395.37452052112434
 20
-849.81083261731737
 30
0.0
  0
POINT
  8
0
  6
CONTINUOUS
 62
               5
  5
4F6
 10
493.01659472626812
 20
-1448.614580447995
 30
0.0
  0
POINT
  8
0
  6
CONTINUOUS
 62
               5
  5
4F7
 10
493.01659472626824
 20
-971.53355854963252
 30
0.0
  0
CIRCLE
  8
0
  6
CONTINUOUS
 62
               7
  5
4F8
 10
-392.13776905046876
 20
-1037.0087881963127
 30
0.0
 40
38.0
  0
CIRCLE
  8
0
  6
CONTINUOUS
 62
               7
  5
4F9
 10
-392.13776905046876
 20
-1037.0087881963127
 30
0.0
 40
33.5
  0
LINE
  8
0
  6
CONTINUOUS
 62
               7
  5
4FA
 10
-247.63776905046876
 20
-986.00878819631271
 30
0.0
 11
-247.63776905046876
 21
-1075.0035520756383
 31
0.0
  0
LINE
  8
0
  6
CONTINUOUS
 62
               7
  5
4FB
 10
-247.03776905046874
 20
-986.00878819631271
 30
0.0
 11
-247.63776905046876
 21
-986.00878819631271
 31
0.0
  0
LINE
  8
0
  6
CONTINUOUS
 62
               7
  5
4FC
 10
-282.63776905046876
 20
-1074.0087881963127
 30
0.0
 11
-282.63776905046876
 21
-1000.0087881963127
 31
0.0
  0
LINE
  8
0
  6
CONTINUOUS
 62
               7
  5
4FD
 10
-189.63776905046876
 20
-1074.0087881963127
 30
0.0
 11
-189.63776905046876
 21
-987.00878819631271
 31
0.0
  0
LINE
  8
0
  6
CONTINUOUS
 62
               7
  5
4FE
 10
-247.63776905046876
 20
-986.00878819631271
 30
0.0
 11
-190.63776905046876
 21
-986.00878819631271
 31
0.0
  0
LINE
  8
0
  6
CONTINUOUS
 62
               7
  5
4FF
 10
-281.63776905046876
 20
-1075.0087881963127
 30
0.0
 11
-190.63776905046876
 21
-1075.0087881963127
 31
0.0
  0
LINE
  8
0
  6
CONTINUOUS
 62
               7
  5
500
 10
-190.63776905046876
 20
-986.00878819631271
 30
0.0
 11
-189.63776905046876
 21
-987.00878819631271
 31
0.0
  0
LINE
  8
0
  6
CONTINUOUS
 62
               7
  5
501
 10
-189.63776905046876
 20
-1074.0087881963127
 30
0.0
 11
-190.63776905046876
 21
-1075.0087881963127
 31
0.0
  0
LINE
  8
0
  6
CONTINUOUS
 62
               7
  5
502
 10
-281.63776905046876
 20
-999.00878819631271
 30
0.0
 11
-247.63776905046876
 21
-999.00878819631271
 31
0.0
  0
CIRCLE
  8
0
  6
CONTINUOUS
 62
               7
  5
503
 10
-392.13776905046876
 20
-1030.5087881963127
 30
0.0
 40
44.5
  0
LINE
  8
0
  6
CONTINUOUS
 62
               7
  5
504
 10
-281.63776905046876
 20
-999.00878819631271
 30
0.0
 11
-282.63776905046876
 21
-1000.0087881963127
 31
0.0
  0
LINE
  8
0
  6
CONTINUOUS
 62
               7
  5
505
 10
-282.63776905046876
 20
-1074.0087881963127
 30
0.0
 11
-281.63776905046876
 21
-1075.0087881963127
 31
0.0
  0
LINE
  8
0
  6
CONTINUOUS
 62
               7
  5
506
 10
-536.63776905046848
 20
-986.00878819631248
 30
0.0
 11
-536.63776905046871
 21
-1075.003552075638
 31
0.0
  0
LINE
  8
0
  6
CONTINUOUS
 62
               7
  5
507
 10
-537.23776905046861
 20
-986.00878819631248
 30
0.0
 11
-536.63776905046848
 21
-986.00878819631248
 31
0.0
  0
LINE
  8
0
  6
CONTINUOUS
 62
               7
  5
508
 10
-501.63776905046876
 20
-1074.0087881963125
 30
0.0
 11
-501.63776905046865
 21
-1000.0087881963125
 31
0.0
  0
LINE
  8
0
  6
CONTINUOUS
 62
               7
  5
509
 10
-594.63776905046871
 20
-1074.0087881963125
 30
0.0
 11
-594.63776905046848
 21
-987.00878819631248
 31
0.0
  0
LINE
  8
0
  6
CONTINUOUS
 62
               7
  5
50A
 10
-536.63776905046848
 20
-986.00878819631248
 30
0.0
 11
-593.63776905046848
 21
-986.00878819631248
 31
0.0
  0
LINE
  8
0
  6
CONTINUOUS
 62
               7
  5
50B
 10
-502.63776905046876
 20
-1075.0087881963125
 30
0.0
 11
-593.63776905046871
 21
-1075.0087881963125
 31
0.0
  0
LINE
  8
0
  6
CONTINUOUS
 62
               7
  5
50C
 10
-593.63776905046848
 20
-986.00878819631248
 30
0.0
 11
-594.63776905046848
 21
-987.00878819631248
 31
0.0
  0
LINE
  8
0
  6
CONTINUOUS
 62
               7
  5
50D
 10
-594.63776905046871
 20
-1074.0087881963125
 30
0.0
 11
-593.63776905046871
 21
-1075.0087881963125
 31
0.0
  0
LINE
  8
0
  6
CONTINUOUS
 62
               7
  5
50E
 10
-502.63776905046865
 20
-999.00878819631248
 30
0.0
 11
-536.63776905046848
 21
-999.00878819631248
 31
0.0
  0
LINE
  8
0
  6
CONTINUOUS
 62
               7
  5
50F
 10
-502.63776905046865
 20
-999.00878819631248
 30
0.0
 11
-501.63776905046865
 21
-1000.0087881963125
 31
0.0
  0
LINE
  8
0
  6
CONTINUOUS
 62
               7
  5
510
 10
-501.63776905046876
 20
-1074.0087881963125
 30
0.0
 11
-502.63776905046876
 21
-1075.0087881963125
 31
0.0
  0
LINE
  8
0
  6
CONTINUOUS
 62
               7
  5
511
 10
-349.58372644623529
 20
-878.54090412727783
 30
0.0
 11
-438.57849032556084
 21
-878.5409041272776
 31
0.0
  0
LINE
  8
0
  6
CONTINUOUS
 62
               7
  5
512
 10
-349.58372644623529
 20
-877.94090412727769
 30
0.0
 11
-349.58372644623529
 21
-878.54090412727783
 31
0.0
  0
LINE
  8
0
  6
CONTINUOUS
 62
               7
  5
513
 10
-431.08372644623529
 20
-913.5409041272776
 30
0.0
 11
-357.08372644623529
 21
-913.54090412727783
 31
0.0
  0
LINE
  8
0
  6
CONTINUOUS
 62
               7
  5
514
 10
-437.58372644623518
 20
-820.5409041272776
 30
0.0
 11
-350.58372644623529
 21
-820.54090412727783
 31
0.0
  0
LINE
  8
0
  6
CONTINUOUS
 62
               7
  5
515
 10
-349.58372644623529
 20
-878.54090412727783
 30
0.0
 11
-349.58372644623529
 21
-821.54090412727783
 31
0.0
  0
LINE
  8
0
  6
CONTINUOUS
 62
               7
  5
516
 10
-432.08372644623529
 20
-912.5409041272776
 30
0.0
 11
-432.08372644623529
 21
-878.5409041272776
 31
0.0
  0
LINE
  8
0
  6
CONTINUOUS
 62
               7
  5
517
 10
-349.58372644623529
 20
-821.54090412727783
 30
0.0
 11
-350.58372644623529
 21
-820.54090412727783
 31
0.0
  0
LINE
  8
0
  6
CONTINUOUS
 62
               7
  5
518
 10
-437.58372644623518
 20
-820.5409041272776
 30
0.0
 11
-438.58372644623518
 21
-821.5409041272776
 31
0.0
  0
LINE
  8
0
  6
CONTINUOUS
 62
               7
  5
519
 10
-356.08372644623529
 20
-912.54090412727783
 30
0.0
 11
-356.08372644623529
 21
-878.5409041272776
 31
0.0
  0
LINE
  8
0
  6
CONTINUOUS
 62
               7
  5
51A
 10
-356.08372644623529
 20
-912.54090412727783
 30
0.0
 11
-357.08372644623529
 21
-913.54090412727783
 31
0.0
  0
LINE
  8
0
  6
CONTINUOUS
 62
               7
  5
51B
 10
-431.08372644623529
 20
-913.5409041272776
 30
0.0
 11
-432.08372644623529
 21
-912.5409041272776
 31
0.0
  0
LINE
  8
0
  6
CONTINUOUS
 62
               7
  5
51C
 10
-438.58372644623529
 20
-878.5409041272776
 30
0.0
 11
-438.58372644623529
 21
-821.5409041272776
 31
0.0
  0
LINE
  8
0
  6
CONTINUOUS
 62
               7
  5
51D
 10
216.63392368588092
 20
-1074.0087881963127
 30
0.0
 11
216.63392368588092
 21
-1016.0087881963127
 31
0.0
  0
LINE
  8
0
  6
CONTINUOUS
 62
               7
  5
51E
 10
242.23392368588082
 20
-986.00878819631271
 30
0.0
 11
242.23392368588082
 21
-1075.0087881963127
 31
0.0
  0
LINE
  8
0
  6
CONTINUOUS
 62
               7
  5
51F
 10
242.83392368588096
 20
-986.00878819631271
 30
0.0
 11
242.23392368588082
 21
-986.00878819631271
 31
0.0
  0
LINE
  8
0
  6
CONTINUOUS
 62
               7
  5
520
 10
300.23392368588105
 20
-1074.0087881963127
 30
0.0
 11
300.23392368588105
 21
-987.00878819631271
 31
0.0
  0
CIRCLE
  8
0
  6
CONTINUOUS
 62
               7
  5
521
 10
120.87790746063793
 20
-1045.0087881963127
 30
0.0
 40
30.0
  0
CIRCLE
  8
0
  6
CONTINUOUS
 62
               7
  5
522
 10
120.87790746063793
 20
-1045.0087881963127
 30
0.0
 40
25.5
  0
CIRCLE
  8
0
  6
CONTINUOUS
 62
               7
  5
523
 10
120.87790746063793
 20
-1030.5087881963127
 30
0.0
 40
44.5
  0
LINE
  8
0
  6
CONTINUOUS
 62
               7
  5
524
 10
242.36837543136124
 20
-986.00878819631271
 30
0.0
 11
299.23392368588105
 21
-986.00878819631271
 31
0.0
  0
LINE
  8
0
  6
CONTINUOUS
 62
               7
  5
525
 10
217.63392368588092
 20
-1075.0087881963127
 30
0.0
 11
299.23392368588105
 21
-1075.0087881963127
 31
0.0
  0
LINE
  8
0
  6
CONTINUOUS
 62
               7
  5
526
 10
217.63392368588092
 20
-1015.0087881963127
 30
0.0
 11
242.23392368588082
 21
-1015.0087881963127
 31
0.0
  0
LINE
  8
0
  6
CONTINUOUS
 62
               7
  5
527
 10
217.63392368588092
 20
-1015.0087881963127
 30
0.0
 11
216.63392368588092
 21
-1016.0087881963127
 31
0.0
  0
LINE
  8
0
  6
CONTINUOUS
 62
               7
  5
528
 10
299.23392368588105
 20
-986.00878819631271
 30
0.0
 11
300.23392368588105
 21
-987.00878819631271
 31
0.0
  0
LINE
  8
0
  6
CONTINUOUS
 62
               7
  5
529
 10
216.63392368588092
 20
-1074.0087881963127
 30
0.0
 11
217.63392368588092
 21
-1075.0087881963127
 31
0.0
  0
LINE
  8
0
  6
CONTINUOUS
 62
               7
  5
52A
 10
300.23392368588105
 20
-1074.0087881963127
 30
0.0
 11
299.23392368588105
 21
-1075.0087881963127
 31
0.0
  0
LINE
  8
0
  6
CONTINUOUS
 62
               7
  5
52B
 10
25.121891235395154
 20
-1074.0087881963127
 30
0.0
 11
25.121891235395154
 21
-1016.0087881963127
 31
0.0
  0
LINE
  8
0
  6
CONTINUOUS
 62
               7
  5
52C
 10
-0.478108764604869
 20
-986.00878819631271
 30
0.0
 11
-0.478108764604869
 21
-1075.0087881963127
 31
0.0
  0
LINE
  8
0
  6
CONTINUOUS
 62
               7
  5
52D
 10
-1.0781087646048917
 20
-986.00878819631271
 30
0.0
 11
-0.478108764604869
 21
-986.00878819631271
 31
0.0
  0
LINE
  8
0
  6
CONTINUOUS
 62
               7
  5
52E
 10
-58.478108764604869
 20
-1074.0087881963127
 30
0.0
 11
-58.478108764604869
 21
-987.00878819631271
 31
0.0
  0
LINE
  8
0
  6
CONTINUOUS
 62
               7
  5
52F
 10
-0.6125605100851743
 20
-986.00878819631271
 30
0.0
 11
-57.478108764604869
 21
-986.00878819631271
 31
0.0
  0
LINE
  8
0
  6
CONTINUOUS
 62
               7
  5
530
 10
24.121891235395154
 20
-1075.0087881963127
 30
0.0
 11
-57.478108764604869
 21
-1075.0087881963127
 31
0.0
  0
LINE
  8
0
  6
CONTINUOUS
 62
               7
  5
531
 10
24.121891235395154
 20
-1015.0087881963127
 30
0.0
 11
-0.478108764604869
 21
-1015.0087881963127
 31
0.0
  0
LINE
  8
0
  6
CONTINUOUS
 62
               7
  5
532
 10
24.121891235395154
 20
-1015.0087881963127
 30
0.0
 11
25.121891235395154
 21
-1016.0087881963127
 31
0.0
  0
LINE
  8
0
  6
CONTINUOUS
 62
               7
  5
533
 10
-57.478108764604869
 20
-986.00878819631271
 30
0.0
 11
-58.478108764604869
 21
-987.00878819631271
 31
0.0
  0
LINE
  8
0
  6
CONTINUOUS
 62
               7
  5
534
 10
25.121891235395154
 20
-1074.0087881963127
 30
0.0
 11
24.121891235395154
 21
-1075.0087881963127
 31
0.0
  0
LINE
  8
0
  6
CONTINUOUS
 62
               7
  5
535
 10
-58.478108764604869
 20
-1074.0087881963127
 30
0.0
 11
-57.478108764604869
 21
-1075.0087881963127
 31
0.0
  0
LINE
  8
0
  6
CONTINUOUS
 62
               7
  5
536
 10
91.877907460638156
 20
-924.25277197106993
 30
0.0
 11
149.87790746063814
 21
-924.25277197106993
 31
0.0
  0
LINE
  8
0
  6
CONTINUOUS
 62
               7
  5
537
 10
165.37790746063814
 20
-898.6527719710698
 30
0.0
 11
76.377907460638156
 21
-898.6527719710698
 31
0.0
  0
LINE
  8
0
  6
CONTINUOUS
 62
               7
  5
538
 10
165.37790746063814
 20
-898.05277197106989
 30
0.0
 11
165.37790746063814
 21
-898.6527719710698
 31
0.0
  0
LINE
  8
0
  6
CONTINUOUS
 62
               7
  5
539
 10
77.377907460638156
 20
-840.6527719710698
 30
0.0
 11
164.37790746063814
 21
-840.6527719710698
 31
0.0
  0
LINE
  8
0
  6
CONTINUOUS
 62
               7
  5
53A
 10
165.37790746063814
 20
-898.5183202255896
 30
0.0
 11
165.37790746063814
 21
-841.6527719710698
 31
0.0
  0
LINE
  8
0
  6
CONTINUOUS
 62
               7
  5
53B
 10
90.877907460638156
 20
-923.25277197106993
 30
0.0
 11
90.877907460638156
 21
-898.6527719710698
 31
0.0
  0
LINE
  8
0
  6
CONTINUOUS
 62
               7
  5
53C
 10
150.87790746063814
 20
-923.25277197106993
 30
0.0
 11
150.87790746063814
 21
-898.6527719710698
 31
0.0
  0
LINE
  8
0
  6
CONTINUOUS
 62
               7
  5
53D
 10
150.87790746063814
 20
-923.25277197106993
 30
0.0
 11
149.87790746063814
 21
-924.25277197106993
 31
0.0
  0
LINE
  8
0
  6
CONTINUOUS
 62
               7
  5
53E
 10
165.37790746063814
 20
-841.6527719710698
 30
0.0
 11
164.37790746063814
 21
-840.6527719710698
 31
0.0
  0
LINE
  8
0
  6
CONTINUOUS
 62
               7
  5
53F
 10
91.877907460638156
 20
-924.25277197106993
 30
0.0
 11
90.877907460638156
 21
-923.25277197106993
 31
0.0
  0
LINE
  8
0
  6
CONTINUOUS
 62
               7
  5
540
 10
77.377907460638156
 20
-840.6527719710698
 30
0.0
 11
76.377907460638156
 21
-841.6527719710698
 31
0.0
  0
LINE
  8
0
  6
CONTINUOUS
 62
               7
  5
541
 10
76.377907460638156
 20
-898.51832022558938
 30
0.0
 11
76.377907460638156
 21
-841.6527719710698
 31
0.0
  0
CIRCLE
  8
0
  6
CONTINUOUS
 62
               7
  5
542
 10
609.28652321630784
 20
-1461.823786373106
 30
0.0
 40
25.5
  0
CIRCLE
  8
0
  6
CONTINUOUS
 62
               7
  5
543
 10
609.28652321630784
 20
-1447.323786373106
 30
0.0
 40
44.5
  0
CIRCLE
  8
0
  6
CONTINUOUS
 62
               7
  5
544
 10
609.28652321630784
 20
-1461.823786373106
 30
0.0
 40
30.0
  0
LINE
  8
0
  6
CONTINUOUS
 62
               7
  5
545
 10
580.28652321630784
 20
-1143.4243526245216
 30
0.0
 11
638.28652321630784
 21
-1143.4243526245216
 31
0.0
  0
LINE
  8
0
  6
CONTINUOUS
 62
               7
  5
546
 10
653.78652321630784
 20
-1117.8243526245217
 30
0.0
 11
564.78652321630784
 21
-1117.8243526245217
 31
0.0
  0
LINE
  8
0
  6
CONTINUOUS
 62
               7
  5
547
 10
653.78652321630784
 20
-1117.2243526245218
 30
0.0
 11
653.78652321630784
 21
-1117.8243526245217
 31
0.0
  0
LINE
  8
0
  6
CONTINUOUS
 62
               7
  5
548
 10
565.78652321630784
 20
-1059.8243526245215
 30
0.0
 11
652.78652321630784
 21
-1059.8243526245215
 31
0.0
  0
LINE
  8
0
  6
CONTINUOUS
 62
               7
  5
549
 10
653.78652321630784
 20
-1117.6899008790413
 30
0.0
 11
653.78652321630784
 21
-1060.8243526245215
 31
0.0
  0
LINE
  8
0
  6
CONTINUOUS
 62
               7
  5
54A
 10
579.28652321630784
 20
-1142.4243526245216
 30
0.0
 11
579.28652321630784
 21
-1117.8243526245217
 31
0.0
  0
LINE
  8
0
  6
CONTINUOUS
 62
               7
  5
54B
 10
639.28652321630784
 20
-1142.4243526245216
 30
0.0
 11
639.28652321630784
 21
-1117.8243526245217
 31
0.0
  0
LINE
  8
0
  6
CONTINUOUS
 62
               7
  5
54C
 10
639.28652321630784
 20
-1142.4243526245216
 30
0.0
 11
638.28652321630784
 21
-1143.4243526245216
 31
0.0
  0
LINE
  8
0
  6
CONTINUOUS
 62
               7
  5
54D
 10
653.78652321630784
 20
-1060.8243526245215
 30
0.0
 11
652.78652321630784
 21
-1059.8243526245215
 31
0.0
  0
LINE
  8
0
  6
CONTINUOUS
 62
               7
  5
54E
 10
580.28652321630784
 20
-1143.4243526245216
 30
0.0
 11
579.28652321630784
 21
-1142.4243526245216
 31
0.0
  0
LINE
  8
0
  6
CONTINUOUS
 62
               7
  5
54F
 10
565.78652321630784
 20
-1059.8243526245215
 30
0.0
 11
564.78652321630784
 21
-1060.8243526245215
 31
0.0
  0
LINE
  8
0
  6
CONTINUOUS
 62
               7
  5
550
 10
564.78652321630784
 20
-1117.6899008790413
 30
0.0
 11
564.78652321630784
 21
-1060.8243526245215
 31
0.0
  0
LINE
  8
0
  6
CONTINUOUS
 62
               7
  5
551
 10
464.28652321630778
 20
-1402.823786373106
 30
0.0
 11
464.28652321630778
 21
-1491.8185502524316
 31
0.0
  0
LINE
  8
0
  6
CONTINUOUS
 62
               7
  5
552
 10
464.88652321630781
 20
-1402.823786373106
 30
0.0
 11
464.28652321630778
 21
-1402.823786373106
 31
0.0
  0
LINE
  8
0
  6
CONTINUOUS
 62
               7
  5
553
 10
429.28652321630778
 20
-1490.823786373106
 30
0.0
 11
429.28652321630778
 21
-1416.823786373106
 31
0.0
  0
LINE
  8
0
  6
CONTINUOUS
 62
               7
  5
554
 10
522.28652321630784
 20
-1490.823786373106
 30
0.0
 11
522.28652321630784
 21
-1403.823786373106
 31
0.0
  0
LINE
  8
0
  6
CONTINUOUS
 62
               7
  5
555
 10
464.28652321630778
 20
-1402.823786373106
 30
0.0
 11
521.28652321630784
 21
-1402.823786373106
 31
0.0
  0
LINE
  8
0
  6
CONTINUOUS
 62
               7
  5
556
 10
430.28652321630778
 20
-1491.823786373106
 30
0.0
 11
521.28652321630784
 21
-1491.823786373106
 31
0.0
  0
LINE
  8
0
  6
CONTINUOUS
 62
               7
  5
557
 10
521.28652321630784
 20
-1402.823786373106
 30
0.0
 11
522.28652321630784
 21
-1403.823786373106
 31
0.0
  0
LINE
  8
0
  6
CONTINUOUS
 62
               7
  5
558
 10
522.28652321630784
 20
-1490.823786373106
 30
0.0
 11
521.28652321630784
 21
-1491.823786373106
 31
0.0
  0
LINE
  8
0
  6
CONTINUOUS
 62
               7
  5
559
 10
430.28652321630778
 20
-1415.823786373106
 30
0.0
 11
464.28652321630778
 21
-1415.823786373106
 31
0.0
  0
LINE
  8
0
  6
CONTINUOUS
 62
               7
  5
55A
 10
430.28652321630778
 20
-1415.823786373106
 30
0.0
 11
429.28652321630778
 21
-1416.823786373106
 31
0.0
  0
LINE
  8
0
  6
CONTINUOUS
 62
               7
  5
55B
 10
429.28652321630778
 20
-1490.823786373106
 30
0.0
 11
430.28652321630778
 21
-1491.823786373106
 31
0.0
  0
LINE
  8
0
  6
CONTINUOUS
 62
               7
  5
55C
 10
464.28652321630778
 20
-1017.3243526245215
 30
0.0
 11
464.28652321630801
 21
-928.32958874519591
 31
0.0
  0
LINE
  8
0
  6
CONTINUOUS
 62
               7
  5
55D
 10
464.88652321630792
 20
-1017.3243526245215
 30
0.0
 11
464.28652321630778
 21
-1017.3243526245215
 31
0.0
  0
LINE
  8
0
  6
CONTINUOUS
 62
               7
  5
55E
 10
429.28652321630801
 20
-935.82435262452145
 30
0.0
 11
429.28652321630778
 21
-1009.8243526245215
 31
0.0
  0
LINE
  8
0
  6
CONTINUOUS
 62
               7
  5
55F
 10
522.28652321630807
 20
-929.32435262452168
 30
0.0
 11
522.28652321630784
 21
-1016.3243526245215
 31
0.0
  0
LINE
  8
0
  6
CONTINUOUS
 62
               7
  5
560
 10
464.28652321630778
 20
-1017.3243526245215
 30
0.0
 11
521.28652321630784
 21
-1017.3243526245215
 31
0.0
  0
LINE
  8
0
  6
CONTINUOUS
 62
               7
  5
561
 10
430.28652321630801
 20
-934.82435262452145
 30
0.0
 11
464.28652321630801
 21
-934.82435262452145
 31
0.0
  0
LINE
  8
0
  6
CONTINUOUS
 62
               7
  5
562
 10
521.28652321630784
 20
-1017.3243526245215
 30
0.0
 11
522.28652321630784
 21
-1016.3243526245215
 31
0.0
  0
LINE
  8
0
  6
CONTINUOUS
 62
               7
  5
563
 10
522.28652321630807
 20
-929.32435262452168
 30
0.0
 11
521.28652321630807
 21
-928.32435262452168
 31
0.0
  0
LINE
  8
0
  6
CONTINUOUS
 62
               7
  5
564
 10
430.28652321630778
 20
-1010.8243526245215
 30
0.0
 11
464.28652321630801
 21
-1010.8243526245215
 31
0.0
  0
LINE
  8
0
  6
CONTINUOUS
 62
               7
  5
565
 10
430.28652321630778
 20
-1010.8243526245215
 30
0.0
 11
429.28652321630778
 21
-1009.8243526245215
 31
0.0
  0
LINE
  8
0
  6
CONTINUOUS
 62
               7
  5
566
 10
429.28652321630801
 20
-935.82435262452145
 30
0.0
 11
430.28652321630801
 21
-934.82435262452145
 31
0.0
  0
LINE
  8
0
  6
CONTINUOUS
 62
               7
  5
567
 10
464.28652321630801
 20
-928.32435262452145
 30
0.0
 11
521.28652321630807
 21
-928.32435262452145
 31
0.0
  0
CIRCLE
  8
0
  6
DASHED
 62
               7
  5
568
 10
-392.13776905046876
 20
-1030.5087881963127
 30
0.0
 40
40.0
  0
CIRCLE
  8
0
  6
DASHED
 62
               7
  5
569
 10
120.87790746063793
 20
-1030.5087881963127
 30
0.0
 40
40.0
  0
CIRCLE
  8
0
  6
DASHED
 62
               7
  5
56A
 10
609.28652321630784
 20
-1447.323786373106
 30
0.0
 40
40.0
  0
TEXT
  8
0
 62
               3
  5
56B
 10
-392.13776905046876
 20
-1115.0087881963125
 30
0.0
 40
40.0
  1
EMB_80×65
 41
0.8
 72
               1
 11
-392.13776905046876
 21
-1115.0087881963125
 31
0.0
 73
               3
  0
TEXT
  8
0
 62
               3
  5
56C
 10
120.87790746063793
 20
-1115.0087881963127
 30
0.0
 40
40.0
  1
EMB_80×50
 41
0.8
 72
               1
 11
120.87790746063793
 21
-1115.0087881963127
 31
0.0
 73
               3
  0
TEXT
  8
0
 62
               3
  5
56D
 10
605.58911923866754
 20
-793.37798411930237
 30
0.0
 40
40.0
  1
EMB使用例
 41
0.8
 72
               1
 11
605.58911923866754
 21
-793.37798411930237
 31
0.0
 73
               3
  0
TEXT
  8
0
 62
               3
  5
56E
 10
-123.74270409089092
 20
-739.01784821896285
 30
0.0
 40
35.0
  1
横枝管に呼び６５、５０の管を接続するときは、EMBをご使用ください。
 41
0.8
 72
               1
 11
-123.74270409089092
 21
-739.01784821896285
 31
0.0
 73
               3
  0
ENDSEC
  0
EOF
