  0
SECTION
  2
HEADER
  9
$ACADVER
  1
AC1009
  9
$INSBASE
 10
0.0
 20
0.0
 30
0.0
  9
$EXTMIN
 10
-843.29799736827727
 20
-1213.5363248763133
 30
0.0
  9
$EXTMAX
 10
619.23998677668328
 20
1229.9866272119207
 30
0.0
  9
$LIMMIN
 10
-889.0023093728073
 20
-1289.8964171290706
  9
$LIMMAX
 10
664.94429878121332
 20
1306.346719464678
  9
$ORTHOMODE
 70
               0
  9
$REGENMODE
 70
               1
  9
$FILLMODE
 70
               1
  9
$QTEXTMODE
 70
               0
  9
$MIRRTEXT
 70
               1
  9
$DRAGMODE
 70
               2
  9
$LTSCALE
 40
1.0
  9
$OSMODE
 70
               0
  9
$ATTMODE
 70
               1
  9
$TEXTSIZE
 40
0.2
  9
$TRACEWID
 40
0.05
  9
$TEXTSTYLE
  7
STANDARD
  9
$CLAYER
  8
0
  9
$CELTYPE
  6
CONTINUOUS
  9
$CECOLOR
 62
             256
  9
$DIMSCALE
 40
1.0
  9
$DIMASZ
 40
0.18
  9
$DIMEXO
 40
0.0625
  9
$DIMDLI
 40
0.38
  9
$DIMRND
 40
0.0
  9
$DIMDLE
 40
0.0
  9
$DIMEXE
 40
0.18
  9
$DIMTP
 40
0.0
  9
$DIMTM
 40
0.0
  9
$DIMTXT
 40
0.18
  9
$DIMCEN
 40
0.09
  9
$DIMTSZ
 40
0.0
  9
$DIMTOL
 70
               0
  9
$DIMLIM
 70
               0
  9
$DIMTIH
 70
               1
  9
$DIMTOH
 70
               1
  9
$DIMSE1
 70
               0
  9
$DIMSE2
 70
               0
  9
$DIMTAD
 70
               0
  9
$DIMZIN
 70
               0
  9
$DIMBLK
  1

  9
$DIMASO
 70
               1
  9
$DIMSHO
 70
               1
  9
$DIMPOST
  1

  9
$DIMAPOST
  1

  9
$DIMALT
 70
               0
  9
$DIMALTD
 70
               2
  9
$DIMALTF
 40
25.399999999999999
  9
$DIMLFAC
 40
1.0
  9
$DIMTOFL
 70
               0
  9
$DIMTVP
 40
0.0
  9
$DIMTIX
 70
               0
  9
$DIMSOXD
 70
               0
  9
$DIMSAH
 70
               0
  9
$DIMBLK1
  1

  9
$DIMBLK2
  1

  9
$DIMSTYLE
  2
STANDARD
  9
$DIMCLRD
 70
               0
  9
$DIMCLRE
 70
               0
  9
$DIMCLRT
 70
               0
  9
$DIMTFAC
 40
1.0
  9
$DIMGAP
 40
0.09
  9
$LUNITS
 70
               2
  9
$LUPREC
 70
               4
  9
$AXISMODE
 70
               0
  9
$AXISUNIT
 10
0.0
 20
0.0
  9
$SKETCHINC
 40
0.1
  9
$FILLETRAD
 40
0.0
  9
$AUNITS
 70
               0
  9
$AUPREC
 70
               0
  9
$MENU
  1
acad
  9
$ELEVATION
 40
0.0
  9
$PELEVATION
 40
0.0
  9
$THICKNESS
 40
0.0
  9
$LIMCHECK
 70
               0
  9
$BLIPMODE
 70
               1
  9
$CHAMFERA
 40
0.0
  9
$CHAMFERB
 40
0.0
  9
$SKPOLY
 70
               0
  9
$TDCREATE
 40
0.000000000
  9
$TDUPDATE
 40
0.000000000
  9
$TDINDWG
 40
0.0000000000
  9
$TDUSRTIMER
 40
0.0000000000
  9
$USRTIMER
 70
               1
  9
$ANGBASE
 50
0.0
  9
$ANGDIR
 70
               0
  9
$PDMODE
 70
               0
  9
$PDSIZE
 40
1.0
  9
$PLINEWID
 40
0.0
  9
$COORDS
 70
               1
  9
$SPLFRAME
 70
               0
  9
$SPLINETYPE
 70
               6
  9
$SPLINESEGS
 70
               8
  9
$ATTDIA
 70
               0
  9
$ATTREQ
 70
               1
  9
$HANDLING
 70
               1
  9
$HANDSEED
  5
598
  9
$SURFTAB1
 70
               6
  9
$SURFTAB2
 70
               6
  9
$SURFTYPE
 70
               6
  9
$SURFU
 70
               6
  9
$SURFV
 70
               6
  9
$UCSNAME
  2

  9
$UCSORG
 10
0.0
 20
0.0
 30
0.0
  9
$UCSXDIR
 10
1.0
 20
0.0
 30
0.0
  9
$UCSYDIR
 10
0.0
 20
1.0
 30
0.0
  9
$PUCSNAME
  2

  9
$PUCSORG
 10
0.0
 20
0.0
 30
0.0
  9
$PUCSXDIR
 10
1.0
 20
0.0
 30
0.0
  9
$PUCSYDIR
 10
0.0
 20
1.0
 30
0.0
  9
$USERI1
 70
               0
  9
$USERI2
 70
               0
  9
$USERI3
 70
               0
  9
$USERI4
 70
               0
  9
$USERI5
 70
               0
  9
$USERR1
 40
0.0
  9
$USERR2
 40
0.0
  9
$USERR3
 40
0.0
  9
$USERR4
 40
0.0
  9
$USERR5
 40
0.0
  9
$WORLDVIEW
 70
               1
  9
$SHADEDGE
 70
               3
  9
$SHADEDIF
 70
              70
  9
$TILEMODE
 70
               1
  9
$MAXACTVP
 70
              16
  9
$PINSBASE
 10
0.0
 20
0.0
 30
0.0
  9
$PLIMCHECK
 70
               0
  9
$PEXTMIN
 10
1.0000000000000000E+20
 20
1.0000000000000000E+20
 30
1.0000000000000000E+20
  9
$PEXTMAX
 10
-1.0000000000000000E+20
 20
-1.0000000000000000E+20
 30
-1.0000000000000000E+20
  9
$PLIMMIN
 10
0.0
 20
0.0
  9
$PLIMMAX
 10
12.0
 20
9.0
  9
$UNITMODE
 70
               0
  9
$VISRETAIN
 70
               0
  9
$PLINEGEN
 70
               1
  9
$PSLTSCALE
 70
               0
  9
$TREEDEPTH
 70
            3020
  9
$DWGCODEPAGE
  3
dos932
  0
ENDSEC
  0
SECTION
  2
TABLES
  0
TABLE
  2
VPORT
 70
               1
  0
VPORT
  2
*ACTIVE
 70
               0
 10
0.0
 20
0.0
 11
1.0
 21
1.0
 12
-112.02900529579699
 22
8.2251511678036877
 13
0.0
 23
0.0
 14
1.0
 24
1.0
 15
0.0
 25
0.0
 16
0.0
 26
0.0
 36
1.0
 17
0.0
 27
0.0
 37
0.0
 40
2596.2431365937487
 41
0.5985366263472484
 42
50.0
 43
0.0
 44
0.0
 50
0.0
 51
0.0
 71
               0
 72
             100
 73
               1
 74
               1
 75
               0
 76
               0
 77
               0
 78
               0
  0
ENDTAB
  0
TABLE
  2
LTYPE
 70
              26
  0
LTYPE
  2
CONTINUOUS
 70
               0
  3
Solid line
 72
              65
 73
               0
 40
0.0
  0
LTYPE
  2
HIDDENX2
 70
               0
  3
CADPAC FUSION LINETYPE
 72
              65
 73
               2
 40
47.560000000000002
 49
35.670000000000002
 49
-11.890000000000001
  0
LTYPE
  2
HIDDEN
 70
               0
  3
CADPAC FUSION LINETYPE
 72
              65
 73
               2
 40
35.670000000000002
 49
23.780000000000001
 49
-11.890000000000001
  0
LTYPE
  2
HIDDEN2
 70
               0
  3
CADPAC FUSION LINETYPE
 72
              65
 73
               2
 40
29.725000000000001
 49
17.835000000000001
 49
-11.890000000000001
  0
LTYPE
  2
DASHED
 70
               0
  3
CADPAC FUSION LINETYPE
 72
              65
 73
               2
 40
35.670000000000002
 49
23.780000000000001
 49
-11.890000000000001
  0
LTYPE
  2
DASHED2
 70
               0
  3
CADPAC FUSION LINETYPE
 72
              65
 73
               2
 40
26.752500000000001
 49
17.835000000000001
 49
-8.9175000000000004
  0
LTYPE
  2
DASHEDX2
 70
               0
  3
CADPAC FUSION LINETYPE
 72
              65
 73
               2
 40
53.505000000000003
 49
35.670000000000002
 49
-17.835000000000001
  0
LTYPE
  2
DOTX2
 70
               0
  3
CADPAC FUSION LINETYPE
 72
              65
 73
               2
 40
14.862500000000001
 49
0.0
 49
-14.862500000000001
  0
LTYPE
  2
DOT
 70
               0
  3
CADPAC FUSION LINETYPE
 72
              65
 73
               2
 40
11.890000000000001
 49
0.0
 49
-11.890000000000001
  0
LTYPE
  2
DOTS
 70
               0
  3
CADPAC FUSION LINETYPE
 72
              65
 73
               2
 40
11.890000000000001
 49
0.0
 49
-11.890000000000001
  0
LTYPE
  2
DOT2
 70
               0
  3
CADPAC FUSION LINETYPE
 72
              65
 73
               2
 40
8.9175000000000004
 49
0.0
 49
-8.9175000000000004
  0
LTYPE
  2
CENTERX2
 70
               0
  3
CADPAC FUSION LINETYPE
 72
              65
 73
               4
 40
71.340000000000003
 49
29.725000000000001
 49
-14.862500000000001
 49
11.890000000000001
 49
-14.862500000000001
  0
LTYPE
  2
CENTER
 70
               0
  3
CADPAC FUSION LINETYPE
 72
              65
 73
               4
 40
54.694000000000003
 49
23.780000000000001
 49
-11.890000000000001
 49
7.1340000000000003
 49
-11.890000000000001
  0
LTYPE
  2
CENTER2
 70
               0
  3
CADPAC FUSION LINETYPE
 72
              65
 73
               4
 40
38.048000000000002
 49
17.835000000000001
 49
-8.9175000000000004
 49
2.3780000000000001
 49
-8.9175000000000004
  0
LTYPE
  2
DASHDOTX2
 70
               0
  3
CADPAC FUSION LINETYPE
 72
              65
 73
               4
 40
59.450000000000003
 49
29.725000000000001
 49
-14.862500000000001
 49
0.0
 49
-14.862500000000001
  0
LTYPE
  2
DASHDOT
 70
               0
  3
CADPAC FUSION LINETYPE
 72
              65
 73
               4
 40
47.560000000000002
 49
23.780000000000001
 49
-11.890000000000001
 49
0.0
 49
-11.890000000000001
  0
LTYPE
  2
DASHDOT2
 70
               0
  3
CADPAC FUSION LINETYPE
 72
              65
 73
               4
 40
35.670000000000002
 49
17.835000000000001
 49
-8.9175000000000004
 49
0.0
 49
-8.9175000000000004
  0
LTYPE
  2
DIVIDEX2
 70
               0
  3
CADPAC FUSION LINETYPE
 72
              65
 73
               6
 40
74.3125
 49
29.725000000000001
 49
-14.862500000000001
 49
0.0
 49
-14.862500000000001
 49
0.0
 49
-14.862500000000001
  0
LTYPE
  2
DIVIDE
 70
               0
  3
CADPAC FUSION LINETYPE
 72
              65
 73
               6
 40
59.450000000000003
 49
23.780000000000001
 49
-11.890000000000001
 49
0.0
 49
-11.890000000000001
 49
0.0
 49
-11.890000000000001
  0
LTYPE
  2
DIVIDE2
 70
               0
  3
CADPAC FUSION LINETYPE
 72
              65
 73
               6
 40
44.587500000000006
 49
17.835000000000001
 49
-8.9175000000000004
 49
0.0
 49
-8.9175000000000004
 49
0.0
 49
-8.9175000000000004
  0
LTYPE
  2
BORDERX2
 70
               0
  3
CADPAC FUSION LINETYPE
 72
              65
 73
               6
 40
104.03750000000001
 49
29.725000000000001
 49
-14.862500000000001
 49
29.725000000000001
 49
-14.862500000000001
 49
0.0
 49
-14.862500000000001
  0
LTYPE
  2
BORDER
 70
               0
  3
CADPAC FUSION LINETYPE
 72
              65
 73
               6
 40
83.230000000000004
 49
23.780000000000001
 49
-11.890000000000001
 49
23.780000000000001
 49
-11.890000000000001
 49
0.0
 49
-11.890000000000001
  0
LTYPE
  2
BORDER2
 70
               0
  3
CADPAC FUSION LINETYPE
 72
              65
 73
               6
 40
62.422499999999999
 49
17.835000000000001
 49
-8.9175000000000004
 49
17.835000000000001
 49
-8.9175000000000004
 49
0.0
 49
-8.9175000000000004
  0
LTYPE
  2
PHANTOMX2
 70
               0
  3
CADPAC FUSION LINETYPE
 72
              65
 73
               6
 40
89.175000000000011
 49
29.725000000000001
 49
-11.890000000000001
 49
11.890000000000001
 49
-11.890000000000001
 49
11.890000000000001
 49
-11.890000000000001
  0
LTYPE
  2
PHANTOM
 70
               0
  3
CADPAC FUSION LINETYPE
 72
              65
 73
               6
 40
73.718000000000004
 49
23.780000000000001
 49
-11.890000000000001
 49
7.1340000000000003
 49
-11.890000000000001
 49
7.1340000000000003
 49
-11.890000000000001
  0
LTYPE
  2
PHANTOM2
 70
               0
  3
CADPAC FUSION LINETYPE
 72
              65
 73
               6
 40
63.017000000000003
 49
17.835000000000001
 49
-11.890000000000001
 49
4.7560000000000002
 49
-11.890000000000001
 49
4.7560000000000002
 49
-11.890000000000001
  0
ENDTAB
  0
TABLE
  2
LAYER
 70
             256
  0
LAYER
  2
0
 70
               0
 62
               7
  6
CONTINUOUS
  0
LAYER
  2
LAYER001
 70
               0
 62
               7
  6
CONTINUOUS
  0
LAYER
  2
LAYER002
 70
               0
 62
               7
  6
CONTINUOUS
  0
LAYER
  2
LAYER003
 70
               0
 62
               7
  6
CONTINUOUS
  0
LAYER
  2
LAYER004
 70
               0
 62
               7
  6
CONTINUOUS
  0
LAYER
  2
LAYER005
 70
               0
 62
               7
  6
CONTINUOUS
  0
LAYER
  2
LAYER006
 70
               0
 62
               7
  6
CONTINUOUS
  0
LAYER
  2
LAYER007
 70
               0
 62
               7
  6
CONTINUOUS
  0
LAYER
  2
LAYER008
 70
               0
 62
               7
  6
CONTINUOUS
  0
LAYER
  2
LAYER009
 70
               0
 62
               7
  6
CONTINUOUS
  0
LAYER
  2
LAYER010
 70
               0
 62
               7
  6
CONTINUOUS
  0
LAYER
  2
LAYER011
 70
               0
 62
               7
  6
CONTINUOUS
  0
LAYER
  2
LAYER012
 70
               0
 62
               7
  6
CONTINUOUS
  0
LAYER
  2
LAYER013
 70
               0
 62
               7
  6
CONTINUOUS
  0
LAYER
  2
LAYER014
 70
               0
 62
               7
  6
CONTINUOUS
  0
LAYER
  2
LAYER015
 70
               0
 62
               7
  6
CONTINUOUS
  0
LAYER
  2
LAYER016
 70
               0
 62
               7
  6
CONTINUOUS
  0
LAYER
  2
LAYER017
 70
               0
 62
               7
  6
CONTINUOUS
  0
LAYER
  2
LAYER018
 70
               0
 62
               7
  6
CONTINUOUS
  0
LAYER
  2
LAYER019
 70
               0
 62
               7
  6
CONTINUOUS
  0
LAYER
  2
LAYER020
 70
               0
 62
               7
  6
CONTINUOUS
  0
LAYER
  2
LAYER021
 70
               0
 62
               7
  6
CONTINUOUS
  0
LAYER
  2
LAYER022
 70
               0
 62
               7
  6
CONTINUOUS
  0
LAYER
  2
LAYER023
 70
               0
 62
               7
  6
CONTINUOUS
  0
LAYER
  2
LAYER024
 70
               0
 62
               7
  6
CONTINUOUS
  0
LAYER
  2
LAYER025
 70
               0
 62
               7
  6
CONTINUOUS
  0
LAYER
  2
LAYER026
 70
               0
 62
               7
  6
CONTINUOUS
  0
LAYER
  2
LAYER027
 70
               0
 62
               7
  6
CONTINUOUS
  0
LAYER
  2
LAYER028
 70
               0
 62
               7
  6
CONTINUOUS
  0
LAYER
  2
LAYER029
 70
               0
 62
               7
  6
CONTINUOUS
  0
LAYER
  2
LAYER030
 70
               0
 62
               7
  6
CONTINUOUS
  0
LAYER
  2
LAYER031
 70
               0
 62
               7
  6
CONTINUOUS
  0
LAYER
  2
LAYER032
 70
               0
 62
               7
  6
CONTINUOUS
  0
LAYER
  2
LAYER033
 70
               0
 62
               7
  6
CONTINUOUS
  0
LAYER
  2
LAYER034
 70
               0
 62
               7
  6
CONTINUOUS
  0
LAYER
  2
LAYER035
 70
               0
 62
               7
  6
CONTINUOUS
  0
LAYER
  2
LAYER036
 70
               0
 62
               7
  6
CONTINUOUS
  0
LAYER
  2
LAYER037
 70
               0
 62
               7
  6
CONTINUOUS
  0
LAYER
  2
LAYER038
 70
               0
 62
               7
  6
CONTINUOUS
  0
LAYER
  2
LAYER039
 70
               0
 62
               7
  6
CONTINUOUS
  0
LAYER
  2
LAYER040
 70
               0
 62
               7
  6
CONTINUOUS
  0
LAYER
  2
LAYER041
 70
               0
 62
               7
  6
CONTINUOUS
  0
LAYER
  2
LAYER042
 70
               0
 62
               7
  6
CONTINUOUS
  0
LAYER
  2
LAYER043
 70
               0
 62
               7
  6
CONTINUOUS
  0
LAYER
  2
LAYER044
 70
               0
 62
               7
  6
CONTINUOUS
  0
LAYER
  2
LAYER045
 70
               0
 62
               7
  6
CONTINUOUS
  0
LAYER
  2
LAYER046
 70
               0
 62
               7
  6
CONTINUOUS
  0
LAYER
  2
LAYER047
 70
               0
 62
               7
  6
CONTINUOUS
  0
LAYER
  2
LAYER048
 70
               0
 62
               7
  6
CONTINUOUS
  0
LAYER
  2
LAYER049
 70
               0
 62
               7
  6
CONTINUOUS
  0
LAYER
  2
LAYER050
 70
               0
 62
               7
  6
CONTINUOUS
  0
LAYER
  2
LAYER051
 70
               0
 62
               7
  6
CONTINUOUS
  0
LAYER
  2
LAYER052
 70
               0
 62
               7
  6
CONTINUOUS
  0
LAYER
  2
LAYER053
 70
               0
 62
               7
  6
CONTINUOUS
  0
LAYER
  2
LAYER054
 70
               0
 62
               7
  6
CONTINUOUS
  0
LAYER
  2
LAYER055
 70
               0
 62
               7
  6
CONTINUOUS
  0
LAYER
  2
LAYER056
 70
               0
 62
               7
  6
CONTINUOUS
  0
LAYER
  2
LAYER057
 70
               0
 62
               7
  6
CONTINUOUS
  0
LAYER
  2
LAYER058
 70
               0
 62
               7
  6
CONTINUOUS
  0
LAYER
  2
LAYER059
 70
               0
 62
               7
  6
CONTINUOUS
  0
LAYER
  2
LAYER060
 70
               0
 62
               7
  6
CONTINUOUS
  0
LAYER
  2
LAYER061
 70
               0
 62
               7
  6
CONTINUOUS
  0
LAYER
  2
LAYER062
 70
               0
 62
               7
  6
CONTINUOUS
  0
LAYER
  2
LAYER063
 70
               0
 62
               7
  6
CONTINUOUS
  0
LAYER
  2
LAYER064
 70
               0
 62
               7
  6
CONTINUOUS
  0
LAYER
  2
LAYER065
 70
               0
 62
               7
  6
CONTINUOUS
  0
LAYER
  2
LAYER066
 70
               0
 62
               7
  6
CONTINUOUS
  0
LAYER
  2
LAYER067
 70
               0
 62
               7
  6
CONTINUOUS
  0
LAYER
  2
LAYER068
 70
               0
 62
               7
  6
CONTINUOUS
  0
LAYER
  2
LAYER069
 70
               0
 62
               7
  6
CONTINUOUS
  0
LAYER
  2
LAYER070
 70
               0
 62
               7
  6
CONTINUOUS
  0
LAYER
  2
LAYER071
 70
               0
 62
               7
  6
CONTINUOUS
  0
LAYER
  2
LAYER072
 70
               0
 62
               7
  6
CONTINUOUS
  0
LAYER
  2
LAYER073
 70
               0
 62
               7
  6
CONTINUOUS
  0
LAYER
  2
LAYER074
 70
               0
 62
               7
  6
CONTINUOUS
  0
LAYER
  2
LAYER075
 70
               0
 62
               7
  6
CONTINUOUS
  0
LAYER
  2
LAYER076
 70
               0
 62
               7
  6
CONTINUOUS
  0
LAYER
  2
LAYER077
 70
               0
 62
               7
  6
CONTINUOUS
  0
LAYER
  2
LAYER078
 70
               0
 62
               7
  6
CONTINUOUS
  0
LAYER
  2
LAYER079
 70
               0
 62
               7
  6
CONTINUOUS
  0
LAYER
  2
LAYER080
 70
               0
 62
               7
  6
CONTINUOUS
  0
LAYER
  2
LAYER081
 70
               0
 62
               7
  6
CONTINUOUS
  0
LAYER
  2
LAYER082
 70
               0
 62
               7
  6
CONTINUOUS
  0
LAYER
  2
LAYER083
 70
               0
 62
               7
  6
CONTINUOUS
  0
LAYER
  2
LAYER084
 70
               0
 62
               7
  6
CONTINUOUS
  0
LAYER
  2
LAYER085
 70
               0
 62
               7
  6
CONTINUOUS
  0
LAYER
  2
LAYER086
 70
               0
 62
               7
  6
CONTINUOUS
  0
LAYER
  2
LAYER087
 70
               0
 62
               7
  6
CONTINUOUS
  0
LAYER
  2
LAYER088
 70
               0
 62
               7
  6
CONTINUOUS
  0
LAYER
  2
LAYER089
 70
               0
 62
               7
  6
CONTINUOUS
  0
LAYER
  2
LAYER090
 70
               0
 62
               7
  6
CONTINUOUS
  0
LAYER
  2
LAYER091
 70
               0
 62
               7
  6
CONTINUOUS
  0
LAYER
  2
LAYER092
 70
               0
 62
               7
  6
CONTINUOUS
  0
LAYER
  2
LAYER093
 70
               0
 62
               7
  6
CONTINUOUS
  0
LAYER
  2
LAYER094
 70
               0
 62
               7
  6
CONTINUOUS
  0
LAYER
  2
LAYER095
 70
               0
 62
               7
  6
CONTINUOUS
  0
LAYER
  2
LAYER096
 70
               0
 62
               7
  6
CONTINUOUS
  0
LAYER
  2
LAYER097
 70
               0
 62
               7
  6
CONTINUOUS
  0
LAYER
  2
LAYER098
 70
               0
 62
               7
  6
CONTINUOUS
  0
LAYER
  2
LAYER099
 70
               0
 62
               7
  6
CONTINUOUS
  0
LAYER
  2
LAYER100
 70
               0
 62
               7
  6
CONTINUOUS
  0
LAYER
  2
LAYER101
 70
               0
 62
               7
  6
CONTINUOUS
  0
LAYER
  2
LAYER102
 70
               0
 62
               7
  6
CONTINUOUS
  0
LAYER
  2
LAYER103
 70
               0
 62
               7
  6
CONTINUOUS
  0
LAYER
  2
LAYER104
 70
               0
 62
               7
  6
CONTINUOUS
  0
LAYER
  2
LAYER105
 70
               0
 62
               7
  6
CONTINUOUS
  0
LAYER
  2
LAYER106
 70
               0
 62
               7
  6
CONTINUOUS
  0
LAYER
  2
LAYER107
 70
               0
 62
               7
  6
CONTINUOUS
  0
LAYER
  2
LAYER108
 70
               0
 62
               7
  6
CONTINUOUS
  0
LAYER
  2
LAYER109
 70
               0
 62
               7
  6
CONTINUOUS
  0
LAYER
  2
LAYER110
 70
               0
 62
               7
  6
CONTINUOUS
  0
LAYER
  2
LAYER111
 70
               0
 62
               7
  6
CONTINUOUS
  0
LAYER
  2
LAYER112
 70
               0
 62
               7
  6
CONTINUOUS
  0
LAYER
  2
LAYER113
 70
               0
 62
               7
  6
CONTINUOUS
  0
LAYER
  2
LAYER114
 70
               0
 62
               7
  6
CONTINUOUS
  0
LAYER
  2
LAYER115
 70
               0
 62
               7
  6
CONTINUOUS
  0
LAYER
  2
LAYER116
 70
               0
 62
               7
  6
CONTINUOUS
  0
LAYER
  2
LAYER117
 70
               0
 62
               7
  6
CONTINUOUS
  0
LAYER
  2
LAYER118
 70
               0
 62
               7
  6
CONTINUOUS
  0
LAYER
  2
LAYER119
 70
               0
 62
               7
  6
CONTINUOUS
  0
LAYER
  2
LAYER120
 70
               0
 62
               7
  6
CONTINUOUS
  0
LAYER
  2
LAYER121
 70
               0
 62
               7
  6
CONTINUOUS
  0
LAYER
  2
LAYER122
 70
               0
 62
               7
  6
CONTINUOUS
  0
LAYER
  2
LAYER123
 70
               0
 62
               7
  6
CONTINUOUS
  0
LAYER
  2
LAYER124
 70
               0
 62
               7
  6
CONTINUOUS
  0
LAYER
  2
LAYER125
 70
               0
 62
               7
  6
CONTINUOUS
  0
LAYER
  2
LAYER126
 70
               0
 62
               7
  6
CONTINUOUS
  0
LAYER
  2
LAYER127
 70
               0
 62
               7
  6
CONTINUOUS
  0
LAYER
  2
LAYER128
 70
               0
 62
               7
  6
CONTINUOUS
  0
LAYER
  2
LAYER129
 70
               0
 62
               7
  6
CONTINUOUS
  0
LAYER
  2
LAYER130
 70
               0
 62
               7
  6
CONTINUOUS
  0
LAYER
  2
LAYER131
 70
               0
 62
               7
  6
CONTINUOUS
  0
LAYER
  2
LAYER132
 70
               0
 62
               7
  6
CONTINUOUS
  0
LAYER
  2
LAYER133
 70
               0
 62
               7
  6
CONTINUOUS
  0
LAYER
  2
LAYER134
 70
               0
 62
               7
  6
CONTINUOUS
  0
LAYER
  2
LAYER135
 70
               0
 62
               7
  6
CONTINUOUS
  0
LAYER
  2
LAYER136
 70
               0
 62
               7
  6
CONTINUOUS
  0
LAYER
  2
LAYER137
 70
               0
 62
               7
  6
CONTINUOUS
  0
LAYER
  2
LAYER138
 70
               0
 62
               7
  6
CONTINUOUS
  0
LAYER
  2
LAYER139
 70
               0
 62
               7
  6
CONTINUOUS
  0
LAYER
  2
LAYER140
 70
               0
 62
               7
  6
CONTINUOUS
  0
LAYER
  2
LAYER141
 70
               0
 62
               7
  6
CONTINUOUS
  0
LAYER
  2
LAYER142
 70
               0
 62
               7
  6
CONTINUOUS
  0
LAYER
  2
LAYER143
 70
               0
 62
               7
  6
CONTINUOUS
  0
LAYER
  2
LAYER144
 70
               0
 62
               7
  6
CONTINUOUS
  0
LAYER
  2
LAYER145
 70
               0
 62
               7
  6
CONTINUOUS
  0
LAYER
  2
LAYER146
 70
               0
 62
               7
  6
CONTINUOUS
  0
LAYER
  2
LAYER147
 70
               0
 62
               7
  6
CONTINUOUS
  0
LAYER
  2
LAYER148
 70
               0
 62
               7
  6
CONTINUOUS
  0
LAYER
  2
LAYER149
 70
               0
 62
               7
  6
CONTINUOUS
  0
LAYER
  2
LAYER150
 70
               0
 62
               7
  6
CONTINUOUS
  0
LAYER
  2
LAYER151
 70
               0
 62
               7
  6
CONTINUOUS
  0
LAYER
  2
LAYER152
 70
               0
 62
               7
  6
CONTINUOUS
  0
LAYER
  2
LAYER153
 70
               0
 62
               7
  6
CONTINUOUS
  0
LAYER
  2
LAYER154
 70
               0
 62
               7
  6
CONTINUOUS
  0
LAYER
  2
LAYER155
 70
               0
 62
               7
  6
CONTINUOUS
  0
LAYER
  2
LAYER156
 70
               0
 62
               7
  6
CONTINUOUS
  0
LAYER
  2
LAYER157
 70
               0
 62
               7
  6
CONTINUOUS
  0
LAYER
  2
LAYER158
 70
               0
 62
               7
  6
CONTINUOUS
  0
LAYER
  2
LAYER159
 70
               0
 62
               7
  6
CONTINUOUS
  0
LAYER
  2
LAYER160
 70
               0
 62
               7
  6
CONTINUOUS
  0
LAYER
  2
LAYER161
 70
               0
 62
               7
  6
CONTINUOUS
  0
LAYER
  2
LAYER162
 70
               0
 62
               7
  6
CONTINUOUS
  0
LAYER
  2
LAYER163
 70
               0
 62
               7
  6
CONTINUOUS
  0
LAYER
  2
LAYER164
 70
               0
 62
               7
  6
CONTINUOUS
  0
LAYER
  2
LAYER165
 70
               0
 62
               7
  6
CONTINUOUS
  0
LAYER
  2
LAYER166
 70
               0
 62
               7
  6
CONTINUOUS
  0
LAYER
  2
LAYER167
 70
               0
 62
               7
  6
CONTINUOUS
  0
LAYER
  2
LAYER168
 70
               0
 62
               7
  6
CONTINUOUS
  0
LAYER
  2
LAYER169
 70
               0
 62
               7
  6
CONTINUOUS
  0
LAYER
  2
LAYER170
 70
               0
 62
               7
  6
CONTINUOUS
  0
LAYER
  2
LAYER171
 70
               0
 62
               7
  6
CONTINUOUS
  0
LAYER
  2
LAYER172
 70
               0
 62
               7
  6
CONTINUOUS
  0
LAYER
  2
LAYER173
 70
               0
 62
               7
  6
CONTINUOUS
  0
LAYER
  2
LAYER174
 70
               0
 62
               7
  6
CONTINUOUS
  0
LAYER
  2
LAYER175
 70
               0
 62
               7
  6
CONTINUOUS
  0
LAYER
  2
LAYER176
 70
               0
 62
               7
  6
CONTINUOUS
  0
LAYER
  2
LAYER177
 70
               0
 62
               7
  6
CONTINUOUS
  0
LAYER
  2
LAYER178
 70
               0
 62
               7
  6
CONTINUOUS
  0
LAYER
  2
LAYER179
 70
               0
 62
               7
  6
CONTINUOUS
  0
LAYER
  2
LAYER180
 70
               0
 62
               7
  6
CONTINUOUS
  0
LAYER
  2
LAYER181
 70
               0
 62
               7
  6
CONTINUOUS
  0
LAYER
  2
LAYER182
 70
               0
 62
               7
  6
CONTINUOUS
  0
LAYER
  2
LAYER183
 70
               0
 62
               7
  6
CONTINUOUS
  0
LAYER
  2
LAYER184
 70
               0
 62
               7
  6
CONTINUOUS
  0
LAYER
  2
LAYER185
 70
               0
 62
               7
  6
CONTINUOUS
  0
LAYER
  2
LAYER186
 70
               0
 62
               7
  6
CONTINUOUS
  0
LAYER
  2
LAYER187
 70
               0
 62
               7
  6
CONTINUOUS
  0
LAYER
  2
LAYER188
 70
               0
 62
               7
  6
CONTINUOUS
  0
LAYER
  2
LAYER189
 70
               0
 62
               7
  6
CONTINUOUS
  0
LAYER
  2
LAYER190
 70
               0
 62
               7
  6
CONTINUOUS
  0
LAYER
  2
LAYER191
 70
               0
 62
               7
  6
CONTINUOUS
  0
LAYER
  2
LAYER192
 70
               0
 62
               7
  6
CONTINUOUS
  0
LAYER
  2
LAYER193
 70
               0
 62
               7
  6
CONTINUOUS
  0
LAYER
  2
LAYER194
 70
               0
 62
               7
  6
CONTINUOUS
  0
LAYER
  2
LAYER195
 70
               0
 62
               7
  6
CONTINUOUS
  0
LAYER
  2
LAYER196
 70
               0
 62
               7
  6
CONTINUOUS
  0
LAYER
  2
LAYER197
 70
               0
 62
               7
  6
CONTINUOUS
  0
LAYER
  2
LAYER198
 70
               0
 62
               7
  6
CONTINUOUS
  0
LAYER
  2
LAYER199
 70
               0
 62
               7
  6
CONTINUOUS
  0
LAYER
  2
LAYER200
 70
               0
 62
               7
  6
CONTINUOUS
  0
LAYER
  2
LAYER201
 70
               0
 62
               7
  6
CONTINUOUS
  0
LAYER
  2
LAYER202
 70
               0
 62
               7
  6
CONTINUOUS
  0
LAYER
  2
LAYER203
 70
               0
 62
               7
  6
CONTINUOUS
  0
LAYER
  2
LAYER204
 70
               0
 62
               7
  6
CONTINUOUS
  0
LAYER
  2
LAYER205
 70
               0
 62
               7
  6
CONTINUOUS
  0
LAYER
  2
LAYER206
 70
               0
 62
               7
  6
CONTINUOUS
  0
LAYER
  2
LAYER207
 70
               0
 62
               7
  6
CONTINUOUS
  0
LAYER
  2
LAYER208
 70
               0
 62
               7
  6
CONTINUOUS
  0
LAYER
  2
LAYER209
 70
               0
 62
               7
  6
CONTINUOUS
  0
LAYER
  2
LAYER210
 70
               0
 62
               7
  6
CONTINUOUS
  0
LAYER
  2
LAYER211
 70
               0
 62
               7
  6
CONTINUOUS
  0
LAYER
  2
LAYER212
 70
               0
 62
               7
  6
CONTINUOUS
  0
LAYER
  2
LAYER213
 70
               0
 62
               7
  6
CONTINUOUS
  0
LAYER
  2
LAYER214
 70
               0
 62
               7
  6
CONTINUOUS
  0
LAYER
  2
LAYER215
 70
               0
 62
               7
  6
CONTINUOUS
  0
LAYER
  2
LAYER216
 70
               0
 62
               7
  6
CONTINUOUS
  0
LAYER
  2
LAYER217
 70
               0
 62
               7
  6
CONTINUOUS
  0
LAYER
  2
LAYER218
 70
               0
 62
               7
  6
CONTINUOUS
  0
LAYER
  2
LAYER219
 70
               0
 62
               7
  6
CONTINUOUS
  0
LAYER
  2
LAYER220
 70
               0
 62
               7
  6
CONTINUOUS
  0
LAYER
  2
LAYER221
 70
               0
 62
               7
  6
CONTINUOUS
  0
LAYER
  2
LAYER222
 70
               0
 62
               7
  6
CONTINUOUS
  0
LAYER
  2
LAYER223
 70
               0
 62
               7
  6
CONTINUOUS
  0
LAYER
  2
LAYER224
 70
               0
 62
               7
  6
CONTINUOUS
  0
LAYER
  2
LAYER225
 70
               0
 62
               7
  6
CONTINUOUS
  0
LAYER
  2
LAYER226
 70
               0
 62
               7
  6
CONTINUOUS
  0
LAYER
  2
LAYER227
 70
               0
 62
               7
  6
CONTINUOUS
  0
LAYER
  2
LAYER228
 70
               0
 62
               7
  6
CONTINUOUS
  0
LAYER
  2
LAYER229
 70
               0
 62
               7
  6
CONTINUOUS
  0
LAYER
  2
LAYER230
 70
               0
 62
               7
  6
CONTINUOUS
  0
LAYER
  2
LAYER231
 70
               0
 62
               7
  6
CONTINUOUS
  0
LAYER
  2
LAYER232
 70
               0
 62
               7
  6
CONTINUOUS
  0
LAYER
  2
LAYER233
 70
               0
 62
               7
  6
CONTINUOUS
  0
LAYER
  2
LAYER234
 70
               0
 62
               7
  6
CONTINUOUS
  0
LAYER
  2
LAYER235
 70
               0
 62
               7
  6
CONTINUOUS
  0
LAYER
  2
LAYER236
 70
               0
 62
               7
  6
CONTINUOUS
  0
LAYER
  2
LAYER237
 70
               0
 62
               7
  6
CONTINUOUS
  0
LAYER
  2
LAYER238
 70
               0
 62
               7
  6
CONTINUOUS
  0
LAYER
  2
LAYER239
 70
               0
 62
               7
  6
CONTINUOUS
  0
LAYER
  2
LAYER240
 70
               0
 62
               7
  6
CONTINUOUS
  0
LAYER
  2
LAYER241
 70
               0
 62
               7
  6
CONTINUOUS
  0
LAYER
  2
LAYER242
 70
               0
 62
               7
  6
CONTINUOUS
  0
LAYER
  2
LAYER243
 70
               0
 62
               7
  6
CONTINUOUS
  0
LAYER
  2
LAYER244
 70
               0
 62
               7
  6
CONTINUOUS
  0
LAYER
  2
LAYER245
 70
               0
 62
               7
  6
CONTINUOUS
  0
LAYER
  2
LAYER246
 70
               0
 62
               7
  6
CONTINUOUS
  0
LAYER
  2
LAYER247
 70
               0
 62
               7
  6
CONTINUOUS
  0
LAYER
  2
LAYER248
 70
               0
 62
               7
  6
CONTINUOUS
  0
LAYER
  2
LAYER249
 70
               0
 62
               7
  6
CONTINUOUS
  0
LAYER
  2
LAYER250
 70
               0
 62
               7
  6
CONTINUOUS
  0
LAYER
  2
LAYER251
 70
               0
 62
               7
  6
CONTINUOUS
  0
LAYER
  2
LAYER252
 70
               0
 62
               7
  6
CONTINUOUS
  0
LAYER
  2
LAYER253
 70
               0
 62
               7
  6
CONTINUOUS
  0
LAYER
  2
LAYER254
 70
               0
 62
               7
  6
CONTINUOUS
  0
LAYER
  2
LAYER255
 70
               0
 62
               7
  6
CONTINUOUS
  0
ENDTAB
  0
TABLE
  2
STYLE
 70
               1
  0
STYLE
  2
STANDARD
 70
               0
 40
0.0
 41
0.8
 50
0.0
 71
               0
 42
40.0
  3
MS PGothic.ttf
  4

  0
ENDTAB
  0
TABLE
  2
VIEW
 70
               0
  0
VIEW
  2
QQQQ
 70
               0
 40
2596.2431365937487
 10
-112.02900529579699
 20
8.2251511678036877
 41
1553.9466081540206
 11
0.0
 21
0.0
 31
1.0
 12
100.0
 22
100.0
 32
0.0
 42
50.0
 43
0.0
 44
0.0
 50
0.0
 71
               0
  0
ENDTAB
  0
TABLE
  2
UCS
 70
               0
  0
ENDTAB
  0
TABLE
  2
APPID
 70
               1
  0
APPID
  2
ACAD
 70
               0
  0
ENDTAB
  0
TABLE
  2
DIMSTYLE
 70
               1
  0
DIMSTYLE
  2
STANDARD
 70
               0
  3

  4

  5

  6

  7

 40
1.0
 41
0.18
 42
0.0625
 43
0.38
 44
0.18
 45
0.0
 46
0.0
 47
0.0
 48
0.0
140
0.18
141
0.09
142
0.0
143
25.399999999999999
144
1.0
145
0.0
146
1.0
147
0.09
 71
               0
 72
               0
 73
               1
 74
               1
 75
               0
 76
               0
 77
               0
 78
               0
170
               0
171
               2
172
               0
173
               0
174
               0
175
               0
176
               0
177
               0
178
               0
  0
ENDTAB
  0
ENDSEC
  0
SECTION
  2
BLOCKS
  0
BLOCK
  8
0
  5
139
  2
GROUP_1
 70
               0
 10
0.0
 20
0.0
 30
0.0
  3
GROUP_1
  0
LINE
  8
0
  6
CONTINUOUS
 62
               4
  5
13A
 10
-796.70938161387949
 20
137.41014987464371
 30
0.0
 11
-643.17226690395114
 21
290.94726458457262
 31
0.0
  0
LINE
  8
0
  6
CONTINUOUS
 62
               4
  5
13B
 10
-805.2652889800047
 20
199.56492060910534
 30
0.0
 11
-656.33440837888566
 21
348.49580121022393
 31
0.0
  0
LINE
  8
0
  6
CONTINUOUS
 62
               4
  5
13C
 10
-810.17226690395159
 20
336.07929888632981
 30
0.0
 11
-797.75576458005753
 21
348.49580121022393
 31
0.0
  0
LINE
  8
0
  6
CONTINUOUS
 62
               4
  5
13D
 10
-776.98861364738582
 20
86.420239740551949
 30
0.0
 11
-645.5467220518542
 21
217.86213133608373
 31
0.0
  0
LINE
  8
0
  6
CONTINUOUS
 62
               4
  5
13E
 10
-706.27793554679988
 20
86.420239740551949
 30
0.0
 11
-656.84415375847857
 21
135.85402152887275
 31
0.0
  0
LINE
  8
0
  6
CONTINUOUS
 62
               4
  5
13F
 10
-810.17226690395114
 20
265.3686207857445
 30
0.0
 11
-729.56399475622243
 21
345.97689293347293
 31
0.0
  0
ENDBLK
  8
0
  5
140
  0
BLOCK
  8
0
  5
141
  2
GROUP_2
 70
               0
 10
0.0
 20
0.0
 30
0.0
  3
GROUP_2
  0
LINE
  8
0
  6
CONTINUOUS
 62
               4
  5
142
 10
-210.17226690395108
 20
336.10079888633004
 30
0.0
 11
-197.77726458005733
 21
348.49580121022393
 31
0.0
  0
LINE
  8
0
  6
CONTINUOUS
 62
               4
  5
143
 10
-79.859120484426967
 20
324.99258910468228
 30
0.0
 11
-56.355908378885104
 21
348.49580121022422
 31
0.0
  0
LINE
  8
0
  6
CONTINUOUS
 62
               4
  5
144
 10
-205.59007433735383
 20
199.26163525175542
 30
0.0
 11
-79.859120484426967
 21
324.99258910468228
 31
0.0
  0
LINE
  8
0
  6
CONTINUOUS
 62
               4
  5
145
 10
-210.17226690395114
 20
265.39012078574416
 30
0.0
 11
-127.06658647947125
 21
348.49580121022393
 31
0.0
  0
LINE
  8
0
  6
CONTINUOUS
 62
               4
  5
146
 10
-198.34862106981419
 20
135.79241041870921
 30
0.0
 11
-43.672266903951211
 21
290.46876458457223
 31
0.0
  0
LINE
  8
0
  6
CONTINUOUS
 62
               4
  5
147
 10
-122.36264994585821
 20
141.06770344207922
 30
0.0
 11
-45.64050254607703
 21
217.78985084186036
 31
0.0
  0
LINE
  8
0
  6
CONTINUOUS
 62
               4
  5
148
 10
-176.98861364738514
 20
86.441739740552293
 30
0.0
 11
-122.36264994585821
 21
141.06770344207922
 31
0.0
  0
LINE
  8
0
  6
CONTINUOUS
 62
               4
  5
149
 10
-106.27793554679891
 20
86.441739740552521
 30
0.0
 11
-54.747178068241126
 21
137.97249721911044
 31
0.0
  0
ENDBLK
  8
0
  5
14A
  0
BLOCK
  8
0
  5
14B
  2
GROUP_3
 70
               0
 10
0.0
 20
0.0
 30
0.0
  3
GROUP_3
  0
LINE
  8
0
  6
CONTINUOUS
 62
               4
  5
14C
 10
401.65358073689214
 20
135.77311222541579
 30
0.0
 11
556.82773309604886
 21
290.94726458457257
 31
0.0
  0
LINE
  8
0
  6
CONTINUOUS
 62
               4
  5
14D
 10
394.41212746935236
 20
199.24233705846194
 30
0.0
 11
543.66559162111434
 21
348.49580121022387
 31
0.0
  0
LINE
  8
0
  6
CONTINUOUS
 62
               4
  5
14E
 10
387.40749885773261
 20
333.65906464801446
 30
0.0
 11
402.2442354199423
 21
348.49580121022387
 31
0.0
  0
LINE
  8
0
  6
CONTINUOUS
 62
               4
  5
14F
 10
423.01138635261412
 20
86.420239740551892
 30
0.0
 11
554.35672851535537
 21
217.76558190329314
 31
0.0
  0
LINE
  8
0
  6
CONTINUOUS
 62
               4
  5
150
 10
493.72206445320018
 20
86.420239740551892
 30
0.0
 11
545.25005299319128
 21
137.94822828054311
 31
0.0
  0
LINE
  8
0
  6
CONTINUOUS
 62
               4
  5
151
 10
389.82773309604892
 20
265.36862078574444
 30
0.0
 11
472.95491352052846
 21
348.49580121022393
 31
0.0
  0
ENDBLK
  8
0
  5
152
  0
ENDSEC
  0
SECTION
  2
ENTITIES
  0
CIRCLE
  8
0
  6
CONTINUOUS
 62
               4
  5
153
 10
-126.67226690395108
 20
1074.4958012102238
 30
0.0
 40
75.0
  0
CIRCLE
  8
0
  6
CONTINUOUS
 62
               4
  5
154
 10
-126.67226690395108
 20
1074.4958012102238
 30
0.0
 40
52.5
  0
LINE
  8
0
  6
CONTINUOUS
 62
               4
  5
155
 10
-212.88276510457632
 20
1094.4958012102238
 30
0.0
 11
-198.95642837795646
 21
1094.4958012102238
 31
0.0
  0
LINE
  8
0
  6
CONTINUOUS
 62
               4
  5
156
 10
-198.95642837795646
 20
1054.4958012102238
 30
0.0
 11
-212.88276510457632
 21
1054.4958012102238
 31
0.0
  0
ARC
  8
0
  6
CONTINUOUS
 62
               4
  5
157
 10
-126.67226690395108
 20
1074.4958012102238
 30
0.0
 40
88.5
 50
166.93897588507147
 51
193.06102411465255
  0
LINE
  8
0
  6
CONTINUOUS
 62
               4
  5
158
 10
-146.67226690395108
 20
988.28530300959903
 30
0.0
 11
-146.67226690395108
 21
1002.2116397362189
 31
0.0
  0
LINE
  8
0
  6
CONTINUOUS
 62
               4
  5
159
 10
-106.67226690395108
 20
1002.2116397362189
 30
0.0
 11
-106.67226690395108
 21
988.28530300959903
 31
0.0
  0
ARC
  8
0
  6
CONTINUOUS
 62
               4
  5
15A
 10
-126.67226690395108
 20
1074.4958012102238
 30
0.0
 40
88.5
 50
256.93897588500266
 51
283.06102411458357
  0
LINE
  8
0
  6
CONTINUOUS
 62
               4
  5
15B
 10
-40.461768703326427
 20
1054.4958012102238
 30
0.0
 11
-54.388105429946847
 21
1054.4958012102238
 31
0.0
  0
LINE
  8
0
  6
CONTINUOUS
 62
               4
  5
15C
 10
-54.388105429946847
 20
1094.4958012102238
 30
0.0
 11
-40.461768703326427
 21
1094.4958012102238
 31
0.0
  0
ARC
  8
0
  6
CONTINUOUS
 62
               4
  5
15D
 10
-126.67226690395108
 20
1074.4958012102238
 30
0.0
 40
88.5
 50
346.93897588493354
 51
373.06102411451457
  0
LINE
  8
0
  6
CONTINUOUS
 62
               4
  5
15E
 10
-106.67226690395108
 20
1160.7062994108496
 30
0.0
 11
-106.67226690395108
 21
1146.7799626842288
 31
0.0
  0
LINE
  8
0
  6
CONTINUOUS
 62
               4
  5
15F
 10
-146.67226690395108
 20
1146.7799626842288
 30
0.0
 11
-146.67226690395108
 21
1160.7062994108496
 31
0.0
  0
ARC
  8
0
  6
CONTINUOUS
 62
               4
  5
160
 10
-126.67226690395108
 20
1074.4958012102238
 30
0.0
 40
88.5
 50
76.938975885140508
 51
103.06102411472155
  0
LINE
  8
0
  6
CONTINUOUS
 62
               4
  5
161
 10
-174.34039042481214
 20
1052.4958012102234
 30
0.0
 11
-79.004143383091161
 21
1052.4958012102234
 31
0.0
  0
ARC
  8
0
  6
CONTINUOUS
 62
               4
  5
162
 10
-114.16865525456996
 20
1083.2021988378428
 30
0.0
 40
54.763804151667173
 50
141.38591763672957
 51
145.15009542084266
  0
ARC
  8
0
  6
CONTINUOUS
 62
               4
  5
163
 10
-126.67226690395108
 20
1074.4958012102238
 30
0.0
 40
51.5
 50
334.71098847320116
 51
410.95932736332554
  0
ARC
  8
0
  6
CONTINUOUS
 62
               4
  5
164
 10
-126.67226690395108
 20
1074.4958012102238
 30
0.0
 40
51.5
 50
129.04067263626098
 51
205.28901152638485
  0
ARC
  8
0
  6
CONTINUOUS
 62
               4
  5
165
 10
-126.67226690395108
 20
1074.4958012102238
 30
0.0
 40
77.5
 50
104.95524831656292
 51
128.57288309093474
  0
ARC
  8
0
  6
CONTINUOUS
 62
               4
  5
166
 10
-126.67226690395108
 20
1074.4958012102238
 30
0.0
 40
77.5
 50
14.95524831663182
 51
75.044751683299168
  0
ARC
  8
0
  6
CONTINUOUS
 62
               4
  5
167
 10
-126.67226690395108
 20
1074.4958012102238
 30
0.0
 40
77.5
 50
313.99504232096245
 51
345.0447516830921
  0
LINE
  8
0
  6
CONTINUOUS
 62
               4
  5
168
 10
-266.67226690395103
 20
1019.4958012102239
 30
0.0
 11
-266.0007107779868
 21
1019.4958012102239
 31
0.0
  0
LINE
  8
0
  6
CONTINUOUS
 62
               4
  5
169
 10
-263.50071077798634
 20
1016.9958012102239
 30
0.0
 11
-266.0007107779868
 21
1019.4958012102239
 31
0.0
  0
LINE
  8
0
  6
CONTINUOUS
 62
               4
  5
16A
 10
-266.67226690395103
 20
1129.4958012102238
 30
0.0
 11
-266.0007107779868
 21
1129.4958012102238
 31
0.0
  0
LINE
  8
0
  6
CONTINUOUS
 62
               4
  5
16B
 10
-263.5007107779868
 20
1131.9958012102238
 30
0.0
 11
-266.0007107779868
 21
1129.4958012102238
 31
0.0
  0
LINE
  8
0
  6
CONTINUOUS
 62
               4
  5
16C
 10
-266.0007107779868
 20
1129.4958012102238
 30
0.0
 11
-266.0007107779868
 21
1019.4958012102239
 31
0.0
  0
LINE
  8
0
  6
CONTINUOUS
 62
               4
  5
16D
 10
-172.16260269032898
 20
1135.1853982285656
 30
0.0
 11
-263.5007107779868
 21
1131.9958012102238
 31
0.0
  0
LINE
  8
0
  6
CONTINUOUS
 62
               4
  5
16E
 10
-172.16260269032966
 20
1013.8062041918827
 30
0.0
 11
-263.50071077798634
 21
1016.9958012102239
 31
0.0
  0
LINE
  8
0
  6
CONTINUOUS
 62
               4
  5
16F
 10
-271.67226690395103
 20
1129.3242450842599
 30
0.0
 11
-271.67226690395103
 21
1019.3958012102239
 31
0.0
  0
LINE
  8
0
  6
CONTINUOUS
 62
               4
  5
170
 10
-266.67226690395103
 20
1016.8958012102239
 30
0.0
 11
-266.67226690395103
 21
1132.095801210224
 31
0.0
  0
LINE
  8
0
  6
CONTINUOUS
 62
               4
  5
171
 10
-266.67226690395103
 20
1132.095801210224
 30
0.0
 11
-269.17226690395103
 21
1132.095801210224
 31
0.0
  0
LINE
  8
0
  6
CONTINUOUS
 62
               4
  5
172
 10
-266.67226690395103
 20
1016.8958012102239
 30
0.0
 11
-269.17226690395103
 21
1016.8958012102239
 31
0.0
  0
ARC
  8
0
  6
CONTINUOUS
 62
               4
  5
173
 10
-269.17226690395103
 20
1019.3958012102239
 30
0.0
 40
2.5
 50
179.9999999998615
 51
269.99999999979354
  0
ARC
  8
0
  6
CONTINUOUS
 62
               4
  5
174
 10
-269.17226690395103
 20
1129.595801210224
 30
0.0
 40
2.5
 50
89.999999999931404
 51
179.9999999998615
  0
LINE
  8
0
  6
CONTINUOUS
 62
               4
  5
175
 10
-159.11067007056869
 20
1114.4958012102238
 30
0.0
 11
-126.67226690395108
 21
1114.4958012102238
 31
0.0
  0
LINE
  8
0
  6
CONTINUOUS
 62
               4
  5
176
 10
-126.67226690395108
 20
1114.4958012102238
 30
0.0
 11
-92.668590632112398
 21
1114.4958012102238
 31
0.0
  0
LINE
  8
0
  6
CONTINUOUS
 62
               4
  5
177
 10
-263.50071077798634
 20
1016.9958012102239
 30
0.0
 11
-263.5007107779868
 21
1131.9958012102238
 31
0.0
  0
ARC
  8
0
  6
CONTINUOUS
 62
               4
  5
178
 10
-172.33710017384152
 20
1140.182352363661
 30
0.0
 40
5.0
 50
271.99999999979167
 51
304.80675787019374
  0
ARC
  8
0
  6
CONTINUOUS
 62
               4
  5
179
 10
-172.33710017384215
 20
1008.8092500567873
 30
0.0
 40
5.0
 50
55.193242129529608
 51
87.999999999932768
  0
ARC
  8
0
  6
CONTINUOUS
 62
               4
  5
17A
 10
-181.67226690395108
 20
532.49580121022393
 30
0.0
 40
19.999999999999996
 50
148.2116693828346
 51
167.26981986155928
  0
LINE
  8
0
  6
CONTINUOUS
 62
               4
  5
17B
 10
-198.67226690395097
 20
617.91322551526855
 30
0.0
 11
-198.67226690395097
 21
543.03145496307673
 31
0.0
  0
LINE
  8
0
  6
CONTINUOUS
 62
               4
  5
17C
 10
-54.672266903951197
 20
548.03145496307729
 30
0.0
 11
-54.672266903951197
 21
617.91322551526855
 31
0.0
  0
LINE
  8
0
  6
CONTINUOUS
 62
               4
  5
17D
 10
-198.67226690395097
 20
543.03145496307673
 30
0.0
 11
-55.172266903950742
 21
543.03145496307673
 31
0.0
  0
ARC
  8
0
  6
CONTINUOUS
 62
               4
  5
17E
 10
-201.67226690395108
 20
350.99580121022393
 30
0.0
 40
2.4999999999999996
 50
89.999999999930751
 51
269.99999999979326
  0
ARC
  8
0
  6
CONTINUOUS
 62
               4
  5
17F
 10
-51.672266903951083
 20
350.99580121022393
 30
0.0
 40
2.4999999999999996
 50
269.99999999979326
 51
449.99999999965507
  0
LINE
  8
0
  6
CONTINUOUS
 62
               4
  5
180
 10
-266.67226690395108
 20
418.49580121022393
 30
0.0
 11
-266.00071077798668
 21
418.49580121022393
 31
0.0
  0
LINE
  8
0
  6
CONTINUOUS
 62
               4
  5
181
 10
-263.50071077798663
 20
415.99580121022467
 30
0.0
 11
-266.00071077798668
 21
418.49580121022393
 31
0.0
  0
LINE
  8
0
  6
CONTINUOUS
 62
               4
  5
182
 10
-263.50071077798589
 20
415.99580121022393
 30
0.0
 11
-221.33560052170847
 21
414.52336311436989
 31
0.0
  0
LINE
  8
0
  6
CONTINUOUS
 62
               4
  5
183
 10
-203.1367329980186
 20
398.22411178393793
 30
0.0
 11
-217.97456409928833
 21
413.0619428852072
 31
0.0
  0
ARC
  8
0
  6
CONTINUOUS
 62
               4
  5
184
 10
-206.67226690395108
 20
394.68857787800482
 30
0.0
 40
4.9999999999999991
 50
0.0
 51
44.999999999964608
  0
LINE
  8
0
  6
CONTINUOUS
 62
               4
  5
185
 10
-266.67226690395108
 20
528.49580121022382
 30
0.0
 11
-266.00071077798668
 21
528.49580121022382
 31
0.0
  0
LINE
  8
0
  6
CONTINUOUS
 62
               4
  5
186
 10
-263.50071077798663
 20
530.99580121022404
 30
0.0
 11
-266.00071077798668
 21
528.49580121022382
 31
0.0
  0
LINE
  8
0
  6
CONTINUOUS
 62
               4
  5
187
 10
-263.50071077798668
 20
530.99580121022404
 30
0.0
 11
-205.88323457581239
 21
533.00784781537618
 31
0.0
  0
LINE
  8
0
  6
CONTINUOUS
 62
               4
  5
188
 10
-266.00071077798668
 20
528.49580121022382
 30
0.0
 11
-266.00071077798668
 21
418.49580121022393
 31
0.0
  0
LINE
  8
0
  6
CONTINUOUS
 62
               4
  5
189
 10
-266.67226690395108
 20
415.89580121022391
 30
0.0
 11
-266.67226690395108
 21
531.09580121022395
 31
0.0
  0
LINE
  8
0
  6
CONTINUOUS
 62
               4
  5
18A
 10
-266.67226690395108
 20
531.09580121022395
 30
0.0
 11
-269.17226690395108
 21
531.09580121022395
 31
0.0
  0
ARC
  8
0
  6
CONTINUOUS
 62
               4
  5
18B
 10
-269.17226690395108
 20
528.59580121022395
 30
0.0
 40
2.5
 50
89.999999999931404
 51
179.99999999986184
  0
LINE
  8
0
  6
CONTINUOUS
 62
               4
  5
18C
 10
-271.67226690395108
 20
528.59580121022395
 30
0.0
 11
-271.67226690395108
 21
418.39580121022391
 31
0.0
  0
LINE
  8
0
  6
CONTINUOUS
 62
               4
  5
18D
 10
-266.67226690395108
 20
415.89580121022391
 30
0.0
 11
-269.17226690395108
 21
415.89580121022391
 31
0.0
  0
ARC
  8
0
  6
CONTINUOUS
 62
               4
  5
18E
 10
-269.17226690395108
 20
418.39580121022391
 30
0.0
 40
2.5
 50
179.99999999986167
 51
269.99999999979354
  0
LINE
  8
0
  6
CONTINUOUS
 62
               4
  5
18F
 10
-263.50071077798663
 20
530.99580121022404
 30
0.0
 11
-263.50071077798589
 21
415.99580121022393
 31
0.0
  0
ARC
  8
0
  6
CONTINUOUS
 62
               4
  5
190
 10
-221.51009800522101
 20
409.52640897927444
 30
0.0
 40
5.0
 50
44.999999999966278
 51
87.999999999932115
  0
ARC
  8
0
  6
CONTINUOUS
 62
               4
  5
191
 10
-206.05773205932491
 20
538.00480195047169
 30
0.0
 40
5.0
 50
271.99999999979138
 51
347.26981986142005
  0
LINE
  8
0
  6
CONTINUOUS
 62
               4
  5
192
 10
-201.67226690395108
 20
394.68857787800482
 30
0.0
 11
-201.67226690395108
 21
353.49580121022393
 31
0.0
  0
LINE
  8
0
  6
CONTINUOUS
 62
               4
  5
193
 10
-49.672266903951197
 20
543.03145496307673
 30
0.0
 11
-54.672266903951197
 21
548.03145496307673
 31
0.0
  0
ARC
  8
0
  6
CONTINUOUS
 62
               4
  5
194
 10
-72.172266903951197
 20
532.49580121022393
 30
0.0
 40
19.999999999999996
 50
0.0
 51
31.788330617027405
  0
LINE
  8
0
  6
CONTINUOUS
 62
               4
  5
195
 10
-55.172266903950742
 20
543.03145496307673
 30
0.0
 11
-55.172266903950742
 21
548.03145496307729
 31
0.0
  0
LINE
  8
0
  6
CONTINUOUS
 62
               4
  5
196
 10
-54.672266903951197
 20
548.03145496307673
 30
0.0
 11
-55.172266903950742
 21
548.03145496307673
 31
0.0
  0
LINE
  8
0
  6
CONTINUOUS
 62
               4
  5
197
 10
-49.92226690395097
 20
542.78145496307673
 30
0.0
 11
-55.172266903950742
 21
548.03145496307673
 31
0.0
  0
LINE
  8
0
  6
CONTINUOUS
 62
               4
  5
198
 10
-49.92226690395097
 20
542.78145496307673
 30
0.0
 11
-49.672266903951197
 21
543.03145496307673
 31
0.0
  0
LINE
  8
0
  6
CONTINUOUS
 62
               4
  5
199
 10
-49.672266903951197
 20
543.03145496307673
 30
0.0
 11
-49.672266903951197
 21
352.34277761310693
 31
0.0
  0
LINE
  8
0
  6
CONTINUOUS
 62
               4
  5
19A
 10
-49.92226690395097
 20
542.78145496307673
 30
0.0
 11
-49.92226690395097
 21
352.62813472024243
 31
0.0
  0
LINE
  8
0
  6
CONTINUOUS
 62
               4
  5
19B
 10
-52.172266903951197
 20
532.64882480734104
 30
0.0
 11
-52.172266903951197
 21
353.49580121022393
 31
0.0
  0
ARC
  8
0
  6
CONTINUOUS
 62
               4
  5
19C
 10
-781.67226690395114
 20
532.49580121022393
 30
0.0
 40
19.999999999999996
 50
148.21166938283446
 51
179.99999999986207
  0
LINE
  8
0
  6
CONTINUOUS
 62
               4
  5
19D
 10
-798.67226690395114
 20
617.91322551526855
 30
0.0
 11
-798.67226690395114
 21
543.03145496307673
 31
0.0
  0
ARC
  8
0
  6
CONTINUOUS
 62
               4
  5
19E
 10
-671.67226690395159
 20
532.49580121022393
 30
0.0
 40
19.999999999999996
 50
0.0
 51
31.788330617027448
  0
LINE
  8
0
  6
CONTINUOUS
 62
               4
  5
19F
 10
-654.67226690395114
 20
543.03145496307673
 30
0.0
 11
-654.67226690395114
 21
617.91322551526855
 31
0.0
  0
LINE
  8
0
  6
CONTINUOUS
 62
               4
  5
1A0
 10
-798.67226690395114
 20
543.03145496307673
 30
0.0
 11
-654.67226690395114
 21
543.03145496307673
 31
0.0
  0
LINE
  8
0
  6
CONTINUOUS
 62
               4
  5
1A1
 10
-801.67226690395114
 20
532.49580121022393
 30
0.0
 11
-801.67226690395114
 21
353.49580121022393
 31
0.0
  0
LINE
  8
0
  6
CONTINUOUS
 62
               4
  5
1A2
 10
-699.8849098114722
 20
501.49580121022382
 30
0.0
 11
-753.45962399643122
 21
501.49580121022382
 31
0.0
  0
CIRCLE
  8
0
  6
CONTINUOUS
 62
               4
  5
1A3
 10
-726.67226690395159
 20
473.49580121022393
 30
0.0
 40
48.5
  0
CIRCLE
  8
0
  6
CONTINUOUS
 62
               4
  5
1A4
 10
-726.67226690395159
 20
473.49580121022393
 30
0.0
 40
38.75
  0
CIRCLE
  8
0
  6
CONTINUOUS
 62
               4
  5
1A5
 10
-726.67226690395159
 20
473.49580121022393
 30
0.0
 40
47.299999999999997
  0
LINE
  8
0
  6
CONTINUOUS
 62
               4
  5
1A6
 10
-758.49207205734638
 20
441.67599605682938
 30
0.0
 11
-760.11841765407553
 21
440.04965046010022
 31
0.0
  0
LINE
  8
0
  6
CONTINUOUS
 62
               4
  5
1A7
 10
-694.85246175055704
 20
441.67599605682938
 30
0.0
 11
-693.22611615382789
 21
440.04965046010034
 31
0.0
  0
ARC
  8
0
  6
CONTINUOUS
 62
               4
  5
1A8
 10
-726.67226690395159
 20
473.49580121022393
 30
0.0
 40
45.0
 50
224.99999999982748
 51
314.99999999975859
  0
CIRCLE
  8
0
  6
CONTINUOUS
 62
               4
  5
1A9
 10
-726.67226690395159
 20
473.49580121022393
 30
0.0
 40
43.0
  0
CIRCLE
  8
0
  6
CONTINUOUS
 62
               4
  5
1AA
 10
-726.67226690395159
 20
473.49580121022393
 30
0.0
 40
57.600000000000001
  0
ARC
  8
0
  6
CONTINUOUS
 62
               4
  5
1AB
 10
528.32773309604886
 20
532.49580121022393
 30
0.0
 40
19.999999999999996
 50
0.0
 51
31.788330617027448
  0
LINE
  8
0
  6
CONTINUOUS
 62
               4
  5
1AC
 10
545.32773309604886
 20
617.91322551526855
 30
0.0
 11
545.32773309604886
 21
543.03145496307673
 31
0.0
  0
ARC
  8
0
  6
CONTINUOUS
 62
               4
  5
1AD
 10
418.32773309604892
 20
532.49580121022393
 30
0.0
 40
19.999999999999996
 50
148.21166938283446
 51
179.99999999986207
  0
LINE
  8
0
  6
CONTINUOUS
 62
               4
  5
1AE
 10
401.32773309604903
 20
543.03145496307673
 30
0.0
 11
401.32773309604903
 21
617.91322551526855
 31
0.0
  0
LINE
  8
0
  6
CONTINUOUS
 62
               4
  5
1AF
 10
545.32773309604886
 20
543.03145496307673
 30
0.0
 11
485.05473309604912
 21
543.03145496307673
 31
0.0
  0
LINE
  8
0
  6
CONTINUOUS
 62
               4
  5
1B0
 10
461.60073309604871
 20
543.03145496307673
 30
0.0
 11
401.32773309604903
 21
543.03145496307673
 31
0.0
  0
ARC
  8
0
  6
CONTINUOUS
 62
               4
  5
1B1
 10
548.32773309604886
 20
350.99580121022393
 30
0.0
 40
2.4999999999999996
 50
269.99999999979354
 51
449.99999999965507
  0
LINE
  8
0
  6
CONTINUOUS
 62
               4
  5
1B2
 10
398.32773309604141
 20
353.49580121022393
 30
0.0
 11
465.1107330960487
 21
353.49580121022393
 31
0.0
  0
LINE
  8
0
  6
CONTINUOUS
 62
               4
  5
1B3
 10
481.54473309604856
 20
353.49580121022393
 30
0.0
 11
548.32773309604886
 21
353.49580121022393
 31
0.0
  0
LINE
  8
0
  6
CONTINUOUS
 62
               4
  5
1B4
 10
548.32773309604886
 20
532.49580121022393
 30
0.0
 11
548.32773309604886
 21
353.49580121022393
 31
0.0
  0
ARC
  8
0
  6
CONTINUOUS
 62
               4
  5
1B5
 10
447.54376728408278
 20
532.49580121022393
 30
0.0
 40
17.566965811965957
 50
0.0
 51
36.851448659202724
  0
LINE
  8
0
  6
CONTINUOUS
 62
               4
  5
1B6
 10
485.05473309604912
 20
548.03145496307673
 30
0.0
 11
461.60073309604871
 21
548.03145496307673
 31
0.0
  0
ARC
  8
0
  6
CONTINUOUS
 62
               4
  5
1B7
 10
499.11169890801449
 20
532.49580121022393
 30
0.0
 40
17.566965811965957
 50
143.14855134065925
 51
179.99999999986213
  0
LINE
  8
0
  6
CONTINUOUS
 62
               4
  5
1B8
 10
461.60073309604871
 20
543.03145496307673
 30
0.0
 11
461.60073309604871
 21
548.03145496307673
 31
0.0
  0
LINE
  8
0
  6
CONTINUOUS
 62
               4
  5
1B9
 10
485.05473309604912
 20
543.03145496307673
 30
0.0
 11
485.05473309604912
 21
548.03145496307673
 31
0.0
  0
LINE
  8
0
  6
CONTINUOUS
 62
               4
  5
1BA
 10
461.60073309604871
 20
548.03145496307673
 30
0.0
 11
467.32773309604869
 21
543.03145496307673
 31
0.0
  0
LINE
  8
0
  6
CONTINUOUS
 62
               4
  5
1BB
 10
479.32773309604858
 20
543.03145496307673
 30
0.0
 11
485.05473309604912
 21
548.03145496307673
 31
0.0
  0
LINE
  8
0
  6
CONTINUOUS
 62
               4
  5
1BC
 10
467.32773309604869
 20
543.03145496307673
 30
0.0
 11
479.32773309604858
 21
543.03145496307673
 31
0.0
  0
LINE
  8
0
  6
CONTINUOUS
 62
               4
  5
1BD
 10
479.32773309604858
 20
352.49580121022404
 30
0.0
 11
467.32773309604869
 21
352.49580121022404
 31
0.0
  0
ARC
  8
0
  6
CONTINUOUS
 62
               4
  5
1BE
 10
465.26608856263368
 20
351.08172136175733
 30
0.0
 40
2.4999999999999996
 50
34.446185822117911
 51
93.562780573722691
  0
ARC
  8
0
  6
CONTINUOUS
 62
               4
  5
1BF
 10
481.38937762946415
 20
351.08172136175733
 30
0.0
 40
2.4999999999999996
 50
86.437219426138569
 51
145.55381417774322
  0
LINE
  8
0
  6
CONTINUOUS
 62
               4
  5
1C0
 10
479.32773309604858
 20
349.49580121022416
 30
0.0
 11
467.32773309604869
 21
349.49580121022416
 31
0.0
  0
ARC
  8
0
  6
CONTINUOUS
 62
               4
  5
1C1
 10
465.26608856263368
 20
350.90988105869053
 30
0.0
 40
2.4999999999999996
 50
266.43721942599979
 51
325.55381417760537
  0
ARC
  8
0
  6
CONTINUOUS
 62
               4
  5
1C2
 10
481.38937762946415
 20
350.90988105869053
 30
0.0
 40
2.4999999999999996
 50
214.44618582198009
 51
273.56278057358651
  0
LINE
  8
0
  6
CONTINUOUS
 62
               4
  5
1C3
 10
465.1107330960487
 20
532.49580121022393
 30
0.0
 11
465.1107330960487
 21
353.49580121022393
 31
0.0
  0
LINE
  8
0
  6
CONTINUOUS
 62
               4
  5
1C4
 10
481.54473309604856
 20
532.49580121022393
 30
0.0
 11
481.54473309604856
 21
353.49580121022393
 31
0.0
  0
LINE
  8
0
  6
CONTINUOUS
 62
               4
  5
1C5
 10
479.32773309604858
 20
352.49580121022404
 30
0.0
 11
479.32773309604858
 21
543.03145496307673
 31
0.0
  0
LINE
  8
0
  6
CONTINUOUS
 62
               4
  5
1C6
 10
467.32773309604869
 20
543.03145496307673
 30
0.0
 11
467.32773309604869
 21
352.49580121022404
 31
0.0
  0
LINE
  8
0
  6
CONTINUOUS
 62
               4
  5
1C7
 10
-784.67226690395114
 20
86.495801210223647
 30
0.0
 11
-801.67226690395114
 21
235.4958012102241
 31
0.0
  0
LINE
  8
0
  6
CONTINUOUS
 62
               4
  5
1C8
 10
-668.67226690395091
 20
86.495801210223647
 30
0.0
 11
-656.1241759232505
 21
196.47612804107365
 31
0.0
  0
LINE
  8
0
  6
CONTINUOUS
 62
               4
  5
1C9
 10
-801.67226690395114
 20
235.62732480734093
 30
0.0
 11
-667.72326690395107
 21
235.62732480734127
 31
0.0
  0
ARC
  8
0
  6
CONTINUOUS
 62
               4
  5
1CA
 10
-1005.6014957530758
 20
113.95492639587837
 30
0.0
 40
359.11818398045398
 50
13.303286818134866
 51
28.552443501607524
  0
ARC
  8
0
  6
CONTINUOUS
 62
               4
  5
1CB
 10
-727.00345337394515
 20
222.2016022984476
 30
0.0
 40
73.327111796148202
 50
342.6294564211762
 51
419.83689160545839
  0
LINE
  8
0
  6
CONTINUOUS
 62
               4
  5
1CC
 10
-654.9159003604118
 20
235.62732480734127
 30
0.0
 11
-651.67226690395159
 21
235.62732480734127
 31
0.0
  0
LINE
  8
0
  6
CONTINUOUS
 62
               4
  5
1CD
 10
-654.1476988352415
 20
213.90073758680523
 30
0.0
 11
-651.67226690395159
 21
235.62732480734093
 31
0.0
  0
LINE
  8
0
  6
CONTINUOUS
 62
               4
  5
1CE
 10
-801.67226690395114
 20
348.49580121022393
 30
0.0
 11
-801.67226690395114
 21
235.4958012102241
 31
0.0
  0
ARC
  8
0
  6
CONTINUOUS
 62
               4
  5
1CF
 10
-801.67226690395114
 20
350.99580121022393
 30
0.0
 40
2.4999999999999996
 50
89.999999999929457
 51
269.99999999979354
  0
LINE
  8
0
  6
CONTINUOUS
 62
               4
  5
1D0
 10
-801.67226690395114
 20
353.49580121022393
 30
0.0
 11
-661.6722669039525
 21
353.49580121022393
 31
0.0
  0
LINE
  8
0
  6
CONTINUOUS
 62
               4
  5
1D1
 10
-184.6722669039512
 20
86.495801210223647
 30
0.0
 11
-201.67226690395108
 21
235.4958012102241
 31
0.0
  0
LINE
  8
0
  6
CONTINUOUS
 62
               4
  5
1D2
 10
-49.672266903951211
 20
235.38223297996888
 30
0.0
 11
-66.400491303602223
 21
88.767576810572677
 31
0.0
  0
LINE
  8
0
  6
CONTINUOUS
 62
               4
  5
1D3
 10
-52.172266903951211
 20
235.52419326778841
 30
0.0
 11
-69.175501770300627
 21
86.495801210223647
 31
0.0
  0
LINE
  8
0
  6
CONTINUOUS
 62
               4
  5
1D4
 10
-49.922266903950984
 20
235.39642900875089
 30
0.0
 11
-66.677992350272291
 21
88.540399250537803
 31
0.0
  0
LINE
  8
0
  6
CONTINUOUS
 62
               4
  5
1D5
 10
-201.67226690395108
 20
235.4958012102241
 30
0.0
 11
-173.04037469600797
 21
235.4958012102241
 31
0.0
  0
LINE
  8
0
  6
CONTINUOUS
 62
               4
  5
1D6
 10
-128.64510018410198
 20
235.4958012102241
 30
0.0
 11
-52.175501770301324
 21
235.4958012102241
 31
0.0
  0
LINE
  8
0
  6
CONTINUOUS
 62
               4
  5
1D7
 10
-52.175501770301324
 20
235.4958012102241
 30
0.0
 11
-49.672266903951211
 21
235.38223297996888
 31
0.0
  0
LINE
  8
0
  6
CONTINUOUS
 62
               4
  5
1D8
 10
-68.531134317445165
 20
181.86431575114131
 30
0.0
 11
-192.1842669039516
 21
285.62161369839413
 31
0.0
  0
ARC
  8
0
  6
CONTINUOUS
 62
               4
  5
1D9
 10
-1040.9445870044906
 20
-858.93680342855464
 30
0.0
 40
1424.9238755783815
 50
50.189956146247241
 51
53.440796050711342
  0
ARC
  8
0
  6
CONTINUOUS
 62
               4
  5
1DA
 10
-63.092878066918118
 20
306.42148372218725
 30
0.0
 40
130.75634311527989
 50
189.15312334023136
 51
212.76918311267124
  0
ARC
  8
0
  6
CONTINUOUS
 62
               4
  5
1DB
 10
-65.308241404400022
 20
316.55550447342756
 30
0.0
 40
134.72974192119386
 50
216.90649751125426
 51
268.62928723400398
  0
ARC
  8
0
  6
CONTINUOUS
 62
               4
  5
1DC
 10
-860.30261500245933
 20
-642.59784610366773
 30
0.0
 40
1143.0835201141012
 50
46.15873265340776
 51
50.202696616637041
  0
LINE
  8
0
  6
CONTINUOUS
 62
               4
  5
1DD
 10
-52.172266903951211
 20
348.49580121022393
 30
0.0
 11
-52.172266903951211
 21
235.52419326778841
 31
0.0
  0
LINE
  8
0
  6
CONTINUOUS
 62
               4
  5
1DE
 10
-49.672266903951211
 20
349.49580121022416
 30
0.0
 11
-49.672266903951211
 21
235.38223297996888
 31
0.0
  0
LINE
  8
0
  6
CONTINUOUS
 62
               4
  5
1DF
 10
-201.67226690395108
 20
348.49580121022393
 30
0.0
 11
-201.67226690395108
 21
235.4958012102241
 31
0.0
  0
LINE
  8
0
  6
CONTINUOUS
 62
               4
  5
1E0
 10
531.32773309604886
 20
86.441739740551952
 30
0.0
 11
548.32773309604886
 21
235.64882480734121
 31
0.0
  0
LINE
  8
0
  6
CONTINUOUS
 62
               4
  5
1E1
 10
415.3277330960488
 20
86.441739740551952
 30
0.0
 11
398.32773309604892
 21
235.64882480734121
 31
0.0
  0
ARC
  8
0
  6
CONTINUOUS
 62
               4
  5
1E2
 10
334.00902427255363
 20
158.86307342781652
 30
0.0
 40
204.24864340422488
 50
353.49999999986409
 51
373.43680216733406
  0
ARC
  8
0
  6
CONTINUOUS
 62
               4
  5
1E3
 10
371.70003404061464
 20
161.14749049722423
 30
0.0
 40
167.18634723772169
 50
351.25933879879983
 51
375.67746336839878
  0
ARC
  8
0
  6
CONTINUOUS
 62
               4
  5
1E4
 10
458.34966014952118
 20
231.35157515375948
 30
0.0
 40
59.149634972654262
 50
186.49999999992826
 51
236.78754046659694
  0
ARC
  8
0
  6
CONTINUOUS
 62
               4
  5
1E5
 10
479.25465262674282
 20
243.20059225251117
 30
0.0
 40
81.261593956721953
 50
186.49999999992824
 51
229.00792456445407
  0
LINE
  8
0
  6
CONTINUOUS
 62
               4
  5
1E6
 10
548.32773309604886
 20
235.64882480734121
 30
0.0
 11
398.32773309604892
 21
235.64882480734127
 31
0.0
  0
LINE
  8
0
  6
CONTINUOUS
 62
               4
  5
1E7
 10
465.11073309604859
 20
348.49580121022387
 30
0.0
 11
465.11073309604859
 21
86.441739740551952
 31
0.0
  0
LINE
  8
0
  6
CONTINUOUS
 62
               4
  5
1E8
 10
467.32773309604869
 20
349.4958012102241
 30
0.0
 11
467.32773309604869
 21
88.713515340900983
 31
0.0
  0
LINE
  8
0
  6
CONTINUOUS
 62
               4
  5
1E9
 10
481.54473309604856
 20
348.40988105869047
 30
0.0
 11
481.54473309604856
 21
86.441739740551952
 31
0.0
  0
LINE
  8
0
  6
CONTINUOUS
 62
               4
  5
1EA
 10
479.32773309604846
 20
88.713515340900983
 30
0.0
 11
479.32773309604846
 21
349.4958012102241
 31
0.0
  0
LINE
  8
0
  6
CONTINUOUS
 62
               4
  5
1EB
 10
548.32773309604886
 20
348.49580121022387
 30
0.0
 11
548.32773309604886
 21
235.64882480734121
 31
0.0
  0
LINE
  8
0
  6
CONTINUOUS
 62
               4
  5
1EC
 10
-68.672266903950955
 20
86.495801210224215
 30
0.0
 11
-66.400491303602209
 21
88.767576810572677
 31
0.0
  0
LINE
  8
0
  6
CONTINUOUS
 62
               4
  5
1ED
 10
-69.175501770300613
 20
86.495801210223647
 30
0.0
 11
-66.400491303602209
 21
88.767576810572677
 31
0.0
  0
LINE
  8
0
  6
CONTINUOUS
 62
               4
  5
1EE
 10
467.32773309604869
 20
88.713515340900983
 30
0.0
 11
479.32773309604846
 21
88.713515340900983
 31
0.0
  0
LINE
  8
0
  6
CONTINUOUS
 62
               4
  5
1EF
 10
465.11073309604859
 20
86.441739740551952
 30
0.0
 11
467.32773309604869
 21
88.713515340900983
 31
0.0
  0
LINE
  8
0
  6
CONTINUOUS
 62
               4
  5
1F0
 10
479.32773309604846
 20
88.713515340900983
 30
0.0
 11
481.54473309604856
 21
86.441739740551952
 31
0.0
  0
LINE
  8
0
  6
CONTINUOUS
 62
               4
  5
1F1
 10
-201.67226690395131
 20
348.49580121022393
 30
0.0
 11
-149.17226690395074
 21
348.49580121022393
 31
0.0
  0
LINE
  8
0
  6
CONTINUOUS
 62
               4
  5
1F2
 10
-201.67226690395131
 20
353.49580121022393
 30
0.0
 11
-149.17226690395074
 21
353.49580121022393
 31
0.0
  0
ARC
  8
0
  6
CONTINUOUS
 62
               4
  5
1F3
 10
-149.17226690395074
 20
350.99580121022393
 30
0.0
 40
2.4999999999999996
 50
269.99999999979309
 51
449.99999999965496
  0
LINE
  8
0
  6
CONTINUOUS
 62
               4
  5
1F4
 10
-104.17226690395074
 20
348.49580121022393
 30
0.0
 11
-51.672266903951311
 21
348.49580121022393
 31
0.0
  0
LINE
  8
0
  6
CONTINUOUS
 62
               4
  5
1F5
 10
-104.17226690395074
 20
353.49580121022393
 30
0.0
 11
-51.672266903951311
 21
353.49580121022393
 31
0.0
  0
ARC
  8
0
  6
CONTINUOUS
 62
               4
  5
1F6
 10
-104.17226690395074
 20
350.99580121022393
 30
0.0
 40
2.4999999999999996
 50
89.999999999931092
 51
269.99999999979286
  0
LINE
  8
0
  6
CONTINUOUS
 62
               4
  5
1F7
 10
-651.67226690395114
 20
462.81777666678323
 30
0.0
 11
-651.67226690395159
 21
532.49580121022393
 31
0.0
  0
LINE
  8
0
  6
CONTINUOUS
 62
               4
  5
1F8
 10
-651.67226690395091
 20
333.18857787800482
 30
0.0
 11
-651.67226690395114
 21
235.4958012102241
 31
0.0
  0
ARC
  8
0
  6
CONTINUOUS
 62
               4
  5
1F9
 10
-661.67226690395114
 20
350.99580121022393
 30
0.0
 40
2.4999999999999996
 50
269.99999999999937
 51
449.9999999998609
  0
LINE
  8
0
  6
CONTINUOUS
 62
               4
  5
1FA
 10
398.32773309604892
 20
462.81777666678329
 30
0.0
 11
398.32773309604892
 21
532.49580121022393
 31
0.0
  0
LINE
  8
0
  6
CONTINUOUS
 62
               4
  5
1FB
 10
398.32773309604892
 20
235.64882480734121
 30
0.0
 11
398.32773309604869
 21
332.68857787800471
 31
0.0
  0
LINE
  8
0
  6
CONTINUOUS
 62
               4
  5
1FC
 10
-78.172266903951169
 20
934.49580121022393
 30
0.0
 11
-78.172266903951169
 21
935.16735733618816
 31
0.0
  0
LINE
  8
0
  6
CONTINUOUS
 62
               4
  5
1FD
 10
-75.67226690395114
 20
937.66735733618884
 30
0.0
 11
-78.172266903951169
 21
935.16735733618816
 31
0.0
  0
LINE
  8
0
  6
CONTINUOUS
 62
               4
  5
1FE
 10
-175.17226690395114
 20
934.49580121022393
 30
0.0
 11
-175.17226690395114
 21
935.16735733618816
 31
0.0
  0
LINE
  8
0
  6
CONTINUOUS
 62
               4
  5
1FF
 10
-177.67226690395117
 20
937.66735733618816
 30
0.0
 11
-175.17226690395114
 21
935.16735733618816
 31
0.0
  0
LINE
  8
0
  6
CONTINUOUS
 62
               4
  5
200
 10
-175.17226690395137
 20
935.16735733618816
 30
0.0
 11
-78.172266903951169
 21
935.16735733618816
 31
0.0
  0
LINE
  8
0
  6
CONTINUOUS
 62
               4
  5
201
 10
-175.02226690395116
 20
929.49580121022393
 30
0.0
 11
-78.322266903951146
 21
929.49580121022393
 31
0.0
  0
LINE
  8
0
  6
CONTINUOUS
 62
               4
  5
202
 10
-75.822266903951146
 20
934.49580121022393
 30
0.0
 11
-177.52226690395116
 21
934.49580121022393
 31
0.0
  0
LINE
  8
0
  6
CONTINUOUS
 62
               4
  5
203
 10
-177.52226690395116
 20
934.49580121022393
 30
0.0
 11
-177.52226690395116
 21
931.99580121022393
 31
0.0
  0
LINE
  8
0
  6
CONTINUOUS
 62
               4
  5
204
 10
-75.822266903951146
 20
934.49580121022393
 30
0.0
 11
-75.822266903951146
 21
931.99580121022393
 31
0.0
  0
ARC
  8
0
  6
CONTINUOUS
 62
               4
  5
205
 10
-78.322266903951146
 20
931.99580121022393
 30
0.0
 40
2.5
 50
269.99999999979286
 51
359.999999999723
  0
ARC
  8
0
  6
CONTINUOUS
 62
               4
  5
206
 10
-175.02226690395116
 20
931.99580121022393
 30
0.0
 40
2.5
 50
179.99999999986281
 51
269.99999999979309
  0
LINE
  8
0
  6
CONTINUOUS
 62
               4
  5
207
 10
-177.67226690395117
 20
937.66735733618816
 30
0.0
 11
-75.67226690395114
 21
937.66735733618896
 31
0.0
  0
LINE
  8
0
  6
CONTINUOUS
 62
               4
  5
208
 10
-180.34106733602388
 20
1014.0918024705713
 30
0.0
 11
-177.67226690395117
 21
937.66735733618816
 31
0.0
  0
LINE
  8
0
  6
CONTINUOUS
 62
               4
  5
209
 10
-72.778883522167405
 20
1020.5230167014884
 30
0.0
 11
-75.67226690395114
 21
937.66735733618896
 31
0.0
  0
ARC
  8
0
  6
CONTINUOUS
 62
               4
  5
20A
 10
-67.781929387072125
 20
1020.3485192179699
 30
0.0
 40
5.0
 50
137.40271994638104
 51
177.99999999986298
  0
LINE
  8
0
  6
CONTINUOUS
 62
               4
  5
20B
 10
-586.67226690395069
 20
453.4958012102237
 30
0.0
 11
-587.3438230299148
 21
453.4958012102237
 31
0.0
  0
LINE
  8
0
  6
CONTINUOUS
 62
               4
  5
20C
 10
-589.67226690395069
 20
455.82424508425959
 30
0.0
 11
-587.3438230299148
 21
453.4958012102237
 31
0.0
  0
LINE
  8
0
  6
CONTINUOUS
 62
               4
  5
20D
 10
-589.67226690395069
 20
455.82424508425959
 30
0.0
 11
-646.84676438746283
 21
457.82082253168767
 31
0.0
  0
ARC
  8
0
  6
CONTINUOUS
 62
               4
  5
20E
 10
-646.67226690395114
 20
462.81777666678329
 30
0.0
 40
5.0
 50
179.99999999993133
 51
267.99999999989927
  0
LINE
  8
0
  6
CONTINUOUS
 62
               4
  5
20F
 10
-586.67226690395069
 20
356.49580121022382
 30
0.0
 11
-587.3438230299148
 21
356.49580121022382
 31
0.0
  0
LINE
  8
0
  6
CONTINUOUS
 62
               4
  5
210
 10
-589.67226690395069
 20
354.1673573361885
 30
0.0
 11
-587.3438230299148
 21
356.49580121022382
 31
0.0
  0
LINE
  8
0
  6
CONTINUOUS
 62
               4
  5
211
 10
-587.3438230299148
 20
453.4958012102237
 30
0.0
 11
-587.3438230299148
 21
356.49580121022382
 31
0.0
  0
LINE
  8
0
  6
CONTINUOUS
 62
               4
  5
212
 10
-589.67226690395069
 20
354.1673573361885
 30
0.0
 11
-589.67226690395069
 21
455.82424508425959
 31
0.0
  0
LINE
  8
0
  6
CONTINUOUS
 62
               4
  5
213
 10
-589.67226690395069
 20
354.1673573361885
 30
0.0
 11
-631.83737716022779
 21
352.6949192403348
 31
0.0
  0
ARC
  8
0
  6
CONTINUOUS
 62
               4
  5
214
 10
-631.6628796767161
 20
347.69796510523975
 30
0.0
 40
4.9999999999999991
 50
91.999999999964345
 51
134.99999999994867
  0
LINE
  8
0
  6
CONTINUOUS
 62
               4
  5
215
 10
-581.67226690395069
 20
453.32424508425959
 30
0.0
 11
-581.67226690395069
 21
356.6673573361885
 31
0.0
  0
LINE
  8
0
  6
CONTINUOUS
 62
               4
  5
216
 10
-586.67226690395069
 20
455.82424508425959
 30
0.0
 11
-584.17226690395069
 21
455.82424508425959
 31
0.0
  0
ARC
  8
0
  6
CONTINUOUS
 62
               4
  5
217
 10
-584.17226690395069
 20
453.32424508425959
 30
0.0
 40
2.5
 50
0.0
 51
89.999999999965937
  0
ARC
  8
0
  6
CONTINUOUS
 62
               4
  5
218
 10
-584.17226690395069
 20
356.6673573361885
 30
0.0
 40
2.5
 50
269.99999999989518
 51
359.99999999986142
  0
LINE
  8
0
  6
CONTINUOUS
 62
               4
  5
219
 10
-586.67226690395069
 20
354.1673573361885
 30
0.0
 11
-586.67226690395069
 21
455.82424508425959
 31
0.0
  0
LINE
  8
0
  6
CONTINUOUS
 62
               4
  5
21A
 10
-586.67226690395069
 20
354.1673573361885
 30
0.0
 11
-584.17226690395069
 21
354.1673573361885
 31
0.0
  0
ARC
  8
0
  6
CONTINUOUS
 62
               4
  5
21B
 10
-646.67226690395114
 20
332.68857787800471
 30
0.0
 40
4.9999999999999991
 50
134.99999999994867
 51
179.99999999993071
  0
LINE
  8
0
  6
CONTINUOUS
 62
               4
  5
21C
 10
-650.20780080988334
 20
336.22411178393747
 30
0.0
 11
-637.93611138359665
 21
348.49580121022365
 31
0.0
  0
LINE
  8
0
  6
CONTINUOUS
 62
               4
  5
21D
 10
-637.93611138880806
 20
348.49580120501292
 30
0.0
 11
-635.19841358264864
 21
351.23349901117217
 31
0.0
  0
CIRCLE
  8
0
  6
CONTINUOUS
 62
               4
  5
21E
 10
-126.67226690395051
 20
404.99580121022382
 30
0.0
 40
50.75
  0
LINE
  8
0
  6
CONTINUOUS
 62
               4
  5
21F
 10
-145.75268880704249
 20
430.9958012102237
 30
0.0
 11
-107.59184500085809
 21
430.9958012102237
 31
0.0
  0
CIRCLE
  8
0
  6
CONTINUOUS
 62
               4
  5
220
 10
-126.67226690395051
 20
404.99580121022382
 30
0.0
 40
36.399999999999999
  0
CIRCLE
  8
0
  6
CONTINUOUS
 62
               4
  5
221
 10
-126.67226690395051
 20
404.99580121022382
 30
0.0
 40
32.25
  0
LINE
  8
0
  6
CONTINUOUS
 62
               4
  5
222
 10
-153.71910128433598
 20
377.94896682983847
 30
0.0
 11
-155.48686823730264
 21
376.18119987687191
 31
0.0
  0
LINE
  8
0
  6
CONTINUOUS
 62
               4
  5
223
 10
-99.625432523571874
 20
377.94896682983165
 30
0.0
 11
-97.857665570599764
 21
376.18119987687135
 31
0.0
  0
ARC
  8
0
  6
CONTINUOUS
 62
               4
  5
224
 10
-126.67226690395051
 20
404.99580121022382
 30
0.0
 40
38.25
 50
224.99999999990447
 51
314.99999999986437
  0
CIRCLE
  8
0
  6
CONTINUOUS
 62
               4
  5
225
 10
-126.67226690395097
 20
404.99580121022382
 30
0.0
 40
41.849999999999994
  0
CIRCLE
  8
0
  6
CONTINUOUS
 62
               4
  5
226
 10
-126.67226690395097
 20
404.99580121022382
 30
0.0
 40
40.75
  0
LINE
  8
0
  6
CONTINUOUS
 62
               4
  5
227
 10
333.32773309604846
 20
453.4958012102237
 30
0.0
 11
333.99928922201258
 21
453.4958012102237
 31
0.0
  0
LINE
  8
0
  6
CONTINUOUS
 62
               4
  5
228
 10
336.32773309604846
 20
455.82424508425959
 30
0.0
 11
333.99928922201258
 21
453.4958012102237
 31
0.0
  0
LINE
  8
0
  6
CONTINUOUS
 62
               4
  5
229
 10
336.32773309604846
 20
455.82424508425959
 30
0.0
 11
393.5022305795606
 21
457.82082253168767
 31
0.0
  0
ARC
  8
0
  6
CONTINUOUS
 62
               4
  5
22A
 10
393.32773309604892
 20
462.81777666678329
 30
0.0
 40
5.0
 50
271.99999999989353
 51
359.9999999998617
  0
LINE
  8
0
  6
CONTINUOUS
 62
               4
  5
22B
 10
333.32773309604846
 20
356.49580121022382
 30
0.0
 11
333.99928922201258
 21
356.49580121022382
 31
0.0
  0
LINE
  8
0
  6
CONTINUOUS
 62
               4
  5
22C
 10
336.32773309604846
 20
354.1673573361885
 30
0.0
 11
333.99928922201258
 21
356.49580121022382
 31
0.0
  0
LINE
  8
0
  6
CONTINUOUS
 62
               4
  5
22D
 10
333.99928922201258
 20
453.4958012102237
 30
0.0
 11
333.99928922201258
 21
356.49580121022382
 31
0.0
  0
LINE
  8
0
  6
CONTINUOUS
 62
               4
  5
22E
 10
336.32773309604846
 20
354.1673573361885
 30
0.0
 11
336.32773309604846
 21
455.82424508425959
 31
0.0
  0
LINE
  8
0
  6
CONTINUOUS
 62
               4
  5
22F
 10
336.32773309604846
 20
354.1673573361885
 30
0.0
 11
378.49284335232556
 21
352.6949192403348
 31
0.0
  0
ARC
  8
0
  6
CONTINUOUS
 62
               4
  5
230
 10
378.31834586881388
 20
347.69796510523975
 30
0.0
 40
4.9999999999999991
 50
44.999999999981824
 51
87.999999999966178
  0
LINE
  8
0
  6
CONTINUOUS
 62
               4
  5
231
 10
328.32773309604846
 20
453.32424508425959
 30
0.0
 11
328.32773309604846
 21
356.6673573361885
 31
0.0
  0
LINE
  8
0
  6
CONTINUOUS
 62
               4
  5
232
 10
333.32773309604846
 20
455.82424508425959
 30
0.0
 11
330.82773309604846
 21
455.82424508425959
 31
0.0
  0
ARC
  8
0
  6
CONTINUOUS
 62
               4
  5
233
 10
330.82773309604846
 20
453.32424508425959
 30
0.0
 40
2.5
 50
89.999999999965937
 51
179.99999999993068
  0
ARC
  8
0
  6
CONTINUOUS
 62
               4
  5
234
 10
330.82773309604846
 20
356.6673573361885
 30
0.0
 40
2.5
 50
179.99999999993057
 51
269.99999999989518
  0
LINE
  8
0
  6
CONTINUOUS
 62
               4
  5
235
 10
333.32773309604846
 20
354.1673573361885
 30
0.0
 11
333.32773309604846
 21
455.82424508425959
 31
0.0
  0
LINE
  8
0
  6
CONTINUOUS
 62
               4
  5
236
 10
333.32773309604846
 20
354.1673573361885
 30
0.0
 11
330.82773309604846
 21
354.1673573361885
 31
0.0
  0
ARC
  8
0
  6
CONTINUOUS
 62
               4
  5
237
 10
393.32773309604892
 20
332.68857787800471
 30
0.0
 40
4.9999999999999991
 50
0.0
 51
44.999999999981362
  0
LINE
  8
0
  6
CONTINUOUS
 62
               4
  5
238
 10
396.86326700198111
 20
336.22411178393747
 30
0.0
 11
384.59157757569454
 21
348.49580121022365
 31
0.0
  0
LINE
  8
0
  6
CONTINUOUS
 62
               4
  5
239
 10
384.59157758090583
 20
348.49580120501292
 30
0.0
 11
381.85387977474647
 21
351.23349901117217
 31
0.0
  0
LINE
  8
0
  6
CONTINUOUS
 62
               4
  5
23A
 10
-792.17226690395205
 20
-135.49005705929483
 30
0.0
 11
-661.17226690395
 21
-135.49005705929483
 31
0.0
  0
LINE
  8
0
  6
CONTINUOUS
 62
               4
  5
23B
 10
-217.67226690395159
 20
-36.249420577098249
 30
0.0
 11
-217.67226690395159
 21
-26.375134370042474
 31
0.0
  0
LINE
  8
0
  6
CONTINUOUS
 62
               4
  5
23C
 10
-35.672266903951837
 20
-36.249420577098249
 30
0.0
 11
-35.672266903951837
 21
-26.375134370042474
 31
0.0
  0
LINE
  8
0
  6
CONTINUOUS
 62
               4
  5
23D
 10
-192.17226690395262
 20
-135.50419878977459
 30
0.0
 11
-61.1722669039507
 21
-135.50419878977459
 31
0.0
  0
LINE
  8
0
  6
CONTINUOUS
 62
               4
  5
23E
 10
407.8277330960471
 20
-135.5041987897747
 30
0.0
 11
538.82773309604909
 21
-135.5041987897747
 31
0.0
  0
CIRCLE
  8
0
  6
CONTINUOUS
 62
               4
  5
23F
 10
-126.67226690395107
 20
1074.4958012102238
 30
0.0
 40
59.0
  0
LINE
  8
0
  6
CONTINUOUS
 62
               4
  5
240
 10
-201.67226690395108
 20
639.49580121022393
 30
0.0
 11
-51.672266903951083
 21
639.49580121022393
 31
0.0
  0
LINE
  8
0
  6
CONTINUOUS
 62
               4
  5
241
 10
-215.17226690395131
 20
629.49580121022393
 30
0.0
 11
-215.17226690395131
 21
622.49580121022427
 31
0.0
  0
LINE
  8
0
  6
CONTINUOUS
 62
               4
  5
242
 10
-215.17226690395131
 20
629.49580121022393
 30
0.0
 11
-201.67226690395108
 21
639.49580121022393
 31
0.0
  0
ARC
  8
0
  6
CONTINUOUS
 62
               4
  5
243
 10
-203.67226690395097
 20
617.91322551526855
 30
0.0
 40
4.9999999999999991
 50
0.0
 51
66.421821521747248
  0
LINE
  8
0
  6
CONTINUOUS
 62
               4
  5
244
 10
-215.17226690395131
 20
622.49580121022427
 30
0.0
 11
-38.172266903951424
 21
622.49580121022427
 31
0.0
  0
LINE
  8
0
  6
CONTINUOUS
 62
               4
  5
245
 10
-146.67226690395108
 20
622.49580121022427
 30
0.0
 11
-146.67226690395108
 21
639.49580121022393
 31
0.0
  0
LINE
  8
0
  6
CONTINUOUS
 62
               4
  5
246
 10
-106.67226690395107
 20
639.49580121022393
 30
0.0
 11
-106.67226690395107
 21
622.49580121022427
 31
0.0
  0
LINE
  8
0
  6
CONTINUOUS
 62
               4
  5
247
 10
-146.67226690395108
 20
629.49580121022393
 30
0.0
 11
-106.67226690395107
 21
629.49580121022393
 31
0.0
  0
LINE
  8
0
  6
CONTINUOUS
 62
               4
  5
248
 10
-198.95642837795646
 20
639.49580121022393
 30
0.0
 11
-198.95642837795646
 21
622.49580121022427
 31
0.0
  0
LINE
  8
0
  6
CONTINUOUS
 62
               4
  5
249
 10
-212.88276510457632
 20
629.49580121022393
 30
0.0
 11
-212.88276510457632
 21
622.49580121022427
 31
0.0
  0
LINE
  8
0
  6
CONTINUOUS
 62
               4
  5
24A
 10
-215.17226690395131
 20
629.49580121022393
 30
0.0
 11
-212.88276510457632
 21
629.49580121022393
 31
0.0
  0
LINE
  8
0
  6
CONTINUOUS
 62
               4
  5
24B
 10
-212.88276510457632
 20
629.49580121022393
 30
0.0
 11
-198.95642837795646
 21
639.49580121022393
 31
0.0
  0
LINE
  8
0
  6
CONTINUOUS
 62
               4
  5
24C
 10
-38.172266903951424
 20
629.49580121022393
 30
0.0
 11
-38.172266903951424
 21
622.49580121022427
 31
0.0
  0
LINE
  8
0
  6
CONTINUOUS
 62
               4
  5
24D
 10
-38.172266903951424
 20
629.49580121022393
 30
0.0
 11
-51.672266903951083
 21
639.49580121022393
 31
0.0
  0
ARC
  8
0
  6
CONTINUOUS
 62
               4
  5
24E
 10
-49.672266903951197
 20
617.91322551526855
 30
0.0
 40
4.9999999999999991
 50
113.57817847811468
 51
179.99999999986184
  0
LINE
  8
0
  6
CONTINUOUS
 62
               4
  5
24F
 10
-54.388105429946847
 20
639.49580121022393
 30
0.0
 11
-54.388105429946847
 21
622.49580121022427
 31
0.0
  0
LINE
  8
0
  6
CONTINUOUS
 62
               4
  5
250
 10
-40.461768703325845
 20
629.49580121022393
 30
0.0
 11
-40.461768703325845
 21
622.49580121022427
 31
0.0
  0
LINE
  8
0
  6
CONTINUOUS
 62
               4
  5
251
 10
-38.172266903951424
 20
629.49580121022393
 30
0.0
 11
-40.461768703325845
 21
629.49580121022393
 31
0.0
  0
LINE
  8
0
  6
CONTINUOUS
 62
               4
  5
252
 10
-40.461768703325845
 20
629.49580121022393
 30
0.0
 11
-54.388105429946847
 21
639.49580121022393
 31
0.0
  0
LINE
  8
0
  6
CONTINUOUS
 62
               4
  5
253
 10
548.32773309604886
 20
639.49580121022393
 30
0.0
 11
398.32773309604892
 21
639.49580121022393
 31
0.0
  0
LINE
  8
0
  6
CONTINUOUS
 62
               4
  5
254
 10
561.82773309604909
 20
629.49580121022393
 30
0.0
 11
561.82773309604909
 21
622.49580121022427
 31
0.0
  0
LINE
  8
0
  6
CONTINUOUS
 62
               4
  5
255
 10
561.82773309604909
 20
629.49580121022393
 30
0.0
 11
548.32773309604886
 21
639.49580121022393
 31
0.0
  0
ARC
  8
0
  6
CONTINUOUS
 62
               4
  5
256
 10
550.32773309604886
 20
617.91322551526855
 30
0.0
 40
4.9999999999999991
 50
113.57817847811482
 51
179.99999999986184
  0
LINE
  8
0
  6
CONTINUOUS
 62
               4
  5
257
 10
561.82773309604909
 20
622.49580121022427
 30
0.0
 11
384.82773309604875
 21
622.49580121022427
 31
0.0
  0
LINE
  8
0
  6
CONTINUOUS
 62
               4
  5
258
 10
493.32773309604892
 20
622.49580121022427
 30
0.0
 11
493.32773309604892
 21
639.49580121022393
 31
0.0
  0
LINE
  8
0
  6
CONTINUOUS
 62
               4
  5
259
 10
453.32773309604892
 20
639.49580121022393
 30
0.0
 11
453.32773309604892
 21
622.49580121022427
 31
0.0
  0
LINE
  8
0
  6
CONTINUOUS
 62
               4
  5
25A
 10
493.32773309604892
 20
629.49580121022393
 30
0.0
 11
453.32773309604892
 21
629.49580121022393
 31
0.0
  0
LINE
  8
0
  6
CONTINUOUS
 62
               4
  5
25B
 10
545.61189457005366
 20
639.49580121022393
 30
0.0
 11
545.61189457005366
 21
622.49580121022427
 31
0.0
  0
LINE
  8
0
  6
CONTINUOUS
 62
               4
  5
25C
 10
559.53823129667421
 20
629.49580121022393
 30
0.0
 11
559.53823129667421
 21
622.49580121022427
 31
0.0
  0
LINE
  8
0
  6
CONTINUOUS
 62
               4
  5
25D
 10
561.82773309604909
 20
629.49580121022393
 30
0.0
 11
559.53823129667421
 21
629.49580121022393
 31
0.0
  0
LINE
  8
0
  6
CONTINUOUS
 62
               4
  5
25E
 10
559.53823129667421
 20
629.49580121022393
 30
0.0
 11
545.61189457005366
 21
639.49580121022393
 31
0.0
  0
LINE
  8
0
  6
CONTINUOUS
 62
               4
  5
25F
 10
384.82773309604875
 20
629.49580121022393
 30
0.0
 11
384.82773309604875
 21
622.49580121022427
 31
0.0
  0
LINE
  8
0
  6
CONTINUOUS
 62
               4
  5
260
 10
384.82773309604875
 20
629.49580121022393
 30
0.0
 11
398.32773309604892
 21
639.49580121022393
 31
0.0
  0
ARC
  8
0
  6
CONTINUOUS
 62
               4
  5
261
 10
396.32773309604914
 20
617.91322551526855
 30
0.0
 40
4.9999999999999991
 50
0.0
 51
66.421821521746807
  0
LINE
  8
0
  6
CONTINUOUS
 62
               4
  5
262
 10
401.04357162204411
 20
639.49580121022393
 30
0.0
 11
401.04357162204411
 21
622.49580121022427
 31
0.0
  0
LINE
  8
0
  6
CONTINUOUS
 62
               4
  5
263
 10
387.11723489542379
 20
629.49580121022393
 30
0.0
 11
387.11723489542379
 21
622.49580121022427
 31
0.0
  0
LINE
  8
0
  6
CONTINUOUS
 62
               4
  5
264
 10
384.82773309604875
 20
629.49580121022393
 30
0.0
 11
387.11723489542379
 21
629.49580121022393
 31
0.0
  0
LINE
  8
0
  6
CONTINUOUS
 62
               4
  5
265
 10
387.11723489542379
 20
629.49580121022393
 30
0.0
 11
401.04357162204411
 21
639.49580121022393
 31
0.0
  0
LINE
  8
0
  6
CONTINUOUS
 62
               4
  5
266
 10
-801.67226690395091
 20
639.49580121022393
 30
0.0
 11
-651.67226690395137
 21
639.49580121022393
 31
0.0
  0
LINE
  8
0
  6
CONTINUOUS
 62
               4
  5
267
 10
-815.17226690395114
 20
629.49580121022393
 30
0.0
 11
-815.17226690395114
 21
622.49580121022427
 31
0.0
  0
LINE
  8
0
  6
CONTINUOUS
 62
               4
  5
268
 10
-815.17226690395114
 20
629.49580121022393
 30
0.0
 11
-801.67226690395091
 21
639.49580121022393
 31
0.0
  0
ARC
  8
0
  6
CONTINUOUS
 62
               4
  5
269
 10
-803.67226690395069
 20
617.91322551526855
 30
0.0
 40
4.9999999999999991
 50
0.0
 51
66.421821521746807
  0
LINE
  8
0
  6
CONTINUOUS
 62
               4
  5
26A
 10
-815.17226690395114
 20
622.49580121022427
 30
0.0
 11
-638.17226690395114
 21
622.49580121022427
 31
0.0
  0
LINE
  8
0
  6
CONTINUOUS
 62
               4
  5
26B
 10
-746.67226690395091
 20
622.49580121022427
 30
0.0
 11
-746.67226690395091
 21
639.49580121022393
 31
0.0
  0
LINE
  8
0
  6
CONTINUOUS
 62
               4
  5
26C
 10
-706.67226690395137
 20
639.49580121022393
 30
0.0
 11
-706.67226690395137
 21
622.49580121022427
 31
0.0
  0
LINE
  8
0
  6
CONTINUOUS
 62
               4
  5
26D
 10
-746.67226690395091
 20
629.49580121022393
 30
0.0
 11
-706.67226690395137
 21
629.49580121022393
 31
0.0
  0
LINE
  8
0
  6
CONTINUOUS
 62
               4
  5
26E
 10
-798.95642837795504
 20
639.49580121022393
 30
0.0
 11
-798.95642837795504
 21
622.49580121022427
 31
0.0
  0
LINE
  8
0
  6
CONTINUOUS
 62
               4
  5
26F
 10
-812.88276510457604
 20
629.49580121022393
 30
0.0
 11
-812.88276510457604
 21
622.49580121022427
 31
0.0
  0
LINE
  8
0
  6
CONTINUOUS
 62
               4
  5
270
 10
-815.17226690395114
 20
629.49580121022393
 30
0.0
 11
-812.88276510457604
 21
629.49580121022393
 31
0.0
  0
LINE
  8
0
  6
CONTINUOUS
 62
               4
  5
271
 10
-812.88276510457604
 20
629.49580121022393
 30
0.0
 11
-798.95642837795504
 21
639.49580121022393
 31
0.0
  0
LINE
  8
0
  6
CONTINUOUS
 62
               4
  5
272
 10
-638.17226690395114
 20
629.49580121022393
 30
0.0
 11
-638.17226690395114
 21
622.49580121022427
 31
0.0
  0
LINE
  8
0
  6
CONTINUOUS
 62
               4
  5
273
 10
-638.17226690395114
 20
629.49580121022393
 30
0.0
 11
-651.67226690395137
 21
639.49580121022393
 31
0.0
  0
ARC
  8
0
  6
CONTINUOUS
 62
               4
  5
274
 10
-649.67226690395091
 20
617.91322551526855
 30
0.0
 40
4.9999999999999991
 50
113.57817847811482
 51
179.99999999986184
  0
LINE
  8
0
  6
CONTINUOUS
 62
               4
  5
275
 10
-654.38810542994611
 20
639.49580121022393
 30
0.0
 11
-654.38810542994611
 21
622.49580121022427
 31
0.0
  0
LINE
  8
0
  6
CONTINUOUS
 62
               4
  5
276
 10
-640.46176870332556
 20
629.49580121022393
 30
0.0
 11
-640.46176870332556
 21
622.49580121022427
 31
0.0
  0
LINE
  8
0
  6
CONTINUOUS
 62
               4
  5
277
 10
-638.17226690395114
 20
629.49580121022393
 30
0.0
 11
-640.46176870332556
 21
629.49580121022393
 31
0.0
  0
LINE
  8
0
  6
CONTINUOUS
 62
               4
  5
278
 10
-640.46176870332556
 20
629.49580121022393
 30
0.0
 11
-654.38810542994611
 21
639.49580121022393
 31
0.0
  0
POINT
  8
0
  6
CONTINUOUS
 62
               4
  5
279
 10
-373.71003595441971
 20
-607.54549887461644
 30
0.0
  0
POINT
  8
0
  6
CONTINUOUS
 62
               4
  5
27A
 10
-663.91003595441953
 20
-607.54549887461644
 30
0.0
  0
POINT
  8
0
  6
CONTINUOUS
 62
               4
  5
27B
 10
-476.25599335018626
 20
-499.47761480558154
 30
0.0
  0
POINT
  8
0
  6
CONTINUOUS
 62
               4
  5
27C
 10
116.16165678192998
 20
-607.54549887461644
 30
0.0
  0
POINT
  8
0
  6
CONTINUOUS
 62
               4
  5
27D
 10
-127.75037566855588
 20
-607.54549887461644
 30
0.0
  0
POINT
  8
0
  6
CONTINUOUS
 62
               4
  5
27E
 10
38.705640556687158
 20
-519.58948264937374
 30
0.0
  0
LINE
  8
0
  6
CONTINUOUS
 62
               4
  5
27F
 10
559.6142563123567
 20
-999.32484329855697
 30
0.0
 11
554.6142563123567
 21
-994.32484329855697
 31
0.0
  0
ARC
  8
0
  6
CONTINUOUS
 62
               4
  5
280
 10
537.1142563123567
 20
-1009.8604970514098
 30
0.0
 40
19.999999999999996
 50
0.0
 51
31.78833061703342
  0
LINE
  8
0
  6
CONTINUOUS
 62
               4
  5
281
 10
554.11425631235716
 20
-999.32484329855697
 30
0.0
 11
554.11425631235716
 21
-994.32484329855652
 31
0.0
  0
LINE
  8
0
  6
CONTINUOUS
 62
               4
  5
282
 10
554.6142563123567
 20
-994.32484329855697
 30
0.0
 11
554.11425631235716
 21
-994.32484329855697
 31
0.0
  0
LINE
  8
0
  6
CONTINUOUS
 62
               4
  5
283
 10
559.36425631235693
 20
-999.57484329855697
 30
0.0
 11
554.11425631235716
 21
-994.32484329855697
 31
0.0
  0
LINE
  8
0
  6
CONTINUOUS
 62
               4
  5
284
 10
559.36425631235693
 20
-999.57484329855697
 30
0.0
 11
559.6142563123567
 21
-999.32484329855697
 31
0.0
  0
LINE
  8
0
  6
CONTINUOUS
 62
               4
  5
285
 10
559.6142563123567
 20
-999.32484329855697
 30
0.0
 11
559.6142563123567
 21
-1130.013520648527
 31
0.0
  0
LINE
  8
0
  6
CONTINUOUS
 62
               4
  5
286
 10
559.36425631235693
 20
-999.57484329855697
 30
0.0
 11
559.36425631235693
 21
-1129.7281635413915
 31
0.0
  0
LINE
  8
0
  6
CONTINUOUS
 62
               4
  5
287
 10
557.1142563123567
 20
-1009.7074734542925
 30
0.0
 11
557.1142563123567
 21
-1128.8604970514098
 31
0.0
  0
POINT
  8
0
  6
CONTINUOUS
 62
               4
  5
288
 10
527.11425631235693
 20
-738.76106330282573
 30
0.0
  0
POINT
  8
0
  6
CONTINUOUS
 62
               4
  5
289
 10
338.21425631235684
 20
-1024.3604970514098
 30
0.0
  0
POINT
  8
0
  6
CONTINUOUS
 62
               4
  5
28A
 10
338.21425631235695
 20
-638.86106330282519
 30
0.0
  0
POINT
  8
0
  6
CONTINUOUS
 62
               4
  5
28B
 10
-150.29435944331289
 20
-1031.0454988746162
 30
0.0
  0
POINT
  8
0
  6
CONTINUOUS
 62
               4
  5
28C
 10
138.70564055668694
 20
-1031.0454988746164
 30
0.0
  0
POINT
  8
0
  6
CONTINUOUS
 62
               4
  5
28D
 10
45.205640556687101
 20
-937.54549887461667
 30
0.0
  0
LINE
  8
0
  6
DASHDOT
 62
               4
  5
28E
 10
-126.67226690395108
 20
1182.9958012102238
 30
0.0
 11
-126.67226690395108
 21
909.49580121022393
 31
0.0
  0
LINE
  8
0
  6
DASHDOT
 62
               4
  5
28F
 10
-288.67226690395097
 20
1074.4958012102238
 30
0.0
 11
-18.172266903950856
 21
1074.4958012102238
 31
0.0
  0
LINE
  8
0
  6
DASHDOT
 62
               4
  5
290
 10
-288.67226690395097
 20
473.49580121022393
 30
0.0
 11
-188.67226690395097
 21
473.49580121022393
 31
0.0
  0
LINE
  8
0
  6
DASHDOT
 62
               4
  5
291
 10
-126.67226690395108
 20
659.49580121022393
 30
0.0
 11
-126.67226690395108
 21
-265.72538422002083
 31
0.0
  0
LINE
  8
0
  6
DASHDOT
 62
               4
  5
292
 10
-658.14704212872698
 20
473.49580121022393
 30
0.0
 11
-794.84784132952632
 21
473.49580121022393
 31
0.0
  0
LINE
  8
0
  6
DASHDOT
 62
               4
  5
293
 10
473.32773309604892
 20
659.49580121022393
 30
0.0
 11
473.32773309604892
 21
-265.72538422002083
 31
0.0
  0
LINE
  8
0
  6
DASHDOT
 62
               4
  5
294
 10
-726.67226690395114
 20
659.49580121022393
 30
0.0
 11
-726.67226690395114
 21
-265.72538422002083
 31
0.0
  0
LINE
  8
0
  6
DASHDOT
 62
               4
  5
295
 10
-661.67226690395069
 20
404.99580121022404
 30
0.0
 11
-561.67226690395069
 21
404.99580121022404
 31
0.0
  0
LINE
  8
0
  6
DASHDOT
 62
               4
  5
296
 10
-187.42226690395051
 20
404.99580121022382
 30
0.0
 11
-65.922266903950515
 21
404.99580121022382
 31
0.0
  0
LINE
  8
0
  6
DASHDOT
 62
               4
  5
297
 10
408.32773309604846
 20
404.99580121022404
 30
0.0
 11
308.32773309604846
 21
404.99580121022404
 31
0.0
  0
LINE
  8
0
  6
DASHDOT
 62
               4
  5
298
 10
-251.67226690395165
 20
90.485903208229502
 30
0.0
 11
-251.67226690395165
 21
-73.892458411260918
 31
0.0
  0
LINE
  8
0
  6
DASHDOT
 62
               4
  5
299
 10
-1.672266903951666
 20
90.485903208229502
 30
0.0
 11
-1.672266903951666
 21
-73.892458411260918
 31
0.0
  0
LINE
  8
0
  6
DASHDOT
 62
               4
  5
29A
 10
-518.81003595441985
 20
-716.54549887461644
 30
0.0
 11
-518.81003595441962
 21
-587.54549887461656
 31
0.0
  0
LINE
  8
0
  6
DASHDOT
 62
               4
  5
29B
 10
-576.81003595441962
 20
-658.54549887461644
 30
0.0
 11
-460.81003595441973
 21
-658.54549887461644
 31
0.0
  0
LINE
  8
0
  6
DASHDOT
 62
               4
  5
29C
 10
-588.61321443852717
 20
-652.04549887461644
 30
0.0
 11
-454.31003595441973
 21
-652.04549887461644
 31
0.0
  0
LINE
  8
0
  6
DASHDOT
 62
               4
  5
29D
 10
-394.91003595441964
 20
-652.04549887461644
 30
0.0
 11
-296.31003595441973
 21
-652.04549887461644
 31
0.0
  0
LINE
  8
0
  6
DASHDOT
 62
               4
  5
29E
 10
-429.31003595441973
 20
-658.54549887461644
 30
0.0
 11
-354.91003595441975
 21
-658.54549887461644
 31
0.0
  0
LINE
  8
0
  6
DASHDOT
 62
               4
  5
29F
 10
-642.71003595441948
 20
-652.04549887461644
 30
0.0
 11
-741.31003595441962
 21
-652.04549887461599
 31
0.0
  0
LINE
  8
0
  6
DASHDOT
 62
               4
  5
2A0
 10
-608.31003595441962
 20
-658.54549887461644
 30
0.0
 11
-682.71003595441948
 21
-658.54549887461644
 31
0.0
  0
LINE
  8
0
  6
DASHDOT
 62
               4
  5
2A1
 10
-520.75599335018637
 20
-555.07761480558145
 30
0.0
 11
-520.75599335018637
 21
-422.07761480558145
 31
0.0
  0
LINE
  8
0
  6
DASHDOT
 62
               4
  5
2A2
 10
94.961656781929932
 20
-652.04549887461644
 30
0.0
 11
193.56165678193008
 21
-652.04549887461644
 31
0.0
  0
LINE
  8
0
  6
DASHDOT
 62
               4
  5
2A3
 10
69.961656781929932
 20
-666.54549887461644
 30
0.0
 11
134.96165678192995
 21
-666.54549887461644
 31
0.0
  0
LINE
  8
0
  6
DASHDOT
 62
               4
  5
2A4
 10
-55.794359443313056
 20
-666.54549887461644
 30
0.0
 11
44.205640556687158
 21
-666.54549887461644
 31
0.0
  0
LINE
  8
0
  6
DASHDOT
 62
               4
  5
2A5
 10
-5.7943594433130556
 20
-716.54549887461644
 30
0.0
 11
-5.7943594433128283
 21
-587.54549887461656
 31
0.0
  0
LINE
  8
0
  6
DASHDOT
 62
               4
  5
2A6
 10
-70.294359443313056
 20
-652.04549887461644
 30
0.0
 11
64.249650336638169
 21
-652.04549887461644
 31
0.0
  0
LINE
  8
0
  6
DASHDOT
 62
               4
  5
2A7
 10
-106.55037566855583
 20
-652.04549887461644
 30
0.0
 11
-205.15037566855585
 21
-652.04549887461644
 31
0.0
  0
LINE
  8
0
  6
DASHDOT
 62
               4
  5
2A8
 10
-81.55037566855583
 20
-666.54549887461644
 30
0.0
 11
-146.55037566855583
 21
-666.54549887461644
 31
0.0
  0
LINE
  8
0
  6
DASHDOT
 62
               4
  5
2A9
 10
-5.7943594433128283
 20
-565.78948264937378
 30
0.0
 11
-5.7943594433128283
 21
-442.18948264937364
 31
0.0
  0
LINE
  8
0
  6
DASHDOT
 62
               4
  5
2AA
 10
482.61425631235687
 20
-485.86106330282553
 30
0.0
 11
482.61425631235687
 21
-756.40785010265199
 31
0.0
  0
LINE
  8
0
  6
DASHDOT
 62
               4
  5
2AB
 10
320.61425631235693
 20
-594.36106330282553
 30
0.0
 11
591.11425631235716
 21
-594.36106330282553
 31
0.0
  0
LINE
  8
0
  6
DASHDOT
 62
               4
  5
2AC
 10
551.13948108758154
 20
-1068.8604970514098
 30
0.0
 11
320.88564301892859
 21
-1068.8604970514098
 31
0.0
  0
LINE
  8
0
  6
DASHDOT
 62
               4
  5
2AD
 10
482.61425631235687
 20
-882.86049705140977
 30
0.0
 11
482.61425631235687
 21
-1133.8604970514098
 31
0.0
  0
LINE
  8
0
  6
DASHDOT
 62
               4
  5
2AE
 10
432.61425631235687
 20
-1083.3604970514098
 30
0.0
 11
532.61425631235716
 21
-1083.3604970514098
 31
0.0
  0
LINE
  8
0
  6
DASHDOT
 62
               4
  5
2AF
 10
482.61425631235687
 20
-784.96106330282555
 30
0.0
 11
482.61425631235687
 21
-661.36106330282519
 31
0.0
  0
LINE
  8
0
  6
DASHDOT
 62
               4
  5
2B0
 10
282.61425631235682
 20
-1075.3604970514098
 30
0.0
 11
357.01425631235679
 21
-1075.3604970514098
 31
0.0
  0
LINE
  8
0
  6
DASHDOT
 62
               4
  5
2B1
 10
282.61425631235704
 20
-594.3610633028253
 30
0.0
 11
415.6142563123571
 21
-594.3610633028253
 31
0.0
  0
LINE
  8
0
  6
DASHDOT
 62
               4
  5
2B2
 10
-5.7943594433130698
 20
-1140.0454988746164
 30
0.0
 11
-5.794359443313013
 21
-1024.0454988746164
 31
0.0
  0
LINE
  8
0
  6
DASHDOT
 62
               4
  5
2B3
 10
-63.794359443313013
 20
-1082.0454988746164
 30
0.0
 11
52.205640556686987
 21
-1082.0454988746164
 31
0.0
  0
LINE
  8
0
  6
DASHDOT
 62
               4
  5
2B4
 10
-55.794359443313013
 20
-1090.0454988746164
 30
0.0
 11
44.205640556686987
 21
-1090.0454988746164
 31
0.0
  0
LINE
  8
0
  6
DASHDOT
 62
               4
  5
2B5
 10
-169.72058769990196
 20
-1090.0454988746164
 30
0.0
 11
-104.25129187983261
 21
-1090.0454988746164
 31
0.0
  0
LINE
  8
0
  6
DASHDOT
 62
               4
  5
2B6
 10
-228.294359443313
 20
-1082.0454988746164
 30
0.0
 11
-129.69435944331292
 21
-1082.0454988746164
 31
0.0
  0
LINE
  8
0
  6
DASHDOT
 62
               4
  5
2B7
 10
158.13186881327596
 20
-1090.0454988746167
 30
0.0
 11
92.662572993206581
 21
-1090.0454988746164
 31
0.0
  0
LINE
  8
0
  6
DASHDOT
 62
               4
  5
2B8
 10
216.705640556687
 20
-1082.0454988746167
 30
0.0
 11
118.10564055668691
 21
-1082.0454988746164
 31
0.0
  0
LINE
  8
0
  6
DASHDOT
 62
               4
  5
2B9
 10
-5.7943594433130698
 20
-859.54549887461644
 30
0.0
 11
-5.7943594433130698
 21
-983.5885664380969
 31
0.0
  0
LINE
  8
0
  6
DASHED2
 62
               4
  5
2BA
 10
-183.67226690395097
 20
574.49580121022393
 30
0.0
 11
-69.672266903951197
 21
574.49580121022393
 31
0.0
  0
LINE
  8
0
  6
DASHED2
 62
               4
  5
2BB
 10
-783.67226690395159
 20
574.49580121022393
 30
0.0
 11
-669.67226690395182
 21
574.49580121022393
 31
0.0
  0
LINE
  8
0
  6
DASHED2
 62
               4
  5
2BC
 10
416.32773309604903
 20
574.49580121022393
 30
0.0
 11
530.32773309604886
 21
574.49580121022393
 31
0.0
  0
LINE
  8
0
  6
DASHED2
 62
               4
  5
2BD
 10
-69.672266903951183
 20
74.495801210223931
 30
0.0
 11
-69.672266903951183
 21
-25.504198789776069
 31
0.0
  0
LINE
  8
0
  6
DASHED2
 62
               4
  5
2BE
 10
-183.80511245808202
 20
74.495801210223931
 30
0.0
 11
-183.80511245808202
 21
-25.602626535227273
 31
0.0
  0
LINE
  8
0
  6
DASHED2
 62
               4
  5
2BF
 10
-183.80511245808202
 20
74.495801210223931
 30
0.0
 11
-69.672266903951183
 21
74.495801210223931
 31
0.0
  0
LINE
  8
0
  6
DASHED2
 62
               4
  5
2C0
 10
-69.672266903951183
 20
74.495801210223931
 30
0.0
 11
-68.672266903950955
 21
75.495801210224158
 31
0.0
  0
LINE
  8
0
  6
DASHED2
 62
               4
  5
2C1
 10
-183.80511245808202
 20
74.495801210223931
 30
0.0
 11
-184.6722669039512
 21
75.362955656093106
 31
0.0
  0
LINE
  8
0
  6
DASHED2
 62
               4
  5
2C2
 10
-68.672266903950955
 20
75.495801210224158
 30
0.0
 11
-68.672266903950955
 21
86.495801210223703
 31
0.0
  0
LINE
  8
0
  6
DASHED2
 62
               4
  5
2C3
 10
-184.6722669039512
 20
75.362955656093106
 30
0.0
 11
-184.6722669039512
 21
86.495801210223647
 31
0.0
  0
LINE
  8
0
  6
DASHED2
 62
               4
  5
2C4
 10
-69.672266903951183
 20
-25.504198789776069
 30
0.0
 11
-183.67226690395125
 21
-25.504198789776069
 31
0.0
  0
LINE
  8
0
  6
DASHED2
 62
               4
  5
2C5
 10
416.32773309604983
 20
74.420239740551892
 30
0.0
 11
416.32773309604983
 21
-25.504198789776069
 31
0.0
  0
LINE
  8
0
  6
DASHED2
 62
               4
  5
2C6
 10
473.32773309604949
 20
-25.504198789776069
 30
0.0
 11
416.32773309604926
 21
-25.504198789776069
 31
0.0
  0
LINE
  8
0
  6
DASHED2
 62
               4
  5
2C7
 10
530.32773309604886
 20
74.420239740551892
 30
0.0
 11
530.32773309604909
 21
-25.504198789776069
 31
0.0
  0
LINE
  8
0
  6
DASHED2
 62
               4
  5
2C8
 10
473.32773309604949
 20
-25.504198789776069
 30
0.0
 11
530.32773309604931
 21
-25.504198789776069
 31
0.0
  0
LINE
  8
0
  6
DASHED2
 62
               4
  5
2C9
 10
416.19488754191792
 20
74.420239740551892
 30
0.0
 11
530.32773309604886
 21
74.420239740551892
 31
0.0
  0
LINE
  8
0
  6
DASHED2
 62
               4
  5
2CA
 10
530.32773309604886
 20
74.420239740551892
 30
0.0
 11
531.32773309604909
 21
75.42023974055212
 31
0.0
  0
LINE
  8
0
  6
DASHED2
 62
               4
  5
2CB
 10
416.19488754191792
 20
74.420239740551892
 30
0.0
 11
415.32773309604869
 21
75.287394186421068
 31
0.0
  0
LINE
  8
0
  6
DASHED2
 62
               4
  5
2CC
 10
-783.67226690395023
 20
74.495801210223931
 30
0.0
 11
-783.67226690395023
 21
-25.428637320104031
 31
0.0
  0
LINE
  8
0
  6
DASHED2
 62
               4
  5
2CD
 10
-669.67226690395114
 20
74.495801210223931
 30
0.0
 11
-669.67226690395091
 21
-25.428637320104031
 31
0.0
  0
LINE
  8
0
  6
DASHED2
 62
               4
  5
2CE
 10
-783.80511245808202
 20
74.495801210223931
 30
0.0
 11
-669.67226690395114
 21
74.495801210223931
 31
0.0
  0
LINE
  8
0
  6
DASHED2
 62
               4
  5
2CF
 10
-669.67226690395114
 20
74.495801210223931
 30
0.0
 11
-668.67226690395091
 21
75.495801210224158
 31
0.0
  0
LINE
  8
0
  6
DASHED2
 62
               4
  5
2D0
 10
-783.80511245808202
 20
74.495801210223931
 30
0.0
 11
-784.67226690395114
 21
75.362955656093106
 31
0.0
  0
LINE
  8
0
  6
DASHED2
 62
               4
  5
2D1
 10
-784.67226690395114
 20
75.362955656093106
 30
0.0
 11
-784.67226690395114
 21
86.495801210223647
 31
0.0
  0
LINE
  8
0
  6
DASHED2
 62
               4
  5
2D2
 10
-668.67226690395091
 20
75.495801210224158
 30
0.0
 11
-668.67226690395091
 21
86.495801210223703
 31
0.0
  0
LINE
  8
0
  6
DASHED2
 62
               4
  5
2D3
 10
415.3277330960488
 20
75.362955656093106
 30
0.0
 11
415.3277330960488
 21
86.420239740551892
 31
0.0
  0
LINE
  8
0
  6
DASHED2
 62
               4
  5
2D4
 10
531.32773309604909
 20
75.42023974055212
 30
0.0
 11
531.32773309604909
 21
86.420239740551665
 31
0.0
  0
LINE
  8
0
  6
DASHED2
 62
               4
  5
2D5
 10
-783.67226690395069
 20
-25.504198789776297
 30
0.0
 11
-669.67226690395069
 21
-25.504198789776297
 31
0.0
  0
LINE
  8
0
  6
DASHED2
 62
               4
  5
2D6
 10
-738.43226690394999
 20
-30.490057059296078
 30
0.0
 11
-738.43226690394999
 21
-21.963928559988858
 31
0.0
  0
LINE
  8
0
  6
DASHED2
 62
               4
  5
2D7
 10
-732.54329415821553
 20
-21.963928559988858
 30
0.0
 11
-732.54329415821553
 21
-30.490057059296078
 31
0.0
  0
LINE
  8
0
  6
DASHED2
 62
               4
  5
2D8
 10
-735.48778053108254
 20
-20.890057059295941
 30
0.0
 11
-717.85675327681656
 21
-20.890057059295941
 31
0.0
  0
LINE
  8
0
  6
DASHED2
 62
               4
  5
2D9
 10
-714.91226690394956
 20
-30.490057059296078
 30
0.0
 11
-714.91226690394956
 21
-21.963928559988858
 31
0.0
  0
LINE
  8
0
  6
DASHED2
 62
               4
  5
2DA
 10
-720.80123964968425
 20
-30.490057059296078
 30
0.0
 11
-720.80123964968425
 21
-21.963928559988858
 31
0.0
  0
ARC
  8
0
  6
DASHED2
 62
               4
  5
2DB
 10
-735.48778053108254
 20
-25.463788643411931
 30
0.0
 40
4.5737315841157447
 50
49.925579661593176
 51
130.07442033830276
  0
ARC
  8
0
  6
DASHED2
 62
               4
  5
2DC
 10
-717.85675327681656
 20
-25.463788643411931
 30
0.0
 40
4.5737315841157686
 50
49.925579661593176
 51
130.07442033830387
  0
ARC
  8
0
  6
DASHED2
 62
               4
  5
2DD
 10
-726.67226690394978
 20
-37.475915328816427
 30
0.0
 40
16.58585826952007
 50
69.269184858520887
 51
110.73081514137587
  0
LINE
  8
0
  6
DASHED2
 62
               4
  5
2DE
 10
-738.43226690395136
 20
-32.490057059296419
 30
0.0
 11
-738.43226690395136
 21
-41.016185558603638
 31
0.0
  0
LINE
  8
0
  6
DASHED2
 62
               4
  5
2DF
 10
-732.5432941582169
 20
-41.016185558603638
 30
0.0
 11
-732.5432941582169
 21
-32.490057059296419
 31
0.0
  0
LINE
  8
0
  6
DASHED2
 62
               4
  5
2E0
 10
-735.4877805310839
 20
-42.090057059296214
 30
0.0
 11
-717.85675327681838
 21
-42.090057059296214
 31
0.0
  0
LINE
  8
0
  6
DASHED2
 62
               4
  5
2E1
 10
-714.91226690395092
 20
-32.490057059296419
 30
0.0
 11
-714.91226690395092
 21
-41.016185558603638
 31
0.0
  0
LINE
  8
0
  6
DASHED2
 62
               4
  5
2E2
 10
-720.80123964968539
 20
-32.490057059296419
 30
0.0
 11
-720.80123964968539
 21
-41.016185558603638
 31
0.0
  0
ARC
  8
0
  6
DASHED2
 62
               4
  5
2E3
 10
-735.4877805310839
 20
-37.516325475180793
 30
0.0
 40
4.5737315841157447
 50
229.92557966149019
 51
310.07442033820183
  0
ARC
  8
0
  6
DASHED2
 62
               4
  5
2E4
 10
-717.85675327681838
 20
-37.516325475180793
 30
0.0
 40
4.5737315841157686
 50
229.92557966149064
 51
310.07442033820132
  0
ARC
  8
0
  6
DASHED2
 62
               4
  5
2E5
 10
-726.67226690395114
 20
-25.504198789776297
 30
0.0
 40
16.58585826952007
 50
249.26918485841796
 51
290.73081514127256
  0
LINE
  8
0
  6
DASHED2
 62
               4
  5
2E6
 10
-732.67226690394978
 20
-42.090057059296214
 30
0.0
 11
-732.67226690394978
 21
-52.609423301620836
 31
0.0
  0
LINE
  8
0
  6
DASHED2
 62
               4
  5
2E7
 10
-720.67226690394978
 20
-42.090057059296214
 30
0.0
 11
-720.67226690394978
 21
-52.609423301620836
 31
0.0
  0
LINE
  8
0
  6
DASHED2
 62
               4
  5
2E8
 10
-731.47226690394996
 20
-53.809423301621223
 30
0.0
 11
-721.87226690394982
 21
-53.809423301621223
 31
0.0
  0
LINE
  8
0
  6
DASHED2
 62
               4
  5
2E9
 10
-732.67226690394978
 20
-52.609423301620836
 30
0.0
 11
-731.47226690394996
 21
-53.809423301621223
 31
0.0
  0
LINE
  8
0
  6
DASHED2
 62
               4
  5
2EA
 10
-720.67226690394978
 20
-52.609423301620836
 30
0.0
 11
-721.87226690394982
 21
-53.809423301621223
 31
0.0
  0
LINE
  8
0
  6
DASHED2
 62
               4
  5
2EB
 10
-738.43226690394999
 20
-30.490057059296078
 30
0.0
 11
-714.91226690394956
 21
-30.490057059296078
 31
0.0
  0
LINE
  8
0
  6
DASHED2
 62
               4
  5
2EC
 10
-714.91226690395092
 20
-32.490057059296419
 30
0.0
 11
-738.43226690395136
 21
-32.490057059296419
 31
0.0
  0
LINE
  8
0
  6
DASHED2
 62
               4
  5
2ED
 10
-784.17226690395341
 20
-45.49005705929585
 30
0.0
 11
-784.17226690395341
 21
-110.49005705929494
 31
0.0
  0
LINE
  8
0
  6
DASHED2
 62
               4
  5
2EE
 10
-669.17226690394887
 20
-45.49005705929585
 30
0.0
 11
-669.17226690394887
 21
-110.49005705929494
 31
0.0
  0
LINE
  8
0
  6
DASHED2
 62
               4
  5
2EF
 10
-784.17226690395341
 20
-45.49005705929585
 30
0.0
 11
-669.17226690394887
 21
-45.49005705929585
 31
0.0
  0
LINE
  8
0
  6
DASHED2
 62
               4
  5
2F0
 10
-732.67226690394978
 20
84.573522416632727
 30
0.0
 11
-732.67226690394978
 21
-20.890057059295941
 31
0.0
  0
LINE
  8
0
  6
DASHED2
 62
               4
  5
2F1
 10
-720.67226690394978
 20
84.573522416632727
 30
0.0
 11
-720.67226690394978
 21
-20.890057059295941
 31
0.0
  0
LINE
  8
0
  6
DASHED2
 62
               4
  5
2F2
 10
-720.67226690394978
 20
84.573522416632727
 30
0.0
 11
-732.67226690394978
 21
84.573522416632727
 31
0.0
  0
LINE
  8
0
  6
DASHED2
 62
               4
  5
2F3
 10
-184.17226690395407
 20
-45.504198789776979
 30
0.0
 11
-184.17226690395407
 21
-110.5041987897747
 31
0.0
  0
LINE
  8
0
  6
DASHED2
 62
               4
  5
2F4
 10
-184.17226690395407
 20
-45.504198789776979
 30
0.0
 11
-126.67226690395222
 21
-45.504198789775842
 31
0.0
  0
LINE
  8
0
  6
DASHED2
 62
               4
  5
2F5
 10
-69.172266903949378
 20
-45.504198789776979
 30
0.0
 11
-126.67226690395108
 21
-45.504198789775842
 31
0.0
  0
LINE
  8
0
  6
DASHED2
 62
               4
  5
2F6
 10
-69.172266903949378
 20
-45.504198789776979
 30
0.0
 11
-69.172266903949378
 21
-110.5041987897747
 31
0.0
  0
LINE
  8
0
  6
DASHED2
 62
               4
  5
2F7
 10
-263.43226690395181
 20
-30.504198789775387
 30
0.0
 11
-263.43226690395181
 21
-21.978070290468168
 31
0.0
  0
LINE
  8
0
  6
DASHED2
 62
               4
  5
2F8
 10
-257.54329415821741
 20
-21.978070290468168
 30
0.0
 11
-257.54329415821741
 21
-30.504198789775387
 31
0.0
  0
LINE
  8
0
  6
DASHED2
 62
               4
  5
2F9
 10
-260.48778053108447
 20
-20.904198789775251
 30
0.0
 11
-242.85675327681855
 21
-20.904198789775251
 31
0.0
  0
LINE
  8
0
  6
DASHED2
 62
               4
  5
2FA
 10
-239.91226690395149
 20
-30.504198789775387
 30
0.0
 11
-239.91226690395149
 21
-21.978070290468168
 31
0.0
  0
LINE
  8
0
  6
DASHED2
 62
               4
  5
2FB
 10
-245.80123964968618
 20
-30.504198789775387
 30
0.0
 11
-245.80123964968618
 21
-21.978070290468168
 31
0.0
  0
ARC
  8
0
  6
DASHED2
 62
               4
  5
2FC
 10
-260.48778053108447
 20
-25.47793037389124
 30
0.0
 40
4.5737315841157447
 50
49.925579661593439
 51
130.07442033830333
  0
ARC
  8
0
  6
DASHED2
 62
               4
  5
2FD
 10
-242.85675327681855
 20
-25.47793037389124
 30
0.0
 40
4.5737315841157686
 50
49.925579661593304
 51
130.07442033830344
  0
ARC
  8
0
  6
DASHED2
 62
               4
  5
2FE
 10
-251.67226690395165
 20
-37.490057059295737
 30
0.0
 40
16.58585826952007
 50
69.269184858521115
 51
110.73081514137587
  0
LINE
  8
0
  6
DASHED2
 62
               4
  5
2FF
 10
-263.43226690395323
 20
-32.504198789775728
 30
0.0
 11
-263.43226690395323
 21
-41.030327289082948
 31
0.0
  0
LINE
  8
0
  6
DASHED2
 62
               4
  5
300
 10
-257.54329415821883
 20
-41.030327289082948
 30
0.0
 11
-257.54329415821883
 21
-32.504198789775728
 31
0.0
  0
LINE
  8
0
  6
DASHED2
 62
               4
  5
301
 10
-260.48778053108589
 20
-42.104198789775523
 30
0.0
 11
-242.85675327682026
 21
-42.104198789775523
 31
0.0
  0
LINE
  8
0
  6
DASHED2
 62
               4
  5
302
 10
-239.91226690395291
 20
-32.504198789775728
 30
0.0
 11
-239.91226690395291
 21
-41.030327289082948
 31
0.0
  0
LINE
  8
0
  6
DASHED2
 62
               4
  5
303
 10
-245.80123964968732
 20
-32.504198789775728
 30
0.0
 11
-245.80123964968732
 21
-41.030327289082948
 31
0.0
  0
ARC
  8
0
  6
DASHED2
 62
               4
  5
304
 10
-260.48778053108589
 20
-37.530467205660102
 30
0.0
 40
4.5737315841157447
 50
229.92557966149019
 51
310.07442033820104
  0
ARC
  8
0
  6
DASHED2
 62
               4
  5
305
 10
-242.85675327682026
 20
-37.530467205660102
 30
0.0
 40
4.5737315841157686
 50
229.92557966149064
 51
310.07442033820132
  0
ARC
  8
0
  6
DASHED2
 62
               4
  5
306
 10
-251.67226690395307
 20
-25.518340520255606
 30
0.0
 40
16.58585826952007
 50
249.26918485841776
 51
290.73081514127233
  0
LINE
  8
0
  6
DASHED2
 62
               4
  5
307
 10
-257.67226690395159
 20
-42.104198789775523
 30
0.0
 11
-257.67226690395159
 21
-52.623565032100146
 31
0.0
  0
LINE
  8
0
  6
DASHED2
 62
               4
  5
308
 10
-245.67226690395171
 20
-42.104198789775523
 30
0.0
 11
-245.67226690395171
 21
-52.623565032100146
 31
0.0
  0
LINE
  8
0
  6
DASHED2
 62
               4
  5
309
 10
-256.47226690395183
 20
-53.823565032100532
 30
0.0
 11
-246.87226690395175
 21
-53.823565032100532
 31
0.0
  0
LINE
  8
0
  6
DASHED2
 62
               4
  5
30A
 10
-257.67226690395159
 20
-52.623565032100146
 30
0.0
 11
-256.47226690395183
 21
-53.823565032100532
 31
0.0
  0
LINE
  8
0
  6
DASHED2
 62
               4
  5
30B
 10
-245.67226690395171
 20
-52.623565032100146
 30
0.0
 11
-246.87226690395175
 21
-53.823565032100532
 31
0.0
  0
LINE
  8
0
  6
DASHED2
 62
               4
  5
30C
 10
-263.43226690395181
 20
-30.504198789775387
 30
0.0
 11
-239.91226690395149
 21
-30.504198789775387
 31
0.0
  0
LINE
  8
0
  6
DASHED2
 62
               4
  5
30D
 10
-239.91226690395291
 20
-32.504198789775728
 30
0.0
 11
-263.43226690395323
 21
-32.504198789775728
 31
0.0
  0
LINE
  8
0
  6
DASHED2
 62
               4
  5
30E
 10
10.08773309604851
 20
-30.504198789775387
 30
0.0
 11
10.08773309604851
 21
-21.978070290468168
 31
0.0
  0
LINE
  8
0
  6
DASHED2
 62
               4
  5
30F
 10
4.1987603503141031
 20
-21.978070290468168
 30
0.0
 11
4.1987603503141031
 21
-30.504198789775387
 31
0.0
  0
LINE
  8
0
  6
DASHED2
 62
               4
  5
310
 10
7.1432467231811643
 20
-20.904198789775251
 30
0.0
 11
-10.487780531084766
 21
-20.904198789775251
 31
0.0
  0
LINE
  8
0
  6
DASHED2
 62
               4
  5
311
 10
-13.432266903951827
 20
-30.504198789775387
 30
0.0
 11
-13.432266903951827
 21
-21.978070290468168
 31
0.0
  0
LINE
  8
0
  6
DASHED2
 62
               4
  5
312
 10
-7.5432941582171367
 20
-30.504198789775387
 30
0.0
 11
-7.5432941582171367
 21
-21.978070290468168
 31
0.0
  0
ARC
  8
0
  6
DASHED2
 62
               4
  5
313
 10
7.1432467231811643
 20
-25.47793037389124
 30
0.0
 40
4.5737315841157447
 50
49.925579661626813
 51
130.07442033833769
  0
ARC
  8
0
  6
DASHED2
 62
               4
  5
314
 10
-10.487780531084766
 20
-25.47793037389124
 30
0.0
 40
4.5737315841157686
 50
49.925579661627133
 51
130.07442033833794
  0
ARC
  8
0
  6
DASHED2
 62
               4
  5
315
 10
-1.672266903951666
 20
-37.490057059295737
 30
0.0
 40
16.58585826952007
 50
69.269184858554937
 51
110.73081514140972
  0
LINE
  8
0
  6
DASHED2
 62
               4
  5
316
 10
10.087733096049931
 20
-32.504198789775728
 30
0.0
 11
10.087733096049931
 21
-41.030327289082948
 31
0.0
  0
LINE
  8
0
  6
DASHED2
 62
               4
  5
317
 10
4.1987603503155242
 20
-41.030327289082948
 30
0.0
 11
4.1987603503155242
 21
-32.504198789775728
 31
0.0
  0
LINE
  8
0
  6
DASHED2
 62
               4
  5
318
 10
7.1432467231825854
 20
-42.104198789775523
 30
0.0
 11
-10.487780531083061
 21
-42.104198789775523
 31
0.0
  0
LINE
  8
0
  6
DASHED2
 62
               4
  5
319
 10
-13.432266903950406
 20
-32.504198789775728
 30
0.0
 11
-13.432266903950406
 21
-41.030327289082948
 31
0.0
  0
LINE
  8
0
  6
DASHED2
 62
               4
  5
31A
 10
-7.5432941582159998
 20
-32.504198789775728
 30
0.0
 11
-7.5432941582159998
 21
-41.030327289082948
 31
0.0
  0
ARC
  8
0
  6
DASHED2
 62
               4
  5
31B
 10
7.1432467231825854
 20
-37.530467205660102
 30
0.0
 40
4.5737315841157447
 50
229.92557966159174
 51
310.0744203383029
  0
ARC
  8
0
  6
DASHED2
 62
               4
  5
31C
 10
-10.487780531083061
 20
-37.530467205660102
 30
0.0
 40
4.5737315841157686
 50
229.92557966159146
 51
310.07442033830188
  0
ARC
  8
0
  6
DASHED2
 62
               4
  5
31D
 10
-1.6722669039502449
 20
-25.518340520255606
 30
0.0
 40
16.58585826952007
 50
249.26918485852005
 51
290.73081514137453
  0
LINE
  8
0
  6
DASHED2
 62
               4
  5
31E
 10
4.3277330960482914
 20
-42.104198789775523
 30
0.0
 11
4.3277330960482914
 21
-52.623565032100146
 31
0.0
  0
LINE
  8
0
  6
DASHED2
 62
               4
  5
31F
 10
-7.6722669039516092
 20
-42.104198789775523
 30
0.0
 11
-7.6722669039516092
 21
-52.623565032100146
 31
0.0
  0
LINE
  8
0
  6
DASHED2
 62
               4
  5
320
 10
3.1277330960485301
 20
-53.823565032100532
 30
0.0
 11
-6.4722669039515637
 21
-53.823565032100532
 31
0.0
  0
LINE
  8
0
  6
DASHED2
 62
               4
  5
321
 10
4.3277330960482914
 20
-52.623565032100146
 30
0.0
 11
3.1277330960485301
 21
-53.823565032100532
 31
0.0
  0
LINE
  8
0
  6
DASHED2
 62
               4
  5
322
 10
-7.6722669039516092
 20
-52.623565032100146
 30
0.0
 11
-6.4722669039515637
 21
-53.823565032100532
 31
0.0
  0
LINE
  8
0
  6
DASHED2
 62
               4
  5
323
 10
10.08773309604851
 20
-30.504198789775387
 30
0.0
 11
-13.432266903951827
 21
-30.504198789775387
 31
0.0
  0
LINE
  8
0
  6
DASHED2
 62
               4
  5
324
 10
-13.432266903950406
 20
-32.504198789775728
 30
0.0
 11
10.087733096049931
 21
-32.504198789775728
 31
0.0
  0
LINE
  8
0
  6
DASHED2
 62
               4
  5
325
 10
-257.67226690395159
 20
84.559380686153418
 30
0.0
 11
-257.67226690395159
 21
-20.904198789775251
 31
0.0
  0
LINE
  8
0
  6
DASHED2
 62
               4
  5
326
 10
-245.67226690395171
 20
84.559380686153418
 30
0.0
 11
-245.67226690395171
 21
-20.904198789775251
 31
0.0
  0
LINE
  8
0
  6
DASHED2
 62
               4
  5
327
 10
-245.67226690395171
 20
84.559380686153418
 30
0.0
 11
-257.67226690395159
 21
84.559380686153418
 31
0.0
  0
LINE
  8
0
  6
DASHED2
 62
               4
  5
328
 10
4.3277330960482914
 20
84.559380686153418
 30
0.0
 11
4.3277330960482914
 21
-20.904198789775251
 31
0.0
  0
LINE
  8
0
  6
DASHED2
 62
               4
  5
329
 10
-7.6722669039516092
 20
84.559380686153418
 30
0.0
 11
-7.6722669039516092
 21
-20.904198789775251
 31
0.0
  0
LINE
  8
0
  6
DASHED2
 62
               4
  5
32A
 10
-7.6722669039516092
 20
84.559380686153418
 30
0.0
 11
4.3277330960482914
 21
84.559380686153418
 31
0.0
  0
LINE
  8
0
  6
DASHED2
 62
               4
  5
32B
 10
461.56773309604915
 20
-30.504198789775955
 30
0.0
 11
461.56773309604915
 21
-21.978070290468736
 31
0.0
  0
LINE
  8
0
  6
DASHED2
 62
               4
  5
32C
 10
467.45670584178362
 20
-21.978070290468736
 30
0.0
 11
467.45670584178362
 21
-30.504198789775955
 31
0.0
  0
LINE
  8
0
  6
DASHED2
 62
               4
  5
32D
 10
464.51221946891661
 20
-20.904198789775819
 30
0.0
 11
482.14324672318259
 21
-20.904198789775819
 31
0.0
  0
LINE
  8
0
  6
DASHED2
 62
               4
  5
32E
 10
485.08773309604959
 20
-30.504198789775955
 30
0.0
 11
485.08773309604959
 21
-21.978070290468736
 31
0.0
  0
LINE
  8
0
  6
DASHED2
 62
               4
  5
32F
 10
479.1987603503149
 20
-30.504198789775955
 30
0.0
 11
479.1987603503149
 21
-21.978070290468736
 31
0.0
  0
ARC
  8
0
  6
DASHED2
 62
               4
  5
330
 10
464.51221946891661
 20
-25.477930373891809
 30
0.0
 40
4.5737315841157447
 50
49.925579661593176
 51
130.07442033830276
  0
ARC
  8
0
  6
DASHED2
 62
               4
  5
331
 10
482.14324672318259
 20
-25.477930373891809
 30
0.0
 40
4.5737315841157686
 50
49.925579661593176
 51
130.07442033830387
  0
ARC
  8
0
  6
DASHED2
 62
               4
  5
332
 10
473.32773309604937
 20
-37.490057059296305
 30
0.0
 40
16.58585826952007
 50
69.269184858520887
 51
110.73081514137587
  0
LINE
  8
0
  6
DASHED2
 62
               4
  5
333
 10
461.56773309604779
 20
-32.504198789776297
 30
0.0
 11
461.56773309604779
 21
-41.030327289083516
 31
0.0
  0
LINE
  8
0
  6
DASHED2
 62
               4
  5
334
 10
467.45670584178225
 20
-41.030327289083516
 30
0.0
 11
467.45670584178225
 21
-32.504198789776297
 31
0.0
  0
LINE
  8
0
  6
DASHED2
 62
               4
  5
335
 10
464.51221946891525
 20
-42.104198789776092
 30
0.0
 11
482.14324672318077
 21
-42.104198789776092
 31
0.0
  0
LINE
  8
0
  6
DASHED2
 62
               4
  5
336
 10
485.08773309604823
 20
-32.504198789776297
 30
0.0
 11
485.08773309604823
 21
-41.030327289083516
 31
0.0
  0
LINE
  8
0
  6
DASHED2
 62
               4
  5
337
 10
479.19876035031376
 20
-32.504198789776297
 30
0.0
 11
479.19876035031376
 21
-41.030327289083516
 31
0.0
  0
ARC
  8
0
  6
DASHED2
 62
               4
  5
338
 10
464.51221946891525
 20
-37.530467205660671
 30
0.0
 40
4.5737315841157447
 50
229.92557966149019
 51
310.07442033820183
  0
ARC
  8
0
  6
DASHED2
 62
               4
  5
339
 10
482.14324672318077
 20
-37.530467205660671
 30
0.0
 40
4.5737315841157686
 50
229.92557966149064
 51
310.07442033820132
  0
ARC
  8
0
  6
DASHED2
 62
               4
  5
33A
 10
473.32773309604801
 20
-25.518340520256174
 30
0.0
 40
16.58585826952007
 50
249.26918485841796
 51
290.73081514127256
  0
LINE
  8
0
  6
DASHED2
 62
               4
  5
33B
 10
467.32773309604937
 20
-42.104198789776092
 30
0.0
 11
467.32773309604937
 21
-52.623565032100714
 31
0.0
  0
LINE
  8
0
  6
DASHED2
 62
               4
  5
33C
 10
479.32773309604937
 20
-42.104198789776092
 30
0.0
 11
479.32773309604937
 21
-52.623565032100714
 31
0.0
  0
LINE
  8
0
  6
DASHED2
 62
               4
  5
33D
 10
468.52773309604919
 20
-53.823565032101101
 30
0.0
 11
478.12773309604933
 21
-53.823565032101101
 31
0.0
  0
LINE
  8
0
  6
DASHED2
 62
               4
  5
33E
 10
467.32773309604937
 20
-52.623565032100714
 30
0.0
 11
468.52773309604919
 21
-53.823565032101101
 31
0.0
  0
LINE
  8
0
  6
DASHED2
 62
               4
  5
33F
 10
479.32773309604937
 20
-52.623565032100714
 30
0.0
 11
478.12773309604933
 21
-53.823565032101101
 31
0.0
  0
LINE
  8
0
  6
DASHED2
 62
               4
  5
340
 10
461.56773309604915
 20
-30.504198789775955
 30
0.0
 11
485.08773309604959
 21
-30.504198789775955
 31
0.0
  0
LINE
  8
0
  6
DASHED2
 62
               4
  5
341
 10
485.08773309604823
 20
-32.504198789776297
 30
0.0
 11
461.56773309604779
 21
-32.504198789776297
 31
0.0
  0
LINE
  8
0
  6
DASHED2
 62
               4
  5
342
 10
415.82773309604573
 20
-45.504198789775728
 30
0.0
 11
415.82773309604573
 21
-110.50419878977482
 31
0.0
  0
LINE
  8
0
  6
DASHED2
 62
               4
  5
343
 10
530.82773309605022
 20
-45.504198789775728
 30
0.0
 11
530.82773309605022
 21
-110.50419878977482
 31
0.0
  0
LINE
  8
0
  6
DASHED2
 62
               4
  5
344
 10
415.82773309604573
 20
-45.504198789775728
 30
0.0
 11
530.82773309605022
 21
-45.504198789775728
 31
0.0
  0
LINE
  8
0
  6
DASHED2
 62
               4
  5
345
 10
479.32773309604937
 20
84.559380686152849
 30
0.0
 11
467.32773309604937
 21
84.559380686152849
 31
0.0
  0
LINE
  8
0
  6
DASHED2
 62
               4
  5
346
 10
467.32773309604937
 20
84.559380686152849
 30
0.0
 11
467.32773309604937
 21
-20.904198789775819
 31
0.0
  0
LINE
  8
0
  6
DASHED2
 62
               4
  5
347
 10
479.32773309604937
 20
84.559380686152849
 30
0.0
 11
479.32773309604937
 21
-20.904198789775819
 31
0.0
  0
LINE
  8
0
  6
DASHED2
 62
               4
  5
348
 10
425.61425631235699
 20
-967.86049705140977
 30
0.0
 11
539.6142563123567
 21
-967.86049705140977
 31
0.0
  0
ARC
  8
0
  6
DIVIDE
 62
               4
  5
349
 10
-755.17226690395091
 20
-277.42303836346457
 30
0.0
 40
55.0
 50
58.789629707467164
 51
121.21037029246362
  0
ARC
  8
0
  6
DIVIDE
 62
               4
  5
34A
 10
-755.17226690395091
 20
-183.34328496242699
 30
0.0
 40
55.0
 50
238.78962970739806
 51
301.21037029239426
  0
ARC
  8
0
  6
DIVIDE
 62
               4
  5
34B
 10
-759.17226690395114
 20
-252.88565909874239
 30
0.0
 40
65.0
 50
59.999999999976851
 51
119.99999999995403
  0
ARC
  8
0
  6
DIVIDE
 62
               4
  5
34C
 10
-698.17226690395091
 20
-183.34328496242722
 30
0.0
 40
55.0
 50
238.78962970739806
 51
301.21037029239454
  0
ARC
  8
0
  6
DIVIDE
 62
               4
  5
34D
 10
-694.17226690395114
 20
-140.30235660676533
 30
0.0
 40
65.0
 50
239.99999999990789
 51
299.99999999988466
  0
LINE
  8
0
  6
DIVIDE
 62
               4
  5
34E
 10
-783.67226690395091
 20
-192.67976237757387
 30
0.0
 11
-783.67226690395091
 21
-230.38316166294578
 31
0.0
  0
LINE
  8
0
  6
DIVIDE
 62
               4
  5
34F
 10
-669.67226690395091
 20
-200.50825332793386
 30
0.0
 11
-669.67226690395091
 21
-230.38316166294578
 31
0.0
  0
ARC
  8
0
  6
DIVIDE
 62
               4
  5
350
 10
-759.17226690395114
 20
-140.30235660676556
 30
0.0
 40
65.0
 50
239.9999999999076
 51
247.85677929845662
  0
LINE
  8
0
  6
DIVIDE
 62
               4
  5
351
 10
-661.67226690395114
 20
-110.49005705929494
 30
0.0
 11
-661.67226690395114
 21
-196.59400785275386
 31
0.0
  0
LINE
  8
0
  6
DIVIDE
 62
               4
  5
352
 10
-791.67226690395114
 20
-110.49005705929494
 30
0.0
 11
-791.67226690395114
 21
-196.59400785275386
 31
0.0
  0
ARC
  8
0
  6
DIVIDE
 62
               4
  5
353
 10
-155.17226690395159
 20
-277.43718009394433
 30
0.0
 40
55.0
 50
58.789629707467128
 51
121.21037029246354
  0
ARC
  8
0
  6
DIVIDE
 62
               4
  5
354
 10
-155.17226690395159
 20
-183.35742669290676
 30
0.0
 40
55.0
 50
238.78962970739806
 51
301.21037029239432
  0
ARC
  8
0
  6
DIVIDE
 62
               4
  5
355
 10
-159.17226690395165
 20
-252.89980082922216
 30
0.0
 40
65.0
 50
59.999999999976822
 51
119.99999999995406
  0
ARC
  8
0
  6
DIVIDE
 62
               4
  5
356
 10
-98.172266903951567
 20
-183.35742669290698
 30
0.0
 40
55.0
 50
238.78962970739812
 51
301.21037029239449
  0
ARC
  8
0
  6
DIVIDE
 62
               4
  5
357
 10
-94.172266903951652
 20
-140.31649833724509
 30
0.0
 40
65.0
 50
239.99999999990789
 51
299.99999999988472
  0
LINE
  8
0
  6
DIVIDE
 62
               4
  5
358
 10
-183.67226690395154
 20
-192.69390410805363
 30
0.0
 11
-183.67226690395154
 21
-230.39730339342555
 31
0.0
  0
LINE
  8
0
  6
DIVIDE
 62
               4
  5
359
 10
-69.672266903951481
 20
-200.52239505841362
 30
0.0
 11
-69.672266903951481
 21
-230.39730339342555
 31
0.0
  0
ARC
  8
0
  6
DIVIDE
 62
               4
  5
35A
 10
-159.17226690395165
 20
-140.31649833724532
 30
0.0
 40
65.0
 50
239.99999999990749
 51
247.85677929845664
  0
LINE
  8
0
  6
DIVIDE
 62
               4
  5
35B
 10
-61.672266903951666
 20
-110.5041987897747
 30
0.0
 11
-61.672266903951666
 21
-196.60814958323363
 31
0.0
  0
LINE
  8
0
  6
DIVIDE
 62
               4
  5
35C
 10
-191.67226690395165
 20
-110.5041987897747
 30
0.0
 11
-191.67226690395165
 21
-196.60814958323363
 31
0.0
  0
ARC
  8
0
  6
DIVIDE
 62
               4
  5
35D
 10
444.82773309604823
 20
-277.43718009394445
 30
0.0
 40
55.0
 50
58.789629707467164
 51
121.21037029246362
  0
ARC
  8
0
  6
DIVIDE
 62
               4
  5
35E
 10
444.82773309604823
 20
-183.35742669290687
 30
0.0
 40
55.0
 50
238.78962970739806
 51
301.21037029239426
  0
ARC
  8
0
  6
DIVIDE
 62
               4
  5
35F
 10
440.82773309604812
 20
-252.89980082922227
 30
0.0
 40
65.0
 50
59.999999999976851
 51
119.99999999995403
  0
ARC
  8
0
  6
DIVIDE
 62
               4
  5
360
 10
501.82773309604823
 20
-183.3574266929071
 30
0.0
 40
55.0
 50
238.78962970739806
 51
301.21037029239454
  0
ARC
  8
0
  6
DIVIDE
 62
               4
  5
361
 10
505.82773309604801
 20
-140.31649833724521
 30
0.0
 40
65.0
 50
239.99999999990789
 51
299.99999999988466
  0
LINE
  8
0
  6
DIVIDE
 62
               4
  5
362
 10
416.32773309604823
 20
-192.69390410805374
 30
0.0
 11
416.32773309604823
 21
-230.39730339342566
 31
0.0
  0
LINE
  8
0
  6
DIVIDE
 62
               4
  5
363
 10
530.32773309604818
 20
-200.52239505841374
 30
0.0
 11
530.32773309604818
 21
-230.39730339342566
 31
0.0
  0
ARC
  8
0
  6
DIVIDE
 62
               4
  5
364
 10
440.82773309604812
 20
-140.31649833724543
 30
0.0
 40
65.0
 50
239.9999999999076
 51
247.85677929845662
  0
LINE
  8
0
  6
DIVIDE
 62
               4
  5
365
 10
538.32773309604795
 20
-110.50419878977482
 30
0.0
 11
538.32773309604795
 21
-196.60814958323374
 31
0.0
  0
LINE
  8
0
  6
DIVIDE
 62
               4
  5
366
 10
408.32773309604812
 20
-110.50419878977482
 30
0.0
 11
408.32773309604812
 21
-196.60814958323374
 31
0.0
  0
CIRCLE
  8
0
  6
DASHED
 62
               4
  5
367
 10
-5.7943594433130698
 20
-1082.0454988746164
 30
0.0
 40
33.5
  0
INSERT
  8
0
  6
CONTINUOUS
  5
368
  2
GROUP_1
 10
0.0
 20
0.0
 30
0.0
  0
INSERT
  8
0
  6
CONTINUOUS
  5
369
  2
GROUP_2
 10
0.0
 20
0.0
 30
0.0
  0
INSERT
  8
0
  6
CONTINUOUS
  5
36A
  2
GROUP_3
 10
0.0
 20
0.0
 30
0.0
  0
LINE
  8
0
  6
CONTINUOUS
 62
               3
  5
36B
 10
-637.93611138359711
 20
348.49580121022387
 30
0.0
 11
-810.17226690395114
 21
348.49580121022393
 31
0.0
  0
CIRCLE
  8
0
  6
CONTINUOUS
 62
               3
  5
36C
 10
-726.67226690395159
 20
473.49580121022393
 30
0.0
 40
66.099999999999994
  0
LINE
  8
0
  6
CONTINUOUS
 62
               3
  5
36D
 10
-108.50161749343195
 20
348.49580121022393
 30
0.0
 11
-210.17226690395108
 21
348.49580121022393
 31
0.0
  0
LINE
  8
0
  6
CONTINUOUS
 62
               3
  5
36E
 10
-43.672266903951211
 20
348.49580121022393
 30
0.0
 11
-108.50161749343195
 21
348.49580121022393
 31
0.0
  0
LINE
  8
0
  6
CONTINUOUS
 62
               3
  5
36F
 10
392.82773309604892
 20
608.99580121022439
 30
0.0
 11
392.82773309604892
 21
552.24163156320014
 31
0.0
  0
LINE
  8
0
  6
CONTINUOUS
 62
               3
  5
370
 10
556.82773309604886
 20
348.49580121022393
 30
0.0
 11
384.59157757569494
 21
348.49580121022387
 31
0.0
  0
ARC
  8
0
  6
CONTINUOUS
 62
               3
  5
371
 10
-174.27713086194188
 20
1002.8733401554599
 30
0.0
 40
2.5
 50
56.389448470450269
 51
87.999999999966022
  0
LINE
  8
0
  6
CONTINUOUS
 62
               3
  5
372
 10
-254.6722669039512
 20
1016.6875051567279
 30
0.0
 11
-254.6722669039512
 21
1140.80927839026
 31
0.0
  0
LINE
  8
0
  6
CONTINUOUS
 62
               3
  5
373
 10
-254.6722669039512
 20
1016.6875051567279
 30
0.0
 11
-254.6722669039512
 21
1008.1823240301879
 31
0.0
  0
LINE
  8
0
  6
CONTINUOUS
 62
               3
  5
374
 10
-254.6722669039512
 20
1008.1823240301878
 30
0.0
 11
-174.18988212018553
 21
1005.3718172230076
 31
0.0
  0
LINE
  8
0
  6
CONTINUOUS
 62
               3
  5
375
 10
-254.6722669039512
 20
1140.80927839026
 30
0.0
 11
-174.89166211462296
 21
1143.5952785000204
 31
0.0
  0
LINE
  8
0
  6
CONTINUOUS
 62
               3
  5
376
 10
-75.36397085045499
 20
946.49580121022393
 30
0.0
 11
-186.48574408398727
 21
946.49580121022382
 31
0.0
  0
LINE
  8
0
  6
CONTINUOUS
 62
               3
  5
377
 10
-75.36397085045499
 20
946.49580121022382
 30
0.0
 11
-66.858789723915066
 21
946.49580121022382
 31
0.0
  0
LINE
  8
0
  6
CONTINUOUS
 62
               3
  5
378
 10
-66.85878972391501
 20
946.49580121022382
 30
0.0
 11
-64.328693979550096
 21
1018.9482637758795
 31
0.0
  0
LINE
  8
0
  6
CONTINUOUS
 62
               3
  5
379
 10
-186.48574408398727
 20
946.49580121022382
 30
0.0
 11
-188.55926275470981
 21
1005.8736070518851
 31
0.0
  0
LINE
  8
0
  6
CONTINUOUS
 62
               3
  5
37A
 10
-598.67226690395069
 20
464.64371313622507
 30
0.0
 11
-598.67226690395069
 21
353.85307041076271
 31
0.0
  0
LINE
  8
0
  6
CONTINUOUS
 62
               3
  5
37B
 10
-598.67226690395069
 20
345.34788928422239
 30
0.0
 11
-598.67226690395069
 21
353.85307041076214
 31
0.0
  0
LINE
  8
0
  6
CONTINUOUS
 62
               3
  5
37C
 10
-637.93611138359711
 20
348.49580121022387
 30
0.0
 11
-630.99210840045157
 21
343.34078803127431
 31
0.0
  0
LINE
  8
0
  6
CONTINUOUS
 62
               3
  5
37D
 10
384.59157757569488
 20
348.49580121022387
 30
0.0
 11
377.6475745925494
 21
343.34078803127431
 31
0.0
  0
LINE
  8
0
  6
CONTINUOUS
 62
               3
  5
37E
 10
-646.17226690395114
 20
608.99580121022427
 30
0.0
 11
-646.17226690395114
 21
552.24163156320014
 31
0.0
  0
LINE
  8
0
  6
CONTINUOUS
 62
               3
  5
37F
 10
-807.17226690395114
 20
552.24163156320014
 30
0.0
 11
-810.17226690395114
 21
547.55027353850846
 31
0.0
  0
LINE
  8
0
  6
CONTINUOUS
 62
               3
  5
380
 10
-646.17226690395114
 20
552.24163156320014
 30
0.0
 11
-643.17226690395114
 21
547.55027353850846
 31
0.0
  0
LINE
  8
0
  6
CONTINUOUS
 62
               3
  5
381
 10
-807.17226690395114
 20
608.99580121022427
 30
0.0
 11
-807.17226690395114
 21
552.24163156320014
 31
0.0
  0
LINE
  8
0
  6
CONTINUOUS
 62
               3
  5
382
 10
-598.67226690395069
 20
464.64371313622473
 30
0.0
 11
-598.67226690395069
 21
456.13853200968492
 31
0.0
  0
LINE
  8
0
  6
CONTINUOUS
 62
               3
  5
383
 10
-638.34676438746339
 20
466.02917711754742
 30
0.0
 11
-598.67226690395069
 21
464.64371313622473
 31
0.0
  0
ARC
  8
0
  6
CONTINUOUS
 62
               3
  5
384
 10
-638.17226690395114
 20
471.02613125264293
 30
0.0
 40
5.0
 50
179.99999999993085
 51
267.99999999989734
  0
LINE
  8
0
  6
CONTINUOUS
 62
               3
  5
385
 10
-598.67226690395069
 20
345.34788928422205
 30
0.0
 11
-598.67226690395069
 21
353.8530704107618
 31
0.0
  0
LINE
  8
0
  6
CONTINUOUS
 62
               3
  5
386
 10
-628.19453205228865
 20
344.31694906810264
 30
0.0
 11
-598.67226690395069
 21
345.34788928422205
 31
0.0
  0
ARC
  8
0
  6
CONTINUOUS
 62
               3
  5
387
 10
-628.02003456877605
 20
339.31999493300714
 30
0.0
 40
5.0
 50
91.999999999964984
 51
134.99999999994768
  0
ARC
  8
0
  6
CONTINUOUS
 62
               3
  5
388
 10
-638.17226690395114
 20
329.16776259783245
 30
0.0
 40
5.0
 50
134.99999999994594
 51
179.99999999993057
  0
LINE
  8
0
  6
CONTINUOUS
 62
               3
  5
389
 10
-631.55556847470859
 20
342.8555288389399
 30
0.0
 11
-641.70780080988357
 21
332.70329650376527
 31
0.0
  0
LINE
  8
0
  6
CONTINUOUS
 62
               3
  5
38A
 10
-643.17226690395114
 20
547.55027353850846
 30
0.0
 11
-643.17226690395114
 21
471.02613125264293
 31
0.0
  0
LINE
  8
0
  6
CONTINUOUS
 62
               3
  5
38B
 10
-810.17226690395114
 20
547.55027353850846
 30
0.0
 11
-810.17226690395114
 21
235.09831240433112
 31
0.0
  0
LINE
  8
0
  6
CONTINUOUS
 62
               3
  5
38C
 10
-663.67226690395091
 20
86.288716143435636
 30
0.0
 11
-643.17226690395114
 21
235.09831240433141
 31
0.0
  0
LINE
  8
0
  6
CONTINUOUS
 62
               3
  5
38D
 10
-789.67226690395114
 20
86.288716143435636
 30
0.0
 11
-810.17226690395114
 21
235.21188063458351
 31
0.0
  0
LINE
  8
0
  6
CONTINUOUS
 62
               3
  5
38E
 10
-789.67226690395114
 20
86.288716143435636
 30
0.0
 11
-789.67226690395114
 21
39.67259276922789
 31
0.0
  0
LINE
  8
0
  6
CONTINUOUS
 62
               3
  5
38F
 10
-663.67226690395091
 20
86.288716143435636
 30
0.0
 11
-663.67226690395091
 21
39.672592769227322
 31
0.0
  0
LINE
  8
0
  6
CONTINUOUS
 62
               3
  5
390
 10
-789.67226690395114
 20
86.288716143435636
 30
0.0
 11
-663.67226690395091
 21
86.288716143435636
 31
0.0
  0
LINE
  8
0
  6
CONTINUOUS
 62
               3
  5
391
 10
-643.17226690395114
 20
329.16776259783245
 30
0.0
 11
-643.17226690395114
 21
235.09831240433141
 31
0.0
  0
LINE
  8
0
  6
CONTINUOUS
 62
               3
  5
392
 10
-663.67226690395091
 20
39.67259276922789
 30
0.0
 11
-789.67226690395114
 21
39.672592769228459
 31
0.0
  0
LINE
  8
0
  6
CONTINUOUS
 62
               3
  5
393
 10
384.59157757569488
 20
348.49580121022387
 30
0.0
 11
556.82773309604886
 21
348.49580121022393
 31
0.0
  0
LINE
  8
0
  6
CONTINUOUS
 62
               3
  5
394
 10
345.32773309604846
 20
353.85307041076271
 30
0.0
 11
345.32773309604846
 21
464.64371313622473
 31
0.0
  0
LINE
  8
0
  6
CONTINUOUS
 62
               3
  5
395
 10
345.32773309604846
 20
345.34788928422239
 30
0.0
 11
345.32773309604846
 21
353.85307041076214
 31
0.0
  0
LINE
  8
0
  6
CONTINUOUS
 62
               3
  5
396
 10
384.59157757569488
 20
348.49580121022387
 30
0.0
 11
377.6475745925494
 21
343.34078803127431
 31
0.0
  0
LINE
  8
0
  6
CONTINUOUS
 62
               3
  5
397
 10
392.82773309604892
 20
608.99580121022427
 30
0.0
 11
392.82773309604892
 21
552.24163156320014
 31
0.0
  0
LINE
  8
0
  6
CONTINUOUS
 62
               3
  5
398
 10
553.82773309604886
 20
552.24163156320014
 30
0.0
 11
556.82773309604886
 21
547.55027353850846
 31
0.0
  0
LINE
  8
0
  6
CONTINUOUS
 62
               3
  5
399
 10
392.82773309604892
 20
552.24163156320014
 30
0.0
 11
389.82773309604892
 21
547.55027353850846
 31
0.0
  0
LINE
  8
0
  6
CONTINUOUS
 62
               3
  5
39A
 10
553.82773309604886
 20
608.99580121022427
 30
0.0
 11
553.82773309604886
 21
552.24163156320014
 31
0.0
  0
LINE
  8
0
  6
CONTINUOUS
 62
               3
  5
39B
 10
345.32773309604846
 20
464.64371313622473
 30
0.0
 11
345.32773309604846
 21
456.13853200968492
 31
0.0
  0
LINE
  8
0
  6
CONTINUOUS
 62
               3
  5
39C
 10
385.00223057956123
 20
466.02917711754742
 30
0.0
 11
345.32773309604846
 21
464.64371313622473
 31
0.0
  0
ARC
  8
0
  6
CONTINUOUS
 62
               3
  5
39D
 10
384.82773309604897
 20
471.02613125264293
 30
0.0
 40
5.0
 50
271.99999999989484
 51
359.9999999998617
  0
LINE
  8
0
  6
CONTINUOUS
 62
               3
  5
39E
 10
345.32773309604846
 20
345.34788928422205
 30
0.0
 11
345.32773309604846
 21
353.8530704107618
 31
0.0
  0
LINE
  8
0
  6
CONTINUOUS
 62
               3
  5
39F
 10
374.84999824438648
 20
344.31694906810264
 30
0.0
 11
345.32773309604846
 21
345.34788928422205
 31
0.0
  0
ARC
  8
0
  6
CONTINUOUS
 62
               3
  5
3A0
 10
374.67550076087394
 20
339.31999493300714
 30
0.0
 40
5.0
 50
44.999999999983665
 51
87.999999999965524
  0
ARC
  8
0
  6
CONTINUOUS
 62
               3
  5
3A1
 10
384.82773309604897
 20
329.16776259783245
 30
0.0
 40
5.0
 50
0.0
 51
44.999999999984126
  0
LINE
  8
0
  6
CONTINUOUS
 62
               3
  5
3A2
 10
378.21103466680643
 20
342.8555288389399
 30
0.0
 11
388.36326700198146
 21
332.70329650376527
 31
0.0
  0
LINE
  8
0
  6
CONTINUOUS
 62
               3
  5
3A3
 10
389.82773309604892
 20
547.55027353850846
 30
0.0
 11
389.82773309604892
 21
471.02613125264293
 31
0.0
  0
LINE
  8
0
  6
CONTINUOUS
 62
               3
  5
3A4
 10
556.82773309604886
 20
547.55027353850846
 30
0.0
 11
556.82773309604909
 21
235.09831240433112
 31
0.0
  0
LINE
  8
0
  6
CONTINUOUS
 62
               3
  5
3A5
 10
410.3277330960488
 20
86.288716143435636
 30
0.0
 11
389.82773309604892
 21
235.09831240433141
 31
0.0
  0
LINE
  8
0
  6
CONTINUOUS
 62
               3
  5
3A6
 10
536.32773309604886
 20
86.288716143435636
 30
0.0
 11
556.82773309604886
 21
235.21188063458351
 31
0.0
  0
LINE
  8
0
  6
CONTINUOUS
 62
               3
  5
3A7
 10
536.32773309604886
 20
86.288716143435636
 30
0.0
 11
536.32773309604886
 21
39.67259276922789
 31
0.0
  0
LINE
  8
0
  6
CONTINUOUS
 62
               3
  5
3A8
 10
410.3277330960488
 20
86.288716143435636
 30
0.0
 11
410.3277330960488
 21
39.672592769227322
 31
0.0
  0
LINE
  8
0
  6
CONTINUOUS
 62
               3
  5
3A9
 10
536.32773309604886
 20
86.288716143435636
 30
0.0
 11
410.3277330960488
 21
86.288716143435636
 31
0.0
  0
LINE
  8
0
  6
CONTINUOUS
 62
               3
  5
3AA
 10
389.82773309604892
 20
329.16776259783245
 30
0.0
 11
389.82773309604892
 21
235.09831240433141
 31
0.0
  0
LINE
  8
0
  6
CONTINUOUS
 62
               3
  5
3AB
 10
410.3277330960488
 20
39.67259276922789
 30
0.0
 11
536.32773309604909
 21
39.672592769228459
 31
0.0
  0
LINE
  8
0
  6
CONTINUOUS
 62
               3
  5
3AC
 10
-207.1722669039512
 20
608.99580121022439
 30
0.0
 11
-207.1722669039512
 21
550.95415630861419
 31
0.0
  0
LINE
  8
0
  6
CONTINUOUS
 62
               3
  5
3AD
 10
-46.17226690395097
 20
608.99580121022439
 30
0.0
 11
-46.17226690395097
 21
552.24163156320026
 31
0.0
  0
ARC
  8
0
  6
CONTINUOUS
 62
               3
  5
3AE
 10
-217.1722669039512
 20
550.95415630861419
 30
0.0
 40
10.0
 50
271.99999999989581
 51
359.99999999986159
  0
LINE
  8
0
  6
CONTINUOUS
 62
               3
  5
3AF
 10
-46.17226690395097
 20
552.24163156320026
 30
0.0
 11
-43.17226690395114
 21
547.55027353850858
 31
0.0
  0
LINE
  8
0
  6
CONTINUOUS
 62
               3
  5
3B0
 10
-223.18701777789369
 20
406.25358128364144
 30
0.0
 11
-210.17226690395103
 21
393.2388304096994
 31
0.0
  0
LINE
  8
0
  6
CONTINUOUS
 62
               3
  5
3B1
 10
-210.17226690395103
 20
235.01313623163975
 30
0.0
 11
-210.17226690395103
 21
393.2388304096994
 31
0.0
  0
LINE
  8
0
  6
CONTINUOUS
 62
               3
  5
3B2
 10
-210.17226690395103
 20
235.21188063458305
 30
0.0
 11
-189.6722669039512
 21
86.288716143435181
 31
0.0
  0
LINE
  8
0
  6
CONTINUOUS
 62
               3
  5
3B3
 10
-189.6722669039512
 20
86.288716143435465
 30
0.0
 11
-189.6722669039512
 21
39.672592769228345
 31
0.0
  0
LINE
  8
0
  6
CONTINUOUS
 62
               3
  5
3B4
 10
-254.67226690395148
 20
415.85307041076328
 30
0.0
 11
-254.67226690395148
 21
407.35307041076283
 31
0.0
  0
LINE
  8
0
  6
CONTINUOUS
 62
               3
  5
3B5
 10
-254.67226690395148
 20
407.35307041076283
 30
0.0
 11
-223.18701777789369
 21
406.25358128364144
 31
0.0
  0
LINE
  8
0
  6
CONTINUOUS
 62
               3
  5
3B6
 10
-63.67226690395097
 20
86.288716143435465
 30
0.0
 11
-63.67226690395097
 21
39.672592769228345
 31
0.0
  0
LINE
  8
0
  6
CONTINUOUS
 62
               3
  5
3B7
 10
-63.67226690395097
 20
39.672592769228118
 30
0.0
 11
-189.6722669039512
 21
39.672592769228345
 31
0.0
  0
LINE
  8
0
  6
CONTINUOUS
 62
               3
  5
3B8
 10
-189.6722669039512
 20
86.288716143435465
 30
0.0
 11
-63.67226690395097
 21
86.288716143435465
 31
0.0
  0
LINE
  8
0
  6
CONTINUOUS
 62
               3
  5
3B9
 10
-63.67226690395097
 20
86.288716143435181
 30
0.0
 11
-43.17226690395114
 21
235.09831240433095
 31
0.0
  0
LINE
  8
0
  6
CONTINUOUS
 62
               3
  5
3BA
 10
-43.17226690395114
 20
547.55027353850858
 30
0.0
 11
-43.17226690395114
 21
235.01313623164003
 31
0.0
  0
LINE
  8
0
  6
CONTINUOUS
 62
               3
  5
3BB
 10
-254.6722669039512
 20
539.63853200968538
 30
0.0
 11
-216.82327193692612
 21
540.9602480384234
 31
0.0
  0
LINE
  8
0
  6
CONTINUOUS
 62
               3
  5
3BC
 10
-254.6722669039512
 20
415.68750515672787
 30
0.0
 11
-254.6722669039512
 21
539.63853200968538
 31
0.0
  0
LINE
  8
0
  6
CONTINUOUS
 62
               3
  5
3BD
 10
-788.67226690394978
 20
-110.49005705929494
 30
0.0
 11
-788.67226690394978
 21
-95.49005705929585
 31
0.0
  0
ARC
  8
0
  6
CONTINUOUS
 62
               3
  5
3BE
 10
-802.67226690394909
 20
30.50994294070324
 30
0.0
 40
4.0
 50
89.99999999994769
 51
179.999999999897
  0
LINE
  8
0
  6
CONTINUOUS
 62
               3
  5
3BF
 10
-806.67226690394909
 20
30.509942940705628
 30
0.0
 11
-806.67226690394932
 21
11.50994294070324
 31
0.0
  0
LINE
  8
0
  6
CONTINUOUS
 62
               3
  5
3C0
 10
-742.67226690394909
 20
34.509942940703809
 30
0.0
 11
-802.67226690394773
 21
34.50994294070324
 31
0.0
  0
LINE
  8
0
  6
CONTINUOUS
 62
               3
  5
3C1
 10
-742.67226690394909
 20
-96.490057059294827
 30
0.0
 11
-710.67226690394864
 21
-96.490057059294372
 31
0.0
  0
ARC
  8
0
  6
CONTINUOUS
 62
               3
  5
3C2
 10
-802.67226690394887
 20
-91.49005705929585
 30
0.0
 40
4.0
 50
179.999999999897
 51
269.9999999998447
  0
LINE
  8
0
  6
CONTINUOUS
 62
               3
  5
3C3
 10
-806.67226690394887
 20
-91.49005705929585
 30
0.0
 11
-806.67226690394864
 21
-72.990057059295623
 31
0.0
  0
LINE
  8
0
  6
CONTINUOUS
 62
               3
  5
3C4
 10
-742.67226690394909
 20
-95.490057059295168
 30
0.0
 11
-802.67226690395228
 21
-95.49005705929585
 31
0.0
  0
LINE
  8
0
  6
CONTINUOUS
 62
               3
  5
3C5
 10
-742.67226690394909
 20
-72.990057059295054
 30
0.0
 11
-806.67226690394887
 21
-72.990057059295623
 31
0.0
  0
LINE
  8
0
  6
CONTINUOUS
 62
               3
  5
3C6
 10
-806.67226690394932
 20
11.50994294070324
 30
0.0
 11
-742.67226690394909
 21
11.50994294070324
 31
0.0
  0
LINE
  8
0
  6
CONTINUOUS
 62
               3
  5
3C7
 10
-803.67226690394932
 20
11.50994294070324
 30
0.0
 11
-803.67226690394978
 21
-72.990057059295623
 31
0.0
  0
LINE
  8
0
  6
CONTINUOUS
 62
               3
  5
3C8
 10
-710.67226690394909
 20
34.509942940703809
 30
0.0
 11
-650.67226690395159
 21
34.50994294070324
 31
0.0
  0
LINE
  8
0
  6
CONTINUOUS
 62
               3
  5
3C9
 10
-710.67226690394864
 20
-95.490057059295168
 30
0.0
 11
-650.67226690395069
 21
-95.49005705929585
 31
0.0
  0
LINE
  8
0
  6
CONTINUOUS
 62
               3
  5
3CA
 10
-710.67226690394864
 20
-72.990057059295168
 30
0.0
 11
-646.67226690395046
 21
-72.990057059295623
 31
0.0
  0
LINE
  8
0
  6
CONTINUOUS
 62
               3
  5
3CB
 10
-646.67226690394909
 20
11.50994294070324
 30
0.0
 11
-710.67226690394909
 21
11.50994294070324
 31
0.0
  0
LINE
  8
0
  6
CONTINUOUS
 62
               3
  5
3CC
 10
-664.67226690394978
 20
-110.49005705929494
 30
0.0
 11
-664.67226690394978
 21
-95.49005705929585
 31
0.0
  0
LINE
  8
0
  6
CONTINUOUS
 62
               3
  5
3CD
 10
-742.67226690394909
 20
35.50994294070324
 30
0.0
 11
-742.67226690394909
 21
-96.490057059294827
 31
0.0
  0
LINE
  8
0
  6
CONTINUOUS
 62
               3
  5
3CE
 10
-710.67226690394864
 20
-96.490057059294372
 30
0.0
 11
-710.67226690394909
 21
35.50994294070324
 31
0.0
  0
LINE
  8
0
  6
CONTINUOUS
 62
               3
  5
3CF
 10
-742.67226690394978
 20
35.50994294070324
 30
0.0
 11
-710.67226690394978
 21
35.50994294070324
 31
0.0
  0
LINE
  8
0
  6
CONTINUOUS
 62
               3
  5
3D0
 10
-742.67226690394909
 20
-31.490057059295623
 30
0.0
 11
-710.67226690394864
 21
-31.490057059295623
 31
0.0
  0
LINE
  8
0
  6
CONTINUOUS
 62
               3
  5
3D1
 10
-742.67226690394909
 20
-30.49005705929585
 30
0.0
 11
-710.67226690394864
 21
-30.49005705929585
 31
0.0
  0
LINE
  8
0
  6
CONTINUOUS
 62
               3
  5
3D2
 10
-742.67226690394909
 20
-32.49005705929585
 30
0.0
 11
-710.67226690394864
 21
-32.49005705929585
 31
0.0
  0
ARC
  8
0
  6
CONTINUOUS
 62
               3
  5
3D3
 10
-650.67226690395023
 20
30.50994294070324
 30
0.0
 40
4.0
 50
0.0000000000341973
 51
89.999999999981881
  0
LINE
  8
0
  6
CONTINUOUS
 62
               3
  5
3D4
 10
-646.67226690395023
 20
30.509942940705628
 30
0.0
 11
-646.67226690395
 21
11.50994294070324
 31
0.0
  0
ARC
  8
0
  6
CONTINUOUS
 62
               3
  5
3D5
 10
-650.67226690395069
 20
-91.49005705929585
 30
0.0
 40
4.0
 50
269.99999999994566
 51
359.99999999989495
  0
LINE
  8
0
  6
CONTINUOUS
 62
               3
  5
3D6
 10
-646.67226690395046
 20
-91.49005705929585
 30
0.0
 11
-646.67226690395069
 21
-72.990057059295623
 31
0.0
  0
LINE
  8
0
  6
CONTINUOUS
 62
               3
  5
3D7
 10
-649.67226690395
 20
11.50994294070324
 30
0.0
 11
-649.67226690394955
 21
-72.990057059295623
 31
0.0
  0
LINE
  8
0
  6
CONTINUOUS
 62
               3
  5
3D8
 10
-791.67226690395114
 20
-110.49005705929494
 30
0.0
 11
-661.67226690395114
 21
-110.49005705929494
 31
0.0
  0
LINE
  8
0
  6
CONTINUOUS
 62
               3
  5
3D9
 10
-188.67226690395182
 20
-110.5041987897747
 30
0.0
 11
-188.67226690395182
 21
-95.504198789775614
 31
0.0
  0
LINE
  8
0
  6
CONTINUOUS
 62
               3
  5
3DA
 10
-191.67226690395165
 20
-110.5041987897747
 30
0.0
 11
-61.672266903951666
 21
-110.5041987897747
 31
0.0
  0
ARC
  8
0
  6
CONTINUOUS
 62
               3
  5
3DB
 10
-202.67226690395103
 20
30.495801210223476
 30
0.0
 40
4.0
 50
89.99999999994769
 51
179.999999999897
  0
ARC
  8
0
  6
CONTINUOUS
 62
               3
  5
3DC
 10
-205.672266903951
 20
33.495801210223476
 30
0.0
 40
1.0000000000000004
 50
89.99999999994688
 51
179.99999999989211
  0
ARC
  8
0
  6
CONTINUOUS
 62
               3
  5
3DD
 10
-205.672266903951
 20
33.495801210223476
 30
0.0
 40
1.9999999999999996
 50
89.9999999999485
 51
179.999999999897
  0
LINE
  8
0
  6
CONTINUOUS
 62
               3
  5
3DE
 10
-207.67226690395103
 20
33.495801210223476
 30
0.0
 11
-207.67226690395159
 21
-29.504198789775387
 31
0.0
  0
LINE
  8
0
  6
CONTINUOUS
 62
               3
  5
3DF
 10
-206.67226690395123
 20
33.495801210223476
 30
0.0
 11
-206.67226690395179
 21
-29.504198789775387
 31
0.0
  0
ARC
  8
0
  6
CONTINUOUS
 62
               3
  5
3E0
 10
-208.67226690395154
 20
-29.504198789775387
 30
0.0
 40
1.9999999999999996
 50
269.99999999984431
 51
359.999999999794
  0
ARC
  8
0
  6
CONTINUOUS
 62
               3
  5
3E1
 10
-208.67226690395154
 20
-29.504198789775387
 30
0.0
 40
1.0000000000000004
 50
269.9999999998447
 51
359.999999999794
  0
LINE
  8
0
  6
CONTINUOUS
 62
               3
  5
3E2
 10
-208.67226690395154
 20
-31.504198789775387
 30
0.0
 11
-271.67226690395165
 21
-31.504198789775842
 31
0.0
  0
LINE
  8
0
  6
CONTINUOUS
 62
               3
  5
3E3
 10
-208.67226690395154
 20
-30.504198789775387
 30
0.0
 11
-271.67226690395165
 21
-30.504198789775842
 31
0.0
  0
LINE
  8
0
  6
CONTINUOUS
 62
               3
  5
3E4
 10
-191.67226690395123
 20
35.495801210223476
 30
0.0
 11
-205.672266903951
 21
35.495801210223476
 31
0.0
  0
LINE
  8
0
  6
CONTINUOUS
 62
               3
  5
3E5
 10
-126.67226690395108
 20
34.495801210224158
 30
0.0
 11
-205.672266903951
 21
34.495801210223476
 31
0.0
  0
LINE
  8
0
  6
CONTINUOUS
 62
               3
  5
3E6
 10
-191.67226690395123
 20
35.495801210223476
 30
0.0
 11
-191.67226690395123
 21
34.49580121022359
 31
0.0
  0
LINE
  8
0
  6
CONTINUOUS
 62
               3
  5
3E7
 10
-191.67226690395066
 20
-96.504198789775387
 30
0.0
 11
-205.67226690395057
 21
-96.504198789775614
 31
0.0
  0
ARC
  8
0
  6
CONTINUOUS
 62
               3
  5
3E8
 10
-205.67226690395057
 20
-94.504198789775614
 30
0.0
 40
1.0000000000000004
 50
179.99999999990189
 51
269.9999999998447
  0
ARC
  8
0
  6
CONTINUOUS
 62
               3
  5
3E9
 10
-205.67226690395057
 20
-94.504198789775614
 30
0.0
 40
1.9999999999999996
 50
179.99999999989538
 51
269.9999999998455
  0
ARC
  8
0
  6
CONTINUOUS
 62
               3
  5
3EA
 10
-202.67226690395074
 20
-91.504198789775614
 30
0.0
 40
4.0
 50
179.999999999897
 51
269.99999999984573
  0
LINE
  8
0
  6
CONTINUOUS
 62
               3
  5
3EB
 10
-191.67226690395066
 20
-96.504198789775387
 30
0.0
 11
-191.67226690395066
 21
-95.504198789775614
 31
0.0
  0
LINE
  8
0
  6
CONTINUOUS
 62
               3
  5
3EC
 10
-207.67226690395074
 20
-94.504198789775614
 30
0.0
 11
-207.67226690395159
 21
-33.504198789775387
 31
0.0
  0
LINE
  8
0
  6
CONTINUOUS
 62
               3
  5
3ED
 10
-206.67226690395066
 20
-94.504198789775614
 30
0.0
 11
-206.67226690395165
 21
-33.504198789775387
 31
0.0
  0
LINE
  8
0
  6
CONTINUOUS
 62
               3
  5
3EE
 10
-126.67226690395165
 20
-95.504198789774705
 30
0.0
 11
-205.67226690395057
 21
-95.504198789775614
 31
0.0
  0
LINE
  8
0
  6
CONTINUOUS
 62
               3
  5
3EF
 10
-126.67226690395165
 20
-73.004198789774705
 30
0.0
 11
-206.6722669039508
 21
-73.004198789775387
 31
0.0
  0
ARC
  8
0
  6
CONTINUOUS
 62
               3
  5
3F0
 10
-208.67226690395154
 20
-33.504198789775387
 30
0.0
 40
1.9999999999999996
 50
0.0
 51
89.9999999999485
  0
ARC
  8
0
  6
CONTINUOUS
 62
               3
  5
3F1
 10
-208.67226690395154
 20
-33.504198789775387
 30
0.0
 40
1.0000000000000004
 50
0.0
 51
89.999999999950134
  0
LINE
  8
0
  6
CONTINUOUS
 62
               3
  5
3F2
 10
-208.67226690395154
 20
-32.504198789775387
 30
0.0
 11
-271.67226690395165
 21
-32.504198789775842
 31
0.0
  0
LINE
  8
0
  6
CONTINUOUS
 62
               3
  5
3F3
 10
-206.67226690395123
 20
11.495801210223476
 30
0.0
 11
-126.67226690395108
 21
11.495801210223476
 31
0.0
  0
LINE
  8
0
  6
CONTINUOUS
 62
               3
  5
3F4
 10
-203.67226690395125
 20
11.495801210223476
 30
0.0
 11
-203.67226690395182
 21
-73.004198789775387
 31
0.0
  0
LINE
  8
0
  6
CONTINUOUS
 62
               3
  5
3F5
 10
-271.67226690395165
 20
-30.504198789775842
 30
0.0
 11
-271.67226690395165
 21
-31.504198789775842
 31
0.0
  0
LINE
  8
0
  6
CONTINUOUS
 62
               3
  5
3F6
 10
-271.67226690395165
 20
-32.504198789775842
 30
0.0
 11
-271.67226690395165
 21
-31.504198789775842
 31
0.0
  0
LINE
  8
0
  6
CONTINUOUS
 62
               3
  5
3F7
 10
-213.92226690395159
 20
-29.004198789775387
 30
0.0
 11
-221.42226690395159
 21
-29.004198789775387
 31
0.0
  0
LINE
  8
0
  6
CONTINUOUS
 62
               3
  5
3F8
 10
-213.92226690395159
 20
-34.004198789775387
 30
0.0
 11
-221.42226690395159
 21
-34.004198789775614
 31
0.0
  0
LINE
  8
0
  6
CONTINUOUS
 62
               3
  5
3F9
 10
-213.92226690395159
 20
-29.004198789775387
 30
0.0
 11
-213.92226690395159
 21
-30.504198789775387
 31
0.0
  0
LINE
  8
0
  6
CONTINUOUS
 62
               3
  5
3FA
 10
-213.92226690395159
 20
-32.504198789775387
 30
0.0
 11
-213.92226690395159
 21
-34.004198789775387
 31
0.0
  0
LINE
  8
0
  6
CONTINUOUS
 62
               3
  5
3FB
 10
-221.42226690395159
 20
-29.004198789775387
 30
0.0
 11
-221.42226690395159
 21
-30.504198789775387
 31
0.0
  0
LINE
  8
0
  6
CONTINUOUS
 62
               3
  5
3FC
 10
-221.42226690395159
 20
-32.504198789775614
 30
0.0
 11
-221.42226690395159
 21
-34.004198789775614
 31
0.0
  0
ARC
  8
0
  6
CONTINUOUS
 62
               3
  5
3FD
 10
-50.672266903951268
 20
30.495801210223476
 30
0.0
 40
4.0
 50
0.0000000000341973
 51
89.999999999982904
  0
ARC
  8
0
  6
CONTINUOUS
 62
               3
  5
3FE
 10
-47.672266903951325
 20
33.495801210223476
 30
0.0
 40
1.0000000000000004
 50
0.0000000000325689
 51
89.999999999983515
  0
ARC
  8
0
  6
CONTINUOUS
 62
               3
  5
3FF
 10
-47.672266903951325
 20
33.495801210223476
 30
0.0
 40
1.9999999999999996
 50
0.0000000000358258
 51
89.999999999982293
  0
LINE
  8
0
  6
CONTINUOUS
 62
               3
  5
400
 10
-45.672266903951268
 20
33.495801210223476
 30
0.0
 11
-45.672266903951837
 21
-29.504198789775387
 31
0.0
  0
LINE
  8
0
  6
CONTINUOUS
 62
               3
  5
401
 10
-46.672266903951098
 20
33.495801210223476
 30
0.0
 11
-46.672266903951666
 21
-29.504198789775387
 31
0.0
  0
ARC
  8
0
  6
CONTINUOUS
 62
               3
  5
402
 10
-44.67226690395178
 20
-29.504198789775387
 30
0.0
 40
1.9999999999999996
 50
180.00000000000122
 51
269.9999999999481
  0
ARC
  8
0
  6
CONTINUOUS
 62
               3
  5
403
 10
-44.67226690395178
 20
-29.504198789775387
 30
0.0
 40
1.0000000000000004
 50
179.99999999999633
 51
269.9999999999481
  0
LINE
  8
0
  6
CONTINUOUS
 62
               3
  5
404
 10
-44.67226690395178
 20
-31.504198789775387
 30
0.0
 11
18.327733096048348
 21
-31.504198789775842
 31
0.0
  0
LINE
  8
0
  6
CONTINUOUS
 62
               3
  5
405
 10
-44.67226690395178
 20
-30.504198789775387
 30
0.0
 11
18.327733096048348
 21
-30.504198789775842
 31
0.0
  0
LINE
  8
0
  6
CONTINUOUS
 62
               3
  5
406
 10
-61.672266903951098
 20
35.495801210223476
 30
0.0
 11
-47.672266903951325
 21
35.495801210223476
 31
0.0
  0
LINE
  8
0
  6
CONTINUOUS
 62
               3
  5
407
 10
-126.67226690395108
 20
34.495801210224158
 30
0.0
 11
-47.672266903951325
 21
34.495801210223476
 31
0.0
  0
LINE
  8
0
  6
CONTINUOUS
 62
               3
  5
408
 10
-61.672266903951098
 20
35.495801210223476
 30
0.0
 11
-61.672266903951098
 21
34.49580121022359
 31
0.0
  0
LINE
  8
0
  6
CONTINUOUS
 62
               3
  5
409
 10
-61.672266903952803
 20
-96.504198789775387
 30
0.0
 11
-47.672266903952746
 21
-96.504198789775614
 31
0.0
  0
ARC
  8
0
  6
CONTINUOUS
 62
               3
  5
40A
 10
-47.672266903952746
 20
-94.504198789775614
 30
0.0
 40
1.0000000000000004
 50
269.9999999999481
 51
359.99999999989495
  0
ARC
  8
0
  6
CONTINUOUS
 62
               3
  5
40B
 10
-47.672266903952746
 20
-94.504198789775614
 30
0.0
 40
1.9999999999999996
 50
269.99999999994645
 51
359.99999999989495
  0
ARC
  8
0
  6
CONTINUOUS
 62
               3
  5
40C
 10
-50.672266903952689
 20
-91.504198789775614
 30
0.0
 40
4.0
 50
269.99999999994645
 51
359.99999999989495
  0
LINE
  8
0
  6
CONTINUOUS
 62
               3
  5
40D
 10
-61.672266903952803
 20
-96.504198789775387
 30
0.0
 11
-61.672266903952803
 21
-95.504198789775614
 31
0.0
  0
LINE
  8
0
  6
CONTINUOUS
 62
               3
  5
40E
 10
-45.67226690395286
 20
-94.504198789775614
 30
0.0
 11
-45.672266903951837
 21
-33.504198789775387
 31
0.0
  0
LINE
  8
0
  6
CONTINUOUS
 62
               3
  5
40F
 10
-46.672266903952803
 20
-94.504198789775614
 30
0.0
 11
-46.67226690395178
 21
-33.504198789775387
 31
0.0
  0
LINE
  8
0
  6
CONTINUOUS
 62
               3
  5
410
 10
-126.67226690395165
 20
-95.504198789774705
 30
0.0
 11
-47.672266903952746
 21
-95.504198789775614
 31
0.0
  0
LINE
  8
0
  6
CONTINUOUS
 62
               3
  5
411
 10
-126.67226690395165
 20
-73.004198789774705
 30
0.0
 11
-46.672266903952519
 21
-73.004198789775387
 31
0.0
  0
ARC
  8
0
  6
CONTINUOUS
 62
               3
  5
412
 10
-44.67226690395178
 20
-33.504198789775387
 30
0.0
 40
1.9999999999999996
 50
89.999999999982293
 51
179.99999999992957
  0
ARC
  8
0
  6
CONTINUOUS
 62
               3
  5
413
 10
-44.67226690395178
 20
-33.504198789775387
 30
0.0
 40
1.0000000000000004
 50
89.999999999981071
 51
179.99999999993119
  0
LINE
  8
0
  6
CONTINUOUS
 62
               3
  5
414
 10
-44.67226690395178
 20
-32.504198789775387
 30
0.0
 11
18.327733096048348
 21
-32.504198789775842
 31
0.0
  0
LINE
  8
0
  6
CONTINUOUS
 62
               3
  5
415
 10
-46.672266903951098
 20
11.495801210223476
 30
0.0
 11
-126.67226690395108
 21
11.495801210223476
 31
0.0
  0
LINE
  8
0
  6
CONTINUOUS
 62
               3
  5
416
 10
-49.672266903951211
 20
11.495801210223476
 30
0.0
 11
-49.67226690395178
 21
-73.004198789775387
 31
0.0
  0
LINE
  8
0
  6
CONTINUOUS
 62
               3
  5
417
 10
18.327733096048348
 20
-30.504198789775842
 30
0.0
 11
18.327733096048348
 21
-31.504198789775842
 31
0.0
  0
LINE
  8
0
  6
CONTINUOUS
 62
               3
  5
418
 10
18.327733096048348
 20
-32.504198789775842
 30
0.0
 11
18.327733096048348
 21
-31.504198789775842
 31
0.0
  0
LINE
  8
0
  6
CONTINUOUS
 62
               3
  5
419
 10
-39.422266903951837
 20
-29.004198789775387
 30
0.0
 11
-31.922266903951837
 21
-29.004198789775387
 31
0.0
  0
LINE
  8
0
  6
CONTINUOUS
 62
               3
  5
41A
 10
-39.422266903951837
 20
-34.004198789775387
 30
0.0
 11
-31.922266903951837
 21
-34.004198789775614
 31
0.0
  0
LINE
  8
0
  6
CONTINUOUS
 62
               3
  5
41B
 10
-39.422266903951837
 20
-29.004198789775387
 30
0.0
 11
-39.422266903951837
 21
-30.504198789775387
 31
0.0
  0
LINE
  8
0
  6
CONTINUOUS
 62
               3
  5
41C
 10
-39.422266903951837
 20
-32.504198789775387
 30
0.0
 11
-39.422266903951837
 21
-34.004198789775387
 31
0.0
  0
LINE
  8
0
  6
CONTINUOUS
 62
               3
  5
41D
 10
-31.922266903951837
 20
-29.004198789775387
 30
0.0
 11
-31.922266903951837
 21
-30.504198789775387
 31
0.0
  0
LINE
  8
0
  6
CONTINUOUS
 62
               3
  5
41E
 10
-31.922266903951837
 20
-32.504198789775614
 30
0.0
 11
-31.922266903951837
 21
-34.004198789775614
 31
0.0
  0
LINE
  8
0
  6
CONTINUOUS
 62
               3
  5
41F
 10
-64.672266903951765
 20
-110.5041987897747
 30
0.0
 11
-64.672266903951765
 21
-95.504198789775614
 31
0.0
  0
LINE
  8
0
  6
CONTINUOUS
 62
               3
  5
420
 10
489.32773309605005
 20
34.495801210223931
 30
0.0
 11
549.3277330960475
 21
34.495801210223362
 31
0.0
  0
LINE
  8
0
  6
CONTINUOUS
 62
               3
  5
421
 10
411.32773309604937
 20
-110.50419878977482
 30
0.0
 11
411.32773309604937
 21
-95.504198789775728
 31
0.0
  0
ARC
  8
0
  6
CONTINUOUS
 62
               3
  5
422
 10
397.32773309605005
 20
30.495801210223362
 30
0.0
 40
4.0
 50
89.99999999994769
 51
179.999999999897
  0
LINE
  8
0
  6
CONTINUOUS
 62
               3
  5
423
 10
393.32773309605005
 20
30.49580121022575
 30
0.0
 11
393.32773309604983
 21
11.495801210223362
 31
0.0
  0
LINE
  8
0
  6
CONTINUOUS
 62
               3
  5
424
 10
457.32773309605005
 20
34.495801210223931
 30
0.0
 11
397.32773309605142
 21
34.495801210223362
 31
0.0
  0
LINE
  8
0
  6
CONTINUOUS
 62
               3
  5
425
 10
457.32773309605005
 20
-96.504198789774705
 30
0.0
 11
489.32773309605051
 21
-96.50419878977425
 31
0.0
  0
ARC
  8
0
  6
CONTINUOUS
 62
               3
  5
426
 10
397.32773309605039
 20
-91.504198789775728
 30
0.0
 40
4.0
 50
179.999999999897
 51
269.9999999998447
  0
LINE
  8
0
  6
CONTINUOUS
 62
               3
  5
427
 10
393.32773309605028
 20
-91.504198789775728
 30
0.0
 11
393.32773309605051
 21
-73.004198789775501
 31
0.0
  0
LINE
  8
0
  6
CONTINUOUS
 62
               3
  5
428
 10
457.32773309605005
 20
-95.504198789775046
 30
0.0
 11
397.32773309604687
 21
-95.504198789775728
 31
0.0
  0
LINE
  8
0
  6
CONTINUOUS
 62
               3
  5
429
 10
457.32773309605005
 20
-73.004198789774932
 30
0.0
 11
393.32773309605028
 21
-73.004198789775501
 31
0.0
  0
LINE
  8
0
  6
CONTINUOUS
 62
               3
  5
42A
 10
393.32773309604983
 20
11.495801210223362
 30
0.0
 11
457.32773309605005
 21
11.495801210223362
 31
0.0
  0
LINE
  8
0
  6
CONTINUOUS
 62
               3
  5
42B
 10
396.32773309604983
 20
11.495801210223362
 30
0.0
 11
396.32773309604937
 21
-73.004198789775501
 31
0.0
  0
LINE
  8
0
  6
CONTINUOUS
 62
               3
  5
42C
 10
489.32773309605051
 20
-95.504198789775046
 30
0.0
 11
549.32773309604841
 21
-95.504198789775728
 31
0.0
  0
LINE
  8
0
  6
CONTINUOUS
 62
               3
  5
42D
 10
489.32773309605051
 20
-73.004198789775046
 30
0.0
 11
553.32773309604863
 21
-73.004198789775501
 31
0.0
  0
LINE
  8
0
  6
CONTINUOUS
 62
               3
  5
42E
 10
553.32773309605
 20
11.495801210223362
 30
0.0
 11
489.32773309605005
 21
11.495801210223362
 31
0.0
  0
LINE
  8
0
  6
CONTINUOUS
 62
               3
  5
42F
 10
535.32773309604931
 20
-110.50419878977482
 30
0.0
 11
535.32773309604931
 21
-95.504198789775728
 31
0.0
  0
LINE
  8
0
  6
CONTINUOUS
 62
               3
  5
430
 10
457.32773309605005
 20
35.495801210223362
 30
0.0
 11
457.32773309605005
 21
-96.504198789774705
 31
0.0
  0
LINE
  8
0
  6
CONTINUOUS
 62
               3
  5
431
 10
489.32773309605051
 20
-96.50419878977425
 30
0.0
 11
489.32773309605005
 21
35.495801210223362
 31
0.0
  0
LINE
  8
0
  6
CONTINUOUS
 62
               3
  5
432
 10
457.32773309604937
 20
35.495801210223362
 30
0.0
 11
489.32773309604937
 21
35.495801210223362
 31
0.0
  0
LINE
  8
0
  6
CONTINUOUS
 62
               3
  5
433
 10
457.32773309605005
 20
-31.504198789775501
 30
0.0
 11
489.32773309605051
 21
-31.504198789775501
 31
0.0
  0
LINE
  8
0
  6
CONTINUOUS
 62
               3
  5
434
 10
457.32773309605005
 20
-30.504198789775728
 30
0.0
 11
489.32773309605051
 21
-30.504198789775728
 31
0.0
  0
LINE
  8
0
  6
CONTINUOUS
 62
               3
  5
435
 10
457.32773309605005
 20
-32.504198789775728
 30
0.0
 11
489.32773309605051
 21
-32.504198789775728
 31
0.0
  0
ARC
  8
0
  6
CONTINUOUS
 62
               3
  5
436
 10
549.32773309604886
 20
30.495801210223362
 30
0.0
 40
4.0
 50
0.0000000000341973
 51
89.999999999981881
  0
LINE
  8
0
  6
CONTINUOUS
 62
               3
  5
437
 10
553.32773309604886
 20
30.49580121022575
 30
0.0
 11
553.32773309604909
 21
11.495801210223362
 31
0.0
  0
ARC
  8
0
  6
CONTINUOUS
 62
               3
  5
438
 10
549.32773309604841
 20
-91.504198789775728
 30
0.0
 40
4.0
 50
269.99999999994566
 51
359.99999999989495
  0
LINE
  8
0
  6
CONTINUOUS
 62
               3
  5
439
 10
553.32773309604863
 20
-91.504198789775728
 30
0.0
 11
553.32773309604841
 21
-73.004198789775501
 31
0.0
  0
LINE
  8
0
  6
CONTINUOUS
 62
               3
  5
43A
 10
550.32773309604909
 20
11.495801210223362
 30
0.0
 11
550.32773309604954
 21
-73.004198789775501
 31
0.0
  0
LINE
  8
0
  6
CONTINUOUS
 62
               3
  5
43B
 10
408.32773309604812
 20
-110.50419878977482
 30
0.0
 11
538.32773309604795
 21
-110.50419878977482
 31
0.0
  0
ARC
  8
0
  6
CONTINUOUS
 62
               3
  5
43C
 10
-126.67226690395107
 20
1074.4958012102238
 30
0.0
 40
88.5
 50
76.93897588503728
 51
103.06102411461833
  0
ARC
  8
0
  6
CONTINUOUS
 62
               3
  5
43D
 10
-161.67226690395131
 20
1157.4114209691088
 30
0.0
 40
15.0
 50
292.88538047604646
 51
359.99999999986193
  0
ARC
  8
0
  6
CONTINUOUS
 62
               3
  5
43E
 10
-91.672266903951012
 20
1157.4114209691088
 30
0.0
 40
15.0
 50
179.99999999993099
 51
247.11461952374577
  0
LINE
  8
0
  6
CONTINUOUS
 62
               3
  5
43F
 10
-146.67226690395108
 20
1155.5652159114538
 30
0.0
 11
-146.67226690395108
 21
1160.7062994108487
 31
0.0
  0
LINE
  8
0
  6
CONTINUOUS
 62
               3
  5
440
 10
-106.67226690395107
 20
1157.4114209691088
 30
0.0
 11
-106.67226690395107
 21
1160.7062994108487
 31
0.0
  0
CIRCLE
  8
0
  6
CONTINUOUS
 62
               3
  5
441
 10
-126.67226690395107
 20
1074.4958012102238
 30
0.0
 40
75.0
  0
ARC
  8
0
  6
CONTINUOUS
 62
               3
  5
442
 10
-126.67226690395107
 20
1074.4958012102238
 30
0.0
 40
80.500000000000043
 50
105.065412754059
 51
165.61435521389049
  0
ARC
  8
0
  6
CONTINUOUS
 62
               3
  5
443
 10
-126.67226690395107
 20
1074.4958012102238
 30
0.0
 40
80.500000000000043
 50
195.06541275402418
 51
254.93458724580285
  0
ARC
  8
0
  6
CONTINUOUS
 62
               3
  5
444
 10
-126.67226690395107
 20
1074.4958012102238
 30
0.0
 40
88.5
 50
166.93897588510592
 51
193.06102411468694
  0
ARC
  8
0
  6
CONTINUOUS
 62
               3
  5
445
 10
-209.58788666283607
 20
1109.4958012102238
 30
0.0
 40
15.0
 50
269.9999999998962
 51
337.11461952371138
  0
LINE
  8
0
  6
CONTINUOUS
 62
               3
  5
446
 10
-212.88276510457666
 20
1054.4958012102238
 30
0.0
 11
-209.58788666283607
 21
1054.4958012102238
 31
0.0
  0
LINE
  8
0
  6
CONTINUOUS
 62
               3
  5
447
 10
-212.88276510457666
 20
1094.4958012102238
 30
0.0
 11
-207.74168160518099
 21
1094.4958012102238
 31
0.0
  0
ARC
  8
0
  6
CONTINUOUS
 62
               3
  5
448
 10
-209.58788666283607
 20
1039.4958012102238
 30
0.0
 40
15.0
 50
22.885380476149702
 51
89.999999999965382
  0
ARC
  8
0
  6
CONTINUOUS
 62
               3
  5
449
 10
-126.67226690395107
 20
1074.4958012102238
 30
0.0
 40
88.5
 50
256.93897588503683
 51
283.06102411461791
  0
ARC
  8
0
  6
CONTINUOUS
 62
               3
  5
44A
 10
-91.672266903951126
 20
991.58018145133894
 30
0.0
 40
15.0
 50
112.88538047611544
 51
179.99999999993099
  0
ARC
  8
0
  6
CONTINUOUS
 62
               3
  5
44B
 10
-161.67226690395108
 20
991.58018145133894
 30
0.0
 40
15.0
 50
359.99999999986153
 51
427.11461952367756
  0
LINE
  8
0
  6
CONTINUOUS
 62
               3
  5
44C
 10
-106.67226690395107
 20
988.28530300959869
 30
0.0
 11
-106.67226690395107
 21
991.58018145133894
 31
0.0
  0
LINE
  8
0
  6
CONTINUOUS
 62
               3
  5
44D
 10
-146.67226690395108
 20
988.28530300959869
 30
0.0
 11
-146.67226690395108
 21
991.58018145133894
 31
0.0
  0
ARC
  8
0
  6
CONTINUOUS
 62
               3
  5
44E
 10
-126.67226690395107
 20
1074.4958012102238
 30
0.0
 40
88.5
 50
346.93897588496799
 51
373.0610241145489
  0
LINE
  8
0
  6
CONTINUOUS
 62
               3
  5
44F
 10
-43.756647145066069
 20
1054.4958012102238
 30
0.0
 11
-40.461768703326157
 21
1054.4958012102238
 31
0.0
  0
LINE
  8
0
  6
CONTINUOUS
 62
               3
  5
450
 10
-43.756647145066069
 20
1094.4958012102238
 30
0.0
 11
-40.461768703326157
 21
1094.4958012102238
 31
0.0
  0
ARC
  8
0
  6
CONTINUOUS
 62
               3
  5
451
 10
-43.756647145066069
 20
1109.4958012102238
 30
0.0
 40
15.0
 50
202.88538047608094
 51
269.9999999998962
  0
ARC
  8
0
  6
CONTINUOUS
 62
               3
  5
452
 10
-43.756647145066069
 20
1039.4958012102238
 30
0.0
 40
15.0
 50
89.999999999965382
 51
157.1146195237811
  0
ARC
  8
0
  6
CONTINUOUS
 62
               3
  5
453
 10
-126.67226690395107
 20
1074.4958012102238
 30
0.0
 40
80.500000000000043
 50
15.06541275409346
 51
74.934587245871924
  0
ARC
  8
0
  6
CONTINUOUS
 62
               3
  5
454
 10
-126.67226690395107
 20
1074.4958012102238
 30
0.0
 40
80.500000000000043
 50
285.06541275398962
 51
344.93458724576811
  0
ARC
  8
0
  6
CONTINUOUS
 62
               3
  5
455
 10
-126.67226690395097
 20
1074.4958012102238
 30
0.0
 40
83.499999999999901
 50
103.85826865513566
 51
123.14937354329005
  0
ARC
  8
0
  6
CONTINUOUS
 62
               3
  5
456
 10
-126.67226690395097
 20
1074.4958012102238
 30
0.0
 40
83.499999999999901
 50
13.858268655170267
 51
76.141731344795133
  0
ARC
  8
0
  6
CONTINUOUS
 62
               3
  5
457
 10
-126.67226690395097
 20
1074.4958012102238
 30
0.0
 40
83.499999999999901
 50
236.38944847038195
 51
256.14173134472588
  0
ARC
  8
0
  6
CONTINUOUS
 62
               3
  5
458
 10
-126.67226690395097
 20
1074.4958012102238
 30
0.0
 40
83.499999999999901
 50
283.85826865506635
 51
346.14173134469121
  0
ARC
  8
0
  6
CONTINUOUS
 62
               3
  5
459
 10
-175.06615959813547
 20
1148.592232635116
 30
0.0
 40
5.0
 50
271.99999999989558
 51
303.14937354322086
  0
LINE
  8
0
  6
CONTINUOUS
 62
               3
  5
45A
 10
-801.67226690395069
 20
639.49580121022393
 30
0.0
 11
-651.67226690395137
 21
639.49580121022393
 31
0.0
  0
LINE
  8
0
  6
CONTINUOUS
 62
               3
  5
45B
 10
-815.17226690395091
 20
629.49580121022393
 30
0.0
 11
-815.17226690395091
 21
622.49580121022427
 31
0.0
  0
LINE
  8
0
  6
CONTINUOUS
 62
               3
  5
45C
 10
-815.17226690395091
 20
629.49580121022393
 30
0.0
 11
-801.67226690395069
 21
639.49580121022393
 31
0.0
  0
LINE
  8
0
  6
CONTINUOUS
 62
               3
  5
45D
 10
-638.17226690395103
 20
629.49580121022393
 30
0.0
 11
-638.17226690395103
 21
622.49580121022427
 31
0.0
  0
LINE
  8
0
  6
CONTINUOUS
 62
               3
  5
45E
 10
-638.17226690395103
 20
629.49580121022393
 30
0.0
 11
-651.67226690395137
 21
639.49580121022393
 31
0.0
  0
ARC
  8
0
  6
CONTINUOUS
 62
               3
  5
45F
 10
-812.17226690395069
 20
617.49580121022427
 30
0.0
 40
5.0
 50
0.0
 51
89.999999999965937
  0
LINE
  8
0
  6
CONTINUOUS
 62
               3
  5
460
 10
-815.17226690395091
 20
622.49580121022427
 30
0.0
 11
-812.17226690395069
 21
622.49580121022427
 31
0.0
  0
ARC
  8
0
  6
CONTINUOUS
 62
               3
  5
461
 10
-641.17226690395069
 20
617.49580121022427
 30
0.0
 40
5.0
 50
89.999999999965937
 51
179.99999999993088
  0
LINE
  8
0
  6
CONTINUOUS
 62
               3
  5
462
 10
-638.17226690395103
 20
622.49580121022427
 30
0.0
 11
-641.17226690395069
 21
622.49580121022427
 31
0.0
  0
LINE
  8
0
  6
CONTINUOUS
 62
               3
  5
463
 10
-201.67226690395097
 20
639.49580121022393
 30
0.0
 11
-51.672266903951538
 21
639.49580121022393
 31
0.0
  0
LINE
  8
0
  6
CONTINUOUS
 62
               3
  5
464
 10
-215.17226690395114
 20
629.49580121022393
 30
0.0
 11
-215.17226690395114
 21
622.49580121022427
 31
0.0
  0
LINE
  8
0
  6
CONTINUOUS
 62
               3
  5
465
 10
-215.17226690395114
 20
629.49580121022393
 30
0.0
 11
-201.67226690395097
 21
639.49580121022393
 31
0.0
  0
LINE
  8
0
  6
CONTINUOUS
 62
               3
  5
466
 10
-38.172266903951311
 20
629.49580121022393
 30
0.0
 11
-38.172266903951311
 21
622.49580121022427
 31
0.0
  0
LINE
  8
0
  6
CONTINUOUS
 62
               3
  5
467
 10
-38.172266903951311
 20
629.49580121022393
 30
0.0
 11
-51.672266903951538
 21
639.49580121022393
 31
0.0
  0
ARC
  8
0
  6
CONTINUOUS
 62
               3
  5
468
 10
-212.17226690395091
 20
617.49580121022427
 30
0.0
 40
5.0
 50
0.0
 51
89.999999999965439
  0
LINE
  8
0
  6
CONTINUOUS
 62
               3
  5
469
 10
-215.17226690395114
 20
622.49580121022427
 30
0.0
 11
-212.17226690395091
 21
622.49580121022427
 31
0.0
  0
ARC
  8
0
  6
CONTINUOUS
 62
               3
  5
46A
 10
-41.17226690395097
 20
617.49580121022427
 30
0.0
 40
5.0
 50
89.999999999965283
 51
179.99999999993088
  0
LINE
  8
0
  6
CONTINUOUS
 62
               3
  5
46B
 10
-38.172266903951311
 20
622.49580121022427
 30
0.0
 11
-41.17226690395097
 21
622.49580121022427
 31
0.0
  0
LINE
  8
0
  6
CONTINUOUS
 62
               3
  5
46C
 10
398.32773309604903
 20
639.49580121022393
 30
0.0
 11
548.32773309604841
 21
639.49580121022393
 31
0.0
  0
LINE
  8
0
  6
CONTINUOUS
 62
               3
  5
46D
 10
384.82773309604886
 20
629.49580121022393
 30
0.0
 11
384.82773309604886
 21
622.49580121022427
 31
0.0
  0
LINE
  8
0
  6
CONTINUOUS
 62
               3
  5
46E
 10
384.82773309604886
 20
629.49580121022393
 30
0.0
 11
398.32773309604903
 21
639.49580121022393
 31
0.0
  0
LINE
  8
0
  6
CONTINUOUS
 62
               3
  5
46F
 10
561.82773309604863
 20
629.49580121022393
 30
0.0
 11
561.82773309604863
 21
622.49580121022427
 31
0.0
  0
LINE
  8
0
  6
CONTINUOUS
 62
               3
  5
470
 10
561.82773309604863
 20
629.49580121022393
 30
0.0
 11
548.32773309604841
 21
639.49580121022393
 31
0.0
  0
ARC
  8
0
  6
CONTINUOUS
 62
               3
  5
471
 10
387.82773309604914
 20
617.49580121022427
 30
0.0
 40
5.0
 50
0.0
 51
89.999999999965937
  0
LINE
  8
0
  6
CONTINUOUS
 62
               3
  5
472
 10
384.82773309604886
 20
622.49580121022427
 30
0.0
 11
387.82773309604914
 21
622.49580121022427
 31
0.0
  0
ARC
  8
0
  6
CONTINUOUS
 62
               3
  5
473
 10
558.82773309604886
 20
617.49580121022427
 30
0.0
 40
5.0
 50
89.999999999965937
 51
179.99999999993088
  0
LINE
  8
0
  6
CONTINUOUS
 62
               3
  5
474
 10
561.82773309604863
 20
622.49580121022427
 30
0.0
 11
558.82773309604886
 21
622.49580121022427
 31
0.0
  0
LINE
  8
0
  6
CONTINUOUS
 62
               3
  5
475
 10
-807.17226690395069
 20
617.49580121022427
 30
0.0
 11
-807.17226690395091
 21
608.99580121022439
 31
0.0
  0
LINE
  8
0
  6
CONTINUOUS
 62
               3
  5
476
 10
-646.17226690395069
 20
617.49580121022427
 30
0.0
 11
-646.17226690395069
 21
608.99580121022439
 31
0.0
  0
LINE
  8
0
  6
CONTINUOUS
 62
               3
  5
477
 10
-207.17226690395091
 20
617.49580121022427
 30
0.0
 11
-207.17226690395103
 21
608.99580121022439
 31
0.0
  0
LINE
  8
0
  6
CONTINUOUS
 62
               3
  5
478
 10
-46.17226690395097
 20
617.49580121022427
 30
0.0
 11
-46.17226690395097
 21
608.99580121022439
 31
0.0
  0
LINE
  8
0
  6
CONTINUOUS
 62
               3
  5
479
 10
392.82773309604914
 20
617.49580121022427
 30
0.0
 11
392.82773309604892
 21
608.99580121022439
 31
0.0
  0
LINE
  8
0
  6
CONTINUOUS
 62
               3
  5
47A
 10
553.82773309604886
 20
617.49580121022427
 30
0.0
 11
553.82773309604886
 21
608.99580121022439
 31
0.0
  0
CIRCLE
  8
0
  6
CONTINUOUS
 62
               3
  5
47B
 10
482.61425631235687
 20
-594.36106330282553
 30
0.0
 40
75.0
  0
CIRCLE
  8
0
  6
CONTINUOUS
 62
               3
  5
47C
 10
482.61425631235687
 20
-594.36106330282553
 30
0.0
 40
52.5
  0
LINE
  8
0
  6
CONTINUOUS
 62
               3
  5
47D
 10
396.40375811173163
 20
-574.36106330282553
 30
0.0
 11
410.3300948383515
 21
-574.36106330282553
 31
0.0
  0
LINE
  8
0
  6
CONTINUOUS
 62
               3
  5
47E
 10
410.3300948383515
 20
-614.36106330282564
 30
0.0
 11
396.40375811173163
 21
-614.36106330282564
 31
0.0
  0
ARC
  8
0
  6
CONTINUOUS
 62
               3
  5
47F
 10
482.61425631235687
 20
-594.36106330282553
 30
0.0
 40
88.5
 50
166.93897588510336
 51
193.06102411468945
  0
LINE
  8
0
  6
CONTINUOUS
 62
               3
  5
480
 10
462.61425631235687
 20
-680.57156150345054
 30
0.0
 11
462.61425631235687
 21
-666.64522477683067
 31
0.0
  0
LINE
  8
0
  6
CONTINUOUS
 62
               3
  5
481
 10
502.61425631235687
 20
-666.64522477683067
 30
0.0
 11
502.61425631235687
 21
-680.57156150345054
 31
0.0
  0
ARC
  8
0
  6
CONTINUOUS
 62
               3
  5
482
 10
482.61425631235687
 20
-594.36106330282553
 30
0.0
 40
88.5
 50
256.93897588505166
 51
283.06102411463769
  0
LINE
  8
0
  6
CONTINUOUS
 62
               3
  5
483
 10
568.8247545129816
 20
-614.36106330282564
 30
0.0
 11
554.89841778636105
 21
-614.36106330282564
 31
0.0
  0
LINE
  8
0
  6
CONTINUOUS
 62
               3
  5
484
 10
554.89841778636105
 20
-574.36106330282553
 30
0.0
 11
568.8247545129816
 21
-574.36106330282553
 31
0.0
  0
ARC
  8
0
  6
CONTINUOUS
 62
               3
  5
485
 10
482.61425631235687
 20
-594.36106330282553
 30
0.0
 40
88.5
 50
346.93897588499982
 51
373.06102411458585
  0
LINE
  8
0
  6
CONTINUOUS
 62
               3
  5
486
 10
502.61425631235687
 20
-508.15056510219995
 30
0.0
 11
502.61425631235687
 21
-522.0769018288205
 31
0.0
  0
LINE
  8
0
  6
CONTINUOUS
 62
               3
  5
487
 10
462.61425631235687
 20
-522.0769018288205
 30
0.0
 11
462.61425631235687
 21
-508.15056510219995
 31
0.0
  0
ARC
  8
0
  6
CONTINUOUS
 62
               3
  5
488
 10
482.61425631235687
 20
-594.36106330282553
 30
0.0
 40
88.5
 50
76.938975885155216
 51
103.06102411474124
  0
LINE
  8
0
  6
CONTINUOUS
 62
               3
  5
489
 10
434.94613279149581
 20
-616.3610633028261
 30
0.0
 11
530.28237983321674
 21
-616.3610633028261
 31
0.0
  0
ARC
  8
0
  6
CONTINUOUS
 62
               3
  5
48A
 10
495.117867961738
 20
-585.6546656752065
 30
0.0
 40
54.763804151667173
 50
141.3859176367566
 51
145.15009542087031
  0
ARC
  8
0
  6
CONTINUOUS
 62
               3
  5
48B
 10
482.61425631235687
 20
-594.36106330282553
 30
0.0
 40
51.5
 50
334.71098847326505
 51
410.95932736340404
  0
ARC
  8
0
  6
CONTINUOUS
 62
               3
  5
48C
 10
482.61425631235687
 20
-594.36106330282553
 30
0.0
 40
51.5
 50
129.04067263628559
 51
205.28901152642416
  0
ARC
  8
0
  6
CONTINUOUS
 62
               3
  5
48D
 10
482.61425631235687
 20
-594.36106330282553
 30
0.0
 40
77.5
 50
104.95524831658301
 51
128.57288309095932
  0
ARC
  8
0
  6
CONTINUOUS
 62
               3
  5
48E
 10
482.61425631235687
 20
-594.36106330282553
 30
0.0
 40
77.5
 50
14.9552483166347
 51
75.044751683313535
  0
ARC
  8
0
  6
CONTINUOUS
 62
               3
  5
48F
 10
482.61425631235687
 20
-594.36106330282553
 30
0.0
 40
77.5
 50
321.42711690878122
 51
345.04475168315804
  0
LINE
  8
0
  6
CONTINUOUS
 62
               3
  5
490
 10
342.61425631235682
 20
-649.36106330282564
 30
0.0
 11
343.28581243832105
 21
-649.36106330282564
 31
0.0
  0
LINE
  8
0
  6
CONTINUOUS
 62
               3
  5
491
 10
345.7858124383215
 20
-651.86106330282564
 30
0.0
 11
343.28581243832105
 21
-649.36106330282564
 31
0.0
  0
LINE
  8
0
  6
CONTINUOUS
 62
               3
  5
492
 10
342.61425631235682
 20
-539.36106330282553
 30
0.0
 11
343.28581243832105
 21
-539.36106330282553
 31
0.0
  0
LINE
  8
0
  6
CONTINUOUS
 62
               3
  5
493
 10
345.78581243832105
 20
-536.86106330282553
 30
0.0
 11
343.28581243832105
 21
-539.36106330282553
 31
0.0
  0
LINE
  8
0
  6
CONTINUOUS
 62
               3
  5
494
 10
343.28581243832105
 20
-539.36106330282553
 30
0.0
 11
343.28581243832105
 21
-649.36106330282564
 31
0.0
  0
LINE
  8
0
  6
CONTINUOUS
 62
               3
  5
495
 10
437.12392052597892
 20
-533.67146628448393
 30
0.0
 11
345.78581243832105
 21
-536.86106330282553
 31
0.0
  0
LINE
  8
0
  6
CONTINUOUS
 62
               3
  5
496
 10
417.77778459580583
 20
-654.37507836779332
 30
0.0
 11
345.78581243832161
 21
-651.86106330282564
 31
0.0
  0
LINE
  8
0
  6
CONTINUOUS
 62
               3
  5
497
 10
337.61425631235682
 20
-539.53261942878964
 30
0.0
 11
337.61425631235682
 21
-649.46106330282555
 31
0.0
  0
LINE
  8
0
  6
CONTINUOUS
 62
               3
  5
498
 10
342.61425631235682
 20
-651.96106330282555
 30
0.0
 11
342.61425631235682
 21
-536.76106330282539
 31
0.0
  0
LINE
  8
0
  6
CONTINUOUS
 62
               3
  5
499
 10
342.61425631235682
 20
-536.76106330282539
 30
0.0
 11
340.11425631235682
 21
-536.76106330282539
 31
0.0
  0
LINE
  8
0
  6
CONTINUOUS
 62
               3
  5
49A
 10
342.61425631235682
 20
-651.96106330282555
 30
0.0
 11
340.11425631235682
 21
-651.96106330282555
 31
0.0
  0
ARC
  8
0
  6
CONTINUOUS
 62
               3
  5
49B
 10
340.11425631235682
 20
-649.46106330282555
 30
0.0
 40
2.5
 50
179.99999999989538
 51
269.99999999984436
  0
ARC
  8
0
  6
CONTINUOUS
 62
               3
  5
49C
 10
340.11425631235682
 20
-539.26106330282539
 30
0.0
 40
2.5
 50
89.999999999948997
 51
179.99999999989538
  0
LINE
  8
0
  6
CONTINUOUS
 62
               3
  5
49D
 10
450.17585314573927
 20
-554.36106330282576
 30
0.0
 11
482.61425631235687
 21
-554.36106330282576
 31
0.0
  0
LINE
  8
0
  6
CONTINUOUS
 62
               3
  5
49E
 10
482.61425631235687
 20
-554.36106330282576
 30
0.0
 11
516.61793258419561
 21
-554.36106330282576
 31
0.0
  0
LINE
  8
0
  6
CONTINUOUS
 62
               3
  5
49F
 10
345.7858124383215
 20
-651.86106330282564
 30
0.0
 11
345.78581243832105
 21
-536.86106330282553
 31
0.0
  0
ARC
  8
0
  6
CONTINUOUS
 62
               3
  5
4A0
 10
436.94942304246644
 20
-528.67451214938831
 30
0.0
 40
5.0
 50
271.99999999984402
 51
304.806757870252
  0
LINE
  8
0
  6
CONTINUOUS
 62
               3
  5
4A1
 10
537.6142563123567
 20
-734.36106330282564
 30
0.0
 11
537.6142563123567
 21
-733.6895071768613
 31
0.0
  0
LINE
  8
0
  6
CONTINUOUS
 62
               3
  5
4A2
 10
540.1142563123567
 20
-731.18950717686084
 30
0.0
 11
537.6142563123567
 21
-733.6895071768613
 31
0.0
  0
LINE
  8
0
  6
CONTINUOUS
 62
               3
  5
4A3
 10
427.61425631235676
 20
-734.36106330282564
 30
0.0
 11
427.61425631235676
 21
-733.6895071768613
 31
0.0
  0
LINE
  8
0
  6
CONTINUOUS
 62
               3
  5
4A4
 10
425.11425631235676
 20
-731.1895071768613
 30
0.0
 11
427.61425631235676
 21
-733.6895071768613
 31
0.0
  0
LINE
  8
0
  6
CONTINUOUS
 62
               3
  5
4A5
 10
427.61425631235676
 20
-733.6895071768613
 30
0.0
 11
537.6142563123567
 21
-733.6895071768613
 31
0.0
  0
LINE
  8
0
  6
CONTINUOUS
 62
               3
  5
4A6
 10
427.78581243832087
 20
-739.36106330282564
 30
0.0
 11
537.71425631235684
 21
-739.36106330282564
 31
0.0
  0
LINE
  8
0
  6
CONTINUOUS
 62
               3
  5
4A7
 10
540.21425631235684
 20
-734.36106330282564
 30
0.0
 11
425.01425631235674
 21
-734.36106330282564
 31
0.0
  0
LINE
  8
0
  6
CONTINUOUS
 62
               3
  5
4A8
 10
425.01425631235674
 20
-734.36106330282564
 30
0.0
 11
425.01425631235674
 21
-736.86106330282564
 31
0.0
  0
LINE
  8
0
  6
CONTINUOUS
 62
               3
  5
4A9
 10
540.21425631235684
 20
-734.36106330282564
 30
0.0
 11
540.21425631235684
 21
-736.86106330282564
 31
0.0
  0
ARC
  8
0
  6
CONTINUOUS
 62
               3
  5
4AA
 10
537.71425631235684
 20
-736.86106330282564
 30
0.0
 40
2.5
 50
269.99999999984567
 51
359.99999999979337
  0
ARC
  8
0
  6
CONTINUOUS
 62
               3
  5
4AB
 10
427.51425631235674
 20
-736.86106330282564
 30
0.0
 40
2.5
 50
179.99999999989538
 51
269.99999999984567
  0
LINE
  8
0
  6
CONTINUOUS
 62
               3
  5
4AC
 10
540.1142563123567
 20
-731.18950717686084
 30
0.0
 11
425.11425631235676
 21
-731.1895071768613
 31
0.0
  0
LINE
  8
0
  6
CONTINUOUS
 62
               3
  5
4AD
 10
543.30385333069785
 20
-639.85139908920382
 30
0.0
 11
540.1142563123567
 21
-731.18950717686084
 31
0.0
  0
ARC
  8
0
  6
CONTINUOUS
 62
               3
  5
4AE
 10
548.30080746579347
 20
-640.02589657271665
 30
0.0
 40
5.0
 50
145.19324212948862
 51
177.99999999989819
  0
LINE
  8
0
  6
CONTINUOUS
 62
               3
  5
4AF
 10
422.60024124738874
 20
-659.19753501937657
 30
0.0
 11
425.11425631235676
 21
-731.1895071768613
 31
0.0
  0
ARC
  8
0
  6
CONTINUOUS
 62
               3
  5
4B0
 10
417.60328711229334
 20
-659.37203250288849
 30
0.0
 40
5.0
 50
1.9999999999958187
 51
87.99999999994921
  0
LINE
  8
0
  6
CONTINUOUS
 62
               3
  5
4B1
 10
407.61425631235687
 20
-902.86049705140977
 30
0.0
 11
557.61425631235693
 21
-902.86049705140977
 31
0.0
  0
LINE
  8
0
  6
CONTINUOUS
 62
               3
  5
4B2
 10
394.11425631235664
 20
-912.86049705140977
 30
0.0
 11
394.11425631235664
 21
-919.86049705140931
 31
0.0
  0
LINE
  8
0
  6
CONTINUOUS
 62
               3
  5
4B3
 10
394.11425631235664
 20
-912.86049705140977
 30
0.0
 11
407.61425631235687
 21
-902.86049705140977
 31
0.0
  0
ARC
  8
0
  6
CONTINUOUS
 62
               3
  5
4B4
 10
405.61425631235699
 20
-924.44307274636503
 30
0.0
 40
4.9999999999999991
 50
0.0
 51
66.421821521760023
  0
LINE
  8
0
  6
CONTINUOUS
 62
               3
  5
4B5
 10
394.11425631235664
 20
-919.86049705140931
 30
0.0
 11
571.11425631235647
 21
-919.86049705140931
 31
0.0
  0
ARC
  8
0
  6
CONTINUOUS
 62
               3
  5
4B6
 10
427.61425631235687
 20
-1009.8604970514098
 30
0.0
 40
19.999999999999996
 50
148.21166938286279
 51
167.26981986159123
  0
LINE
  8
0
  6
CONTINUOUS
 62
               3
  5
4B7
 10
410.61425631235699
 20
-924.44307274636503
 30
0.0
 11
410.61425631235699
 21
-999.32484329855697
 31
0.0
  0
LINE
  8
0
  6
CONTINUOUS
 62
               3
  5
4B8
 10
554.6142563123567
 20
-994.32484329855652
 30
0.0
 11
554.6142563123567
 21
-924.44307274636503
 31
0.0
  0
LINE
  8
0
  6
CONTINUOUS
 62
               3
  5
4B9
 10
410.61425631235699
 20
-999.32484329855697
 30
0.0
 11
554.11425631235716
 21
-999.32484329855697
 31
0.0
  0
LINE
  8
0
  6
CONTINUOUS
 62
               3
  5
4BA
 10
462.61425631235687
 20
-919.86049705140931
 30
0.0
 11
462.61425631235687
 21
-902.86049705140977
 31
0.0
  0
LINE
  8
0
  6
CONTINUOUS
 62
               3
  5
4BB
 10
502.61425631235687
 20
-902.86049705140977
 30
0.0
 11
502.61425631235687
 21
-919.86049705140931
 31
0.0
  0
LINE
  8
0
  6
CONTINUOUS
 62
               3
  5
4BC
 10
462.61425631235687
 20
-912.86049705140977
 30
0.0
 11
502.61425631235687
 21
-912.86049705140977
 31
0.0
  0
LINE
  8
0
  6
CONTINUOUS
 62
               3
  5
4BD
 10
410.3300948383515
 20
-902.86049705140977
 30
0.0
 11
410.3300948383515
 21
-919.86049705140931
 31
0.0
  0
LINE
  8
0
  6
CONTINUOUS
 62
               3
  5
4BE
 10
396.40375811173163
 20
-912.86049705140977
 30
0.0
 11
396.40375811173163
 21
-919.86049705140931
 31
0.0
  0
LINE
  8
0
  6
CONTINUOUS
 62
               3
  5
4BF
 10
394.11425631235664
 20
-912.86049705140977
 30
0.0
 11
396.40375811173163
 21
-912.86049705140977
 31
0.0
  0
LINE
  8
0
  6
CONTINUOUS
 62
               3
  5
4C0
 10
396.40375811173163
 20
-912.86049705140977
 30
0.0
 11
410.3300948383515
 21
-902.86049705140977
 31
0.0
  0
LINE
  8
0
  6
CONTINUOUS
 62
               3
  5
4C1
 10
571.11425631235647
 20
-912.86049705140977
 30
0.0
 11
571.11425631235647
 21
-919.86049705140931
 31
0.0
  0
LINE
  8
0
  6
CONTINUOUS
 62
               3
  5
4C2
 10
571.11425631235647
 20
-912.86049705140977
 30
0.0
 11
557.61425631235693
 21
-902.86049705140977
 31
0.0
  0
ARC
  8
0
  6
CONTINUOUS
 62
               3
  5
4C3
 10
559.6142563123567
 20
-924.44307274636503
 30
0.0
 40
4.9999999999999991
 50
113.57817847813573
 51
179.99999999989538
  0
LINE
  8
0
  6
CONTINUOUS
 62
               3
  5
4C4
 10
554.89841778636105
 20
-902.86049705140977
 30
0.0
 11
554.89841778636105
 21
-919.86049705140931
 31
0.0
  0
LINE
  8
0
  6
CONTINUOUS
 62
               3
  5
4C5
 10
568.82475451298205
 20
-912.86049705140977
 30
0.0
 11
568.82475451298205
 21
-919.86049705140931
 31
0.0
  0
LINE
  8
0
  6
CONTINUOUS
 62
               3
  5
4C6
 10
571.11425631235647
 20
-912.86049705140977
 30
0.0
 11
568.82475451298205
 21
-912.86049705140977
 31
0.0
  0
LINE
  8
0
  6
CONTINUOUS
 62
               3
  5
4C7
 10
568.82475451298205
 20
-912.86049705140977
 30
0.0
 11
554.89841778636105
 21
-902.86049705140977
 31
0.0
  0
ARC
  8
0
  6
CONTINUOUS
 62
               3
  5
4C8
 10
417.61425631235687
 20
-1131.3604970514098
 30
0.0
 40
2.4999999999999996
 50
89.99999999994769
 51
269.99999999984567
  0
ARC
  8
0
  6
CONTINUOUS
 62
               3
  5
4C9
 10
557.61425631235693
 20
-1131.3604970514098
 30
0.0
 40
2.4999999999999996
 50
269.99999999984567
 51
449.99999999974102
  0
LINE
  8
0
  6
CONTINUOUS
 62
               3
  5
4CA
 10
342.61425631235682
 20
-1123.8604970514098
 30
0.0
 11
343.28581243832116
 21
-1123.8604970514098
 31
0.0
  0
LINE
  8
0
  6
CONTINUOUS
 62
               3
  5
4CB
 10
345.78581243832127
 20
-1126.3604970514093
 30
0.0
 11
343.28581243832116
 21
-1123.8604970514098
 31
0.0
  0
LINE
  8
0
  6
CONTINUOUS
 62
               3
  5
4CC
 10
345.78581243832207
 20
-1126.3604970514098
 30
0.0
 11
387.95092269459946
 21
-1127.8329351472639
 31
0.0
  0
LINE
  8
0
  6
CONTINUOUS
 62
               3
  5
4CD
 10
406.14979021828941
 20
-1144.132186477696
 30
0.0
 11
391.31195911701963
 21
-1129.2943553764267
 31
0.0
  0
ARC
  8
0
  6
CONTINUOUS
 62
               3
  5
4CE
 10
402.61425631235687
 20
-1147.6677203836289
 30
0.0
 40
4.9999999999999991
 50
0.0
 51
44.999999999973191
  0
LINE
  8
0
  6
CONTINUOUS
 62
               3
  5
4CF
 10
342.61425631235682
 20
-1013.8604970514098
 30
0.0
 11
343.28581243832116
 21
-1013.8604970514098
 31
0.0
  0
LINE
  8
0
  6
CONTINUOUS
 62
               3
  5
4D0
 10
345.78581243832127
 20
-1011.3604970514098
 30
0.0
 11
343.28581243832116
 21
-1013.8604970514098
 31
0.0
  0
LINE
  8
0
  6
CONTINUOUS
 62
               3
  5
4D1
 10
345.78581243832116
 20
-1011.3604970514098
 30
0.0
 11
403.40328864049553
 21
-1009.3484504462576
 31
0.0
  0
LINE
  8
0
  6
CONTINUOUS
 62
               3
  5
4D2
 10
343.28581243832116
 20
-1013.8604970514098
 30
0.0
 11
343.28581243832116
 21
-1123.8604970514098
 31
0.0
  0
LINE
  8
0
  6
CONTINUOUS
 62
               3
  5
4D3
 10
342.61425631235682
 20
-1126.4604970514097
 30
0.0
 11
342.61425631235682
 21
-1011.2604970514099
 31
0.0
  0
LINE
  8
0
  6
CONTINUOUS
 62
               3
  5
4D4
 10
342.61425631235682
 20
-1011.2604970514099
 30
0.0
 11
340.11425631235682
 21
-1011.2604970514099
 31
0.0
  0
ARC
  8
0
  6
CONTINUOUS
 62
               3
  5
4D5
 10
340.11425631235682
 20
-1013.7604970514099
 30
0.0
 40
2.5
 50
89.999999999948997
 51
179.99999999989538
  0
LINE
  8
0
  6
CONTINUOUS
 62
               3
  5
4D6
 10
337.61425631235682
 20
-1013.7604970514099
 30
0.0
 11
337.61425631235682
 21
-1123.9604970514097
 31
0.0
  0
LINE
  8
0
  6
CONTINUOUS
 62
               3
  5
4D7
 10
342.61425631235682
 20
-1126.4604970514097
 30
0.0
 11
340.11425631235682
 21
-1126.4604970514097
 31
0.0
  0
ARC
  8
0
  6
CONTINUOUS
 62
               3
  5
4D8
 10
340.11425631235682
 20
-1123.9604970514097
 30
0.0
 40
2.5
 50
179.99999999989538
 51
269.99999999984436
  0
LINE
  8
0
  6
CONTINUOUS
 62
               3
  5
4D9
 10
345.78581243832127
 20
-1011.3604970514098
 30
0.0
 11
345.78581243832207
 21
-1126.3604970514098
 31
0.0
  0
ARC
  8
0
  6
CONTINUOUS
 62
               3
  5
4DA
 10
387.77642521108697
 20
-1132.8298892823595
 30
0.0
 40
5.0
 50
44.999999999975948
 51
87.999999999949253
  0
ARC
  8
0
  6
CONTINUOUS
 62
               3
  5
4DB
 10
403.22879115698305
 20
-1004.351496311162
 30
0.0
 40
5.0
 50
271.99999999984408
 51
347.26981986148661
  0
CIRCLE
  8
0
  6
CONTINUOUS
 62
               3
  5
4DC
 10
482.61425631235687
 20
-1068.8604970514098
 30
0.0
 40
48.5
  0
CIRCLE
  8
0
  6
CONTINUOUS
 62
               3
  5
4DD
 10
482.61425631235687
 20
-1068.8604970514098
 30
0.0
 40
47.299999999999997
  0
LINE
  8
0
  6
CONTINUOUS
 62
               3
  5
4DE
 10
450.79445115896232
 20
-1100.6803022048043
 30
0.0
 11
449.16810556223317
 21
-1102.3066478015335
 31
0.0
  0
LINE
  8
0
  6
CONTINUOUS
 62
               3
  5
4DF
 10
514.43406146575148
 20
-1100.6803022048043
 30
0.0
 11
516.06040706248064
 21
-1102.3066478015335
 31
0.0
  0
ARC
  8
0
  6
CONTINUOUS
 62
               3
  5
4E0
 10
482.61425631235687
 20
-1068.8604970514098
 30
0.0
 40
45.0
 50
224.99999999987043
 51
314.99999999981884
  0
CIRCLE
  8
0
  6
CONTINUOUS
 62
               3
  5
4E1
 10
482.61425631235687
 20
-1068.8604970514098
 30
0.0
 40
57.600000000000001
  0
ARC
  8
0
  6
CONTINUOUS
 62
               3
  5
4E2
 10
460.11425631235744
 20
-1131.3604970514098
 30
0.0
 40
2.4999999999999996
 50
269.99999999984567
 51
449.99999999974102
  0
ARC
  8
0
  6
CONTINUOUS
 62
               3
  5
4E3
 10
505.11425631235733
 20
-1131.3604970514098
 30
0.0
 40
2.4999999999999996
 50
89.99999999994769
 51
269.99999999984567
  0
LINE
  8
0
  6
CONTINUOUS
 62
               3
  5
4E4
 10
417.61425631235687
 20
-1133.8604970514098
 30
0.0
 11
460.11425631235744
 21
-1133.8604970514098
 31
0.0
  0
LINE
  8
0
  6
CONTINUOUS
 62
               3
  5
4E5
 10
417.61425631235687
 20
-1128.8604970514098
 30
0.0
 11
460.11425631235744
 21
-1128.8604970514098
 31
0.0
  0
LINE
  8
0
  6
CONTINUOUS
 62
               3
  5
4E6
 10
505.11425631235733
 20
-1128.8604970514098
 30
0.0
 11
557.61425631235693
 21
-1128.8604970514098
 31
0.0
  0
LINE
  8
0
  6
CONTINUOUS
 62
               3
  5
4E7
 10
505.11425631235733
 20
-1133.8604970514098
 30
0.0
 11
557.61425631235693
 21
-1133.8604970514098
 31
0.0
  0
CIRCLE
  8
0
  6
CONTINUOUS
 62
               3
  5
4E8
 10
482.61425631235687
 20
-594.36106330282553
 30
0.0
 40
59.0
  0
POINT
  8
0
  6
CONTINUOUS
 62
               5
  5
4E9
 10
-518.81003595441985
 20
-652.04549887461644
 30
0.0
  0
POINT
  8
0
  6
CONTINUOUS
 62
               5
  5
4EA
 10
-345.57996444445939
 20
-653.33629294950561
 30
0.0
  0
POINT
  8
0
  6
CONTINUOUS
 62
               5
  5
4EB
 10
-692.04010746437984
 20
-653.33629294950515
 30
0.0
  0
POINT
  8
0
  6
CONTINUOUS
 62
               5
  5
4EC
 10
-522.04678742507531
 20
-471.34754329562122
 30
0.0
  0
POINT
  8
0
  6
CONTINUOUS
 62
               5
  5
4ED
 10
366.34432782231715
 20
-1070.1512911262989
 30
0.0
  0
POINT
  8
0
  6
CONTINUOUS
 62
               5
  5
4EE
 10
366.34432782231727
 20
-593.07026922793636
 30
0.0
  0
POINT
  8
0
  6
CONTINUOUS
 62
               5
  5
4EF
 10
-5.794359443313013
 20
-1075.5454988746164
 30
0.0
  0
POINT
  8
0
  6
CONTINUOUS
 62
               5
  5
4F0
 10
-179.02443095327322
 20
-1076.8362929495052
 30
0.0
  0
POINT
  8
0
  6
CONTINUOUS
 62
               5
  5
4F1
 10
167.43571206664728
 20
-1076.8362929495054
 30
0.0
  0
POINT
  8
0
  6
CONTINUOUS
 62
               5
  5
4F2
 10
-0.5851535182019489
 20
-908.81542736465622
 30
0.0
  0
CIRCLE
  8
0
  6
CONTINUOUS
 62
               7
  5
4F3
 10
-518.81003595441985
 20
-658.54549887461644
 30
0.0
 40
38.0
  0
CIRCLE
  8
0
  6
CONTINUOUS
 62
               7
  5
4F4
 10
-518.81003595441985
 20
-658.54549887461644
 30
0.0
 40
33.5
  0
LINE
  8
0
  6
CONTINUOUS
 62
               7
  5
4F5
 10
-374.31003595441973
 20
-607.54549887461644
 30
0.0
 11
-374.31003595441973
 21
-696.54026275394199
 31
0.0
  0
LINE
  8
0
  6
CONTINUOUS
 62
               7
  5
4F6
 10
-373.71003595441971
 20
-607.54549887461644
 30
0.0
 11
-374.31003595441973
 21
-607.54549887461644
 31
0.0
  0
LINE
  8
0
  6
CONTINUOUS
 62
               7
  5
4F7
 10
-409.31003595441973
 20
-695.54549887461644
 30
0.0
 11
-409.31003595441973
 21
-621.54549887461644
 31
0.0
  0
LINE
  8
0
  6
CONTINUOUS
 62
               7
  5
4F8
 10
-316.31003595441973
 20
-695.54549887461644
 30
0.0
 11
-316.31003595441973
 21
-608.54549887461644
 31
0.0
  0
LINE
  8
0
  6
CONTINUOUS
 62
               7
  5
4F9
 10
-374.31003595441973
 20
-607.54549887461644
 30
0.0
 11
-317.31003595441973
 21
-607.54549887461644
 31
0.0
  0
LINE
  8
0
  6
CONTINUOUS
 62
               7
  5
4FA
 10
-408.31003595441973
 20
-696.54549887461644
 30
0.0
 11
-317.31003595441973
 21
-696.54549887461644
 31
0.0
  0
LINE
  8
0
  6
CONTINUOUS
 62
               7
  5
4FB
 10
-317.31003595441973
 20
-607.54549887461644
 30
0.0
 11
-316.31003595441973
 21
-608.54549887461644
 31
0.0
  0
LINE
  8
0
  6
CONTINUOUS
 62
               7
  5
4FC
 10
-316.31003595441973
 20
-695.54549887461644
 30
0.0
 11
-317.31003595441973
 21
-696.54549887461644
 31
0.0
  0
LINE
  8
0
  6
CONTINUOUS
 62
               7
  5
4FD
 10
-408.31003595441973
 20
-620.54549887461644
 30
0.0
 11
-374.31003595441973
 21
-620.54549887461644
 31
0.0
  0
CIRCLE
  8
0
  6
CONTINUOUS
 62
               7
  5
4FE
 10
-518.81003595441985
 20
-652.04549887461644
 30
0.0
 40
44.5
  0
LINE
  8
0
  6
CONTINUOUS
 62
               7
  5
4FF
 10
-408.31003595441973
 20
-620.54549887461644
 30
0.0
 11
-409.31003595441973
 21
-621.54549887461644
 31
0.0
  0
LINE
  8
0
  6
CONTINUOUS
 62
               7
  5
500
 10
-409.31003595441973
 20
-695.54549887461644
 30
0.0
 11
-408.31003595441973
 21
-696.54549887461644
 31
0.0
  0
LINE
  8
0
  6
CONTINUOUS
 62
               7
  5
501
 10
-663.31003595441962
 20
-607.54549887461644
 30
0.0
 11
-663.31003595441962
 21
-696.54026275394199
 31
0.0
  0
LINE
  8
0
  6
CONTINUOUS
 62
               7
  5
502
 10
-663.91003595441953
 20
-607.54549887461644
 30
0.0
 11
-663.31003595441962
 21
-607.54549887461644
 31
0.0
  0
LINE
  8
0
  6
CONTINUOUS
 62
               7
  5
503
 10
-628.31003595441962
 20
-695.54549887461644
 30
0.0
 11
-628.31003595441962
 21
-621.54549887461644
 31
0.0
  0
LINE
  8
0
  6
CONTINUOUS
 62
               7
  5
504
 10
-721.31003595441962
 20
-695.54549887461644
 30
0.0
 11
-721.31003595441962
 21
-608.54549887461644
 31
0.0
  0
LINE
  8
0
  6
CONTINUOUS
 62
               7
  5
505
 10
-663.31003595441962
 20
-607.54549887461644
 30
0.0
 11
-720.31003595441962
 21
-607.54549887461644
 31
0.0
  0
LINE
  8
0
  6
CONTINUOUS
 62
               7
  5
506
 10
-629.31003595441962
 20
-696.54549887461644
 30
0.0
 11
-720.31003595441962
 21
-696.54549887461644
 31
0.0
  0
LINE
  8
0
  6
CONTINUOUS
 62
               7
  5
507
 10
-720.31003595441962
 20
-607.54549887461644
 30
0.0
 11
-721.31003595441962
 21
-608.54549887461644
 31
0.0
  0
LINE
  8
0
  6
CONTINUOUS
 62
               7
  5
508
 10
-721.31003595441962
 20
-695.54549887461644
 30
0.0
 11
-720.31003595441962
 21
-696.54549887461644
 31
0.0
  0
LINE
  8
0
  6
CONTINUOUS
 62
               7
  5
509
 10
-629.31003595441962
 20
-620.54549887461644
 30
0.0
 11
-663.31003595441962
 21
-620.54549887461644
 31
0.0
  0
LINE
  8
0
  6
CONTINUOUS
 62
               7
  5
50A
 10
-629.31003595441962
 20
-620.54549887461644
 30
0.0
 11
-628.31003595441962
 21
-621.54549887461644
 31
0.0
  0
LINE
  8
0
  6
CONTINUOUS
 62
               7
  5
50B
 10
-628.31003595441962
 20
-695.54549887461644
 30
0.0
 11
-629.31003595441962
 21
-696.54549887461644
 31
0.0
  0
LINE
  8
0
  6
CONTINUOUS
 62
               7
  5
50C
 10
-476.25599335018626
 20
-500.07761480558167
 30
0.0
 11
-565.25075722951169
 21
-500.07761480558145
 31
0.0
  0
LINE
  8
0
  6
CONTINUOUS
 62
               7
  5
50D
 10
-476.25599335018626
 20
-499.47761480558154
 30
0.0
 11
-476.25599335018626
 21
-500.07761480558167
 31
0.0
  0
LINE
  8
0
  6
CONTINUOUS
 62
               7
  5
50E
 10
-557.75599335018615
 20
-535.07761480558145
 30
0.0
 11
-483.75599335018626
 21
-535.07761480558167
 31
0.0
  0
LINE
  8
0
  6
CONTINUOUS
 62
               7
  5
50F
 10
-564.25599335018615
 20
-442.07761480558145
 30
0.0
 11
-477.25599335018626
 21
-442.07761480558167
 31
0.0
  0
LINE
  8
0
  6
CONTINUOUS
 62
               7
  5
510
 10
-476.25599335018626
 20
-500.07761480558167
 30
0.0
 11
-476.25599335018626
 21
-443.07761480558167
 31
0.0
  0
LINE
  8
0
  6
CONTINUOUS
 62
               7
  5
511
 10
-558.75599335018615
 20
-534.07761480558145
 30
0.0
 11
-558.75599335018615
 21
-500.07761480558145
 31
0.0
  0
LINE
  8
0
  6
CONTINUOUS
 62
               7
  5
512
 10
-476.25599335018626
 20
-443.07761480558167
 30
0.0
 11
-477.25599335018626
 21
-442.07761480558167
 31
0.0
  0
LINE
  8
0
  6
CONTINUOUS
 62
               7
  5
513
 10
-564.25599335018615
 20
-442.07761480558145
 30
0.0
 11
-565.25599335018615
 21
-443.07761480558145
 31
0.0
  0
LINE
  8
0
  6
CONTINUOUS
 62
               7
  5
514
 10
-482.75599335018626
 20
-534.07761480558167
 30
0.0
 11
-482.75599335018626
 21
-500.07761480558145
 31
0.0
  0
LINE
  8
0
  6
CONTINUOUS
 62
               7
  5
515
 10
-482.75599335018626
 20
-534.07761480558167
 30
0.0
 11
-483.75599335018626
 21
-535.07761480558167
 31
0.0
  0
LINE
  8
0
  6
CONTINUOUS
 62
               7
  5
516
 10
-557.75599335018615
 20
-535.07761480558145
 30
0.0
 11
-558.75599335018615
 21
-534.07761480558145
 31
0.0
  0
LINE
  8
0
  6
CONTINUOUS
 62
               7
  5
517
 10
-565.25599335018615
 20
-500.07761480558145
 30
0.0
 11
-565.25599335018615
 21
-443.07761480558145
 31
0.0
  0
LINE
  8
0
  6
CONTINUOUS
 62
               7
  5
518
 10
89.961656781929932
 20
-695.54549887461644
 30
0.0
 11
89.961656781929932
 21
-637.54549887461644
 31
0.0
  0
LINE
  8
0
  6
CONTINUOUS
 62
               7
  5
519
 10
115.56165678192984
 20
-607.54549887461644
 30
0.0
 11
115.56165678192984
 21
-696.54549887461644
 31
0.0
  0
LINE
  8
0
  6
CONTINUOUS
 62
               7
  5
51A
 10
116.16165678192998
 20
-607.54549887461644
 30
0.0
 11
115.56165678192984
 21
-607.54549887461644
 31
0.0
  0
LINE
  8
0
  6
CONTINUOUS
 62
               7
  5
51B
 10
173.56165678193008
 20
-695.54549887461644
 30
0.0
 11
173.56165678193008
 21
-608.54549887461644
 31
0.0
  0
CIRCLE
  8
0
  6
CONTINUOUS
 62
               7
  5
51C
 10
-5.7943594433130556
 20
-666.54549887461644
 30
0.0
 40
30.0
  0
CIRCLE
  8
0
  6
CONTINUOUS
 62
               7
  5
51D
 10
-5.7943594433130556
 20
-666.54549887461644
 30
0.0
 40
25.5
  0
CIRCLE
  8
0
  6
CONTINUOUS
 62
               7
  5
51E
 10
-5.7943594433130556
 20
-652.04549887461644
 30
0.0
 40
44.5
  0
LINE
  8
0
  6
CONTINUOUS
 62
               7
  5
51F
 10
115.69610852741026
 20
-607.54549887461644
 30
0.0
 11
172.56165678193008
 21
-607.54549887461644
 31
0.0
  0
LINE
  8
0
  6
CONTINUOUS
 62
               7
  5
520
 10
90.961656781929932
 20
-696.54549887461644
 30
0.0
 11
172.56165678193008
 21
-696.54549887461644
 31
0.0
  0
LINE
  8
0
  6
CONTINUOUS
 62
               7
  5
521
 10
90.961656781929932
 20
-636.54549887461644
 30
0.0
 11
115.56165678192984
 21
-636.54549887461644
 31
0.0
  0
LINE
  8
0
  6
CONTINUOUS
 62
               7
  5
522
 10
90.961656781929932
 20
-636.54549887461644
 30
0.0
 11
89.961656781929932
 21
-637.54549887461644
 31
0.0
  0
LINE
  8
0
  6
CONTINUOUS
 62
               7
  5
523
 10
172.56165678193008
 20
-607.54549887461644
 30
0.0
 11
173.56165678193008
 21
-608.54549887461644
 31
0.0
  0
LINE
  8
0
  6
CONTINUOUS
 62
               7
  5
524
 10
89.961656781929932
 20
-695.54549887461644
 30
0.0
 11
90.961656781929932
 21
-696.54549887461644
 31
0.0
  0
LINE
  8
0
  6
CONTINUOUS
 62
               7
  5
525
 10
173.56165678193008
 20
-695.54549887461644
 30
0.0
 11
172.56165678193008
 21
-696.54549887461644
 31
0.0
  0
LINE
  8
0
  6
CONTINUOUS
 62
               7
  5
526
 10
-101.55037566855583
 20
-695.54549887461644
 30
0.0
 11
-101.55037566855583
 21
-637.54549887461644
 31
0.0
  0
LINE
  8
0
  6
CONTINUOUS
 62
               7
  5
527
 10
-127.15037566855585
 20
-607.54549887461644
 30
0.0
 11
-127.15037566855585
 21
-696.54549887461644
 31
0.0
  0
LINE
  8
0
  6
CONTINUOUS
 62
               7
  5
528
 10
-127.75037566855588
 20
-607.54549887461644
 30
0.0
 11
-127.15037566855585
 21
-607.54549887461644
 31
0.0
  0
LINE
  8
0
  6
CONTINUOUS
 62
               7
  5
529
 10
-185.15037566855585
 20
-695.54549887461644
 30
0.0
 11
-185.15037566855585
 21
-608.54549887461644
 31
0.0
  0
LINE
  8
0
  6
CONTINUOUS
 62
               7
  5
52A
 10
-127.28482741403616
 20
-607.54549887461644
 30
0.0
 11
-184.15037566855585
 21
-607.54549887461644
 31
0.0
  0
LINE
  8
0
  6
CONTINUOUS
 62
               7
  5
52B
 10
-102.55037566855583
 20
-696.54549887461644
 30
0.0
 11
-184.15037566855585
 21
-696.54549887461644
 31
0.0
  0
LINE
  8
0
  6
CONTINUOUS
 62
               7
  5
52C
 10
-102.55037566855583
 20
-636.54549887461644
 30
0.0
 11
-127.15037566855585
 21
-636.54549887461644
 31
0.0
  0
LINE
  8
0
  6
CONTINUOUS
 62
               7
  5
52D
 10
-102.55037566855583
 20
-636.54549887461644
 30
0.0
 11
-101.55037566855583
 21
-637.54549887461644
 31
0.0
  0
LINE
  8
0
  6
CONTINUOUS
 62
               7
  5
52E
 10
-184.15037566855585
 20
-607.54549887461644
 30
0.0
 11
-185.15037566855585
 21
-608.54549887461644
 31
0.0
  0
LINE
  8
0
  6
CONTINUOUS
 62
               7
  5
52F
 10
-101.55037566855583
 20
-695.54549887461644
 30
0.0
 11
-102.55037566855583
 21
-696.54549887461644
 31
0.0
  0
LINE
  8
0
  6
CONTINUOUS
 62
               7
  5
530
 10
-185.15037566855585
 20
-695.54549887461644
 30
0.0
 11
-184.15037566855585
 21
-696.54549887461644
 31
0.0
  0
LINE
  8
0
  6
CONTINUOUS
 62
               7
  5
531
 10
-34.794359443312828
 20
-545.78948264937378
 30
0.0
 11
23.205640556687158
 21
-545.78948264937378
 31
0.0
  0
LINE
  8
0
  6
CONTINUOUS
 62
               7
  5
532
 10
38.705640556687158
 20
-520.18948264937364
 30
0.0
 11
-50.294359443312828
 21
-520.18948264937364
 31
0.0
  0
LINE
  8
0
  6
CONTINUOUS
 62
               7
  5
533
 10
38.705640556687158
 20
-519.58948264937374
 30
0.0
 11
38.705640556687158
 21
-520.18948264937364
 31
0.0
  0
LINE
  8
0
  6
CONTINUOUS
 62
               7
  5
534
 10
-49.294359443312828
 20
-462.18948264937364
 30
0.0
 11
37.705640556687158
 21
-462.18948264937364
 31
0.0
  0
LINE
  8
0
  6
CONTINUOUS
 62
               7
  5
535
 10
38.705640556687158
 20
-520.05503090389345
 30
0.0
 11
38.705640556687158
 21
-463.18948264937364
 31
0.0
  0
LINE
  8
0
  6
CONTINUOUS
 62
               7
  5
536
 10
-35.794359443312828
 20
-544.78948264937378
 30
0.0
 11
-35.794359443312828
 21
-520.18948264937364
 31
0.0
  0
LINE
  8
0
  6
CONTINUOUS
 62
               7
  5
537
 10
24.205640556687158
 20
-544.78948264937378
 30
0.0
 11
24.205640556687158
 21
-520.18948264937364
 31
0.0
  0
LINE
  8
0
  6
CONTINUOUS
 62
               7
  5
538
 10
24.205640556687158
 20
-544.78948264937378
 30
0.0
 11
23.205640556687158
 21
-545.78948264937378
 31
0.0
  0
LINE
  8
0
  6
CONTINUOUS
 62
               7
  5
539
 10
38.705640556687158
 20
-463.18948264937364
 30
0.0
 11
37.705640556687158
 21
-462.18948264937364
 31
0.0
  0
LINE
  8
0
  6
CONTINUOUS
 62
               7
  5
53A
 10
-34.794359443312828
 20
-545.78948264937378
 30
0.0
 11
-35.794359443312828
 21
-544.78948264937378
 31
0.0
  0
LINE
  8
0
  6
CONTINUOUS
 62
               7
  5
53B
 10
-49.294359443312828
 20
-462.18948264937364
 30
0.0
 11
-50.294359443312828
 21
-463.18948264937364
 31
0.0
  0
LINE
  8
0
  6
CONTINUOUS
 62
               7
  5
53C
 10
-50.294359443312828
 20
-520.05503090389323
 30
0.0
 11
-50.294359443312828
 21
-463.18948264937364
 31
0.0
  0
CIRCLE
  8
0
  6
CONTINUOUS
 62
               7
  5
53D
 10
482.61425631235687
 20
-1083.3604970514098
 30
0.0
 40
25.5
  0
CIRCLE
  8
0
  6
CONTINUOUS
 62
               7
  5
53E
 10
482.61425631235687
 20
-1068.8604970514098
 30
0.0
 40
44.5
  0
CIRCLE
  8
0
  6
CONTINUOUS
 62
               7
  5
53F
 10
482.61425631235687
 20
-1083.3604970514098
 30
0.0
 40
30.0
  0
LINE
  8
0
  6
CONTINUOUS
 62
               7
  5
540
 10
453.61425631235687
 20
-764.96106330282555
 30
0.0
 11
511.61425631235687
 21
-764.96106330282555
 31
0.0
  0
LINE
  8
0
  6
CONTINUOUS
 62
               7
  5
541
 10
527.11425631235693
 20
-739.36106330282564
 30
0.0
 11
438.11425631235687
 21
-739.36106330282564
 31
0.0
  0
LINE
  8
0
  6
CONTINUOUS
 62
               7
  5
542
 10
527.11425631235693
 20
-738.76106330282573
 30
0.0
 11
527.11425631235693
 21
-739.36106330282564
 31
0.0
  0
LINE
  8
0
  6
CONTINUOUS
 62
               7
  5
543
 10
439.11425631235687
 20
-681.36106330282519
 30
0.0
 11
526.11425631235693
 21
-681.36106330282519
 31
0.0
  0
LINE
  8
0
  6
CONTINUOUS
 62
               7
  5
544
 10
527.11425631235693
 20
-739.22661155734522
 30
0.0
 11
527.11425631235693
 21
-682.36106330282519
 31
0.0
  0
LINE
  8
0
  6
CONTINUOUS
 62
               7
  5
545
 10
452.61425631235687
 20
-763.96106330282555
 30
0.0
 11
452.61425631235687
 21
-739.36106330282564
 31
0.0
  0
LINE
  8
0
  6
CONTINUOUS
 62
               7
  5
546
 10
512.61425631235693
 20
-763.96106330282555
 30
0.0
 11
512.61425631235693
 21
-739.36106330282564
 31
0.0
  0
LINE
  8
0
  6
CONTINUOUS
 62
               7
  5
547
 10
512.61425631235693
 20
-763.96106330282555
 30
0.0
 11
511.61425631235687
 21
-764.96106330282555
 31
0.0
  0
LINE
  8
0
  6
CONTINUOUS
 62
               7
  5
548
 10
527.11425631235693
 20
-682.36106330282519
 30
0.0
 11
526.11425631235693
 21
-681.36106330282519
 31
0.0
  0
LINE
  8
0
  6
CONTINUOUS
 62
               7
  5
549
 10
453.61425631235687
 20
-764.96106330282555
 30
0.0
 11
452.61425631235687
 21
-763.96106330282555
 31
0.0
  0
LINE
  8
0
  6
CONTINUOUS
 62
               7
  5
54A
 10
439.11425631235687
 20
-681.36106330282519
 30
0.0
 11
438.11425631235687
 21
-682.36106330282519
 31
0.0
  0
LINE
  8
0
  6
CONTINUOUS
 62
               7
  5
54B
 10
438.11425631235687
 20
-739.22661155734522
 30
0.0
 11
438.11425631235687
 21
-682.36106330282519
 31
0.0
  0
LINE
  8
0
  6
CONTINUOUS
 62
               7
  5
54C
 10
337.61425631235682
 20
-1024.3604970514098
 30
0.0
 11
337.61425631235682
 21
-1113.3552609307353
 31
0.0
  0
LINE
  8
0
  6
CONTINUOUS
 62
               7
  5
54D
 10
338.21425631235684
 20
-1024.3604970514098
 30
0.0
 11
337.61425631235682
 21
-1024.3604970514098
 31
0.0
  0
LINE
  8
0
  6
CONTINUOUS
 62
               7
  5
54E
 10
302.61425631235682
 20
-1112.3604970514098
 30
0.0
 11
302.61425631235682
 21
-1038.3604970514098
 31
0.0
  0
LINE
  8
0
  6
CONTINUOUS
 62
               7
  5
54F
 10
395.61425631235687
 20
-1112.3604970514098
 30
0.0
 11
395.61425631235687
 21
-1025.3604970514098
 31
0.0
  0
LINE
  8
0
  6
CONTINUOUS
 62
               7
  5
550
 10
337.61425631235682
 20
-1024.3604970514098
 30
0.0
 11
394.61425631235687
 21
-1024.3604970514098
 31
0.0
  0
LINE
  8
0
  6
CONTINUOUS
 62
               7
  5
551
 10
303.61425631235682
 20
-1113.3604970514098
 30
0.0
 11
394.61425631235687
 21
-1113.3604970514098
 31
0.0
  0
LINE
  8
0
  6
CONTINUOUS
 62
               7
  5
552
 10
394.61425631235687
 20
-1024.3604970514098
 30
0.0
 11
395.61425631235687
 21
-1025.3604970514098
 31
0.0
  0
LINE
  8
0
  6
CONTINUOUS
 62
               7
  5
553
 10
395.61425631235687
 20
-1112.3604970514098
 30
0.0
 11
394.61425631235687
 21
-1113.3604970514098
 31
0.0
  0
LINE
  8
0
  6
CONTINUOUS
 62
               7
  5
554
 10
303.61425631235682
 20
-1037.3604970514098
 30
0.0
 11
337.61425631235682
 21
-1037.3604970514098
 31
0.0
  0
LINE
  8
0
  6
CONTINUOUS
 62
               7
  5
555
 10
303.61425631235682
 20
-1037.3604970514098
 30
0.0
 11
302.61425631235682
 21
-1038.3604970514098
 31
0.0
  0
LINE
  8
0
  6
CONTINUOUS
 62
               7
  5
556
 10
302.61425631235682
 20
-1112.3604970514098
 30
0.0
 11
303.61425631235682
 21
-1113.3604970514098
 31
0.0
  0
LINE
  8
0
  6
CONTINUOUS
 62
               7
  5
557
 10
337.61425631235682
 20
-638.86106330282519
 30
0.0
 11
337.61425631235704
 21
-549.86629942349975
 31
0.0
  0
LINE
  8
0
  6
CONTINUOUS
 62
               7
  5
558
 10
338.21425631235695
 20
-638.86106330282519
 30
0.0
 11
337.61425631235682
 21
-638.86106330282519
 31
0.0
  0
LINE
  8
0
  6
CONTINUOUS
 62
               7
  5
559
 10
302.61425631235704
 20
-557.3610633028253
 30
0.0
 11
302.61425631235682
 21
-631.36106330282519
 31
0.0
  0
LINE
  8
0
  6
CONTINUOUS
 62
               7
  5
55A
 10
395.6142563123571
 20
-550.86106330282553
 30
0.0
 11
395.61425631235687
 21
-637.86106330282519
 31
0.0
  0
LINE
  8
0
  6
CONTINUOUS
 62
               7
  5
55B
 10
337.61425631235682
 20
-638.86106330282519
 30
0.0
 11
394.61425631235687
 21
-638.86106330282519
 31
0.0
  0
LINE
  8
0
  6
CONTINUOUS
 62
               7
  5
55C
 10
303.61425631235704
 20
-556.3610633028253
 30
0.0
 11
337.61425631235704
 21
-556.3610633028253
 31
0.0
  0
LINE
  8
0
  6
CONTINUOUS
 62
               7
  5
55D
 10
394.61425631235687
 20
-638.86106330282519
 30
0.0
 11
395.61425631235687
 21
-637.86106330282519
 31
0.0
  0
LINE
  8
0
  6
CONTINUOUS
 62
               7
  5
55E
 10
395.6142563123571
 20
-550.86106330282553
 30
0.0
 11
394.6142563123571
 21
-549.86106330282553
 31
0.0
  0
LINE
  8
0
  6
CONTINUOUS
 62
               7
  5
55F
 10
303.61425631235682
 20
-632.36106330282519
 30
0.0
 11
337.61425631235704
 21
-632.36106330282519
 31
0.0
  0
LINE
  8
0
  6
CONTINUOUS
 62
               7
  5
560
 10
303.61425631235682
 20
-632.36106330282519
 30
0.0
 11
302.61425631235682
 21
-631.36106330282519
 31
0.0
  0
LINE
  8
0
  6
CONTINUOUS
 62
               7
  5
561
 10
302.61425631235704
 20
-557.3610633028253
 30
0.0
 11
303.61425631235704
 21
-556.3610633028253
 31
0.0
  0
LINE
  8
0
  6
CONTINUOUS
 62
               7
  5
562
 10
337.61425631235704
 20
-549.8610633028253
 30
0.0
 11
394.6142563123571
 21
-549.8610633028253
 31
0.0
  0
CIRCLE
  8
0
  6
CONTINUOUS
 62
               7
  5
563
 10
-5.794359443313013
 20
-1082.0454988746164
 30
0.0
 40
38.0
  0
LINE
  8
0
  6
CONTINUOUS
 62
               7
  5
564
 10
-150.29435944331289
 20
-1044.0454988746162
 30
0.0
 11
-150.294359443313
 21
-1120.0402627539418
 31
0.0
  0
LINE
  8
0
  6
CONTINUOUS
 62
               7
  5
565
 10
-150.29435944331289
 20
-1031.0454988746162
 30
0.0
 11
-149.69435944331292
 21
-1031.0454988746162
 31
0.0
  0
LINE
  8
0
  6
CONTINUOUS
 62
               7
  5
566
 10
-208.294359443313
 20
-1119.0454988746162
 30
0.0
 11
-208.294359443313
 21
-1045.0454988746162
 31
0.0
  0
LINE
  8
0
  6
CONTINUOUS
 62
               7
  5
567
 10
-150.294359443313
 20
-1120.0454988746162
 30
0.0
 11
-125.69435944331293
 21
-1120.0454988746162
 31
0.0
  0
LINE
  8
0
  6
CONTINUOUS
 62
               7
  5
568
 10
-208.294359443313
 20
-1119.0454988746162
 30
0.0
 11
-207.294359443313
 21
-1120.0454988746162
 31
0.0
  0
LINE
  8
0
  6
CONTINUOUS
 62
               7
  5
569
 10
-207.294359443313
 20
-1044.0454988746162
 30
0.0
 11
-150.29435944331289
 21
-1044.0454988746162
 31
0.0
  0
LINE
  8
0
  6
CONTINUOUS
 62
               7
  5
56A
 10
-115.29435944331301
 20
-1119.0454988746162
 30
0.0
 11
-116.29435944331301
 21
-1120.0454988746162
 31
0.0
  0
CIRCLE
  8
0
  6
CONTINUOUS
 62
               7
  5
56B
 10
-5.7943594433130698
 20
-1090.0454988746164
 30
0.0
 40
30.0
  0
CIRCLE
  8
0
  6
CONTINUOUS
 62
               7
  5
56C
 10
-5.7943594433130698
 20
-1090.0454988746164
 30
0.0
 40
0.1981604108525852
  0
CIRCLE
  8
0
  6
CONTINUOUS
 62
               7
  5
56D
 10
-5.7943594433130698
 20
-1090.0454988746164
 30
0.0
 40
25.5
  0
LINE
  8
0
  6
CONTINUOUS
 62
               7
  5
56E
 10
-124.69435944331293
 20
-1119.0454988746162
 30
0.0
 11
-124.69435944331293
 21
-1061.0454988746164
 31
0.0
  0
LINE
  8
0
  6
CONTINUOUS
 62
               7
  5
56F
 10
-150.29435944331289
 20
-1060.0454988746164
 30
0.0
 11
-125.69435944331293
 21
-1060.0454988746164
 31
0.0
  0
LINE
  8
0
  6
CONTINUOUS
 62
               7
  5
570
 10
-150.294359443313
 20
-1120.0402627539418
 30
0.0
 11
-207.294359443313
 21
-1120.0454988746162
 31
0.0
  0
LINE
  8
0
  6
CONTINUOUS
 62
               7
  5
571
 10
-207.294359443313
 20
-1044.0454988746162
 30
0.0
 11
-208.294359443313
 21
-1045.0454988746162
 31
0.0
  0
LINE
  8
0
  6
CONTINUOUS
 62
               7
  5
572
 10
-125.69435944331293
 20
-1060.0454988746164
 30
0.0
 11
-124.69435944331293
 21
-1061.0454988746164
 31
0.0
  0
LINE
  8
0
  6
CONTINUOUS
 62
               7
  5
573
 10
-124.69435944331293
 20
-1119.0454988746162
 30
0.0
 11
-125.69435944331293
 21
-1120.0454988746162
 31
0.0
  0
LINE
  8
0
  6
CONTINUOUS
 62
               7
  5
574
 10
138.70564055668694
 20
-1044.0454988746164
 30
0.0
 11
138.70564055668689
 21
-1120.040262753942
 31
0.0
  0
LINE
  8
0
  6
CONTINUOUS
 62
               7
  5
575
 10
138.70564055668694
 20
-1031.0454988746164
 30
0.0
 11
138.10564055668698
 21
-1031.0454988746164
 31
0.0
  0
LINE
  8
0
  6
CONTINUOUS
 62
               7
  5
576
 10
196.70564055668694
 20
-1119.0454988746164
 30
0.0
 11
196.705640556687
 21
-1045.0454988746164
 31
0.0
  0
LINE
  8
0
  6
CONTINUOUS
 62
               7
  5
577
 10
138.70564055668689
 20
-1120.0454988746164
 30
0.0
 11
114.10564055668685
 21
-1120.0454988746164
 31
0.0
  0
LINE
  8
0
  6
CONTINUOUS
 62
               7
  5
578
 10
196.70564055668694
 20
-1119.0454988746164
 30
0.0
 11
195.70564055668694
 21
-1120.0454988746164
 31
0.0
  0
LINE
  8
0
  6
CONTINUOUS
 62
               7
  5
579
 10
195.705640556687
 20
-1044.0454988746164
 30
0.0
 11
138.70564055668694
 21
-1044.0454988746164
 31
0.0
  0
LINE
  8
0
  6
CONTINUOUS
 62
               7
  5
57A
 10
103.70564055668693
 20
-1119.0454988746164
 30
0.0
 11
104.70564055668693
 21
-1120.0454988746164
 31
0.0
  0
LINE
  8
0
  6
CONTINUOUS
 62
               7
  5
57B
 10
113.10564055668685
 20
-1119.0454988746164
 30
0.0
 11
113.10564055668691
 21
-1061.0454988746167
 31
0.0
  0
LINE
  8
0
  6
CONTINUOUS
 62
               7
  5
57C
 10
138.70564055668689
 20
-1060.0454988746167
 30
0.0
 11
114.10564055668691
 21
-1060.0454988746167
 31
0.0
  0
LINE
  8
0
  6
CONTINUOUS
 62
               7
  5
57D
 10
138.70564055668689
 20
-1120.040262753942
 30
0.0
 11
195.70564055668694
 21
-1120.0454988746164
 31
0.0
  0
LINE
  8
0
  6
CONTINUOUS
 62
               7
  5
57E
 10
195.705640556687
 20
-1044.0454988746164
 30
0.0
 11
196.705640556687
 21
-1045.0454988746164
 31
0.0
  0
LINE
  8
0
  6
CONTINUOUS
 62
               7
  5
57F
 10
114.10564055668691
 20
-1060.0454988746167
 30
0.0
 11
113.10564055668691
 21
-1061.0454988746167
 31
0.0
  0
LINE
  8
0
  6
CONTINUOUS
 62
               7
  5
580
 10
113.10564055668685
 20
-1119.0454988746164
 30
0.0
 11
114.10564055668685
 21
-1120.0454988746164
 31
0.0
  0
LINE
  8
0
  6
CONTINUOUS
 62
               7
  5
581
 10
32.205640556687101
 20
-937.54549887461667
 30
0.0
 11
-43.789123322638446
 21
-937.54549887461644
 31
0.0
  0
LINE
  8
0
  6
CONTINUOUS
 62
               7
  5
582
 10
45.205640556687101
 20
-936.94549887461653
 30
0.0
 11
45.205640556687101
 21
-937.54549887461667
 31
0.0
  0
LINE
  8
0
  6
CONTINUOUS
 62
               7
  5
583
 10
-42.794359443312842
 20
-879.54549887461644
 30
0.0
 11
31.205640556687158
 21
-879.54549887461644
 31
0.0
  0
LINE
  8
0
  6
CONTINUOUS
 62
               7
  5
584
 10
-35.794359443312899
 20
-937.54549887461644
 30
0.0
 11
-35.794359443312899
 21
-962.14549887461658
 31
0.0
  0
LINE
  8
0
  6
CONTINUOUS
 62
               7
  5
585
 10
-42.794359443312842
 20
-879.54549887461644
 30
0.0
 11
-43.794359443312842
 21
-880.54549887461644
 31
0.0
  0
LINE
  8
0
  6
CONTINUOUS
 62
               7
  5
586
 10
32.205640556687158
 20
-880.54549887461644
 30
0.0
 11
32.205640556687101
 21
-937.54549887461667
 31
0.0
  0
LINE
  8
0
  6
CONTINUOUS
 62
               7
  5
587
 10
-34.794359443312956
 20
-972.54549887461644
 30
0.0
 11
-35.794359443312956
 21
-971.54549887461644
 31
0.0
  0
LINE
  8
0
  6
CONTINUOUS
 62
               7
  5
588
 10
-34.794359443312899
 20
-963.14549887461658
 30
0.0
 11
23.20564055668693
 21
-963.14549887461658
 31
0.0
  0
LINE
  8
0
  6
CONTINUOUS
 62
               7
  5
589
 10
24.20564055668693
 20
-937.54549887461667
 30
0.0
 11
24.20564055668693
 21
-962.14549887461658
 31
0.0
  0
LINE
  8
0
  6
CONTINUOUS
 62
               7
  5
58A
 10
-43.789123322638446
 20
-937.54549887461644
 30
0.0
 11
-43.794359443312842
 21
-880.54549887461644
 31
0.0
  0
LINE
  8
0
  6
CONTINUOUS
 62
               7
  5
58B
 10
32.205640556687158
 20
-880.54549887461644
 30
0.0
 11
31.205640556687158
 21
-879.54549887461644
 31
0.0
  0
LINE
  8
0
  6
CONTINUOUS
 62
               7
  5
58C
 10
24.20564055668693
 20
-962.14549887461658
 30
0.0
 11
23.20564055668693
 21
-963.14549887461658
 31
0.0
  0
LINE
  8
0
  6
CONTINUOUS
 62
               7
  5
58D
 10
-34.794359443312899
 20
-963.14549887461658
 30
0.0
 11
-35.794359443312899
 21
-962.14549887461658
 31
0.0
  0
CIRCLE
  8
0
  6
DASHED
 62
               7
  5
58E
 10
-518.81003595441985
 20
-652.04549887461644
 30
0.0
 40
40.0
  0
CIRCLE
  8
0
  6
DASHED
 62
               7
  5
58F
 10
-5.7943594433130556
 20
-652.04549887461644
 30
0.0
 40
40.0
  0
CIRCLE
  8
0
  6
DASHED
 62
               7
  5
590
 10
482.61425631235687
 20
-1068.8604970514098
 30
0.0
 40
40.0
  0
TEXT
  8
0
 62
               3
  5
591
 10
-518.81003595441985
 20
-736.54549887461644
 30
0.0
 40
40.0
  1
EMB_80×65
 41
0.8
 72
               1
 11
-518.81003595441985
 21
-736.54549887461644
 31
0.0
 73
               3
  0
TEXT
  8
0
 62
               3
  5
592
 10
-5.7943594433130556
 20
-736.54549887461644
 30
0.0
 40
40.0
  1
EMB_80×50
 41
0.8
 72
               1
 11
-5.7943594433130556
 21
-736.54549887461644
 31
0.0
 73
               3
  0
TEXT
  8
0
 62
               3
  5
593
 10
478.91685233471657
 20
-414.9146947976061
 30
0.0
 40
40.0
  1
EMB使用例
 41
0.8
 72
               1
 11
478.91685233471657
 21
-414.9146947976061
 31
0.0
 73
               3
  0
TEXT
  8
0
 62
               3
  5
594
 10
-250.41497099484192
 20
-360.5545588972667
 30
0.0
 40
35.0
  1
横枝管に呼び６５、５０の管を接続するときは、EMBをご使用ください。
 41
0.8
 72
               1
 11
-250.41497099484192
 21
-360.5545588972667
 31
0.0
 73
               3
  0
TEXT
  8
0
 62
               3
  5
595
 10
-5.7943594433130698
 20
-1166.5454988746164
 30
0.0
 40
40.0
  1
EMB_65×50
 41
0.8
 72
               1
 11
-5.7943594433130698
 21
-1166.5454988746164
 31
0.0
 73
               3
  0
ENDSEC
  0
EOF
