  0
SECTION
  2
HEADER
  9
$ACADVER
  1
AC1009
  9
$INSBASE
 10
0.0
 20
0.0
 30
0.0
  9
$EXTMIN
 10
-716.62573046432624
 20
-1647.8161993106078
 30
0.0
  9
$EXTMAX
 10
745.91225368063419
 20
770.87386314699938
 30
0.0
  9
$LIMMIN
 10
-762.33004246885628
 20
-1723.400263762408
  9
$LIMMAX
 10
791.61656568516423
 20
846.45792759879964
  9
$ORTHOMODE
 70
               0
  9
$REGENMODE
 70
               1
  9
$FILLMODE
 70
               1
  9
$QTEXTMODE
 70
               0
  9
$MIRRTEXT
 70
               1
  9
$DRAGMODE
 70
               2
  9
$LTSCALE
 40
1.0
  9
$OSMODE
 70
               0
  9
$ATTMODE
 70
               1
  9
$TEXTSIZE
 40
0.2
  9
$TRACEWID
 40
0.05
  9
$TEXTSTYLE
  7
STANDARD
  9
$CLAYER
  8
0
  9
$CELTYPE
  6
CONTINUOUS
  9
$CECOLOR
 62
             256
  9
$DIMSCALE
 40
1.0
  9
$DIMASZ
 40
0.18
  9
$DIMEXO
 40
0.0625
  9
$DIMDLI
 40
0.38
  9
$DIMRND
 40
0.0
  9
$DIMDLE
 40
0.0
  9
$DIMEXE
 40
0.18
  9
$DIMTP
 40
0.0
  9
$DIMTM
 40
0.0
  9
$DIMTXT
 40
0.18
  9
$DIMCEN
 40
0.09
  9
$DIMTSZ
 40
0.0
  9
$DIMTOL
 70
               0
  9
$DIMLIM
 70
               0
  9
$DIMTIH
 70
               1
  9
$DIMTOH
 70
               1
  9
$DIMSE1
 70
               0
  9
$DIMSE2
 70
               0
  9
$DIMTAD
 70
               0
  9
$DIMZIN
 70
               0
  9
$DIMBLK
  1

  9
$DIMASO
 70
               1
  9
$DIMSHO
 70
               1
  9
$DIMPOST
  1

  9
$DIMAPOST
  1

  9
$DIMALT
 70
               0
  9
$DIMALTD
 70
               2
  9
$DIMALTF
 40
25.399999999999999
  9
$DIMLFAC
 40
1.0
  9
$DIMTOFL
 70
               0
  9
$DIMTVP
 40
0.0
  9
$DIMTIX
 70
               0
  9
$DIMSOXD
 70
               0
  9
$DIMSAH
 70
               0
  9
$DIMBLK1
  1

  9
$DIMBLK2
  1

  9
$DIMSTYLE
  2
STANDARD
  9
$DIMCLRD
 70
               0
  9
$DIMCLRE
 70
               0
  9
$DIMCLRT
 70
               0
  9
$DIMTFAC
 40
1.0
  9
$DIMGAP
 40
0.09
  9
$LUNITS
 70
               2
  9
$LUPREC
 70
               4
  9
$AXISMODE
 70
               0
  9
$AXISUNIT
 10
0.0
 20
0.0
  9
$SKETCHINC
 40
0.1
  9
$FILLETRAD
 40
0.0
  9
$AUNITS
 70
               0
  9
$AUPREC
 70
               0
  9
$MENU
  1
acad
  9
$ELEVATION
 40
0.0
  9
$PELEVATION
 40
0.0
  9
$THICKNESS
 40
0.0
  9
$LIMCHECK
 70
               0
  9
$BLIPMODE
 70
               1
  9
$CHAMFERA
 40
0.0
  9
$CHAMFERB
 40
0.0
  9
$SKPOLY
 70
               0
  9
$TDCREATE
 40
0.000000000
  9
$TDUPDATE
 40
0.000000000
  9
$TDINDWG
 40
0.0000000000
  9
$TDUSRTIMER
 40
0.0000000000
  9
$USRTIMER
 70
               1
  9
$ANGBASE
 50
0.0
  9
$ANGDIR
 70
               0
  9
$PDMODE
 70
               0
  9
$PDSIZE
 40
1.0
  9
$PLINEWID
 40
0.0
  9
$COORDS
 70
               1
  9
$SPLFRAME
 70
               0
  9
$SPLINETYPE
 70
               6
  9
$SPLINESEGS
 70
               8
  9
$ATTDIA
 70
               0
  9
$ATTREQ
 70
               1
  9
$HANDLING
 70
               1
  9
$HANDSEED
  5
520
  9
$SURFTAB1
 70
               6
  9
$SURFTAB2
 70
               6
  9
$SURFTYPE
 70
               6
  9
$SURFU
 70
               6
  9
$SURFV
 70
               6
  9
$UCSNAME
  2

  9
$UCSORG
 10
0.0
 20
0.0
 30
0.0
  9
$UCSXDIR
 10
1.0
 20
0.0
 30
0.0
  9
$UCSYDIR
 10
0.0
 20
1.0
 30
0.0
  9
$PUCSNAME
  2

  9
$PUCSORG
 10
0.0
 20
0.0
 30
0.0
  9
$PUCSXDIR
 10
1.0
 20
0.0
 30
0.0
  9
$PUCSYDIR
 10
0.0
 20
1.0
 30
0.0
  9
$USERI1
 70
               0
  9
$USERI2
 70
               0
  9
$USERI3
 70
               0
  9
$USERI4
 70
               0
  9
$USERI5
 70
               0
  9
$USERR1
 40
0.0
  9
$USERR2
 40
0.0
  9
$USERR3
 40
0.0
  9
$USERR4
 40
0.0
  9
$USERR5
 40
0.0
  9
$WORLDVIEW
 70
               1
  9
$SHADEDGE
 70
               3
  9
$SHADEDIF
 70
              70
  9
$TILEMODE
 70
               1
  9
$MAXACTVP
 70
              16
  9
$PINSBASE
 10
0.0
 20
0.0
 30
0.0
  9
$PLIMCHECK
 70
               0
  9
$PEXTMIN
 10
1.0000000000000000E+20
 20
1.0000000000000000E+20
 30
1.0000000000000000E+20
  9
$PEXTMAX
 10
-1.0000000000000000E+20
 20
-1.0000000000000000E+20
 30
-1.0000000000000000E+20
  9
$PLIMMIN
 10
0.0
 20
0.0
  9
$PLIMMAX
 10
12.0
 20
9.0
  9
$UNITMODE
 70
               0
  9
$VISRETAIN
 70
               0
  9
$PLINEGEN
 70
               1
  9
$PSLTSCALE
 70
               0
  9
$TREEDEPTH
 70
            3020
  9
$DWGCODEPAGE
  3
dos932
  0
ENDSEC
  0
SECTION
  2
TABLES
  0
TABLE
  2
VPORT
 70
               1
  0
VPORT
  2
*ACTIVE
 70
               0
 10
0.0
 20
0.0
 11
1.0
 21
1.0
 12
14.643261608153978
 22
-438.47116808180419
 13
0.0
 23
0.0
 14
1.0
 24
1.0
 15
0.0
 25
0.0
 16
0.0
 26
0.0
 36
1.0
 17
0.0
 27
0.0
 37
0.0
 40
2569.8581913612079
 41
0.6046818510755734
 42
50.0
 43
0.0
 44
0.0
 50
0.0
 51
0.0
 71
               0
 72
             100
 73
               1
 74
               1
 75
               0
 76
               0
 77
               0
 78
               0
  0
ENDTAB
  0
TABLE
  2
LTYPE
 70
              26
  0
LTYPE
  2
CONTINUOUS
 70
               0
  3
Solid line
 72
              65
 73
               0
 40
0.0
  0
LTYPE
  2
HIDDENX2
 70
               0
  3
CADPAC FUSION LINETYPE
 72
              65
 73
               2
 40
47.560000000000002
 49
35.670000000000002
 49
-11.890000000000001
  0
LTYPE
  2
HIDDEN
 70
               0
  3
CADPAC FUSION LINETYPE
 72
              65
 73
               2
 40
35.670000000000002
 49
23.780000000000001
 49
-11.890000000000001
  0
LTYPE
  2
HIDDEN2
 70
               0
  3
CADPAC FUSION LINETYPE
 72
              65
 73
               2
 40
29.725000000000001
 49
17.835000000000001
 49
-11.890000000000001
  0
LTYPE
  2
DASHED
 70
               0
  3
CADPAC FUSION LINETYPE
 72
              65
 73
               2
 40
35.670000000000002
 49
23.780000000000001
 49
-11.890000000000001
  0
LTYPE
  2
DASHED2
 70
               0
  3
CADPAC FUSION LINETYPE
 72
              65
 73
               2
 40
26.752500000000001
 49
17.835000000000001
 49
-8.9175000000000004
  0
LTYPE
  2
DASHEDX2
 70
               0
  3
CADPAC FUSION LINETYPE
 72
              65
 73
               2
 40
53.505000000000003
 49
35.670000000000002
 49
-17.835000000000001
  0
LTYPE
  2
DOTX2
 70
               0
  3
CADPAC FUSION LINETYPE
 72
              65
 73
               2
 40
14.862500000000001
 49
0.0
 49
-14.862500000000001
  0
LTYPE
  2
DOT
 70
               0
  3
CADPAC FUSION LINETYPE
 72
              65
 73
               2
 40
11.890000000000001
 49
0.0
 49
-11.890000000000001
  0
LTYPE
  2
DOTS
 70
               0
  3
CADPAC FUSION LINETYPE
 72
              65
 73
               2
 40
11.890000000000001
 49
0.0
 49
-11.890000000000001
  0
LTYPE
  2
DOT2
 70
               0
  3
CADPAC FUSION LINETYPE
 72
              65
 73
               2
 40
8.9175000000000004
 49
0.0
 49
-8.9175000000000004
  0
LTYPE
  2
CENTERX2
 70
               0
  3
CADPAC FUSION LINETYPE
 72
              65
 73
               4
 40
71.340000000000003
 49
29.725000000000001
 49
-14.862500000000001
 49
11.890000000000001
 49
-14.862500000000001
  0
LTYPE
  2
CENTER
 70
               0
  3
CADPAC FUSION LINETYPE
 72
              65
 73
               4
 40
54.694000000000003
 49
23.780000000000001
 49
-11.890000000000001
 49
7.1340000000000003
 49
-11.890000000000001
  0
LTYPE
  2
CENTER2
 70
               0
  3
CADPAC FUSION LINETYPE
 72
              65
 73
               4
 40
38.048000000000002
 49
17.835000000000001
 49
-8.9175000000000004
 49
2.3780000000000001
 49
-8.9175000000000004
  0
LTYPE
  2
DASHDOTX2
 70
               0
  3
CADPAC FUSION LINETYPE
 72
              65
 73
               4
 40
59.450000000000003
 49
29.725000000000001
 49
-14.862500000000001
 49
0.0
 49
-14.862500000000001
  0
LTYPE
  2
DASHDOT
 70
               0
  3
CADPAC FUSION LINETYPE
 72
              65
 73
               4
 40
47.560000000000002
 49
23.780000000000001
 49
-11.890000000000001
 49
0.0
 49
-11.890000000000001
  0
LTYPE
  2
DASHDOT2
 70
               0
  3
CADPAC FUSION LINETYPE
 72
              65
 73
               4
 40
35.670000000000002
 49
17.835000000000001
 49
-8.9175000000000004
 49
0.0
 49
-8.9175000000000004
  0
LTYPE
  2
DIVIDEX2
 70
               0
  3
CADPAC FUSION LINETYPE
 72
              65
 73
               6
 40
74.3125
 49
29.725000000000001
 49
-14.862500000000001
 49
0.0
 49
-14.862500000000001
 49
0.0
 49
-14.862500000000001
  0
LTYPE
  2
DIVIDE
 70
               0
  3
CADPAC FUSION LINETYPE
 72
              65
 73
               6
 40
59.450000000000003
 49
23.780000000000001
 49
-11.890000000000001
 49
0.0
 49
-11.890000000000001
 49
0.0
 49
-11.890000000000001
  0
LTYPE
  2
DIVIDE2
 70
               0
  3
CADPAC FUSION LINETYPE
 72
              65
 73
               6
 40
44.587500000000006
 49
17.835000000000001
 49
-8.9175000000000004
 49
0.0
 49
-8.9175000000000004
 49
0.0
 49
-8.9175000000000004
  0
LTYPE
  2
BORDERX2
 70
               0
  3
CADPAC FUSION LINETYPE
 72
              65
 73
               6
 40
104.03750000000001
 49
29.725000000000001
 49
-14.862500000000001
 49
29.725000000000001
 49
-14.862500000000001
 49
0.0
 49
-14.862500000000001
  0
LTYPE
  2
BORDER
 70
               0
  3
CADPAC FUSION LINETYPE
 72
              65
 73
               6
 40
83.230000000000004
 49
23.780000000000001
 49
-11.890000000000001
 49
23.780000000000001
 49
-11.890000000000001
 49
0.0
 49
-11.890000000000001
  0
LTYPE
  2
BORDER2
 70
               0
  3
CADPAC FUSION LINETYPE
 72
              65
 73
               6
 40
62.422499999999999
 49
17.835000000000001
 49
-8.9175000000000004
 49
17.835000000000001
 49
-8.9175000000000004
 49
0.0
 49
-8.9175000000000004
  0
LTYPE
  2
PHANTOMX2
 70
               0
  3
CADPAC FUSION LINETYPE
 72
              65
 73
               6
 40
89.175000000000011
 49
29.725000000000001
 49
-11.890000000000001
 49
11.890000000000001
 49
-11.890000000000001
 49
11.890000000000001
 49
-11.890000000000001
  0
LTYPE
  2
PHANTOM
 70
               0
  3
CADPAC FUSION LINETYPE
 72
              65
 73
               6
 40
73.718000000000004
 49
23.780000000000001
 49
-11.890000000000001
 49
7.1340000000000003
 49
-11.890000000000001
 49
7.1340000000000003
 49
-11.890000000000001
  0
LTYPE
  2
PHANTOM2
 70
               0
  3
CADPAC FUSION LINETYPE
 72
              65
 73
               6
 40
63.017000000000003
 49
17.835000000000001
 49
-11.890000000000001
 49
4.7560000000000002
 49
-11.890000000000001
 49
4.7560000000000002
 49
-11.890000000000001
  0
ENDTAB
  0
TABLE
  2
LAYER
 70
             256
  0
LAYER
  2
0
 70
               0
 62
               7
  6
CONTINUOUS
  0
LAYER
  2
LAYER001
 70
               0
 62
               7
  6
CONTINUOUS
  0
LAYER
  2
LAYER002
 70
               0
 62
               7
  6
CONTINUOUS
  0
LAYER
  2
LAYER003
 70
               0
 62
               7
  6
CONTINUOUS
  0
LAYER
  2
LAYER004
 70
               0
 62
               7
  6
CONTINUOUS
  0
LAYER
  2
LAYER005
 70
               0
 62
               7
  6
CONTINUOUS
  0
LAYER
  2
LAYER006
 70
               0
 62
               7
  6
CONTINUOUS
  0
LAYER
  2
LAYER007
 70
               0
 62
               7
  6
CONTINUOUS
  0
LAYER
  2
LAYER008
 70
               0
 62
               7
  6
CONTINUOUS
  0
LAYER
  2
LAYER009
 70
               0
 62
               7
  6
CONTINUOUS
  0
LAYER
  2
LAYER010
 70
               0
 62
               7
  6
CONTINUOUS
  0
LAYER
  2
LAYER011
 70
               0
 62
               7
  6
CONTINUOUS
  0
LAYER
  2
LAYER012
 70
               0
 62
               7
  6
CONTINUOUS
  0
LAYER
  2
LAYER013
 70
               0
 62
               7
  6
CONTINUOUS
  0
LAYER
  2
LAYER014
 70
               0
 62
               7
  6
CONTINUOUS
  0
LAYER
  2
LAYER015
 70
               0
 62
               7
  6
CONTINUOUS
  0
LAYER
  2
LAYER016
 70
               0
 62
               7
  6
CONTINUOUS
  0
LAYER
  2
LAYER017
 70
               0
 62
               7
  6
CONTINUOUS
  0
LAYER
  2
LAYER018
 70
               0
 62
               7
  6
CONTINUOUS
  0
LAYER
  2
LAYER019
 70
               0
 62
               7
  6
CONTINUOUS
  0
LAYER
  2
LAYER020
 70
               0
 62
               7
  6
CONTINUOUS
  0
LAYER
  2
LAYER021
 70
               0
 62
               7
  6
CONTINUOUS
  0
LAYER
  2
LAYER022
 70
               0
 62
               7
  6
CONTINUOUS
  0
LAYER
  2
LAYER023
 70
               0
 62
               7
  6
CONTINUOUS
  0
LAYER
  2
LAYER024
 70
               0
 62
               7
  6
CONTINUOUS
  0
LAYER
  2
LAYER025
 70
               0
 62
               7
  6
CONTINUOUS
  0
LAYER
  2
LAYER026
 70
               0
 62
               7
  6
CONTINUOUS
  0
LAYER
  2
LAYER027
 70
               0
 62
               7
  6
CONTINUOUS
  0
LAYER
  2
LAYER028
 70
               0
 62
               7
  6
CONTINUOUS
  0
LAYER
  2
LAYER029
 70
               0
 62
               7
  6
CONTINUOUS
  0
LAYER
  2
LAYER030
 70
               0
 62
               7
  6
CONTINUOUS
  0
LAYER
  2
LAYER031
 70
               0
 62
               7
  6
CONTINUOUS
  0
LAYER
  2
LAYER032
 70
               0
 62
               7
  6
CONTINUOUS
  0
LAYER
  2
LAYER033
 70
               0
 62
               7
  6
CONTINUOUS
  0
LAYER
  2
LAYER034
 70
               0
 62
               7
  6
CONTINUOUS
  0
LAYER
  2
LAYER035
 70
               0
 62
               7
  6
CONTINUOUS
  0
LAYER
  2
LAYER036
 70
               0
 62
               7
  6
CONTINUOUS
  0
LAYER
  2
LAYER037
 70
               0
 62
               7
  6
CONTINUOUS
  0
LAYER
  2
LAYER038
 70
               0
 62
               7
  6
CONTINUOUS
  0
LAYER
  2
LAYER039
 70
               0
 62
               7
  6
CONTINUOUS
  0
LAYER
  2
LAYER040
 70
               0
 62
               7
  6
CONTINUOUS
  0
LAYER
  2
LAYER041
 70
               0
 62
               7
  6
CONTINUOUS
  0
LAYER
  2
LAYER042
 70
               0
 62
               7
  6
CONTINUOUS
  0
LAYER
  2
LAYER043
 70
               0
 62
               7
  6
CONTINUOUS
  0
LAYER
  2
LAYER044
 70
               0
 62
               7
  6
CONTINUOUS
  0
LAYER
  2
LAYER045
 70
               0
 62
               7
  6
CONTINUOUS
  0
LAYER
  2
LAYER046
 70
               0
 62
               7
  6
CONTINUOUS
  0
LAYER
  2
LAYER047
 70
               0
 62
               7
  6
CONTINUOUS
  0
LAYER
  2
LAYER048
 70
               0
 62
               7
  6
CONTINUOUS
  0
LAYER
  2
LAYER049
 70
               0
 62
               7
  6
CONTINUOUS
  0
LAYER
  2
LAYER050
 70
               0
 62
               7
  6
CONTINUOUS
  0
LAYER
  2
LAYER051
 70
               0
 62
               7
  6
CONTINUOUS
  0
LAYER
  2
LAYER052
 70
               0
 62
               7
  6
CONTINUOUS
  0
LAYER
  2
LAYER053
 70
               0
 62
               7
  6
CONTINUOUS
  0
LAYER
  2
LAYER054
 70
               0
 62
               7
  6
CONTINUOUS
  0
LAYER
  2
LAYER055
 70
               0
 62
               7
  6
CONTINUOUS
  0
LAYER
  2
LAYER056
 70
               0
 62
               7
  6
CONTINUOUS
  0
LAYER
  2
LAYER057
 70
               0
 62
               7
  6
CONTINUOUS
  0
LAYER
  2
LAYER058
 70
               0
 62
               7
  6
CONTINUOUS
  0
LAYER
  2
LAYER059
 70
               0
 62
               7
  6
CONTINUOUS
  0
LAYER
  2
LAYER060
 70
               0
 62
               7
  6
CONTINUOUS
  0
LAYER
  2
LAYER061
 70
               0
 62
               7
  6
CONTINUOUS
  0
LAYER
  2
LAYER062
 70
               0
 62
               7
  6
CONTINUOUS
  0
LAYER
  2
LAYER063
 70
               0
 62
               7
  6
CONTINUOUS
  0
LAYER
  2
LAYER064
 70
               0
 62
               7
  6
CONTINUOUS
  0
LAYER
  2
LAYER065
 70
               0
 62
               7
  6
CONTINUOUS
  0
LAYER
  2
LAYER066
 70
               0
 62
               7
  6
CONTINUOUS
  0
LAYER
  2
LAYER067
 70
               0
 62
               7
  6
CONTINUOUS
  0
LAYER
  2
LAYER068
 70
               0
 62
               7
  6
CONTINUOUS
  0
LAYER
  2
LAYER069
 70
               0
 62
               7
  6
CONTINUOUS
  0
LAYER
  2
LAYER070
 70
               0
 62
               7
  6
CONTINUOUS
  0
LAYER
  2
LAYER071
 70
               0
 62
               7
  6
CONTINUOUS
  0
LAYER
  2
LAYER072
 70
               0
 62
               7
  6
CONTINUOUS
  0
LAYER
  2
LAYER073
 70
               0
 62
               7
  6
CONTINUOUS
  0
LAYER
  2
LAYER074
 70
               0
 62
               7
  6
CONTINUOUS
  0
LAYER
  2
LAYER075
 70
               0
 62
               7
  6
CONTINUOUS
  0
LAYER
  2
LAYER076
 70
               0
 62
               7
  6
CONTINUOUS
  0
LAYER
  2
LAYER077
 70
               0
 62
               7
  6
CONTINUOUS
  0
LAYER
  2
LAYER078
 70
               0
 62
               7
  6
CONTINUOUS
  0
LAYER
  2
LAYER079
 70
               0
 62
               7
  6
CONTINUOUS
  0
LAYER
  2
LAYER080
 70
               0
 62
               7
  6
CONTINUOUS
  0
LAYER
  2
LAYER081
 70
               0
 62
               7
  6
CONTINUOUS
  0
LAYER
  2
LAYER082
 70
               0
 62
               7
  6
CONTINUOUS
  0
LAYER
  2
LAYER083
 70
               0
 62
               7
  6
CONTINUOUS
  0
LAYER
  2
LAYER084
 70
               0
 62
               7
  6
CONTINUOUS
  0
LAYER
  2
LAYER085
 70
               0
 62
               7
  6
CONTINUOUS
  0
LAYER
  2
LAYER086
 70
               0
 62
               7
  6
CONTINUOUS
  0
LAYER
  2
LAYER087
 70
               0
 62
               7
  6
CONTINUOUS
  0
LAYER
  2
LAYER088
 70
               0
 62
               7
  6
CONTINUOUS
  0
LAYER
  2
LAYER089
 70
               0
 62
               7
  6
CONTINUOUS
  0
LAYER
  2
LAYER090
 70
               0
 62
               7
  6
CONTINUOUS
  0
LAYER
  2
LAYER091
 70
               0
 62
               7
  6
CONTINUOUS
  0
LAYER
  2
LAYER092
 70
               0
 62
               7
  6
CONTINUOUS
  0
LAYER
  2
LAYER093
 70
               0
 62
               7
  6
CONTINUOUS
  0
LAYER
  2
LAYER094
 70
               0
 62
               7
  6
CONTINUOUS
  0
LAYER
  2
LAYER095
 70
               0
 62
               7
  6
CONTINUOUS
  0
LAYER
  2
LAYER096
 70
               0
 62
               7
  6
CONTINUOUS
  0
LAYER
  2
LAYER097
 70
               0
 62
               7
  6
CONTINUOUS
  0
LAYER
  2
LAYER098
 70
               0
 62
               7
  6
CONTINUOUS
  0
LAYER
  2
LAYER099
 70
               0
 62
               7
  6
CONTINUOUS
  0
LAYER
  2
LAYER100
 70
               0
 62
               7
  6
CONTINUOUS
  0
LAYER
  2
LAYER101
 70
               0
 62
               7
  6
CONTINUOUS
  0
LAYER
  2
LAYER102
 70
               0
 62
               7
  6
CONTINUOUS
  0
LAYER
  2
LAYER103
 70
               0
 62
               7
  6
CONTINUOUS
  0
LAYER
  2
LAYER104
 70
               0
 62
               7
  6
CONTINUOUS
  0
LAYER
  2
LAYER105
 70
               0
 62
               7
  6
CONTINUOUS
  0
LAYER
  2
LAYER106
 70
               0
 62
               7
  6
CONTINUOUS
  0
LAYER
  2
LAYER107
 70
               0
 62
               7
  6
CONTINUOUS
  0
LAYER
  2
LAYER108
 70
               0
 62
               7
  6
CONTINUOUS
  0
LAYER
  2
LAYER109
 70
               0
 62
               7
  6
CONTINUOUS
  0
LAYER
  2
LAYER110
 70
               0
 62
               7
  6
CONTINUOUS
  0
LAYER
  2
LAYER111
 70
               0
 62
               7
  6
CONTINUOUS
  0
LAYER
  2
LAYER112
 70
               0
 62
               7
  6
CONTINUOUS
  0
LAYER
  2
LAYER113
 70
               0
 62
               7
  6
CONTINUOUS
  0
LAYER
  2
LAYER114
 70
               0
 62
               7
  6
CONTINUOUS
  0
LAYER
  2
LAYER115
 70
               0
 62
               7
  6
CONTINUOUS
  0
LAYER
  2
LAYER116
 70
               0
 62
               7
  6
CONTINUOUS
  0
LAYER
  2
LAYER117
 70
               0
 62
               7
  6
CONTINUOUS
  0
LAYER
  2
LAYER118
 70
               0
 62
               7
  6
CONTINUOUS
  0
LAYER
  2
LAYER119
 70
               0
 62
               7
  6
CONTINUOUS
  0
LAYER
  2
LAYER120
 70
               0
 62
               7
  6
CONTINUOUS
  0
LAYER
  2
LAYER121
 70
               0
 62
               7
  6
CONTINUOUS
  0
LAYER
  2
LAYER122
 70
               0
 62
               7
  6
CONTINUOUS
  0
LAYER
  2
LAYER123
 70
               0
 62
               7
  6
CONTINUOUS
  0
LAYER
  2
LAYER124
 70
               0
 62
               7
  6
CONTINUOUS
  0
LAYER
  2
LAYER125
 70
               0
 62
               7
  6
CONTINUOUS
  0
LAYER
  2
LAYER126
 70
               0
 62
               7
  6
CONTINUOUS
  0
LAYER
  2
LAYER127
 70
               0
 62
               7
  6
CONTINUOUS
  0
LAYER
  2
LAYER128
 70
               0
 62
               7
  6
CONTINUOUS
  0
LAYER
  2
LAYER129
 70
               0
 62
               7
  6
CONTINUOUS
  0
LAYER
  2
LAYER130
 70
               0
 62
               7
  6
CONTINUOUS
  0
LAYER
  2
LAYER131
 70
               0
 62
               7
  6
CONTINUOUS
  0
LAYER
  2
LAYER132
 70
               0
 62
               7
  6
CONTINUOUS
  0
LAYER
  2
LAYER133
 70
               0
 62
               7
  6
CONTINUOUS
  0
LAYER
  2
LAYER134
 70
               0
 62
               7
  6
CONTINUOUS
  0
LAYER
  2
LAYER135
 70
               0
 62
               7
  6
CONTINUOUS
  0
LAYER
  2
LAYER136
 70
               0
 62
               7
  6
CONTINUOUS
  0
LAYER
  2
LAYER137
 70
               0
 62
               7
  6
CONTINUOUS
  0
LAYER
  2
LAYER138
 70
               0
 62
               7
  6
CONTINUOUS
  0
LAYER
  2
LAYER139
 70
               0
 62
               7
  6
CONTINUOUS
  0
LAYER
  2
LAYER140
 70
               0
 62
               7
  6
CONTINUOUS
  0
LAYER
  2
LAYER141
 70
               0
 62
               7
  6
CONTINUOUS
  0
LAYER
  2
LAYER142
 70
               0
 62
               7
  6
CONTINUOUS
  0
LAYER
  2
LAYER143
 70
               0
 62
               7
  6
CONTINUOUS
  0
LAYER
  2
LAYER144
 70
               0
 62
               7
  6
CONTINUOUS
  0
LAYER
  2
LAYER145
 70
               0
 62
               7
  6
CONTINUOUS
  0
LAYER
  2
LAYER146
 70
               0
 62
               7
  6
CONTINUOUS
  0
LAYER
  2
LAYER147
 70
               0
 62
               7
  6
CONTINUOUS
  0
LAYER
  2
LAYER148
 70
               0
 62
               7
  6
CONTINUOUS
  0
LAYER
  2
LAYER149
 70
               0
 62
               7
  6
CONTINUOUS
  0
LAYER
  2
LAYER150
 70
               0
 62
               7
  6
CONTINUOUS
  0
LAYER
  2
LAYER151
 70
               0
 62
               7
  6
CONTINUOUS
  0
LAYER
  2
LAYER152
 70
               0
 62
               7
  6
CONTINUOUS
  0
LAYER
  2
LAYER153
 70
               0
 62
               7
  6
CONTINUOUS
  0
LAYER
  2
LAYER154
 70
               0
 62
               7
  6
CONTINUOUS
  0
LAYER
  2
LAYER155
 70
               0
 62
               7
  6
CONTINUOUS
  0
LAYER
  2
LAYER156
 70
               0
 62
               7
  6
CONTINUOUS
  0
LAYER
  2
LAYER157
 70
               0
 62
               7
  6
CONTINUOUS
  0
LAYER
  2
LAYER158
 70
               0
 62
               7
  6
CONTINUOUS
  0
LAYER
  2
LAYER159
 70
               0
 62
               7
  6
CONTINUOUS
  0
LAYER
  2
LAYER160
 70
               0
 62
               7
  6
CONTINUOUS
  0
LAYER
  2
LAYER161
 70
               0
 62
               7
  6
CONTINUOUS
  0
LAYER
  2
LAYER162
 70
               0
 62
               7
  6
CONTINUOUS
  0
LAYER
  2
LAYER163
 70
               0
 62
               7
  6
CONTINUOUS
  0
LAYER
  2
LAYER164
 70
               0
 62
               7
  6
CONTINUOUS
  0
LAYER
  2
LAYER165
 70
               0
 62
               7
  6
CONTINUOUS
  0
LAYER
  2
LAYER166
 70
               0
 62
               7
  6
CONTINUOUS
  0
LAYER
  2
LAYER167
 70
               0
 62
               7
  6
CONTINUOUS
  0
LAYER
  2
LAYER168
 70
               0
 62
               7
  6
CONTINUOUS
  0
LAYER
  2
LAYER169
 70
               0
 62
               7
  6
CONTINUOUS
  0
LAYER
  2
LAYER170
 70
               0
 62
               7
  6
CONTINUOUS
  0
LAYER
  2
LAYER171
 70
               0
 62
               7
  6
CONTINUOUS
  0
LAYER
  2
LAYER172
 70
               0
 62
               7
  6
CONTINUOUS
  0
LAYER
  2
LAYER173
 70
               0
 62
               7
  6
CONTINUOUS
  0
LAYER
  2
LAYER174
 70
               0
 62
               7
  6
CONTINUOUS
  0
LAYER
  2
LAYER175
 70
               0
 62
               7
  6
CONTINUOUS
  0
LAYER
  2
LAYER176
 70
               0
 62
               7
  6
CONTINUOUS
  0
LAYER
  2
LAYER177
 70
               0
 62
               7
  6
CONTINUOUS
  0
LAYER
  2
LAYER178
 70
               0
 62
               7
  6
CONTINUOUS
  0
LAYER
  2
LAYER179
 70
               0
 62
               7
  6
CONTINUOUS
  0
LAYER
  2
LAYER180
 70
               0
 62
               7
  6
CONTINUOUS
  0
LAYER
  2
LAYER181
 70
               0
 62
               7
  6
CONTINUOUS
  0
LAYER
  2
LAYER182
 70
               0
 62
               7
  6
CONTINUOUS
  0
LAYER
  2
LAYER183
 70
               0
 62
               7
  6
CONTINUOUS
  0
LAYER
  2
LAYER184
 70
               0
 62
               7
  6
CONTINUOUS
  0
LAYER
  2
LAYER185
 70
               0
 62
               7
  6
CONTINUOUS
  0
LAYER
  2
LAYER186
 70
               0
 62
               7
  6
CONTINUOUS
  0
LAYER
  2
LAYER187
 70
               0
 62
               7
  6
CONTINUOUS
  0
LAYER
  2
LAYER188
 70
               0
 62
               7
  6
CONTINUOUS
  0
LAYER
  2
LAYER189
 70
               0
 62
               7
  6
CONTINUOUS
  0
LAYER
  2
LAYER190
 70
               0
 62
               7
  6
CONTINUOUS
  0
LAYER
  2
LAYER191
 70
               0
 62
               7
  6
CONTINUOUS
  0
LAYER
  2
LAYER192
 70
               0
 62
               7
  6
CONTINUOUS
  0
LAYER
  2
LAYER193
 70
               0
 62
               7
  6
CONTINUOUS
  0
LAYER
  2
LAYER194
 70
               0
 62
               7
  6
CONTINUOUS
  0
LAYER
  2
LAYER195
 70
               0
 62
               7
  6
CONTINUOUS
  0
LAYER
  2
LAYER196
 70
               0
 62
               7
  6
CONTINUOUS
  0
LAYER
  2
LAYER197
 70
               0
 62
               7
  6
CONTINUOUS
  0
LAYER
  2
LAYER198
 70
               0
 62
               7
  6
CONTINUOUS
  0
LAYER
  2
LAYER199
 70
               0
 62
               7
  6
CONTINUOUS
  0
LAYER
  2
LAYER200
 70
               0
 62
               7
  6
CONTINUOUS
  0
LAYER
  2
LAYER201
 70
               0
 62
               7
  6
CONTINUOUS
  0
LAYER
  2
LAYER202
 70
               0
 62
               7
  6
CONTINUOUS
  0
LAYER
  2
LAYER203
 70
               0
 62
               7
  6
CONTINUOUS
  0
LAYER
  2
LAYER204
 70
               0
 62
               7
  6
CONTINUOUS
  0
LAYER
  2
LAYER205
 70
               0
 62
               7
  6
CONTINUOUS
  0
LAYER
  2
LAYER206
 70
               0
 62
               7
  6
CONTINUOUS
  0
LAYER
  2
LAYER207
 70
               0
 62
               7
  6
CONTINUOUS
  0
LAYER
  2
LAYER208
 70
               0
 62
               7
  6
CONTINUOUS
  0
LAYER
  2
LAYER209
 70
               0
 62
               7
  6
CONTINUOUS
  0
LAYER
  2
LAYER210
 70
               0
 62
               7
  6
CONTINUOUS
  0
LAYER
  2
LAYER211
 70
               0
 62
               7
  6
CONTINUOUS
  0
LAYER
  2
LAYER212
 70
               0
 62
               7
  6
CONTINUOUS
  0
LAYER
  2
LAYER213
 70
               0
 62
               7
  6
CONTINUOUS
  0
LAYER
  2
LAYER214
 70
               0
 62
               7
  6
CONTINUOUS
  0
LAYER
  2
LAYER215
 70
               0
 62
               7
  6
CONTINUOUS
  0
LAYER
  2
LAYER216
 70
               0
 62
               7
  6
CONTINUOUS
  0
LAYER
  2
LAYER217
 70
               0
 62
               7
  6
CONTINUOUS
  0
LAYER
  2
LAYER218
 70
               0
 62
               7
  6
CONTINUOUS
  0
LAYER
  2
LAYER219
 70
               0
 62
               7
  6
CONTINUOUS
  0
LAYER
  2
LAYER220
 70
               0
 62
               7
  6
CONTINUOUS
  0
LAYER
  2
LAYER221
 70
               0
 62
               7
  6
CONTINUOUS
  0
LAYER
  2
LAYER222
 70
               0
 62
               7
  6
CONTINUOUS
  0
LAYER
  2
LAYER223
 70
               0
 62
               7
  6
CONTINUOUS
  0
LAYER
  2
LAYER224
 70
               0
 62
               7
  6
CONTINUOUS
  0
LAYER
  2
LAYER225
 70
               0
 62
               7
  6
CONTINUOUS
  0
LAYER
  2
LAYER226
 70
               0
 62
               7
  6
CONTINUOUS
  0
LAYER
  2
LAYER227
 70
               0
 62
               7
  6
CONTINUOUS
  0
LAYER
  2
LAYER228
 70
               0
 62
               7
  6
CONTINUOUS
  0
LAYER
  2
LAYER229
 70
               0
 62
               7
  6
CONTINUOUS
  0
LAYER
  2
LAYER230
 70
               0
 62
               7
  6
CONTINUOUS
  0
LAYER
  2
LAYER231
 70
               0
 62
               7
  6
CONTINUOUS
  0
LAYER
  2
LAYER232
 70
               0
 62
               7
  6
CONTINUOUS
  0
LAYER
  2
LAYER233
 70
               0
 62
               7
  6
CONTINUOUS
  0
LAYER
  2
LAYER234
 70
               0
 62
               7
  6
CONTINUOUS
  0
LAYER
  2
LAYER235
 70
               0
 62
               7
  6
CONTINUOUS
  0
LAYER
  2
LAYER236
 70
               0
 62
               7
  6
CONTINUOUS
  0
LAYER
  2
LAYER237
 70
               0
 62
               7
  6
CONTINUOUS
  0
LAYER
  2
LAYER238
 70
               0
 62
               7
  6
CONTINUOUS
  0
LAYER
  2
LAYER239
 70
               0
 62
               7
  6
CONTINUOUS
  0
LAYER
  2
LAYER240
 70
               0
 62
               7
  6
CONTINUOUS
  0
LAYER
  2
LAYER241
 70
               0
 62
               7
  6
CONTINUOUS
  0
LAYER
  2
LAYER242
 70
               0
 62
               7
  6
CONTINUOUS
  0
LAYER
  2
LAYER243
 70
               0
 62
               7
  6
CONTINUOUS
  0
LAYER
  2
LAYER244
 70
               0
 62
               7
  6
CONTINUOUS
  0
LAYER
  2
LAYER245
 70
               0
 62
               7
  6
CONTINUOUS
  0
LAYER
  2
LAYER246
 70
               0
 62
               7
  6
CONTINUOUS
  0
LAYER
  2
LAYER247
 70
               0
 62
               7
  6
CONTINUOUS
  0
LAYER
  2
LAYER248
 70
               0
 62
               7
  6
CONTINUOUS
  0
LAYER
  2
LAYER249
 70
               0
 62
               7
  6
CONTINUOUS
  0
LAYER
  2
LAYER250
 70
               0
 62
               7
  6
CONTINUOUS
  0
LAYER
  2
LAYER251
 70
               0
 62
               7
  6
CONTINUOUS
  0
LAYER
  2
LAYER252
 70
               0
 62
               7
  6
CONTINUOUS
  0
LAYER
  2
LAYER253
 70
               0
 62
               7
  6
CONTINUOUS
  0
LAYER
  2
LAYER254
 70
               0
 62
               7
  6
CONTINUOUS
  0
LAYER
  2
LAYER255
 70
               0
 62
               7
  6
CONTINUOUS
  0
ENDTAB
  0
TABLE
  2
STYLE
 70
               1
  0
STYLE
  2
STANDARD
 70
               0
 40
0.0
 41
0.8
 50
0.0
 71
               0
 42
40.0
  3
MS PGothic.ttf
  4

  0
ENDTAB
  0
TABLE
  2
VIEW
 70
               0
  0
VIEW
  2
QQQQ
 70
               0
 40
2569.8581913612079
 10
14.643261608153978
 20
-438.47116808180419
 41
1553.9466081540204
 11
0.0
 21
0.0
 31
1.0
 12
100.0
 22
100.0
 32
0.0
 42
50.0
 43
0.0
 44
0.0
 50
0.0
 71
               0
  0
ENDTAB
  0
TABLE
  2
UCS
 70
               0
  0
ENDTAB
  0
TABLE
  2
APPID
 70
               1
  0
APPID
  2
ACAD
 70
               0
  0
ENDTAB
  0
TABLE
  2
DIMSTYLE
 70
               1
  0
DIMSTYLE
  2
STANDARD
 70
               0
  3

  4

  5

  6

  7

 40
1.0
 41
0.18
 42
0.0625
 43
0.38
 44
0.18
 45
0.0
 46
0.0
 47
0.0
 48
0.0
140
0.18
141
0.09
142
0.0
143
25.399999999999999
144
1.0
145
0.0
146
1.0
147
0.09
 71
               0
 72
               0
 73
               1
 74
               1
 75
               0
 76
               0
 77
               0
 78
               0
170
               0
171
               2
172
               0
173
               0
174
               0
175
               0
176
               0
177
               0
178
               0
  0
ENDTAB
  0
ENDSEC
  0
SECTION
  2
BLOCKS
  0
BLOCK
  8
0
  5
139
  2
GROUP_1
 70
               0
 10
0.0
 20
0.0
 30
0.0
  3
GROUP_1
  0
LINE
  8
0
  6
CONTINUOUS
 62
               4
  5
13A
 10
-671.67415235915689
 20
-322.86209626968571
 30
0.0
 11
-516.50000000000011
 21
-167.68794391052893
 31
0.0
  0
LINE
  8
0
  6
CONTINUOUS
 62
               4
  5
13B
 10
-678.91560562669645
 20
-259.39287143663955
 30
0.0
 11
-529.66214147493463
 21
-110.13940728487762
 31
0.0
  0
LINE
  8
0
  6
CONTINUOUS
 62
               4
  5
13C
 10
-683.50000000000057
 20
-122.55590960877174
 30
0.0
 11
-671.08349767610662
 21
-110.13940728487762
 31
0.0
  0
LINE
  8
0
  6
CONTINUOUS
 62
               4
  5
13D
 10
-650.31634674343491
 20
-372.2149687545496
 30
0.0
 11
-518.97100458069349
 21
-240.86962659180836
 31
0.0
  0
LINE
  8
0
  6
CONTINUOUS
 62
               4
  5
13E
 10
-579.60566864284885
 20
-372.2149687545496
 30
0.0
 11
-528.07768010285758
 21
-320.68698021455839
 31
0.0
  0
LINE
  8
0
  6
CONTINUOUS
 62
               4
  5
13F
 10
-683.50000000000011
 20
-193.26658770935705
 30
0.0
 11
-602.89172785227152
 21
-112.65831556162863
 31
0.0
  0
ENDBLK
  8
0
  5
140
  0
BLOCK
  8
0
  5
141
  2
GROUP_2
 70
               0
 10
0.0
 20
0.0
 30
0.0
  3
GROUP_2
  0
LINE
  8
0
  6
CONTINUOUS
 62
               4
  5
142
 10
-83.500000000000099
 20
-122.53440960877154
 30
0.0
 11
-71.104997676106365
 21
-110.13940728487762
 31
0.0
  0
LINE
  8
0
  6
CONTINUOUS
 62
               4
  5
143
 10
46.813146419524003
 20
-133.64261939041927
 30
0.0
 11
70.316358525065866
 21
-110.13940728487734
 31
0.0
  0
LINE
  8
0
  6
CONTINUOUS
 62
               4
  5
144
 10
-78.917807433402857
 20
-259.37357324334613
 30
0.0
 11
46.813146419524003
 21
-133.64261939041927
 31
0.0
  0
LINE
  8
0
  6
CONTINUOUS
 62
               4
  5
145
 10
-83.500000000000171
 20
-193.24508770935739
 30
0.0
 11
-7.608706022999371
 21
-117.35379373235668
 31
0.0
  0
LINE
  8
0
  6
CONTINUOUS
 62
               4
  5
146
 10
-71.676354165863216
 20
-322.84279807639234
 30
0.0
 11
82.999999999999758
 21
-168.16644391052932
 31
0.0
  0
LINE
  8
0
  6
CONTINUOUS
 62
               4
  5
147
 10
4.3096169580927608
 20
-317.56750505302233
 30
0.0
 11
81.031764357873939
 21
-240.84535765324119
 31
0.0
  0
LINE
  8
0
  6
CONTINUOUS
 62
               4
  5
148
 10
-50.316346743434167
 20
-372.19346875454926
 30
0.0
 11
4.3096169580927608
 21
-317.56750505302233
 31
0.0
  0
LINE
  8
0
  6
CONTINUOUS
 62
               4
  5
149
 10
20.394331357152055
 20
-372.19346875454903
 30
0.0
 11
71.925088835709843
 21
-320.66271127599111
 31
0.0
  0
LINE
  8
0
  6
CONTINUOUS
 62
               4
  5
14A
 10
-7.608706022999371
 20
-117.35379373235668
 30
0.0
 11
-3.1601283429383109
 21
-112.9052160522956
 31
0.0
  0
ENDBLK
  8
0
  5
14B
  0
BLOCK
  8
0
  5
14C
  2
GROUP_3
 70
               0
 10
0.0
 20
0.0
 30
0.0
  3
GROUP_3
  0
LINE
  8
0
  6
CONTINUOUS
 62
               4
  5
14D
 10
528.32584764084311
 20
-322.86209626968576
 30
0.0
 11
683.49999999999989
 21
-167.68794391052899
 31
0.0
  0
LINE
  8
0
  6
CONTINUOUS
 62
               4
  5
14E
 10
521.08439437330333
 20
-259.39287143663961
 30
0.0
 11
670.33785852506537
 21
-110.13940728487768
 31
0.0
  0
LINE
  8
0
  6
CONTINUOUS
 62
               4
  5
14F
 10
516.4999999999992
 20
-122.5559096087718
 30
0.0
 11
528.91650232389327
 21
-110.13940728487768
 31
0.0
  0
LINE
  8
0
  6
CONTINUOUS
 62
               4
  5
150
 10
549.68365325656509
 20
-372.21496875454966
 30
0.0
 11
681.0289954193064
 21
-240.86962659180841
 31
0.0
  0
LINE
  8
0
  6
CONTINUOUS
 62
               4
  5
151
 10
620.39433135715115
 20
-372.21496875454966
 30
0.0
 11
671.9223198971423
 21
-320.68698021455845
 31
0.0
  0
LINE
  8
0
  6
CONTINUOUS
 62
               4
  5
152
 10
516.49999999999989
 20
-193.26658770935711
 30
0.0
 11
599.62718042447943
 21
-110.13940728487762
 31
0.0
  0
ENDBLK
  8
0
  5
153
  0
ENDSEC
  0
SECTION
  2
ENTITIES
  0
CIRCLE
  8
0
  6
CONTINUOUS
 62
               4
  5
154
 10
-0.0000000000001101
 20
615.86059271512238
 30
0.0
 40
75.0
  0
CIRCLE
  8
0
  6
CONTINUOUS
 62
               4
  5
155
 10
-0.0000000000001101
 20
615.86059271512238
 30
0.0
 40
52.5
  0
LINE
  8
0
  6
CONTINUOUS
 62
               4
  5
156
 10
-86.210498200625352
 20
635.86059271512238
 30
0.0
 11
-72.284161474005487
 21
635.86059271512238
 31
0.0
  0
LINE
  8
0
  6
CONTINUOUS
 62
               4
  5
157
 10
-72.284161474005487
 20
595.86059271512238
 30
0.0
 11
-86.210498200625352
 21
595.86059271512238
 31
0.0
  0
ARC
  8
0
  6
CONTINUOUS
 62
               4
  5
158
 10
-0.0000000000001101
 20
615.86059271512238
 30
0.0
 40
88.5
 50
166.93897588510336
 51
193.06102411468945
  0
LINE
  8
0
  6
CONTINUOUS
 62
               4
  5
159
 10
-20.000000000000114
 20
529.65009451449748
 30
0.0
 11
-20.000000000000114
 21
543.57643124111735
 31
0.0
  0
LINE
  8
0
  6
CONTINUOUS
 62
               4
  5
15A
 10
19.99999999999989
 20
543.57643124111735
 30
0.0
 11
19.99999999999989
 21
529.65009451449748
 31
0.0
  0
ARC
  8
0
  6
CONTINUOUS
 62
               4
  5
15B
 10
-0.0000000000001101
 20
615.86059271512238
 30
0.0
 40
88.5
 50
256.93897588505172
 51
283.06102411463769
  0
LINE
  8
0
  6
CONTINUOUS
 62
               4
  5
15C
 10
86.210498200624542
 20
595.86059271512238
 30
0.0
 11
72.284161474004122
 21
595.86059271512238
 31
0.0
  0
LINE
  8
0
  6
CONTINUOUS
 62
               4
  5
15D
 10
72.284161474004122
 20
635.86059271512238
 30
0.0
 11
86.210498200624542
 21
635.86059271512238
 31
0.0
  0
ARC
  8
0
  6
CONTINUOUS
 62
               4
  5
15E
 10
-0.0000000000001101
 20
615.86059271512238
 30
0.0
 40
88.5
 50
346.93897588499982
 51
373.06102411458585
  0
LINE
  8
0
  6
CONTINUOUS
 62
               4
  5
15F
 10
19.99999999999989
 20
702.07109091574796
 30
0.0
 11
19.99999999999989
 21
688.14475418912741
 31
0.0
  0
LINE
  8
0
  6
CONTINUOUS
 62
               4
  5
160
 10
-20.000000000000114
 20
688.14475418912741
 30
0.0
 11
-20.000000000000114
 21
702.07109091574796
 31
0.0
  0
ARC
  8
0
  6
CONTINUOUS
 62
               4
  5
161
 10
-0.0000000000001101
 20
615.86059271512238
 30
0.0
 40
88.5
 50
76.938975885155202
 51
103.06102411474124
  0
LINE
  8
0
  6
CONTINUOUS
 62
               4
  5
162
 10
-47.668123520861172
 20
593.86059271512192
 30
0.0
 11
47.668123520859808
 21
593.86059271512192
 31
0.0
  0
ARC
  8
0
  6
CONTINUOUS
 62
               4
  5
163
 10
12.503611649381018
 20
624.56699034274141
 30
0.0
 40
54.763804151667173
 50
141.38591763675663
 51
145.15009542087034
  0
ARC
  8
0
  6
CONTINUOUS
 62
               4
  5
164
 10
-0.0000000000001101
 20
615.86059271512238
 30
0.0
 40
51.5
 50
334.7109884732651
 51
410.95932736340404
  0
ARC
  8
0
  6
CONTINUOUS
 62
               4
  5
165
 10
-0.0000000000001101
 20
615.86059271512238
 30
0.0
 40
51.5
 50
129.04067263628565
 51
205.2890115264241
  0
ARC
  8
0
  6
CONTINUOUS
 62
               4
  5
166
 10
-0.0000000000001101
 20
615.86059271512238
 30
0.0
 40
77.5
 50
104.95524831658297
 51
128.57288309095929
  0
ARC
  8
0
  6
CONTINUOUS
 62
               4
  5
167
 10
-0.0000000000001101
 20
615.86059271512238
 30
0.0
 40
77.5
 50
14.955248316634696
 51
75.044751683313507
  0
ARC
  8
0
  6
CONTINUOUS
 62
               4
  5
168
 10
-0.0000000000001101
 20
615.86059271512238
 30
0.0
 40
77.5
 50
284.95524831658821
 51
345.04475168315804
  0
LINE
  8
0
  6
CONTINUOUS
 62
               4
  5
169
 10
-140.00000000000009
 20
560.86059271512238
 30
0.0
 11
-139.32844387403586
 21
560.86059271512238
 31
0.0
  0
LINE
  8
0
  6
CONTINUOUS
 62
               4
  5
16A
 10
-136.8284438740354
 20
558.36059271512238
 30
0.0
 11
-139.32844387403586
 21
560.86059271512238
 31
0.0
  0
LINE
  8
0
  6
CONTINUOUS
 62
               4
  5
16B
 10
-140.00000000000009
 20
670.86059271512238
 30
0.0
 11
-139.32844387403586
 21
670.86059271512238
 31
0.0
  0
LINE
  8
0
  6
CONTINUOUS
 62
               4
  5
16C
 10
-136.82844387403586
 20
673.36059271512238
 30
0.0
 11
-139.32844387403586
 21
670.86059271512238
 31
0.0
  0
LINE
  8
0
  6
CONTINUOUS
 62
               4
  5
16D
 10
-139.32844387403586
 20
670.86059271512238
 30
0.0
 11
-139.32844387403586
 21
560.86059271512238
 31
0.0
  0
LINE
  8
0
  6
CONTINUOUS
 62
               4
  5
16E
 10
-45.490335786378026
 20
676.55018973346398
 30
0.0
 11
-136.82844387403586
 21
673.36059271512238
 31
0.0
  0
LINE
  8
0
  6
CONTINUOUS
 62
               4
  5
16F
 10
-45.490335786378708
 20
555.17099569678112
 30
0.0
 11
-136.82844387403537
 21
558.36059271512238
 31
0.0
  0
LINE
  8
0
  6
CONTINUOUS
 62
               4
  5
170
 10
-145.00000000000009
 20
670.68903658915826
 30
0.0
 11
-145.00000000000009
 21
560.76059271512236
 31
0.0
  0
LINE
  8
0
  6
CONTINUOUS
 62
               4
  5
171
 10
-140.00000000000009
 20
558.26059271512236
 30
0.0
 11
-140.00000000000009
 21
673.4605927151224
 31
0.0
  0
LINE
  8
0
  6
CONTINUOUS
 62
               4
  5
172
 10
-140.00000000000009
 20
673.4605927151224
 30
0.0
 11
-142.50000000000009
 21
673.4605927151224
 31
0.0
  0
LINE
  8
0
  6
CONTINUOUS
 62
               4
  5
173
 10
-140.00000000000009
 20
558.26059271512236
 30
0.0
 11
-142.50000000000009
 21
558.26059271512236
 31
0.0
  0
ARC
  8
0
  6
CONTINUOUS
 62
               4
  5
174
 10
-142.50000000000009
 20
560.76059271512236
 30
0.0
 40
2.5
 50
179.99999999989669
 51
269.99999999984499
  0
ARC
  8
0
  6
CONTINUOUS
 62
               4
  5
175
 10
-142.50000000000009
 20
670.9605927151224
 30
0.0
 40
2.5
 50
89.999999999948344
 51
179.99999999989538
  0
LINE
  8
0
  6
CONTINUOUS
 62
               4
  5
176
 10
-32.438403166617718
 20
655.86059271512215
 30
0.0
 11
-0.0000000000001101
 21
655.86059271512215
 31
0.0
  0
LINE
  8
0
  6
CONTINUOUS
 62
               4
  5
177
 10
-0.0000000000001101
 20
655.86059271512215
 30
0.0
 11
34.003676271838572
 21
655.86059271512215
 31
0.0
  0
LINE
  8
0
  6
CONTINUOUS
 62
               4
  5
178
 10
-136.8284438740354
 20
558.36059271512238
 30
0.0
 11
-136.82844387403586
 21
673.36059271512238
 31
0.0
  0
ARC
  8
0
  6
CONTINUOUS
 62
               4
  5
179
 10
-45.664833269890536
 20
681.54714386855949
 30
0.0
 40
5.0
 50
271.99999999984362
 51
304.80675787025228
  0
ARC
  8
0
  6
CONTINUOUS
 62
               4
  5
17A
 10
-45.66483326989119
 20
550.17404156168573
 30
0.0
 40
5.0
 50
55.193242129540046
 51
87.999999999949566
  0
ARC
  8
0
  6
CONTINUOUS
 62
               4
  5
17B
 10
-55.000000000000114
 20
73.86059271512238
 30
0.0
 40
19.999999999999996
 50
148.21166938286291
 51
167.26981986159126
  0
LINE
  8
0
  6
CONTINUOUS
 62
               4
  5
17C
 10
-72.0
 20
159.278017020167
 30
0.0
 11
-72.0
 21
84.396246467975175
 31
0.0
  0
LINE
  8
0
  6
CONTINUOUS
 62
               4
  5
17D
 10
71.999999999999773
 20
89.396246467975743
 30
0.0
 11
71.999999999999773
 21
159.278017020167
 31
0.0
  0
LINE
  8
0
  6
CONTINUOUS
 62
               4
  5
17E
 10
-72.0
 20
84.396246467975175
 30
0.0
 11
71.500000000000227
 21
84.396246467975175
 31
0.0
  0
ARC
  8
0
  6
CONTINUOUS
 62
               4
  5
17F
 10
-75.000000000000099
 20
-107.63940728487762
 30
0.0
 40
2.4999999999999996
 50
89.999999999948017
 51
269.9999999998447
  0
ARC
  8
0
  6
CONTINUOUS
 62
               4
  5
180
 10
74.999999999999886
 20
-107.63940728487762
 30
0.0
 40
2.4999999999999996
 50
269.99999999984499
 51
449.99999999974102
  0
LINE
  8
0
  6
CONTINUOUS
 62
               4
  5
181
 10
-140.00000000000011
 20
-40.13940728487762
 30
0.0
 11
-139.32844387403571
 21
-40.13940728487762
 31
0.0
  0
LINE
  8
0
  6
CONTINUOUS
 62
               4
  5
182
 10
-136.82844387403566
 20
-42.639407284876881
 30
0.0
 11
-139.32844387403571
 21
-40.13940728487762
 31
0.0
  0
LINE
  8
0
  6
CONTINUOUS
 62
               4
  5
183
 10
-136.82844387403492
 20
-42.63940728487762
 30
0.0
 11
-94.663333617757502
 21
-44.111845380731666
 31
0.0
  0
LINE
  8
0
  6
CONTINUOUS
 62
               4
  5
184
 10
-76.464466094067618
 20
-60.411096711163623
 30
0.0
 11
-91.30229719533736
 21
-45.573265609894349
 31
0.0
  0
ARC
  8
0
  6
CONTINUOUS
 62
               4
  5
185
 10
-80.000000000000099
 20
-63.94663061709673
 30
0.0
 40
4.9999999999999991
 50
0.0
 51
44.999999999973191
  0
LINE
  8
0
  6
CONTINUOUS
 62
               4
  5
186
 10
-140.00000000000011
 20
69.860592715122266
 30
0.0
 11
-139.32844387403571
 21
69.860592715122266
 31
0.0
  0
LINE
  8
0
  6
CONTINUOUS
 62
               4
  5
187
 10
-136.82844387403566
 20
72.360592715122493
 30
0.0
 11
-139.32844387403571
 21
69.860592715122266
 31
0.0
  0
LINE
  8
0
  6
CONTINUOUS
 62
               4
  5
188
 10
-136.82844387403571
 20
72.360592715122436
 30
0.0
 11
-79.210967671861425
 21
74.372639320274686
 31
0.0
  0
LINE
  8
0
  6
CONTINUOUS
 62
               4
  5
189
 10
-139.32844387403571
 20
69.860592715122266
 30
0.0
 11
-139.32844387403571
 21
-40.13940728487762
 31
0.0
  0
LINE
  8
0
  6
CONTINUOUS
 62
               4
  5
18A
 10
-140.00000000000011
 20
-42.739407284877615
 30
0.0
 11
-140.00000000000011
 21
72.460592715122402
 31
0.0
  0
LINE
  8
0
  6
CONTINUOUS
 62
               4
  5
18B
 10
-140.00000000000011
 20
72.460592715122402
 30
0.0
 11
-142.50000000000011
 21
72.460592715122402
 31
0.0
  0
ARC
  8
0
  6
CONTINUOUS
 62
               4
  5
18C
 10
-142.50000000000011
 20
69.960592715122374
 30
0.0
 40
2.5
 50
89.999999999948344
 51
179.9999999998962
  0
LINE
  8
0
  6
CONTINUOUS
 62
               4
  5
18D
 10
-145.00000000000011
 20
69.960592715122374
 30
0.0
 11
-145.00000000000011
 21
-40.239407284877615
 31
0.0
  0
LINE
  8
0
  6
CONTINUOUS
 62
               4
  5
18E
 10
-140.00000000000011
 20
-42.739407284877615
 30
0.0
 11
-142.50000000000011
 21
-42.739407284877615
 31
0.0
  0
ARC
  8
0
  6
CONTINUOUS
 62
               4
  5
18F
 10
-142.50000000000011
 20
-40.239407284877615
 30
0.0
 40
2.5
 50
179.99999999989603
 51
269.99999999984499
  0
LINE
  8
0
  6
CONTINUOUS
 62
               4
  5
190
 10
-136.82844387403566
 20
72.360592715122493
 30
0.0
 11
-136.82844387403492
 21
-42.63940728487762
 31
0.0
  0
ARC
  8
0
  6
CONTINUOUS
 62
               4
  5
191
 10
-94.837831101270041
 20
-49.108799515827116
 30
0.0
 40
5.0
 50
44.999999999974911
 51
87.999999999948912
  0
ARC
  8
0
  6
CONTINUOUS
 62
               4
  5
192
 10
-79.385465155373922
 20
79.369593455370136
 30
0.0
 40
5.0
 50
271.99999999984334
 51
347.26981986148638
  0
LINE
  8
0
  6
CONTINUOUS
 62
               4
  5
193
 10
-75.000000000000099
 20
-63.94663061709673
 30
0.0
 11
-75.000000000000099
 21
-105.13940728487762
 31
0.0
  0
LINE
  8
0
  6
CONTINUOUS
 62
               4
  5
194
 10
76.999999999999773
 20
84.396246467975175
 30
0.0
 11
71.999999999999773
 21
89.396246467975175
 31
0.0
  0
ARC
  8
0
  6
CONTINUOUS
 62
               4
  5
195
 10
54.499999999999766
 20
73.86059271512238
 30
0.0
 40
19.999999999999996
 50
0.0
 51
31.788330617033498
  0
LINE
  8
0
  6
CONTINUOUS
 62
               4
  5
196
 10
71.500000000000227
 20
84.396246467975175
 30
0.0
 11
71.500000000000227
 21
89.396246467975743
 31
0.0
  0
LINE
  8
0
  6
CONTINUOUS
 62
               4
  5
197
 10
71.999999999999773
 20
89.396246467975175
 30
0.0
 11
71.500000000000227
 21
89.396246467975175
 31
0.0
  0
LINE
  8
0
  6
CONTINUOUS
 62
               4
  5
198
 10
76.75
 20
84.146246467975175
 30
0.0
 11
71.500000000000227
 21
89.396246467975175
 31
0.0
  0
LINE
  8
0
  6
CONTINUOUS
 62
               4
  5
199
 10
76.75
 20
84.146246467975175
 30
0.0
 11
76.999999999999773
 21
84.396246467975175
 31
0.0
  0
LINE
  8
0
  6
CONTINUOUS
 62
               4
  5
19A
 10
76.999999999999773
 20
84.396246467975175
 30
0.0
 11
76.999999999999773
 21
-106.29243088199462
 31
0.0
  0
LINE
  8
0
  6
CONTINUOUS
 62
               4
  5
19B
 10
76.75
 20
84.146246467975175
 30
0.0
 11
76.75
 21
-106.00707377485912
 31
0.0
  0
LINE
  8
0
  6
CONTINUOUS
 62
               4
  5
19C
 10
74.499999999999773
 20
74.013616312239492
 30
0.0
 11
74.499999999999773
 21
-105.13940728487762
 31
0.0
  0
ARC
  8
0
  6
CONTINUOUS
 62
               4
  5
19D
 10
-655.00000000000011
 20
73.86059271512238
 30
0.0
 40
19.999999999999996
 50
148.21166938286285
 51
179.99999999989649
  0
LINE
  8
0
  6
CONTINUOUS
 62
               4
  5
19E
 10
-672.00000000000011
 20
159.278017020167
 30
0.0
 11
-672.00000000000011
 21
84.396246467975175
 31
0.0
  0
ARC
  8
0
  6
CONTINUOUS
 62
               4
  5
19F
 10
-545.00000000000068
 20
73.86059271512238
 30
0.0
 40
19.999999999999996
 50
0.0
 51
31.78833061703353
  0
LINE
  8
0
  6
CONTINUOUS
 62
               4
  5
1A0
 10
-528.00000000000023
 20
84.396246467975175
 30
0.0
 11
-528.00000000000023
 21
159.278017020167
 31
0.0
  0
LINE
  8
0
  6
CONTINUOUS
 62
               4
  5
1A1
 10
-672.00000000000011
 20
84.396246467975175
 30
0.0
 11
-528.00000000000023
 21
84.396246467975175
 31
0.0
  0
LINE
  8
0
  6
CONTINUOUS
 62
               4
  5
1A2
 10
-675.00000000000011
 20
73.86059271512238
 30
0.0
 11
-675.00000000000011
 21
-105.13940728487762
 31
0.0
  0
LINE
  8
0
  6
CONTINUOUS
 62
               4
  5
1A3
 10
-573.21264290752129
 20
42.860592715122266
 30
0.0
 11
-626.78735709248019
 21
42.860592715122266
 31
0.0
  0
CIRCLE
  8
0
  6
CONTINUOUS
 62
               4
  5
1A4
 10
-600.00000000000068
 20
14.86059271512238
 30
0.0
 40
48.5
  0
CIRCLE
  8
0
  6
CONTINUOUS
 62
               4
  5
1A5
 10
-600.00000000000068
 20
14.86059271512238
 30
0.0
 40
38.75
  0
CIRCLE
  8
0
  6
CONTINUOUS
 62
               4
  5
1A6
 10
-600.00000000000068
 20
14.86059271512238
 30
0.0
 40
47.299999999999997
  0
LINE
  8
0
  6
CONTINUOUS
 62
               4
  5
1A7
 10
-631.81980515339535
 20
-16.959212438272175
 30
0.0
 11
-633.4461507501245
 21
-18.585558035001327
 31
0.0
  0
LINE
  8
0
  6
CONTINUOUS
 62
               4
  5
1A8
 10
-568.18019484660601
 20
-16.959212438272175
 30
0.0
 11
-566.55384924987698
 21
-18.585558035001213
 31
0.0
  0
ARC
  8
0
  6
CONTINUOUS
 62
               4
  5
1A9
 10
-600.00000000000068
 20
14.86059271512238
 30
0.0
 40
45.0
 50
224.99999999987045
 51
314.99999999981878
  0
CIRCLE
  8
0
  6
CONTINUOUS
 62
               4
  5
1AA
 10
-600.00000000000068
 20
14.86059271512238
 30
0.0
 40
43.0
  0
CIRCLE
  8
0
  6
CONTINUOUS
 62
               4
  5
1AB
 10
-600.00000000000068
 20
14.86059271512238
 30
0.0
 40
57.600000000000001
  0
LINE
  8
0
  6
CONTINUOUS
 62
               4
  5
1AC
 10
-525.00000000000011
 20
-105.13940728487762
 30
0.0
 11
-525.00000000000068
 21
73.86059271512238
 31
0.0
  0
ARC
  8
0
  6
CONTINUOUS
 62
               4
  5
1AD
 10
654.99999999999989
 20
73.86059271512238
 30
0.0
 40
19.999999999999996
 50
0.0
 51
31.78833061703353
  0
LINE
  8
0
  6
CONTINUOUS
 62
               4
  5
1AE
 10
671.99999999999989
 20
159.278017020167
 30
0.0
 11
671.99999999999989
 21
84.396246467975175
 31
0.0
  0
ARC
  8
0
  6
CONTINUOUS
 62
               4
  5
1AF
 10
544.99999999999989
 20
73.86059271512238
 30
0.0
 40
19.999999999999996
 50
148.21166938286285
 51
179.99999999989649
  0
LINE
  8
0
  6
CONTINUOUS
 62
               4
  5
1B0
 10
528.0
 20
84.396246467975175
 30
0.0
 11
528.0
 21
159.278017020167
 31
0.0
  0
LINE
  8
0
  6
CONTINUOUS
 62
               4
  5
1B1
 10
671.99999999999989
 20
84.396246467975175
 30
0.0
 11
611.72700000000009
 21
84.396246467975175
 31
0.0
  0
LINE
  8
0
  6
CONTINUOUS
 62
               4
  5
1B2
 10
588.27299999999968
 20
84.396246467975175
 30
0.0
 11
528.0
 21
84.396246467975175
 31
0.0
  0
ARC
  8
0
  6
CONTINUOUS
 62
               4
  5
1B3
 10
674.99999999999989
 20
-107.63940728487762
 30
0.0
 40
2.4999999999999996
 50
269.99999999984567
 51
449.99999999974102
  0
LINE
  8
0
  6
CONTINUOUS
 62
               4
  5
1B4
 10
524.99999999999238
 20
-105.13940728487762
 30
0.0
 11
591.78299999999967
 21
-105.13940728487762
 31
0.0
  0
LINE
  8
0
  6
CONTINUOUS
 62
               4
  5
1B5
 10
608.21699999999953
 20
-105.13940728487762
 30
0.0
 11
674.99999999999989
 21
-105.13940728487762
 31
0.0
  0
LINE
  8
0
  6
CONTINUOUS
 62
               4
  5
1B6
 10
674.99999999999989
 20
73.86059271512238
 30
0.0
 11
674.99999999999989
 21
-105.13940728487762
 31
0.0
  0
LINE
  8
0
  6
CONTINUOUS
 62
               4
  5
1B7
 10
524.99999999999989
 20
-105.13940728487762
 30
0.0
 11
524.99999999999989
 21
73.86059271512238
 31
0.0
  0
ARC
  8
0
  6
CONTINUOUS
 62
               4
  5
1B8
 10
574.21603418803375
 20
73.86059271512238
 30
0.0
 40
17.566965811965957
 50
0.0
 51
36.851448659209858
  0
LINE
  8
0
  6
CONTINUOUS
 62
               4
  5
1B9
 10
611.72700000000009
 20
89.396246467975175
 30
0.0
 11
588.27299999999968
 21
89.396246467975175
 31
0.0
  0
ARC
  8
0
  6
CONTINUOUS
 62
               4
  5
1BA
 10
625.78396581196546
 20
73.86059271512238
 30
0.0
 40
17.566965811965957
 50
143.14855134068659
 51
179.99999999989654
  0
LINE
  8
0
  6
CONTINUOUS
 62
               4
  5
1BB
 10
588.27299999999968
 20
84.396246467975175
 30
0.0
 11
588.27299999999968
 21
89.396246467975175
 31
0.0
  0
LINE
  8
0
  6
CONTINUOUS
 62
               4
  5
1BC
 10
611.72700000000009
 20
84.396246467975175
 30
0.0
 11
611.72700000000009
 21
89.396246467975175
 31
0.0
  0
LINE
  8
0
  6
CONTINUOUS
 62
               4
  5
1BD
 10
588.27299999999968
 20
89.396246467975175
 30
0.0
 11
593.99999999999966
 21
84.396246467975175
 31
0.0
  0
LINE
  8
0
  6
CONTINUOUS
 62
               4
  5
1BE
 10
605.99999999999955
 20
84.396246467975175
 30
0.0
 11
611.72700000000009
 21
89.396246467975175
 31
0.0
  0
LINE
  8
0
  6
CONTINUOUS
 62
               4
  5
1BF
 10
593.99999999999966
 20
84.396246467975175
 30
0.0
 11
605.99999999999955
 21
84.396246467975175
 31
0.0
  0
LINE
  8
0
  6
CONTINUOUS
 62
               4
  5
1C0
 10
605.99999999999955
 20
-106.13940728487751
 30
0.0
 11
593.99999999999966
 21
-106.13940728487751
 31
0.0
  0
ARC
  8
0
  6
CONTINUOUS
 62
               4
  5
1C1
 10
591.93835546658465
 20
-107.55348713334422
 30
0.0
 40
2.4999999999999996
 50
34.446185822123951
 51
93.56278057374098
  0
ARC
  8
0
  6
CONTINUOUS
 62
               4
  5
1C2
 10
608.06164453341512
 20
-107.55348713334422
 30
0.0
 40
2.4999999999999996
 50
86.437219426154201
 51
145.55381417777139
  0
LINE
  8
0
  6
CONTINUOUS
 62
               4
  5
1C3
 10
605.99999999999955
 20
-109.13940728487739
 30
0.0
 11
593.99999999999966
 21
-109.13940728487739
 31
0.0
  0
ARC
  8
0
  6
CONTINUOUS
 62
               4
  5
1C4
 10
591.93835546658465
 20
-107.72532743641102
 30
0.0
 40
2.4999999999999996
 50
266.43721942605197
 51
325.55381417766819
  0
ARC
  8
0
  6
CONTINUOUS
 62
               4
  5
1C5
 10
608.06164453341512
 20
-107.72532743641102
 30
0.0
 40
2.4999999999999996
 50
214.44618582202128
 51
273.56278057363869
  0
LINE
  8
0
  6
CONTINUOUS
 62
               4
  5
1C6
 10
591.78299999999967
 20
73.86059271512238
 30
0.0
 11
591.78299999999967
 21
-105.13940728487762
 31
0.0
  0
LINE
  8
0
  6
CONTINUOUS
 62
               4
  5
1C7
 10
608.21699999999953
 20
73.86059271512238
 30
0.0
 11
608.21699999999953
 21
-105.13940728487762
 31
0.0
  0
LINE
  8
0
  6
CONTINUOUS
 62
               4
  5
1C8
 10
605.99999999999955
 20
-106.13940728487751
 30
0.0
 11
605.99999999999955
 21
84.396246467975175
 31
0.0
  0
LINE
  8
0
  6
CONTINUOUS
 62
               4
  5
1C9
 10
593.99999999999966
 20
84.396246467975175
 30
0.0
 11
593.99999999999966
 21
-106.13940728487751
 31
0.0
  0
LINE
  8
0
  6
CONTINUOUS
 62
               4
  5
1CA
 10
-658.00000000000023
 20
-372.1394072848779
 30
0.0
 11
-675.00000000000011
 21
-223.13940728487745
 31
0.0
  0
LINE
  8
0
  6
CONTINUOUS
 62
               4
  5
1CB
 10
-542.0
 20
-372.1394072848779
 30
0.0
 11
-529.45190901929948
 21
-262.1590804540279
 31
0.0
  0
LINE
  8
0
  6
CONTINUOUS
 62
               4
  5
1CC
 10
-675.00000000000011
 20
-223.00788368776062
 30
0.0
 11
-541.05100000000004
 21
-223.00788368776028
 31
0.0
  0
ARC
  8
0
  6
CONTINUOUS
 62
               4
  5
1CD
 10
-878.9292288491248
 20
-344.68028209922318
 30
0.0
 40
359.11818398045398
 50
13.303286818137405
 51
28.552443501612977
  0
ARC
  8
0
  6
CONTINUOUS
 62
               4
  5
1CE
 10
-600.33118646999412
 20
-236.43360619665395
 30
0.0
 40
73.327111796148202
 50
342.62945642124168
 51
419.8368916055386
  0
LINE
  8
0
  6
CONTINUOUS
 62
               4
  5
1CF
 10
-528.24363345646077
 20
-223.00788368776028
 30
0.0
 11
-525.00000000000057
 21
-223.00788368776028
 31
0.0
  0
LINE
  8
0
  6
CONTINUOUS
 62
               4
  5
1D0
 10
-527.47543193129047
 20
-244.73447090829632
 30
0.0
 11
-525.00000000000057
 21
-223.00788368776062
 31
0.0
  0
LINE
  8
0
  6
CONTINUOUS
 62
               4
  5
1D1
 10
-675.00000000000011
 20
-110.13940728487762
 30
0.0
 11
-675.00000000000011
 21
-223.13940728487745
 31
0.0
  0
LINE
  8
0
  6
CONTINUOUS
 62
               4
  5
1D2
 10
-525.00000000000011
 20
-110.13940728487762
 30
0.0
 11
-525.00000000000011
 21
-223.13940728487745
 31
0.0
  0
ARC
  8
0
  6
CONTINUOUS
 62
               4
  5
1D3
 10
-675.00000000000011
 20
-107.63940728487765
 30
0.0
 40
2.4999999999999996
 50
89.99999999994769
 51
269.99999999984567
  0
LINE
  8
0
  6
CONTINUOUS
 62
               4
  5
1D4
 10
-675.00000000000011
 20
-105.13940728487765
 30
0.0
 11
-577.50000000000011
 21
-105.13940728487765
 31
0.0
  0
LINE
  8
0
  6
CONTINUOUS
 62
               4
  5
1D5
 10
-525.00000000000011
 20
-105.13940728487762
 30
0.0
 11
-577.50000000000011
 21
-105.13940728487765
 31
0.0
  0
LINE
  8
0
  6
CONTINUOUS
 62
               4
  5
1D6
 10
-58.000000000000227
 20
-372.1394072848779
 30
0.0
 11
-75.000000000000114
 21
-223.13940728487745
 31
0.0
  0
LINE
  8
0
  6
CONTINUOUS
 62
               4
  5
1D7
 10
76.999999999999758
 20
-223.25297551513268
 30
0.0
 11
60.271775600348747
 21
-369.86763168452887
 31
0.0
  0
LINE
  8
0
  6
CONTINUOUS
 62
               4
  5
1D8
 10
74.499999999999758
 20
-223.11101522731315
 30
0.0
 11
57.496765133650342
 21
-372.1394072848779
 31
0.0
  0
LINE
  8
0
  6
CONTINUOUS
 62
               4
  5
1D9
 10
76.749999999999986
 20
-223.23877948635067
 30
0.0
 11
59.994274553678679
 21
-370.09480924456375
 31
0.0
  0
LINE
  8
0
  6
CONTINUOUS
 62
               4
  5
1DA
 10
-75.000000000000114
 20
-223.13940728487745
 30
0.0
 11
-46.368107792057003
 21
-223.13940728487745
 31
0.0
  0
LINE
  8
0
  6
CONTINUOUS
 62
               4
  5
1DB
 10
-1.9728332801510078
 20
-223.13940728487745
 30
0.0
 11
74.496765133649646
 21
-223.13940728487745
 31
0.0
  0
LINE
  8
0
  6
CONTINUOUS
 62
               4
  5
1DC
 10
74.496765133649646
 20
-223.13940728487745
 30
0.0
 11
76.999999999999758
 21
-223.25297551513268
 31
0.0
  0
LINE
  8
0
  6
CONTINUOUS
 62
               4
  5
1DD
 10
58.141132586505805
 20
-276.77089274396025
 30
0.0
 11
-65.512000000000626
 21
-173.01359479670742
 31
0.0
  0
ARC
  8
0
  6
CONTINUOUS
 62
               4
  5
1DE
 10
-914.27232010053967
 20
-1317.5720119236562
 30
0.0
 40
1424.9238755783815
 50
50.18995614625684
 51
53.440796050721552
  0
ARC
  8
0
  6
CONTINUOUS
 62
               4
  5
1DF
 10
63.579388837032852
 20
-152.2137247729143
 30
0.0
 40
130.75634311527989
 50
189.15312334026754
 51
212.76918311271189
  0
ARC
  8
0
  6
CONTINUOUS
 62
               4
  5
1E0
 10
61.364025499550948
 20
-142.07970402167399
 30
0.0
 40
134.72974192119386
 50
216.90649751129573
 51
268.62928723405531
  0
ARC
  8
0
  6
CONTINUOUS
 62
               4
  5
1E1
 10
-733.63034809850842
 20
-1101.2330545987693
 30
0.0
 40
1143.0835201141012
 50
46.158732653416578
 51
50.202696616646634
  0
LINE
  8
0
  6
CONTINUOUS
 62
               4
  5
1E2
 10
74.499999999999758
 20
-110.13940728487762
 30
0.0
 11
74.499999999999758
 21
-223.11101522731315
 31
0.0
  0
LINE
  8
0
  6
CONTINUOUS
 62
               4
  5
1E3
 10
76.999999999999758
 20
-109.13940728487739
 30
0.0
 11
76.999999999999758
 21
-223.25297551513268
 31
0.0
  0
LINE
  8
0
  6
CONTINUOUS
 62
               4
  5
1E4
 10
-75.000000000000099
 20
-110.13940728487762
 30
0.0
 11
-75.000000000000114
 21
-223.13940728487745
 31
0.0
  0
LINE
  8
0
  6
CONTINUOUS
 62
               4
  5
1E5
 10
-75.000000000000099
 20
-105.13940728487762
 30
0.0
 11
-29.49868641143205
 21
-105.13940728487762
 31
0.0
  0
LINE
  8
0
  6
CONTINUOUS
 62
               4
  5
1E6
 10
-29.49868641143205
 20
-105.13940728487762
 30
0.0
 11
74.999999999999886
 21
-105.13940728487762
 31
0.0
  0
LINE
  8
0
  6
CONTINUOUS
 62
               4
  5
1E7
 10
657.99999999999989
 20
-372.1934687545496
 30
0.0
 11
674.99999999999989
 21
-222.98638368776034
 31
0.0
  0
LINE
  8
0
  6
CONTINUOUS
 62
               4
  5
1E8
 10
541.99999999999977
 20
-372.1934687545496
 30
0.0
 11
524.99999999999989
 21
-222.98638368776034
 31
0.0
  0
ARC
  8
0
  6
CONTINUOUS
 62
               4
  5
1E9
 10
460.6812911765046
 20
-299.77213506728503
 30
0.0
 40
204.24864340422488
 50
353.49999999993162
 51
373.4368021674054
  0
ARC
  8
0
  6
CONTINUOUS
 62
               4
  5
1EA
 10
498.37230094456561
 20
-297.48771799787733
 30
0.0
 40
167.18634723772169
 50
351.25933879886691
 51
375.67746336847057
  0
ARC
  8
0
  6
CONTINUOUS
 62
               4
  5
1EB
 10
585.02192705347215
 20
-227.28363334134207
 30
0.0
 40
59.149634972654262
 50
186.4999999999639
 51
236.78754046664218
  0
ARC
  8
0
  6
CONTINUOUS
 62
               4
  5
1EC
 10
605.92691953069379
 20
-215.43461624259038
 30
0.0
 40
81.261593956721953
 50
186.49999999996388
 51
229.00792456449784
  0
LINE
  8
0
  6
CONTINUOUS
 62
               4
  5
1ED
 10
674.99999999999989
 20
-222.98638368776034
 30
0.0
 11
524.99999999999989
 21
-222.98638368776028
 31
0.0
  0
LINE
  8
0
  6
CONTINUOUS
 62
               4
  5
1EE
 10
591.78299999999956
 20
-110.13940728487768
 30
0.0
 11
591.78299999999956
 21
-372.1934687545496
 31
0.0
  0
LINE
  8
0
  6
CONTINUOUS
 62
               4
  5
1EF
 10
593.99999999999966
 20
-109.13940728487745
 30
0.0
 11
593.99999999999966
 21
-369.92169315420057
 31
0.0
  0
LINE
  8
0
  6
CONTINUOUS
 62
               4
  5
1F0
 10
608.21699999999953
 20
-110.22532743641108
 30
0.0
 11
608.21699999999953
 21
-372.1934687545496
 31
0.0
  0
LINE
  8
0
  6
CONTINUOUS
 62
               4
  5
1F1
 10
605.99999999999943
 20
-369.92169315420057
 30
0.0
 11
605.99999999999943
 21
-109.13940728487745
 31
0.0
  0
LINE
  8
0
  6
CONTINUOUS
 62
               4
  5
1F2
 10
674.99999999999989
 20
-110.13940728487768
 30
0.0
 11
674.99999999999989
 21
-222.98638368776034
 31
0.0
  0
LINE
  8
0
  6
CONTINUOUS
 62
               4
  5
1F3
 10
524.99999999999989
 20
-222.98638368776034
 30
0.0
 11
524.99999999999989
 21
-110.13940728487762
 31
0.0
  0
ARC
  8
0
  6
CONTINUOUS
 62
               4
  5
1F4
 10
-525.00000000000011
 20
-107.63940728487762
 30
0.0
 40
2.4999999999999996
 50
270.0000000000515
 51
449.99999999994691
  0
ARC
  8
0
  6
CONTINUOUS
 62
               4
  5
1F5
 10
524.99999999999989
 20
-107.63940728487762
 30
0.0
 40
2.4999999999999996
 50
90.00000000015352
 51
270.0000000000515
  0
LINE
  8
0
  6
CONTINUOUS
 62
               4
  5
1F6
 10
58.000000000000014
 20
-372.13940728487734
 30
0.0
 11
60.271775600348761
 21
-369.86763168452887
 31
0.0
  0
LINE
  8
0
  6
CONTINUOUS
 62
               4
  5
1F7
 10
57.496765133650356
 20
-372.1394072848779
 30
0.0
 11
60.271775600348761
 21
-369.86763168452887
 31
0.0
  0
LINE
  8
0
  6
CONTINUOUS
 62
               4
  5
1F8
 10
-91.000000000000611
 20
-489.88462907220003
 30
0.0
 11
-91.000000000000611
 21
-480.01034286514425
 31
0.0
  0
LINE
  8
0
  6
CONTINUOUS
 62
               4
  5
1F9
 10
90.999999999999133
 20
-489.88462907220003
 30
0.0
 11
90.999999999999133
 21
-480.01034286514425
 31
0.0
  0
LINE
  8
0
  6
CONTINUOUS
 62
               4
  5
1FA
 10
-65.500000000001634
 20
-589.13940728487648
 30
0.0
 11
65.50000000000027
 21
-589.13940728487648
 31
0.0
  0
LINE
  8
0
  6
CONTINUOUS
 62
               4
  5
1FB
 10
593.99999999999966
 20
-369.92169315420057
 30
0.0
 11
605.99999999999943
 21
-369.92169315420057
 31
0.0
  0
LINE
  8
0
  6
CONTINUOUS
 62
               4
  5
1FC
 10
591.78299999999956
 20
-372.1934687545496
 30
0.0
 11
593.99999999999966
 21
-369.92169315420057
 31
0.0
  0
LINE
  8
0
  6
CONTINUOUS
 62
               4
  5
1FD
 10
605.99999999999943
 20
-369.92169315420057
 30
0.0
 11
608.21699999999953
 21
-372.1934687545496
 31
0.0
  0
LINE
  8
0
  6
CONTINUOUS
 62
               4
  5
1FE
 10
534.49999999999886
 20
-589.13940728487648
 30
0.0
 11
665.5000000000008
 21
-589.13940728487648
 31
0.0
  0
LINE
  8
0
  6
CONTINUOUS
 62
               4
  5
1FF
 10
-665.50000000000102
 20
-589.06384581520444
 30
0.0
 11
-534.4999999999992
 21
-589.06384581520444
 31
0.0
  0
LINE
  8
0
  6
CONTINUOUS
 62
               4
  5
200
 10
-75.000000000000099
 20
180.86059271512238
 30
0.0
 11
74.999999999999886
 21
180.86059271512238
 31
0.0
  0
LINE
  8
0
  6
CONTINUOUS
 62
               4
  5
201
 10
-88.500000000000327
 20
170.86059271512238
 30
0.0
 11
-88.500000000000327
 21
163.86059271512272
 31
0.0
  0
LINE
  8
0
  6
CONTINUOUS
 62
               4
  5
202
 10
-88.500000000000327
 20
170.86059271512238
 30
0.0
 11
-75.000000000000099
 21
180.86059271512238
 31
0.0
  0
ARC
  8
0
  6
CONTINUOUS
 62
               4
  5
203
 10
-76.999999999999986
 20
159.278017020167
 30
0.0
 40
4.9999999999999991
 50
0.0
 51
66.421821521759824
  0
LINE
  8
0
  6
CONTINUOUS
 62
               4
  5
204
 10
-88.500000000000327
 20
163.86059271512272
 30
0.0
 11
88.499999999999545
 21
163.86059271512272
 31
0.0
  0
LINE
  8
0
  6
CONTINUOUS
 62
               4
  5
205
 10
-20.000000000000099
 20
163.86059271512272
 30
0.0
 11
-20.000000000000099
 21
180.86059271512238
 31
0.0
  0
LINE
  8
0
  6
CONTINUOUS
 62
               4
  5
206
 10
19.999999999999901
 20
180.86059271512238
 30
0.0
 11
19.999999999999901
 21
163.86059271512272
 31
0.0
  0
LINE
  8
0
  6
CONTINUOUS
 62
               4
  5
207
 10
-20.000000000000099
 20
170.86059271512238
 30
0.0
 11
19.999999999999901
 21
170.86059271512238
 31
0.0
  0
LINE
  8
0
  6
CONTINUOUS
 62
               4
  5
208
 10
-72.284161474005472
 20
180.86059271512238
 30
0.0
 11
-72.284161474005472
 21
163.86059271512272
 31
0.0
  0
LINE
  8
0
  6
CONTINUOUS
 62
               4
  5
209
 10
-86.210498200625338
 20
170.86059271512238
 30
0.0
 11
-86.210498200625338
 21
163.86059271512272
 31
0.0
  0
LINE
  8
0
  6
CONTINUOUS
 62
               4
  5
20A
 10
-88.500000000000327
 20
170.86059271512238
 30
0.0
 11
-86.210498200625338
 21
170.86059271512238
 31
0.0
  0
LINE
  8
0
  6
CONTINUOUS
 62
               4
  5
20B
 10
-86.210498200625338
 20
170.86059271512238
 30
0.0
 11
-72.284161474005472
 21
180.86059271512238
 31
0.0
  0
LINE
  8
0
  6
CONTINUOUS
 62
               4
  5
20C
 10
88.499999999999545
 20
170.86059271512238
 30
0.0
 11
88.499999999999545
 21
163.86059271512272
 31
0.0
  0
LINE
  8
0
  6
CONTINUOUS
 62
               4
  5
20D
 10
88.499999999999545
 20
170.86059271512238
 30
0.0
 11
74.999999999999886
 21
180.86059271512238
 31
0.0
  0
ARC
  8
0
  6
CONTINUOUS
 62
               4
  5
20E
 10
76.999999999999773
 20
159.278017020167
 30
0.0
 40
4.9999999999999991
 50
113.57817847813641
 51
179.9999999998962
  0
LINE
  8
0
  6
CONTINUOUS
 62
               4
  5
20F
 10
72.284161474004122
 20
180.86059271512238
 30
0.0
 11
72.284161474004122
 21
163.86059271512272
 31
0.0
  0
LINE
  8
0
  6
CONTINUOUS
 62
               4
  5
210
 10
86.210498200625125
 20
170.86059271512238
 30
0.0
 11
86.210498200625125
 21
163.86059271512272
 31
0.0
  0
LINE
  8
0
  6
CONTINUOUS
 62
               4
  5
211
 10
88.499999999999545
 20
170.86059271512238
 30
0.0
 11
86.210498200625125
 21
170.86059271512238
 31
0.0
  0
LINE
  8
0
  6
CONTINUOUS
 62
               4
  5
212
 10
86.210498200625125
 20
170.86059271512238
 30
0.0
 11
72.284161474004122
 21
180.86059271512238
 31
0.0
  0
LINE
  8
0
  6
CONTINUOUS
 62
               4
  5
213
 10
674.99999999999989
 20
180.86059271512238
 30
0.0
 11
524.99999999999989
 21
180.86059271512238
 31
0.0
  0
LINE
  8
0
  6
CONTINUOUS
 62
               4
  5
214
 10
688.50000000000011
 20
170.86059271512238
 30
0.0
 11
688.50000000000011
 21
163.86059271512272
 31
0.0
  0
LINE
  8
0
  6
CONTINUOUS
 62
               4
  5
215
 10
688.50000000000011
 20
170.86059271512238
 30
0.0
 11
674.99999999999989
 21
180.86059271512238
 31
0.0
  0
ARC
  8
0
  6
CONTINUOUS
 62
               4
  5
216
 10
676.99999999999989
 20
159.278017020167
 30
0.0
 40
4.9999999999999991
 50
113.57817847813625
 51
179.9999999998962
  0
LINE
  8
0
  6
CONTINUOUS
 62
               4
  5
217
 10
688.50000000000011
 20
163.86059271512272
 30
0.0
 11
511.49999999999972
 21
163.86059271512272
 31
0.0
  0
LINE
  8
0
  6
CONTINUOUS
 62
               4
  5
218
 10
619.99999999999989
 20
163.86059271512272
 30
0.0
 11
619.99999999999989
 21
180.86059271512238
 31
0.0
  0
LINE
  8
0
  6
CONTINUOUS
 62
               4
  5
219
 10
579.99999999999989
 20
180.86059271512238
 30
0.0
 11
579.99999999999989
 21
163.86059271512272
 31
0.0
  0
LINE
  8
0
  6
CONTINUOUS
 62
               4
  5
21A
 10
619.99999999999989
 20
170.86059271512238
 30
0.0
 11
579.99999999999989
 21
170.86059271512238
 31
0.0
  0
LINE
  8
0
  6
CONTINUOUS
 62
               4
  5
21B
 10
672.28416147400469
 20
180.86059271512238
 30
0.0
 11
672.28416147400469
 21
163.86059271512272
 31
0.0
  0
LINE
  8
0
  6
CONTINUOUS
 62
               4
  5
21C
 10
686.21049820062524
 20
170.86059271512238
 30
0.0
 11
686.21049820062524
 21
163.86059271512272
 31
0.0
  0
LINE
  8
0
  6
CONTINUOUS
 62
               4
  5
21D
 10
688.50000000000011
 20
170.86059271512238
 30
0.0
 11
686.21049820062524
 21
170.86059271512238
 31
0.0
  0
LINE
  8
0
  6
CONTINUOUS
 62
               4
  5
21E
 10
686.21049820062524
 20
170.86059271512238
 30
0.0
 11
672.28416147400469
 21
180.86059271512238
 31
0.0
  0
LINE
  8
0
  6
CONTINUOUS
 62
               4
  5
21F
 10
511.49999999999972
 20
170.86059271512238
 30
0.0
 11
511.49999999999972
 21
163.86059271512272
 31
0.0
  0
LINE
  8
0
  6
CONTINUOUS
 62
               4
  5
220
 10
511.49999999999972
 20
170.86059271512238
 30
0.0
 11
524.99999999999989
 21
180.86059271512238
 31
0.0
  0
ARC
  8
0
  6
CONTINUOUS
 62
               4
  5
221
 10
523.00000000000011
 20
159.278017020167
 30
0.0
 40
4.9999999999999991
 50
0.0
 51
66.421821521759668
  0
LINE
  8
0
  6
CONTINUOUS
 62
               4
  5
222
 10
527.71583852599508
 20
180.86059271512238
 30
0.0
 11
527.71583852599508
 21
163.86059271512272
 31
0.0
  0
LINE
  8
0
  6
CONTINUOUS
 62
               4
  5
223
 10
513.78950179937476
 20
170.86059271512238
 30
0.0
 11
513.78950179937476
 21
163.86059271512272
 31
0.0
  0
LINE
  8
0
  6
CONTINUOUS
 62
               4
  5
224
 10
511.49999999999972
 20
170.86059271512238
 30
0.0
 11
513.78950179937476
 21
170.86059271512238
 31
0.0
  0
LINE
  8
0
  6
CONTINUOUS
 62
               4
  5
225
 10
513.78950179937476
 20
170.86059271512238
 30
0.0
 11
527.71583852599508
 21
180.86059271512238
 31
0.0
  0
LINE
  8
0
  6
CONTINUOUS
 62
               4
  5
226
 10
-674.99999999999989
 20
180.86059271512238
 30
0.0
 11
-525.00000000000034
 21
180.86059271512238
 31
0.0
  0
LINE
  8
0
  6
CONTINUOUS
 62
               4
  5
227
 10
-688.50000000000011
 20
170.86059271512238
 30
0.0
 11
-688.50000000000011
 21
163.86059271512272
 31
0.0
  0
LINE
  8
0
  6
CONTINUOUS
 62
               4
  5
228
 10
-688.50000000000011
 20
170.86059271512238
 30
0.0
 11
-674.99999999999989
 21
180.86059271512238
 31
0.0
  0
ARC
  8
0
  6
CONTINUOUS
 62
               4
  5
229
 10
-676.99999999999966
 20
159.278017020167
 30
0.0
 40
4.9999999999999991
 50
0.0
 51
66.421821521759668
  0
LINE
  8
0
  6
CONTINUOUS
 62
               4
  5
22A
 10
-688.50000000000011
 20
163.86059271512272
 30
0.0
 11
-511.50000000000017
 21
163.86059271512272
 31
0.0
  0
LINE
  8
0
  6
CONTINUOUS
 62
               4
  5
22B
 10
-619.99999999999989
 20
163.86059271512272
 30
0.0
 11
-619.99999999999989
 21
180.86059271512238
 31
0.0
  0
LINE
  8
0
  6
CONTINUOUS
 62
               4
  5
22C
 10
-580.00000000000034
 20
180.86059271512238
 30
0.0
 11
-580.00000000000034
 21
163.86059271512272
 31
0.0
  0
LINE
  8
0
  6
CONTINUOUS
 62
               4
  5
22D
 10
-619.99999999999989
 20
170.86059271512238
 30
0.0
 11
-580.00000000000034
 21
170.86059271512238
 31
0.0
  0
LINE
  8
0
  6
CONTINUOUS
 62
               4
  5
22E
 10
-672.28416147400401
 20
180.86059271512238
 30
0.0
 11
-672.28416147400401
 21
163.86059271512272
 31
0.0
  0
LINE
  8
0
  6
CONTINUOUS
 62
               4
  5
22F
 10
-686.21049820062501
 20
170.86059271512238
 30
0.0
 11
-686.21049820062501
 21
163.86059271512272
 31
0.0
  0
LINE
  8
0
  6
CONTINUOUS
 62
               4
  5
230
 10
-688.50000000000011
 20
170.86059271512238
 30
0.0
 11
-686.21049820062501
 21
170.86059271512238
 31
0.0
  0
LINE
  8
0
  6
CONTINUOUS
 62
               4
  5
231
 10
-686.21049820062501
 20
170.86059271512238
 30
0.0
 11
-672.28416147400401
 21
180.86059271512238
 31
0.0
  0
LINE
  8
0
  6
CONTINUOUS
 62
               4
  5
232
 10
-511.50000000000017
 20
170.86059271512238
 30
0.0
 11
-511.50000000000017
 21
163.86059271512272
 31
0.0
  0
LINE
  8
0
  6
CONTINUOUS
 62
               4
  5
233
 10
-511.50000000000017
 20
170.86059271512238
 30
0.0
 11
-525.00000000000034
 21
180.86059271512238
 31
0.0
  0
ARC
  8
0
  6
CONTINUOUS
 62
               4
  5
234
 10
-522.99999999999989
 20
159.278017020167
 30
0.0
 40
4.9999999999999991
 50
113.57817847813625
 51
179.9999999998962
  0
LINE
  8
0
  6
CONTINUOUS
 62
               4
  5
235
 10
-527.71583852599508
 20
180.86059271512238
 30
0.0
 11
-527.71583852599508
 21
163.86059271512272
 31
0.0
  0
LINE
  8
0
  6
CONTINUOUS
 62
               4
  5
236
 10
-513.78950179937453
 20
170.86059271512238
 30
0.0
 11
-513.78950179937453
 21
163.86059271512272
 31
0.0
  0
LINE
  8
0
  6
CONTINUOUS
 62
               4
  5
237
 10
-511.50000000000017
 20
170.86059271512238
 30
0.0
 11
-513.78950179937453
 21
170.86059271512238
 31
0.0
  0
LINE
  8
0
  6
CONTINUOUS
 62
               4
  5
238
 10
-513.78950179937453
 20
170.86059271512238
 30
0.0
 11
-527.71583852599508
 21
180.86059271512238
 31
0.0
  0
CIRCLE
  8
0
  6
CONTINUOUS
 62
               4
  5
239
 10
-0.0000000000000995
 20
615.86059271512238
 30
0.0
 40
59.0
  0
POINT
  8
0
  6
CONTINUOUS
 62
               4
  5
23A
 10
-247.03776905046874
 20
-1061.1807073697182
 30
0.0
  0
POINT
  8
0
  6
CONTINUOUS
 62
               4
  5
23B
 10
-537.23776905046861
 20
-1061.1807073697182
 30
0.0
  0
POINT
  8
0
  6
CONTINUOUS
 62
               4
  5
23C
 10
-349.58372644623529
 20
-953.11282330068343
 30
0.0
  0
POINT
  8
0
  6
CONTINUOUS
 62
               4
  5
23D
 10
242.83392368588096
 20
-1061.1807073697182
 30
0.0
  0
POINT
  8
0
  6
CONTINUOUS
 62
               4
  5
23E
 10
-1.0781087646049052
 20
-1061.1807073697182
 30
0.0
  0
POINT
  8
0
  6
CONTINUOUS
 62
               4
  5
23F
 10
165.37790746063814
 20
-973.22469114447563
 30
0.0
  0
LINE
  8
0
  6
CONTINUOUS
 62
               4
  5
240
 10
686.28652321630761
 20
-1452.9600517936587
 30
0.0
 11
681.28652321630761
 21
-1447.9600517936587
 31
0.0
  0
ARC
  8
0
  6
CONTINUOUS
 62
               4
  5
241
 10
663.78652321630761
 20
-1463.4957055465115
 30
0.0
 40
19.999999999999996
 50
0.0
 51
31.78833061703342
  0
LINE
  8
0
  6
CONTINUOUS
 62
               4
  5
242
 10
680.78652321630807
 20
-1452.9600517936587
 30
0.0
 11
680.78652321630807
 21
-1447.9600517936583
 31
0.0
  0
LINE
  8
0
  6
CONTINUOUS
 62
               4
  5
243
 10
681.28652321630761
 20
-1447.9600517936587
 30
0.0
 11
680.78652321630807
 21
-1447.9600517936587
 31
0.0
  0
LINE
  8
0
  6
CONTINUOUS
 62
               4
  5
244
 10
686.03652321630784
 20
-1453.2100517936587
 30
0.0
 11
680.78652321630807
 21
-1447.9600517936587
 31
0.0
  0
LINE
  8
0
  6
CONTINUOUS
 62
               4
  5
245
 10
686.03652321630784
 20
-1453.2100517936587
 30
0.0
 11
686.28652321630761
 21
-1452.9600517936587
 31
0.0
  0
LINE
  8
0
  6
CONTINUOUS
 62
               4
  5
246
 10
686.28652321630761
 20
-1452.9600517936587
 30
0.0
 11
686.28652321630761
 21
-1583.6487291436288
 31
0.0
  0
LINE
  8
0
  6
CONTINUOUS
 62
               4
  5
247
 10
686.03652321630784
 20
-1453.2100517936587
 30
0.0
 11
686.03652321630784
 21
-1583.3633720364933
 31
0.0
  0
LINE
  8
0
  6
CONTINUOUS
 62
               4
  5
248
 10
683.78652321630761
 20
-1463.3426819493943
 30
0.0
 11
683.78652321630761
 21
-1582.4957055465115
 31
0.0
  0
POINT
  8
0
  6
CONTINUOUS
 62
               4
  5
249
 10
653.78652321630784
 20
-1192.3962717979275
 30
0.0
  0
POINT
  8
0
  6
CONTINUOUS
 62
               4
  5
24A
 10
464.88652321630781
 20
-1477.9957055465115
 30
0.0
  0
POINT
  8
0
  6
CONTINUOUS
 62
               4
  5
24B
 10
464.88652321630792
 20
-1092.496271797927
 30
0.0
  0
LINE
  8
0
  6
DASHDOT
 62
               4
  5
24C
 10
-0.0000000000001101
 20
724.36059271512238
 30
0.0
 11
-0.0000000000001946
 21
503.79809817030252
 31
0.0
  0
LINE
  8
0
  6
DASHDOT
 62
               4
  5
24D
 10
-162.0
 20
615.86059271512238
 30
0.0
 11
108.50000000000011
 21
615.86059271512238
 31
0.0
  0
LINE
  8
0
  6
DASHDOT
 62
               4
  5
24E
 10
-162.0
 20
14.86059271512238
 30
0.0
 11
-61.999999999999986
 21
14.86059271512238
 31
0.0
  0
LINE
  8
0
  6
DASHDOT
 62
               4
  5
24F
 10
-0.0000000000001137
 20
200.86059271512238
 30
0.0
 11
-0.0000000000001137
 21
-724.36059271512238
 31
0.0
  0
LINE
  8
0
  6
DASHDOT
 62
               4
  5
250
 10
-531.47477522477595
 20
14.86059271512238
 30
0.0
 11
-668.17557442557529
 21
14.86059271512238
 31
0.0
  0
LINE
  8
0
  6
DASHDOT
 62
               4
  5
251
 10
-125.00000000000067
 20
-363.14930528687228
 30
0.0
 11
-125.00000000000067
 21
-527.5276669063627
 31
0.0
  0
LINE
  8
0
  6
DASHDOT
 62
               4
  5
252
 10
124.9999999999993
 20
-363.14930528687228
 30
0.0
 11
124.9999999999993
 21
-527.5276669063627
 31
0.0
  0
LINE
  8
0
  6
DASHDOT
 62
               4
  5
253
 10
599.99999999999989
 20
200.86059271512238
 30
0.0
 11
599.99999999999989
 21
-724.36059271512238
 31
0.0
  0
LINE
  8
0
  6
DASHDOT
 62
               4
  5
254
 10
-600.00000000000011
 20
200.86059271512238
 30
0.0
 11
-600.00000000000011
 21
-724.36059271512238
 31
0.0
  0
LINE
  8
0
  6
DASHDOT
 62
               4
  5
255
 10
-392.13776905046876
 20
-1170.1807073697182
 30
0.0
 11
-392.13776905046865
 21
-1041.1807073697184
 31
0.0
  0
LINE
  8
0
  6
DASHDOT
 62
               4
  5
256
 10
-450.13776905046871
 20
-1112.1807073697182
 30
0.0
 11
-334.13776905046876
 21
-1112.1807073697182
 31
0.0
  0
LINE
  8
0
  6
DASHDOT
 62
               4
  5
257
 10
-461.94094753457625
 20
-1105.6807073697182
 30
0.0
 11
-327.63776905046876
 21
-1105.6807073697182
 31
0.0
  0
LINE
  8
0
  6
DASHDOT
 62
               4
  5
258
 10
-268.23776905046867
 20
-1105.6807073697182
 30
0.0
 11
-169.63776905046876
 21
-1105.6807073697182
 31
0.0
  0
LINE
  8
0
  6
DASHDOT
 62
               4
  5
259
 10
-302.63776905046876
 20
-1112.1807073697182
 30
0.0
 11
-228.23776905046878
 21
-1112.1807073697182
 31
0.0
  0
LINE
  8
0
  6
DASHDOT
 62
               4
  5
25A
 10
-516.03776905046857
 20
-1105.6807073697182
 30
0.0
 11
-614.63776905046871
 21
-1105.6807073697178
 31
0.0
  0
LINE
  8
0
  6
DASHDOT
 62
               4
  5
25B
 10
-481.63776905046871
 20
-1112.1807073697182
 30
0.0
 11
-556.03776905046857
 21
-1112.1807073697182
 31
0.0
  0
LINE
  8
0
  6
DASHDOT
 62
               4
  5
25C
 10
-394.08372644623529
 20
-1008.7128233006833
 30
0.0
 11
-394.08372644623529
 21
-875.71282330068334
 31
0.0
  0
LINE
  8
0
  6
DASHDOT
 62
               4
  5
25D
 10
221.63392368588092
 20
-1105.6807073697182
 30
0.0
 11
320.23392368588105
 21
-1105.6807073697182
 31
0.0
  0
LINE
  8
0
  6
DASHDOT
 62
               4
  5
25E
 10
196.63392368588092
 20
-1120.1807073697182
 30
0.0
 11
261.63392368588092
 21
-1120.1807073697182
 31
0.0
  0
LINE
  8
0
  6
DASHDOT
 62
               4
  5
25F
 10
70.877907460637914
 20
-1120.1807073697182
 30
0.0
 11
170.87790746063814
 21
-1120.1807073697182
 31
0.0
  0
LINE
  8
0
  6
DASHDOT
 62
               4
  5
260
 10
120.87790746063791
 20
-1170.1807073697182
 30
0.0
 11
120.87790746063814
 21
-1041.1807073697184
 31
0.0
  0
LINE
  8
0
  6
DASHDOT
 62
               4
  5
261
 10
56.377907460637914
 20
-1105.6807073697182
 30
0.0
 11
190.92191724058915
 21
-1105.6807073697182
 31
0.0
  0
LINE
  8
0
  6
DASHDOT
 62
               4
  5
262
 10
20.12189123539514
 20
-1105.6807073697182
 30
0.0
 11
-78.478108764604883
 21
-1105.6807073697182
 31
0.0
  0
LINE
  8
0
  6
DASHDOT
 62
               4
  5
263
 10
45.12189123539514
 20
-1120.1807073697182
 30
0.0
 11
-19.87810876460486
 21
-1120.1807073697182
 31
0.0
  0
LINE
  8
0
  6
DASHDOT
 62
               4
  5
264
 10
120.87790746063814
 20
-1019.4246911444757
 30
0.0
 11
120.87790746063814
 21
-895.82469114447554
 31
0.0
  0
LINE
  8
0
  6
DASHDOT
 62
               4
  5
265
 10
609.28652321630784
 20
-939.49627179792742
 30
0.0
 11
609.28652321630784
 21
-1210.0430585977538
 31
0.0
  0
LINE
  8
0
  6
DASHDOT
 62
               4
  5
266
 10
447.2865232163079
 20
-1047.9962717979274
 30
0.0
 11
717.78652321630807
 21
-1047.9962717979274
 31
0.0
  0
LINE
  8
0
  6
DASHDOT
 62
               4
  5
267
 10
677.81174799153246
 20
-1522.4957055465115
 30
0.0
 11
447.55790992287956
 21
-1522.4957055465115
 31
0.0
  0
LINE
  8
0
  6
DASHDOT
 62
               4
  5
268
 10
609.28652321630784
 20
-1336.4957055465115
 30
0.0
 11
609.28652321630784
 21
-1587.4957055465115
 31
0.0
  0
LINE
  8
0
  6
DASHDOT
 62
               4
  5
269
 10
559.28652321630784
 20
-1536.9957055465115
 30
0.0
 11
659.28652321630807
 21
-1536.9957055465115
 31
0.0
  0
LINE
  8
0
  6
DASHDOT
 62
               4
  5
26A
 10
609.28652321630784
 20
-1238.5962717979273
 30
0.0
 11
609.28652321630784
 21
-1114.996271797927
 31
0.0
  0
LINE
  8
0
  6
DASHDOT
 62
               4
  5
26B
 10
409.28652321630778
 20
-1528.9957055465115
 30
0.0
 11
483.68652321630776
 21
-1528.9957055465115
 31
0.0
  0
LINE
  8
0
  6
DASHDOT
 62
               4
  5
26C
 10
409.28652321630801
 20
-1047.9962717979272
 30
0.0
 11
542.28652321630807
 21
-1047.9962717979272
 31
0.0
  0
LINE
  8
0
  6
DASHED2
 62
               4
  5
26D
 10
-57.0
 20
115.86059271512238
 30
0.0
 11
56.999999999999766
 21
115.86059271512238
 31
0.0
  0
LINE
  8
0
  6
DASHED2
 62
               4
  5
26E
 10
-657.00000000000057
 20
115.86059271512238
 30
0.0
 11
-543.0000000000008
 21
115.86059271512238
 31
0.0
  0
LINE
  8
0
  6
DASHED2
 62
               4
  5
26F
 10
543.0
 20
115.86059271512238
 30
0.0
 11
656.99999999999989
 21
115.86059271512238
 31
0.0
  0
LINE
  8
0
  6
DASHED2
 62
               4
  5
270
 10
593.99999999999989
 20
-355.29243088199729
 30
0.0
 11
593.99999999999989
 21
-460.7560103579259
 31
0.0
  0
LINE
  8
0
  6
DASHED2
 62
               4
  5
271
 10
605.99999999999989
 20
-355.29243088199729
 30
0.0
 11
605.99999999999989
 21
-460.7560103579259
 31
0.0
  0
LINE
  8
0
  6
DASHED2
 62
               4
  5
272
 10
605.99999999999989
 20
-355.29243088199729
 30
0.0
 11
593.99999999999989
 21
-355.29243088199729
 31
0.0
  0
LINE
  8
0
  6
DASHED2
 62
               4
  5
273
 10
56.999999999999787
 20
-384.13940728487762
 30
0.0
 11
56.999999999999787
 21
-484.13940728487762
 31
0.0
  0
LINE
  8
0
  6
DASHED2
 62
               4
  5
274
 10
-57.132845554131066
 20
-384.13940728487762
 30
0.0
 11
-57.132845554131066
 21
-484.23783503032882
 31
0.0
  0
LINE
  8
0
  6
DASHED2
 62
               4
  5
275
 10
-57.132845554131066
 20
-384.13940728487762
 30
0.0
 11
56.999999999999787
 21
-384.13940728487762
 31
0.0
  0
LINE
  8
0
  6
DASHED2
 62
               4
  5
276
 10
56.999999999999787
 20
-384.13940728487762
 30
0.0
 11
58.000000000000014
 21
-383.13940728487739
 31
0.0
  0
LINE
  8
0
  6
DASHED2
 62
               4
  5
277
 10
-57.132845554131066
 20
-384.13940728487762
 30
0.0
 11
-58.000000000000213
 21
-383.27225283900844
 31
0.0
  0
LINE
  8
0
  6
DASHED2
 62
               4
  5
278
 10
58.000000000000014
 20
-383.13940728487739
 30
0.0
 11
58.000000000000014
 21
-372.13940728487785
 31
0.0
  0
LINE
  8
0
  6
DASHED2
 62
               4
  5
279
 10
-58.000000000000213
 20
-383.27225283900844
 30
0.0
 11
-58.000000000000213
 21
-372.1394072848779
 31
0.0
  0
LINE
  8
0
  6
DASHED2
 62
               4
  5
27A
 10
-57.500000000003084
 20
-499.13940728487876
 30
0.0
 11
-57.500000000003084
 21
-564.13940728487648
 31
0.0
  0
LINE
  8
0
  6
DASHED2
 62
               4
  5
27B
 10
-0.0000000000000995
 20
-484.13940728487762
 30
0.0
 11
-57.00000000000027
 21
-484.13940728487762
 31
0.0
  0
LINE
  8
0
  6
DASHED2
 62
               4
  5
27C
 10
-57.500000000003084
 20
-499.13940728487876
 30
0.0
 11
-0.0000000000012364
 21
-499.13940728487762
 31
0.0
  0
LINE
  8
0
  6
DASHED2
 62
               4
  5
27D
 10
-0.0000000000000995
 20
-484.13940728487762
 30
0.0
 11
56.999999999999787
 21
-484.13940728487762
 31
0.0
  0
LINE
  8
0
  6
DASHED2
 62
               4
  5
27E
 10
57.500000000001606
 20
-499.13940728487876
 30
0.0
 11
-0.0000000000000995
 21
-499.13940728487762
 31
0.0
  0
LINE
  8
0
  6
DASHED2
 62
               4
  5
27F
 10
57.500000000001606
 20
-499.13940728487876
 30
0.0
 11
57.500000000001606
 21
-564.13940728487648
 31
0.0
  0
LINE
  8
0
  6
DASHED2
 62
               4
  5
280
 10
-136.76000000000084
 20
-484.13940728487717
 30
0.0
 11
-136.76000000000084
 21
-475.61327878556995
 31
0.0
  0
LINE
  8
0
  6
DASHED2
 62
               4
  5
281
 10
-130.87102725426644
 20
-475.61327878556995
 30
0.0
 11
-130.87102725426644
 21
-484.13940728487717
 31
0.0
  0
LINE
  8
0
  6
DASHED2
 62
               4
  5
282
 10
-133.8155136271335
 20
-474.53940728487703
 30
0.0
 11
-116.18448637286757
 21
-474.53940728487703
 31
0.0
  0
LINE
  8
0
  6
DASHED2
 62
               4
  5
283
 10
-113.24000000000051
 20
-484.13940728487717
 30
0.0
 11
-113.24000000000051
 21
-475.61327878556995
 31
0.0
  0
LINE
  8
0
  6
DASHED2
 62
               4
  5
284
 10
-119.1289727457352
 20
-484.13940728487717
 30
0.0
 11
-119.1289727457352
 21
-475.61327878556995
 31
0.0
  0
ARC
  8
0
  6
DASHED2
 62
               4
  5
285
 10
-133.8155136271335
 20
-479.11313886899302
 30
0.0
 40
4.5737315841157447
 50
49.925579661603017
 51
130.07442033832811
  0
ARC
  8
0
  6
DASHED2
 62
               4
  5
286
 10
-116.18448637286757
 20
-479.11313886899302
 30
0.0
 40
4.5737315841157686
 50
49.925579661602882
 51
130.07442033832825
  0
ARC
  8
0
  6
DASHED2
 62
               4
  5
287
 10
-125.00000000000067
 20
-491.12526555439752
 30
0.0
 40
16.58585826952007
 50
69.269184858534331
 51
110.73081514139702
  0
LINE
  8
0
  6
DASHED2
 62
               4
  5
288
 10
-136.76000000000226
 20
-486.13940728487751
 30
0.0
 11
-136.76000000000226
 21
-494.66553578418473
 31
0.0
  0
LINE
  8
0
  6
DASHED2
 62
               4
  5
289
 10
-130.87102725426786
 20
-494.66553578418473
 30
0.0
 11
-130.87102725426786
 21
-486.13940728487751
 31
0.0
  0
LINE
  8
0
  6
DASHED2
 62
               4
  5
28A
 10
-133.81551362713492
 20
-495.7394072848773
 30
0.0
 11
-116.18448637286927
 21
-495.7394072848773
 31
0.0
  0
LINE
  8
0
  6
DASHED2
 62
               4
  5
28B
 10
-113.24000000000193
 20
-486.13940728487751
 30
0.0
 11
-113.24000000000193
 21
-494.66553578418473
 31
0.0
  0
LINE
  8
0
  6
DASHED2
 62
               4
  5
28C
 10
-119.12897274573633
 20
-486.13940728487751
 30
0.0
 11
-119.12897274573633
 21
-494.66553578418473
 31
0.0
  0
ARC
  8
0
  6
DASHED2
 62
               4
  5
28D
 10
-133.81551362713492
 20
-491.16567570076188
 30
0.0
 40
4.5737315841157447
 50
229.92557966153416
 51
310.07442033826044
  0
ARC
  8
0
  6
DASHED2
 62
               4
  5
28E
 10
-116.18448637286927
 20
-491.16567570076188
 30
0.0
 40
4.5737315841157686
 50
229.92557966153441
 51
310.07442033826067
  0
ARC
  8
0
  6
DASHED2
 62
               4
  5
28F
 10
-125.00000000000209
 20
-479.15354901535738
 30
0.0
 40
16.58585826952007
 50
249.26918485846545
 51
290.73081514132792
  0
LINE
  8
0
  6
DASHED2
 62
               4
  5
290
 10
-131.00000000000063
 20
-495.7394072848773
 30
0.0
 11
-131.00000000000063
 21
-506.25877352720192
 31
0.0
  0
LINE
  8
0
  6
DASHED2
 62
               4
  5
291
 10
-119.00000000000072
 20
-495.7394072848773
 30
0.0
 11
-119.00000000000072
 21
-506.25877352720192
 31
0.0
  0
LINE
  8
0
  6
DASHED2
 62
               4
  5
292
 10
-129.80000000000086
 20
-507.45877352720231
 30
0.0
 11
-120.20000000000077
 21
-507.45877352720231
 31
0.0
  0
LINE
  8
0
  6
DASHED2
 62
               4
  5
293
 10
-131.00000000000063
 20
-506.25877352720192
 30
0.0
 11
-129.80000000000086
 21
-507.45877352720231
 31
0.0
  0
LINE
  8
0
  6
DASHED2
 62
               4
  5
294
 10
-119.00000000000072
 20
-506.25877352720192
 30
0.0
 11
-120.20000000000077
 21
-507.45877352720231
 31
0.0
  0
LINE
  8
0
  6
DASHED2
 62
               4
  5
295
 10
-136.76000000000084
 20
-484.13940728487717
 30
0.0
 11
-113.24000000000051
 21
-484.13940728487717
 31
0.0
  0
LINE
  8
0
  6
DASHED2
 62
               4
  5
296
 10
-113.24000000000193
 20
-486.13940728487751
 30
0.0
 11
-136.76000000000226
 21
-486.13940728487751
 31
0.0
  0
LINE
  8
0
  6
DASHED2
 62
               4
  5
297
 10
-131.00000000000063
 20
-369.07582780894836
 30
0.0
 11
-131.00000000000063
 21
-474.53940728487703
 31
0.0
  0
LINE
  8
0
  6
DASHED2
 62
               4
  5
298
 10
-119.00000000000072
 20
-369.07582780894836
 30
0.0
 11
-119.00000000000072
 21
-474.53940728487703
 31
0.0
  0
LINE
  8
0
  6
DASHED2
 62
               4
  5
299
 10
-119.00000000000072
 20
-369.07582780894836
 30
0.0
 11
-131.00000000000063
 21
-369.07582780894836
 31
0.0
  0
LINE
  8
0
  6
DASHED2
 62
               4
  5
29A
 10
136.75999999999948
 20
-484.13940728487717
 30
0.0
 11
136.75999999999948
 21
-475.61327878556995
 31
0.0
  0
LINE
  8
0
  6
DASHED2
 62
               4
  5
29B
 10
130.87102725426507
 20
-475.61327878556995
 30
0.0
 11
130.87102725426507
 21
-484.13940728487717
 31
0.0
  0
LINE
  8
0
  6
DASHED2
 62
               4
  5
29C
 10
133.81551362713213
 20
-474.53940728487703
 30
0.0
 11
116.1844863728662
 21
-474.53940728487703
 31
0.0
  0
LINE
  8
0
  6
DASHED2
 62
               4
  5
29D
 10
113.23999999999914
 20
-484.13940728487717
 30
0.0
 11
113.23999999999914
 21
-475.61327878556995
 31
0.0
  0
LINE
  8
0
  6
DASHED2
 62
               4
  5
29E
 10
119.12897274573383
 20
-484.13940728487717
 30
0.0
 11
119.12897274573383
 21
-475.61327878556995
 31
0.0
  0
ARC
  8
0
  6
DASHED2
 62
               4
  5
29F
 10
133.81551362713213
 20
-479.11313886899302
 30
0.0
 40
4.5737315841157447
 50
49.925579661636654
 51
130.0744203383627
  0
ARC
  8
0
  6
DASHED2
 62
               4
  5
2A0
 10
116.1844863728662
 20
-479.11313886899302
 30
0.0
 40
4.5737315841157686
 50
49.925579661636526
 51
130.07442033836281
  0
ARC
  8
0
  6
DASHED2
 62
               4
  5
2A1
 10
124.9999999999993
 20
-491.12526555439752
 30
0.0
 40
16.58585826952007
 50
69.269184858568167
 51
110.7308151414309
  0
LINE
  8
0
  6
DASHED2
 62
               4
  5
2A2
 10
136.7600000000009
 20
-486.13940728487751
 30
0.0
 11
136.7600000000009
 21
-494.66553578418473
 31
0.0
  0
LINE
  8
0
  6
DASHED2
 62
               4
  5
2A3
 10
130.87102725426649
 20
-494.66553578418473
 30
0.0
 11
130.87102725426649
 21
-486.13940728487751
 31
0.0
  0
LINE
  8
0
  6
DASHED2
 62
               4
  5
2A4
 10
133.81551362713356
 20
-495.7394072848773
 30
0.0
 11
116.18448637286791
 21
-495.7394072848773
 31
0.0
  0
LINE
  8
0
  6
DASHED2
 62
               4
  5
2A5
 10
113.24000000000056
 20
-486.13940728487751
 30
0.0
 11
113.24000000000056
 21
-494.66553578418473
 31
0.0
  0
LINE
  8
0
  6
DASHED2
 62
               4
  5
2A6
 10
119.12897274573497
 20
-486.13940728487751
 30
0.0
 11
119.12897274573497
 21
-494.66553578418473
 31
0.0
  0
ARC
  8
0
  6
DASHED2
 62
               4
  5
2A7
 10
133.81551362713356
 20
-491.16567570076188
 30
0.0
 40
4.5737315841157447
 50
229.92557966163571
 51
310.07442033836202
  0
ARC
  8
0
  6
DASHED2
 62
               4
  5
2A8
 10
116.18448637286791
 20
-491.16567570076188
 30
0.0
 40
4.5737315841157686
 50
229.92557966163542
 51
310.07442033836094
  0
ARC
  8
0
  6
DASHED2
 62
               4
  5
2A9
 10
125.00000000000072
 20
-479.15354901535738
 30
0.0
 40
16.58585826952007
 50
249.26918485856768
 51
290.73081514143013
  0
LINE
  8
0
  6
DASHED2
 62
               4
  5
2AA
 10
130.99999999999926
 20
-495.7394072848773
 30
0.0
 11
130.99999999999926
 21
-506.25877352720192
 31
0.0
  0
LINE
  8
0
  6
DASHED2
 62
               4
  5
2AB
 10
118.99999999999936
 20
-495.7394072848773
 30
0.0
 11
118.99999999999936
 21
-506.25877352720192
 31
0.0
  0
LINE
  8
0
  6
DASHED2
 62
               4
  5
2AC
 10
129.7999999999995
 20
-507.45877352720231
 30
0.0
 11
120.19999999999941
 21
-507.45877352720231
 31
0.0
  0
LINE
  8
0
  6
DASHED2
 62
               4
  5
2AD
 10
130.99999999999926
 20
-506.25877352720192
 30
0.0
 11
129.7999999999995
 21
-507.45877352720231
 31
0.0
  0
LINE
  8
0
  6
DASHED2
 62
               4
  5
2AE
 10
118.99999999999936
 20
-506.25877352720192
 30
0.0
 11
120.19999999999941
 21
-507.45877352720231
 31
0.0
  0
LINE
  8
0
  6
DASHED2
 62
               4
  5
2AF
 10
136.75999999999948
 20
-484.13940728487717
 30
0.0
 11
113.23999999999914
 21
-484.13940728487717
 31
0.0
  0
LINE
  8
0
  6
DASHED2
 62
               4
  5
2B0
 10
113.24000000000056
 20
-486.13940728487751
 30
0.0
 11
136.7600000000009
 21
-486.13940728487751
 31
0.0
  0
LINE
  8
0
  6
DASHED2
 62
               4
  5
2B1
 10
130.99999999999926
 20
-369.07582780894836
 30
0.0
 11
130.99999999999926
 21
-474.53940728487703
 31
0.0
  0
LINE
  8
0
  6
DASHED2
 62
               4
  5
2B2
 10
118.99999999999936
 20
-369.07582780894836
 30
0.0
 11
118.99999999999936
 21
-474.53940728487703
 31
0.0
  0
LINE
  8
0
  6
DASHED2
 62
               4
  5
2B3
 10
118.99999999999936
 20
-369.07582780894836
 30
0.0
 11
130.99999999999926
 21
-369.07582780894836
 31
0.0
  0
LINE
  8
0
  6
DASHED2
 62
               4
  5
2B4
 10
543.0000000000008
 20
-384.21496875454966
 30
0.0
 11
543.0000000000008
 21
-484.13940728487762
 31
0.0
  0
LINE
  8
0
  6
DASHED2
 62
               4
  5
2B5
 10
542.49999999999739
 20
-499.13940728487876
 30
0.0
 11
542.49999999999739
 21
-564.13940728487648
 31
0.0
  0
LINE
  8
0
  6
DASHED2
 62
               4
  5
2B6
 10
600.00000000000045
 20
-484.13940728487762
 30
0.0
 11
543.00000000000023
 21
-484.13940728487762
 31
0.0
  0
LINE
  8
0
  6
DASHED2
 62
               4
  5
2B7
 10
542.49999999999739
 20
-499.13940728487876
 30
0.0
 11
599.99999999999932
 21
-499.13940728487762
 31
0.0
  0
LINE
  8
0
  6
DASHED2
 62
               4
  5
2B8
 10
656.99999999999977
 20
-384.21496875454966
 30
0.0
 11
657.0
 21
-484.13940728487762
 31
0.0
  0
LINE
  8
0
  6
DASHED2
 62
               4
  5
2B9
 10
600.00000000000045
 20
-484.13940728487762
 30
0.0
 11
657.00000000000023
 21
-484.13940728487762
 31
0.0
  0
LINE
  8
0
  6
DASHED2
 62
               4
  5
2BA
 10
657.50000000000205
 20
-499.13940728487876
 30
0.0
 11
600.00000000000045
 21
-499.13940728487762
 31
0.0
  0
LINE
  8
0
  6
DASHED2
 62
               4
  5
2BB
 10
657.50000000000205
 20
-499.13940728487876
 30
0.0
 11
657.50000000000205
 21
-564.13940728487648
 31
0.0
  0
LINE
  8
0
  6
DASHED2
 62
               4
  5
2BC
 10
588.23999999999955
 20
-484.13940728487762
 30
0.0
 11
588.23999999999955
 21
-475.61327878557051
 31
0.0
  0
LINE
  8
0
  6
DASHED2
 62
               4
  5
2BD
 10
594.12897274573402
 20
-475.61327878557051
 30
0.0
 11
594.12897274573402
 21
-484.13940728487762
 31
0.0
  0
LINE
  8
0
  6
DASHED2
 62
               4
  5
2BE
 10
591.18448637286701
 20
-474.53940728487748
 30
0.0
 11
608.81551362713299
 21
-474.53940728487748
 31
0.0
  0
LINE
  8
0
  6
DASHED2
 62
               4
  5
2BF
 10
611.75999999999999
 20
-484.13940728487762
 30
0.0
 11
611.75999999999999
 21
-475.61327878557051
 31
0.0
  0
LINE
  8
0
  6
DASHED2
 62
               4
  5
2C0
 10
605.8710272542653
 20
-484.13940728487762
 30
0.0
 11
605.8710272542653
 21
-475.61327878557051
 31
0.0
  0
ARC
  8
0
  6
DASHED2
 62
               4
  5
2C1
 10
591.18448637286701
 20
-479.11313886899359
 30
0.0
 40
4.5737315841157447
 50
49.925579661602747
 51
130.07442033832811
  0
ARC
  8
0
  6
DASHED2
 62
               4
  5
2C2
 10
608.81551362713299
 20
-479.11313886899359
 30
0.0
 40
4.5737315841157686
 50
49.925579661602747
 51
130.07442033832811
  0
ARC
  8
0
  6
DASHED2
 62
               4
  5
2C3
 10
599.99999999999977
 20
-491.12526555439797
 30
0.0
 40
16.58585826952007
 50
69.269184858534246
 51
110.73081514139687
  0
LINE
  8
0
  6
DASHED2
 62
               4
  5
2C4
 10
588.23999999999819
 20
-486.13940728487808
 30
0.0
 11
588.23999999999819
 21
-494.66553578418518
 31
0.0
  0
LINE
  8
0
  6
DASHED2
 62
               4
  5
2C5
 10
594.12897274573265
 20
-494.66553578418518
 30
0.0
 11
594.12897274573265
 21
-486.13940728487808
 31
0.0
  0
LINE
  8
0
  6
DASHED2
 62
               4
  5
2C6
 10
591.18448637286565
 20
-495.73940728487776
 30
0.0
 11
608.81551362713117
 21
-495.73940728487776
 31
0.0
  0
LINE
  8
0
  6
DASHED2
 62
               4
  5
2C7
 10
611.75999999999863
 20
-486.13940728487808
 30
0.0
 11
611.75999999999863
 21
-494.66553578418518
 31
0.0
  0
LINE
  8
0
  6
DASHED2
 62
               4
  5
2C8
 10
605.87102725426416
 20
-486.13940728487808
 30
0.0
 11
605.87102725426416
 21
-494.66553578418518
 31
0.0
  0
ARC
  8
0
  6
DASHED2
 62
               4
  5
2C9
 10
591.18448637286565
 20
-491.16567570076234
 30
0.0
 40
4.5737315841157447
 50
229.92557966153464
 51
310.07442033826101
  0
ARC
  8
0
  6
DASHED2
 62
               4
  5
2CA
 10
608.81551362713117
 20
-491.16567570076234
 30
0.0
 40
4.5737315841157686
 50
229.92557966153464
 51
310.07442033826101
  0
ARC
  8
0
  6
DASHED2
 62
               4
  5
2CB
 10
599.99999999999841
 20
-479.15354901535795
 30
0.0
 40
16.58585826952007
 50
249.26918485846551
 51
290.73081514132798
  0
LINE
  8
0
  6
DASHED2
 62
               4
  5
2CC
 10
593.99999999999977
 20
-495.73940728487776
 30
0.0
 11
593.99999999999977
 21
-506.25877352720238
 31
0.0
  0
LINE
  8
0
  6
DASHED2
 62
               4
  5
2CD
 10
605.99999999999977
 20
-495.73940728487776
 30
0.0
 11
605.99999999999977
 21
-506.25877352720238
 31
0.0
  0
LINE
  8
0
  6
DASHED2
 62
               4
  5
2CE
 10
595.19999999999959
 20
-507.45877352720288
 30
0.0
 11
604.79999999999973
 21
-507.45877352720288
 31
0.0
  0
LINE
  8
0
  6
DASHED2
 62
               4
  5
2CF
 10
593.99999999999977
 20
-506.25877352720238
 30
0.0
 11
595.19999999999959
 21
-507.45877352720288
 31
0.0
  0
LINE
  8
0
  6
DASHED2
 62
               4
  5
2D0
 10
605.99999999999977
 20
-506.25877352720238
 30
0.0
 11
604.79999999999973
 21
-507.45877352720288
 31
0.0
  0
LINE
  8
0
  6
DASHED2
 62
               4
  5
2D1
 10
588.23999999999955
 20
-484.13940728487762
 30
0.0
 11
611.75999999999999
 21
-484.13940728487762
 31
0.0
  0
LINE
  8
0
  6
DASHED2
 62
               4
  5
2D2
 10
611.75999999999863
 20
-486.13940728487808
 30
0.0
 11
588.23999999999819
 21
-486.13940728487808
 31
0.0
  0
LINE
  8
0
  6
DASHED2
 62
               4
  5
2D3
 10
542.86715444586889
 20
-384.21496875454966
 30
0.0
 11
656.99999999999977
 21
-384.21496875454966
 31
0.0
  0
LINE
  8
0
  6
DASHED2
 62
               4
  5
2D4
 10
656.99999999999977
 20
-384.21496875454966
 30
0.0
 11
658.0
 21
-383.21496875454943
 31
0.0
  0
LINE
  8
0
  6
DASHED2
 62
               4
  5
2D5
 10
542.86715444586889
 20
-384.21496875454966
 30
0.0
 11
541.99999999999966
 21
-383.34781430868048
 31
0.0
  0
LINE
  8
0
  6
DASHED2
 62
               4
  5
2D6
 10
593.99999999999977
 20
-369.07582780894887
 30
0.0
 11
593.99999999999977
 21
-474.53940728487748
 31
0.0
  0
LINE
  8
0
  6
DASHED2
 62
               4
  5
2D7
 10
605.99999999999977
 20
-369.07582780894887
 30
0.0
 11
605.99999999999977
 21
-474.53940728487748
 31
0.0
  0
LINE
  8
0
  6
DASHED2
 62
               4
  5
2D8
 10
-656.9999999999992
 20
-384.13940728487762
 30
0.0
 11
-656.9999999999992
 21
-484.06384581520558
 31
0.0
  0
LINE
  8
0
  6
DASHED2
 62
               4
  5
2D9
 10
-657.5000000000025
 20
-499.06384581520672
 30
0.0
 11
-657.5000000000025
 21
-564.06384581520444
 31
0.0
  0
LINE
  8
0
  6
DASHED2
 62
               4
  5
2DA
 10
-599.99999999999955
 20
-484.06384581520558
 30
0.0
 11
-656.99999999999966
 21
-484.06384581520558
 31
0.0
  0
LINE
  8
0
  6
DASHED2
 62
               4
  5
2DB
 10
-657.5000000000025
 20
-499.06384581520672
 30
0.0
 11
-600.00000000000068
 21
-499.06384581520558
 31
0.0
  0
LINE
  8
0
  6
DASHED2
 62
               4
  5
2DC
 10
-543.00000000000023
 20
-384.13940728487762
 30
0.0
 11
-542.99999999999989
 21
-484.06384581520558
 31
0.0
  0
LINE
  8
0
  6
DASHED2
 62
               4
  5
2DD
 10
-599.99999999999955
 20
-484.06384581520558
 30
0.0
 11
-542.99999999999966
 21
-484.06384581520558
 31
0.0
  0
LINE
  8
0
  6
DASHED2
 62
               4
  5
2DE
 10
-542.49999999999784
 20
-499.06384581520672
 30
0.0
 11
-599.99999999999955
 21
-499.06384581520558
 31
0.0
  0
LINE
  8
0
  6
DASHED2
 62
               4
  5
2DF
 10
-542.49999999999784
 20
-499.06384581520672
 30
0.0
 11
-542.49999999999784
 21
-564.06384581520444
 31
0.0
  0
LINE
  8
0
  6
DASHED2
 62
               4
  5
2E0
 10
-611.76000000000033
 20
-484.06384581520558
 30
0.0
 11
-611.76000000000033
 21
-475.53771731589848
 31
0.0
  0
LINE
  8
0
  6
DASHED2
 62
               4
  5
2E1
 10
-605.87102725426587
 20
-475.53771731589848
 30
0.0
 11
-605.87102725426587
 21
-484.06384581520558
 31
0.0
  0
LINE
  8
0
  6
DASHED2
 62
               4
  5
2E2
 10
-608.81551362713299
 20
-474.46384581520545
 30
0.0
 11
-591.18448637286701
 21
-474.46384581520545
 31
0.0
  0
LINE
  8
0
  6
DASHED2
 62
               4
  5
2E3
 10
-588.24000000000001
 20
-484.06384581520558
 30
0.0
 11
-588.24000000000001
 21
-475.53771731589848
 31
0.0
  0
LINE
  8
0
  6
DASHED2
 62
               4
  5
2E4
 10
-594.1289727457347
 20
-484.06384581520558
 30
0.0
 11
-594.1289727457347
 21
-475.53771731589848
 31
0.0
  0
ARC
  8
0
  6
DASHED2
 62
               4
  5
2E5
 10
-608.81551362713299
 20
-479.03757739932155
 30
0.0
 40
4.5737315841157447
 50
49.925579661602747
 51
130.07442033832811
  0
ARC
  8
0
  6
DASHED2
 62
               4
  5
2E6
 10
-591.18448637286701
 20
-479.03757739932155
 30
0.0
 40
4.5737315841157686
 50
49.925579661602747
 51
130.07442033832811
  0
ARC
  8
0
  6
DASHED2
 62
               4
  5
2E7
 10
-600.00000000000011
 20
-491.04970408472593
 30
0.0
 40
16.58585826952007
 50
69.269184858534246
 51
110.73081514139687
  0
LINE
  8
0
  6
DASHED2
 62
               4
  5
2E8
 10
-611.7600000000017
 20
-486.06384581520604
 30
0.0
 11
-611.7600000000017
 21
-494.58997431451314
 31
0.0
  0
LINE
  8
0
  6
DASHED2
 62
               4
  5
2E9
 10
-605.87102725426735
 20
-494.58997431451314
 30
0.0
 11
-605.87102725426735
 21
-486.06384581520604
 31
0.0
  0
LINE
  8
0
  6
DASHED2
 62
               4
  5
2EA
 10
-608.81551362713435
 20
-495.66384581520572
 30
0.0
 11
-591.18448637286872
 21
-495.66384581520572
 31
0.0
  0
LINE
  8
0
  6
DASHED2
 62
               4
  5
2EB
 10
-588.24000000000137
 20
-486.06384581520604
 30
0.0
 11
-588.24000000000137
 21
-494.58997431451314
 31
0.0
  0
LINE
  8
0
  6
DASHED2
 62
               4
  5
2EC
 10
-594.12897274573584
 20
-486.06384581520604
 30
0.0
 11
-594.12897274573584
 21
-494.58997431451314
 31
0.0
  0
ARC
  8
0
  6
DASHED2
 62
               4
  5
2ED
 10
-608.81551362713435
 20
-491.0901142310903
 30
0.0
 40
4.5737315841157447
 50
229.92557966153464
 51
310.07442033826101
  0
ARC
  8
0
  6
DASHED2
 62
               4
  5
2EE
 10
-591.18448637286872
 20
-491.0901142310903
 30
0.0
 40
4.5737315841157686
 50
229.92557966153464
 51
310.07442033826101
  0
ARC
  8
0
  6
DASHED2
 62
               4
  5
2EF
 10
-600.00000000000159
 20
-479.07798754568591
 30
0.0
 40
16.58585826952007
 50
249.26918485846551
 51
290.73081514132798
  0
LINE
  8
0
  6
DASHED2
 62
               4
  5
2F0
 10
-606.00000000000011
 20
-495.66384581520572
 30
0.0
 11
-606.00000000000011
 21
-506.18321205753034
 31
0.0
  0
LINE
  8
0
  6
DASHED2
 62
               4
  5
2F1
 10
-594.00000000000023
 20
-495.66384581520572
 30
0.0
 11
-594.00000000000023
 21
-506.18321205753034
 31
0.0
  0
LINE
  8
0
  6
DASHED2
 62
               4
  5
2F2
 10
-604.8000000000003
 20
-507.38321205753084
 30
0.0
 11
-595.20000000000027
 21
-507.38321205753084
 31
0.0
  0
LINE
  8
0
  6
DASHED2
 62
               4
  5
2F3
 10
-606.00000000000011
 20
-506.18321205753034
 30
0.0
 11
-604.8000000000003
 21
-507.38321205753084
 31
0.0
  0
LINE
  8
0
  6
DASHED2
 62
               4
  5
2F4
 10
-594.00000000000023
 20
-506.18321205753034
 30
0.0
 11
-595.20000000000027
 21
-507.38321205753084
 31
0.0
  0
LINE
  8
0
  6
DASHED2
 62
               4
  5
2F5
 10
-611.76000000000033
 20
-484.06384581520558
 30
0.0
 11
-588.24000000000001
 21
-484.06384581520558
 31
0.0
  0
LINE
  8
0
  6
DASHED2
 62
               4
  5
2F6
 10
-588.24000000000137
 20
-486.06384581520604
 30
0.0
 11
-611.7600000000017
 21
-486.06384581520604
 31
0.0
  0
LINE
  8
0
  6
DASHED2
 62
               4
  5
2F7
 10
-606.00000000000011
 20
-369.00026633927683
 30
0.0
 11
-606.00000000000011
 21
-474.46384581520545
 31
0.0
  0
LINE
  8
0
  6
DASHED2
 62
               4
  5
2F8
 10
-594.00000000000023
 20
-369.00026633927683
 30
0.0
 11
-594.00000000000023
 21
-474.46384581520545
 31
0.0
  0
LINE
  8
0
  6
DASHED2
 62
               4
  5
2F9
 10
-594.00000000000023
 20
-369.00026633927683
 30
0.0
 11
-606.00000000000011
 21
-369.00026633927683
 31
0.0
  0
LINE
  8
0
  6
DASHED2
 62
               4
  5
2FA
 10
-657.13284555413099
 20
-384.13940728487762
 30
0.0
 11
-543.00000000000023
 21
-384.13940728487762
 31
0.0
  0
LINE
  8
0
  6
DASHED2
 62
               4
  5
2FB
 10
-543.00000000000023
 20
-384.13940728487762
 30
0.0
 11
-542.0
 21
-383.13940728487739
 31
0.0
  0
LINE
  8
0
  6
DASHED2
 62
               4
  5
2FC
 10
-657.13284555413099
 20
-384.13940728487762
 30
0.0
 11
-658.00000000000023
 21
-383.27225283900844
 31
0.0
  0
LINE
  8
0
  6
DASHED2
 62
               4
  5
2FD
 10
-658.00000000000023
 20
-383.27225283900844
 30
0.0
 11
-658.00000000000023
 21
-372.1394072848779
 31
0.0
  0
LINE
  8
0
  6
DASHED2
 62
               4
  5
2FE
 10
-542.0
 20
-383.13940728487739
 30
0.0
 11
-542.0
 21
-372.13940728487785
 31
0.0
  0
LINE
  8
0
  6
DASHED2
 62
               4
  5
2FF
 10
541.99999999999955
 20
-383.34781430868048
 30
0.0
 11
541.99999999999955
 21
-372.34781430868094
 31
0.0
  0
LINE
  8
0
  6
DASHED2
 62
               4
  5
300
 10
658.0
 20
-383.21496875454943
 30
0.0
 11
658.0
 21
-372.21496875454989
 31
0.0
  0
LINE
  8
0
  6
DASHED2
 62
               4
  5
301
 10
552.28652321630796
 20
-1421.4957055465115
 30
0.0
 11
666.28652321630761
 21
-1421.4957055465115
 31
0.0
  0
ARC
  8
0
  6
DIVIDE
 62
               4
  5
302
 10
-28.500000000000611
 20
-731.07238858904623
 30
0.0
 40
55.0
 50
58.789629707478362
 51
121.21037029248673
  0
ARC
  8
0
  6
DIVIDE
 62
               4
  5
303
 10
-28.500000000000611
 20
-636.99263518800865
 30
0.0
 40
55.0
 50
238.78962970744368
 51
301.21037029245184
  0
ARC
  8
0
  6
DIVIDE
 62
               4
  5
304
 10
-32.500000000000668
 20
-706.53500932432405
 30
0.0
 40
65.0
 50
59.999999999988269
 51
119.99999999997692
  0
ARC
  8
0
  6
DIVIDE
 62
               4
  5
305
 10
28.499999999999417
 20
-636.99263518800888
 30
0.0
 40
55.0
 50
238.78962970744377
 51
301.21037029245201
  0
ARC
  8
0
  6
DIVIDE
 62
               4
  5
306
 10
32.499999999999332
 20
-593.95170683234699
 30
0.0
 40
65.0
 50
239.99999999995379
 51
299.99999999994202
  0
LINE
  8
0
  6
DIVIDE
 62
               4
  5
307
 10
-57.000000000000554
 20
-646.32911260315552
 30
0.0
 11
-57.000000000000554
 21
-684.03251188852744
 31
0.0
  0
LINE
  8
0
  6
DIVIDE
 62
               4
  5
308
 10
56.999999999999503
 20
-654.15760355351551
 30
0.0
 11
56.999999999999503
 21
-684.03251188852744
 31
0.0
  0
ARC
  8
0
  6
DIVIDE
 62
               4
  5
309
 10
-32.500000000000668
 20
-593.95170683234721
 30
0.0
 40
65.0
 50
239.99999999995339
 51
247.85677929850399
  0
LINE
  8
0
  6
DIVIDE
 62
               4
  5
30A
 10
64.999999999999304
 20
-564.13940728487648
 30
0.0
 11
64.999999999999304
 21
-650.24335807833552
 31
0.0
  0
LINE
  8
0
  6
DIVIDE
 62
               4
  5
30B
 10
-65.000000000000668
 20
-564.13940728487648
 30
0.0
 11
-65.000000000000668
 21
-650.24335807833552
 31
0.0
  0
ARC
  8
0
  6
DIVIDE
 62
               4
  5
30C
 10
571.49999999999989
 20
-731.07238858904623
 30
0.0
 40
55.0
 50
58.789629707478369
 51
121.21037029248674
  0
ARC
  8
0
  6
DIVIDE
 62
               4
  5
30D
 10
571.49999999999989
 20
-636.99263518800865
 30
0.0
 40
55.0
 50
238.78962970744368
 51
301.21037029245184
  0
ARC
  8
0
  6
DIVIDE
 62
               4
  5
30E
 10
567.49999999999977
 20
-706.53500932432405
 30
0.0
 40
65.0
 50
59.999999999988297
 51
119.99999999997692
  0
ARC
  8
0
  6
DIVIDE
 62
               4
  5
30F
 10
628.5
 20
-636.99263518800888
 30
0.0
 40
55.0
 50
238.78962970744377
 51
301.21037029245201
  0
ARC
  8
0
  6
DIVIDE
 62
               4
  5
310
 10
632.49999999999977
 20
-593.95170683234699
 30
0.0
 40
65.0
 50
239.99999999995379
 51
299.99999999994196
  0
LINE
  8
0
  6
DIVIDE
 62
               4
  5
311
 10
542.99999999999989
 20
-646.32911260315552
 30
0.0
 11
542.99999999999989
 21
-684.03251188852744
 31
0.0
  0
LINE
  8
0
  6
DIVIDE
 62
               4
  5
312
 10
657.0
 20
-654.15760355351551
 30
0.0
 11
657.0
 21
-684.03251188852744
 31
0.0
  0
ARC
  8
0
  6
DIVIDE
 62
               4
  5
313
 10
567.49999999999977
 20
-593.95170683234721
 30
0.0
 40
65.0
 50
239.99999999995339
 51
247.85677929850399
  0
LINE
  8
0
  6
DIVIDE
 62
               4
  5
314
 10
664.99999999999977
 20
-564.13940728487648
 30
0.0
 11
664.99999999999977
 21
-650.24335807833552
 31
0.0
  0
LINE
  8
0
  6
DIVIDE
 62
               4
  5
315
 10
534.99999999999989
 20
-564.13940728487648
 30
0.0
 11
534.99999999999989
 21
-650.24335807833552
 31
0.0
  0
ARC
  8
0
  6
DIVIDE
 62
               4
  5
316
 10
-628.50000000000011
 20
-730.99682711937419
 30
0.0
 40
55.0
 50
58.789629707478369
 51
121.21037029248674
  0
ARC
  8
0
  6
DIVIDE
 62
               4
  5
317
 10
-628.50000000000011
 20
-636.91707371833661
 30
0.0
 40
55.0
 50
238.78962970744368
 51
301.21037029245184
  0
ARC
  8
0
  6
DIVIDE
 62
               4
  5
318
 10
-632.50000000000011
 20
-706.45944785465201
 30
0.0
 40
65.0
 50
59.999999999988297
 51
119.99999999997692
  0
ARC
  8
0
  6
DIVIDE
 62
               4
  5
319
 10
-571.5
 20
-636.91707371833684
 30
0.0
 40
55.0
 50
238.78962970744377
 51
301.21037029245201
  0
ARC
  8
0
  6
DIVIDE
 62
               4
  5
31A
 10
-567.50000000000011
 20
-593.87614536267495
 30
0.0
 40
65.0
 50
239.99999999995379
 51
299.99999999994196
  0
LINE
  8
0
  6
DIVIDE
 62
               4
  5
31B
 10
-657.0
 20
-646.25355113348348
 30
0.0
 11
-657.0
 21
-683.9569504188554
 31
0.0
  0
LINE
  8
0
  6
DIVIDE
 62
               4
  5
31C
 10
-542.99999999999989
 20
-654.08204208384348
 30
0.0
 11
-542.99999999999989
 21
-683.9569504188554
 31
0.0
  0
ARC
  8
0
  6
DIVIDE
 62
               4
  5
31D
 10
-632.50000000000011
 20
-593.87614536267517
 30
0.0
 40
65.0
 50
239.99999999995339
 51
247.85677929850399
  0
LINE
  8
0
  6
DIVIDE
 62
               4
  5
31E
 10
-535.00000000000011
 20
-564.06384581520444
 30
0.0
 11
-535.00000000000011
 21
-650.16779660866348
 31
0.0
  0
LINE
  8
0
  6
DIVIDE
 62
               4
  5
31F
 10
-665.00000000000011
 20
-564.06384581520444
 30
0.0
 11
-665.00000000000011
 21
-650.16779660866348
 31
0.0
  0
LINE
  8
0
  6
CONTINUOUS
 62
               3
  5
320
 10
-666.50000000000023
 20
-368.21203187941001
 30
0.0
 11
-683.50000000000011
 21
-219.21199248146627
 31
0.0
  0
LINE
  8
0
  6
CONTINUOUS
 62
               3
  5
321
 10
-533.5
 20
-368.21203187941012
 30
0.0
 11
-516.50000000000011
 21
-219.21199248146593
 31
0.0
  0
LINE
  8
0
  6
CONTINUOUS
 62
               3
  5
322
 10
-683.50000000000011
 20
-84.979052747862511
 30
0.0
 11
-683.50000000000011
 21
-219.21199248146627
 31
0.0
  0
LINE
  8
0
  6
CONTINUOUS
 62
               3
  5
323
 10
-516.50000000000011
 20
-110.13940728487762
 30
0.0
 11
-516.50000000000011
 21
-219.21199248146627
 31
0.0
  0
LINE
  8
0
  6
CONTINUOUS
 62
               3
  5
324
 10
-516.50000000000011
 20
-110.13940728487762
 30
0.0
 11
-683.50000000000011
 21
-110.13940728487765
 31
0.0
  0
ARC
  8
0
  6
CONTINUOUS
 62
               3
  5
325
 10
-655.00000000000011
 20
73.86059271512238
 30
0.0
 40
28.499999999999996
 50
154.58537908480912
 51
179.99999999996521
  0
LINE
  8
0
  6
CONTINUOUS
 62
               3
  5
326
 10
-680.50000000000011
 20
150.36059271512283
 30
0.0
 11
-680.50000000000011
 21
87.164727410772457
 31
0.0
  0
ARC
  8
0
  6
CONTINUOUS
 62
               3
  5
327
 10
-683.00000000000011
 20
87.164727410772457
 30
0.0
 40
2.5
 50
334.58537908477336
 51
359.99999999993037
  0
LINE
  8
0
  6
CONTINUOUS
 62
               3
  5
328
 10
-519.50000000000011
 20
150.36059271512283
 30
0.0
 11
-519.50000000000011
 21
87.164727410772457
 31
0.0
  0
ARC
  8
0
  6
CONTINUOUS
 62
               3
  5
329
 10
-517.00000000000011
 20
87.164727410772457
 30
0.0
 40
2.5
 50
179.99999999996524
 51
205.41462091512221
  0
ARC
  8
0
  6
CONTINUOUS
 62
               3
  5
32A
 10
-545.00000000000011
 20
73.86059271512238
 30
0.0
 40
28.499999999999996
 50
0.0
 51
0.7284816623328368
  0
LINE
  8
0
  6
CONTINUOUS
 62
               3
  5
32B
 10
-683.50000000000011
 20
-84.979052747862511
 30
0.0
 11
-683.50000000000011
 21
73.86059271512238
 31
0.0
  0
CIRCLE
  8
0
  6
CONTINUOUS
 62
               3
  5
32C
 10
-600.00000000000068
 20
14.86059271512238
 30
0.0
 40
66.099999999999994
  0
LINE
  8
0
  6
CONTINUOUS
 62
               3
  5
32D
 10
-516.50000000000011
 20
-110.13940728487762
 30
0.0
 11
-516.50000000000011
 21
73.86059271512238
 31
0.0
  0
ARC
  8
0
  6
CONTINUOUS
 62
               3
  5
32E
 10
-545.00000000000011
 20
73.86059271512238
 30
0.0
 40
28.499999999999996
 50
0.0
 51
25.414620915156053
  0
ARC
  8
0
  6
CONTINUOUS
 62
               3
  5
32F
 10
-517.00000000000011
 20
87.164727410772457
 30
0.0
 40
2.5
 50
179.99999999996524
 51
205.41462091512221
  0
LINE
  8
0
  6
CONTINUOUS
 62
               3
  5
330
 10
66.499999999999986
 20
-368.21203187941012
 30
0.0
 11
82.999999999999758
 21
-223.59434658140663
 31
0.0
  0
LINE
  8
0
  6
CONTINUOUS
 62
               3
  5
331
 10
-66.500000000000227
 20
-368.21203187941001
 30
0.0
 11
-83.500000000000085
 21
-219.21199248146627
 31
0.0
  0
LINE
  8
0
  6
CONTINUOUS
 62
               3
  5
332
 10
82.999999999999758
 20
89.58863462340031
 30
0.0
 11
82.999999999999758
 21
-223.59434658140663
 31
0.0
  0
LINE
  8
0
  6
CONTINUOUS
 62
               3
  5
333
 10
-83.500000000000099
 20
-67.467445897268135
 30
0.0
 11
-83.500000000000099
 21
-219.21199248146627
 31
0.0
  0
LINE
  8
0
  6
CONTINUOUS
 62
               3
  5
334
 10
80.499999999999886
 20
150.36059271512283
 30
0.0
 11
80.499999999999886
 21
93.745488872892565
 31
0.0
  0
LINE
  8
0
  6
CONTINUOUS
 62
               3
  5
335
 10
-80.500000000000114
 20
150.36059271512283
 30
0.0
 11
-80.500000000000114
 21
87.661250320054222
 31
0.0
  0
LINE
  8
0
  6
CONTINUOUS
 62
               3
  5
336
 10
680.49999999999989
 20
150.36059271512283
 30
0.0
 11
680.49999999999989
 21
87.164727410772457
 31
0.0
  0
LINE
  8
0
  6
CONTINUOUS
 62
               3
  5
337
 10
519.49999999999989
 20
150.36059271512283
 30
0.0
 11
519.49999999999989
 21
87.164727410772457
 31
0.0
  0
ARC
  8
0
  6
CONTINUOUS
 62
               3
  5
338
 10
-85.500000000000114
 20
87.661250320054222
 30
0.0
 40
5.0
 50
271.99999999994685
 51
359.99999999993042
  0
LINE
  8
0
  6
CONTINUOUS
 62
               3
  5
339
 10
82.414213562372851
 20
91.002848185773402
 30
0.0
 11
81.08578643762678
 21
92.331275310519473
 31
0.0
  0
ARC
  8
0
  6
CONTINUOUS
 62
               3
  5
33A
 10
82.499999999999886
 20
93.745488872892565
 30
0.0
 40
2.0
 50
179.99999999996518
 51
224.99999999995597
  0
ARC
  8
0
  6
CONTINUOUS
 62
               3
  5
33B
 10
80.999999999999758
 20
89.58863462340031
 30
0.0
 40
2.0
 50
0.0
 51
44.99999999999141
  0
LINE
  8
0
  6
CONTINUOUS
 62
               3
  5
33C
 10
-94.945142303278004
 20
-53.95123578212494
 30
0.0
 11
-84.964466094067362
 21
-63.931911991335369
 31
0.0
  0
ARC
  8
0
  6
CONTINUOUS
 62
               3
  5
33D
 10
-98.480676209210699
 20
-57.486769688057734
 30
0.0
 40
5.0
 50
44.99999999999207
 51
87.999999999983601
  0
ARC
  8
0
  6
CONTINUOUS
 62
               3
  5
33E
 10
-88.500000000000099
 20
-67.467445897268135
 30
0.0
 40
5.0
 50
0.0
 51
44.999999999991608
  0
LINE
  8
0
  6
CONTINUOUS
 62
               3
  5
33F
 10
18.170649410519015
 20
-110.13940728487762
 30
0.0
 11
-83.500000000000099
 21
-110.13940728487762
 31
0.0
  0
LINE
  8
0
  6
CONTINUOUS
 62
               3
  5
340
 10
82.999999999999758
 20
-110.13940728487762
 30
0.0
 11
18.170649410519015
 21
-110.13940728487762
 31
0.0
  0
ARC
  8
0
  6
CONTINUOUS
 62
               3
  5
341
 10
685.49999999999989
 20
150.36059271512283
 30
0.0
 40
5.0
 50
89.999999999982862
 51
179.99999999996524
  0
ARC
  8
0
  6
CONTINUOUS
 62
               3
  5
342
 10
514.49999999999989
 20
150.36059271512283
 30
0.0
 40
5.0
 50
0.0
 51
89.999999999982862
  0
ARC
  8
0
  6
CONTINUOUS
 62
               3
  5
343
 10
654.99999999999989
 20
73.86059271512238
 30
0.0
 40
28.499999999999996
 50
0.0
 51
25.414620915156053
  0
LINE
  8
0
  6
CONTINUOUS
 62
               3
  5
344
 10
680.49999999999989
 20
150.36059271512283
 30
0.0
 11
680.49999999999989
 21
87.164727410772457
 31
0.0
  0
ARC
  8
0
  6
CONTINUOUS
 62
               3
  5
345
 10
682.99999999999989
 20
87.164727410772457
 30
0.0
 40
2.5
 50
179.99999999996524
 51
205.41462091512221
  0
LINE
  8
0
  6
CONTINUOUS
 62
               3
  5
346
 10
519.49999999999989
 20
150.36059271512283
 30
0.0
 11
519.49999999999989
 21
87.164727410772457
 31
0.0
  0
ARC
  8
0
  6
CONTINUOUS
 62
               3
  5
347
 10
516.99999999999989
 20
87.164727410772457
 30
0.0
 40
2.5
 50
334.58537908477336
 51
359.99999999993037
  0
ARC
  8
0
  6
CONTINUOUS
 62
               3
  5
348
 10
544.99999999999989
 20
73.86059271512238
 30
0.0
 40
28.499999999999996
 50
179.27151833763236
 51
179.99999999996521
  0
LINE
  8
0
  6
CONTINUOUS
 62
               3
  5
349
 10
683.49999999999989
 20
-110.13940728487762
 30
0.0
 11
683.49999999999989
 21
73.86059271512238
 31
0.0
  0
LINE
  8
0
  6
CONTINUOUS
 62
               3
  5
34A
 10
516.49999999999989
 20
-92.571883221296673
 30
0.0
 11
516.49999999999989
 21
73.86059271512238
 31
0.0
  0
ARC
  8
0
  6
CONTINUOUS
 62
               3
  5
34B
 10
544.99999999999989
 20
73.86059271512238
 30
0.0
 40
28.499999999999996
 50
154.58537908480912
 51
179.99999999996521
  0
ARC
  8
0
  6
CONTINUOUS
 62
               3
  5
34C
 10
516.99999999999989
 20
87.164727410772457
 30
0.0
 40
2.5
 50
334.58537908477336
 51
359.99999999993037
  0
LINE
  8
0
  6
CONTINUOUS
 62
               3
  5
34D
 10
533.49999999999966
 20
-368.21203187941006
 30
0.0
 11
516.49999999999989
 21
-219.21199248146632
 31
0.0
  0
LINE
  8
0
  6
CONTINUOUS
 62
               3
  5
34E
 10
666.49999999999989
 20
-368.21203187941018
 30
0.0
 11
683.49999999999989
 21
-219.21199248146598
 31
0.0
  0
LINE
  8
0
  6
CONTINUOUS
 62
               3
  5
34F
 10
683.49999999999989
 20
-110.13940728487762
 30
0.0
 11
683.49999999999989
 21
-219.21199248146598
 31
0.0
  0
LINE
  8
0
  6
CONTINUOUS
 62
               3
  5
350
 10
516.49999999999989
 20
-92.571883221296673
 30
0.0
 11
516.49999999999989
 21
-219.21199248146632
 31
0.0
  0
LINE
  8
0
  6
CONTINUOUS
 62
               3
  5
351
 10
683.49999999999989
 20
-110.13940728487762
 30
0.0
 11
516.49999999999989
 21
-110.13940728487762
 31
0.0
  0
LINE
  8
0
  6
CONTINUOUS
 62
               3
  5
352
 10
-66.500000000000213
 20
-368.21203187941001
 30
0.0
 11
-66.500000000000213
 21
-404.13940728487762
 31
0.0
  0
LINE
  8
0
  6
CONTINUOUS
 62
               3
  5
353
 10
66.499999999999986
 20
-368.21203187941012
 30
0.0
 11
66.499999999999986
 21
-404.13940728487762
 31
0.0
  0
LINE
  8
0
  6
CONTINUOUS
 62
               3
  5
354
 10
-66.500000000000213
 20
-372.13940728487762
 30
0.0
 11
66.499999999999986
 21
-372.13940728487762
 31
0.0
  0
LINE
  8
0
  6
CONTINUOUS
 62
               3
  5
355
 10
-66.500000000000213
 20
-404.13940728487762
 30
0.0
 11
66.499999999999986
 21
-404.13940728487762
 31
0.0
  0
LINE
  8
0
  6
CONTINUOUS
 62
               3
  5
356
 10
-62.000000000000838
 20
-564.13940728487648
 30
0.0
 11
-62.000000000000838
 21
-549.13940728487739
 31
0.0
  0
LINE
  8
0
  6
CONTINUOUS
 62
               3
  5
357
 10
-65.000000000000668
 20
-564.13940728487648
 30
0.0
 11
64.999999999999304
 21
-564.13940728487648
 31
0.0
  0
ARC
  8
0
  6
CONTINUOUS
 62
               3
  5
358
 10
-76.000000000000043
 20
-423.1394072848783
 30
0.0
 40
4.0
 50
89.999999999964984
 51
179.99999999993119
  0
ARC
  8
0
  6
CONTINUOUS
 62
               3
  5
359
 10
-79.000000000000014
 20
-420.1394072848783
 30
0.0
 40
1.0000000000000004
 50
89.999999999963975
 51
179.99999999992795
  0
ARC
  8
0
  6
CONTINUOUS
 62
               3
  5
35A
 10
-79.000000000000014
 20
-420.1394072848783
 30
0.0
 40
1.9999999999999996
 50
89.999999999965596
 51
179.99999999993119
  0
LINE
  8
0
  6
CONTINUOUS
 62
               3
  5
35B
 10
-81.000000000000043
 20
-420.1394072848783
 30
0.0
 11
-81.000000000000611
 21
-483.13940728487717
 31
0.0
  0
LINE
  8
0
  6
CONTINUOUS
 62
               3
  5
35C
 10
-80.000000000000242
 20
-420.1394072848783
 30
0.0
 11
-80.00000000000081
 21
-483.13940728487717
 31
0.0
  0
ARC
  8
0
  6
CONTINUOUS
 62
               3
  5
35D
 10
-82.000000000000554
 20
-483.13940728487717
 30
0.0
 40
1.9999999999999996
 50
269.99999999989598
 51
359.99999999986238
  0
ARC
  8
0
  6
CONTINUOUS
 62
               3
  5
35E
 10
-82.000000000000554
 20
-483.13940728487717
 30
0.0
 40
1.0000000000000004
 50
269.99999999989598
 51
359.99999999986238
  0
LINE
  8
0
  6
CONTINUOUS
 62
               3
  5
35F
 10
-82.000000000000554
 20
-485.13940728487717
 30
0.0
 11
-145.00000000000068
 21
-485.13940728487762
 31
0.0
  0
LINE
  8
0
  6
CONTINUOUS
 62
               3
  5
360
 10
-82.000000000000554
 20
-484.13940728487717
 30
0.0
 11
-145.00000000000068
 21
-484.13940728487762
 31
0.0
  0
LINE
  8
0
  6
CONTINUOUS
 62
               3
  5
361
 10
-65.000000000000242
 20
-418.1394072848783
 30
0.0
 11
-79.000000000000014
 21
-418.1394072848783
 31
0.0
  0
LINE
  8
0
  6
CONTINUOUS
 62
               3
  5
362
 10
-0.0000000000000995
 20
-419.13940728487762
 30
0.0
 11
-79.000000000000014
 21
-419.1394072848783
 31
0.0
  0
LINE
  8
0
  6
CONTINUOUS
 62
               3
  5
363
 10
-65.000000000000242
 20
-418.1394072848783
 30
0.0
 11
-65.000000000000242
 21
-419.13940728487819
 31
0.0
  0
LINE
  8
0
  6
CONTINUOUS
 62
               3
  5
364
 10
-64.999999999999673
 20
-550.13940728487717
 30
0.0
 11
-78.999999999999588
 21
-550.13940728487739
 31
0.0
  0
ARC
  8
0
  6
CONTINUOUS
 62
               3
  5
365
 10
-78.999999999999588
 20
-548.13940728487739
 30
0.0
 40
1.0000000000000004
 50
179.99999999993446
 51
269.99999999989598
  0
ARC
  8
0
  6
CONTINUOUS
 62
               3
  5
366
 10
-78.999999999999588
 20
-548.13940728487739
 30
0.0
 40
1.9999999999999996
 50
179.99999999993119
 51
269.99999999989723
  0
ARC
  8
0
  6
CONTINUOUS
 62
               3
  5
367
 10
-75.999999999999758
 20
-545.13940728487739
 30
0.0
 40
4.0
 50
179.99999999993119
 51
269.9999999998974
  0
LINE
  8
0
  6
CONTINUOUS
 62
               3
  5
368
 10
-64.999999999999673
 20
-550.13940728487717
 30
0.0
 11
-64.999999999999673
 21
-549.13940728487739
 31
0.0
  0
LINE
  8
0
  6
CONTINUOUS
 62
               3
  5
369
 10
-80.999999999999758
 20
-548.13940728487739
 30
0.0
 11
-81.000000000000611
 21
-487.13940728487717
 31
0.0
  0
LINE
  8
0
  6
CONTINUOUS
 62
               3
  5
36A
 10
-79.999999999999673
 20
-548.13940728487739
 30
0.0
 11
-80.000000000000668
 21
-487.13940728487717
 31
0.0
  0
LINE
  8
0
  6
CONTINUOUS
 62
               3
  5
36B
 10
-0.0000000000006679
 20
-549.13940728487648
 30
0.0
 11
-78.999999999999588
 21
-549.13940728487739
 31
0.0
  0
LINE
  8
0
  6
CONTINUOUS
 62
               3
  5
36C
 10
-0.0000000000006679
 20
-526.63940728487648
 30
0.0
 11
-79.999999999999815
 21
-526.63940728487717
 31
0.0
  0
ARC
  8
0
  6
CONTINUOUS
 62
               3
  5
36D
 10
-82.000000000000554
 20
-487.13940728487717
 30
0.0
 40
1.9999999999999996
 50
0.0
 51
89.999999999965596
  0
ARC
  8
0
  6
CONTINUOUS
 62
               3
  5
36E
 10
-82.000000000000554
 20
-487.13940728487717
 30
0.0
 40
1.0000000000000004
 50
0.0
 51
89.99999999996723
  0
LINE
  8
0
  6
CONTINUOUS
 62
               3
  5
36F
 10
-82.000000000000554
 20
-486.13940728487717
 30
0.0
 11
-145.00000000000068
 21
-486.13940728487762
 31
0.0
  0
LINE
  8
0
  6
CONTINUOUS
 62
               3
  5
370
 10
-80.000000000000242
 20
-442.1394072848783
 30
0.0
 11
-0.0000000000000995
 21
-442.1394072848783
 31
0.0
  0
LINE
  8
0
  6
CONTINUOUS
 62
               3
  5
371
 10
-77.00000000000027
 20
-442.1394072848783
 30
0.0
 11
-77.000000000000838
 21
-526.63940728487717
 31
0.0
  0
LINE
  8
0
  6
CONTINUOUS
 62
               3
  5
372
 10
-145.00000000000068
 20
-484.13940728487762
 30
0.0
 11
-145.00000000000068
 21
-485.13940728487762
 31
0.0
  0
LINE
  8
0
  6
CONTINUOUS
 62
               3
  5
373
 10
-145.00000000000068
 20
-486.13940728487762
 30
0.0
 11
-145.00000000000068
 21
-485.13940728487762
 31
0.0
  0
LINE
  8
0
  6
CONTINUOUS
 62
               3
  5
374
 10
-87.250000000000611
 20
-482.63940728487717
 30
0.0
 11
-94.750000000000611
 21
-482.63940728487717
 31
0.0
  0
LINE
  8
0
  6
CONTINUOUS
 62
               3
  5
375
 10
-87.250000000000611
 20
-487.63940728487717
 30
0.0
 11
-94.750000000000611
 21
-487.63940728487739
 31
0.0
  0
LINE
  8
0
  6
CONTINUOUS
 62
               3
  5
376
 10
-87.250000000000611
 20
-482.63940728487717
 30
0.0
 11
-87.250000000000611
 21
-484.13940728487717
 31
0.0
  0
LINE
  8
0
  6
CONTINUOUS
 62
               3
  5
377
 10
-87.250000000000611
 20
-486.13940728487717
 30
0.0
 11
-87.250000000000611
 21
-487.63940728487717
 31
0.0
  0
LINE
  8
0
  6
CONTINUOUS
 62
               3
  5
378
 10
-94.750000000000611
 20
-482.63940728487717
 30
0.0
 11
-94.750000000000611
 21
-484.13940728487717
 31
0.0
  0
LINE
  8
0
  6
CONTINUOUS
 62
               3
  5
379
 10
-94.750000000000611
 20
-486.13940728487739
 30
0.0
 11
-94.750000000000611
 21
-487.63940728487739
 31
0.0
  0
ARC
  8
0
  6
CONTINUOUS
 62
               3
  5
37A
 10
75.999999999999702
 20
-423.1394072848783
 30
0.0
 40
4.0
 50
0.0000000000341973
 51
90.000000000000199
  0
ARC
  8
0
  6
CONTINUOUS
 62
               3
  5
37B
 10
78.999999999999645
 20
-420.1394072848783
 30
0.0
 40
1.0000000000000004
 50
0.0000000000325689
 51
90.000000000000611
  0
ARC
  8
0
  6
CONTINUOUS
 62
               3
  5
37C
 10
78.999999999999645
 20
-420.1394072848783
 30
0.0
 40
1.9999999999999996
 50
0.0000000000358258
 51
89.999999999999389
  0
LINE
  8
0
  6
CONTINUOUS
 62
               3
  5
37D
 10
80.999999999999702
 20
-420.1394072848783
 30
0.0
 11
80.999999999999133
 21
-483.13940728487717
 31
0.0
  0
LINE
  8
0
  6
CONTINUOUS
 62
               3
  5
37E
 10
79.999999999999872
 20
-420.1394072848783
 30
0.0
 11
79.999999999999304
 21
-483.13940728487717
 31
0.0
  0
ARC
  8
0
  6
CONTINUOUS
 62
               3
  5
37F
 10
81.99999999999919
 20
-483.13940728487717
 30
0.0
 40
1.9999999999999996
 50
180.00000000003541
 51
269.99999999999983
  0
ARC
  8
0
  6
CONTINUOUS
 62
               3
  5
380
 10
81.99999999999919
 20
-483.13940728487717
 30
0.0
 40
1.0000000000000004
 50
180.00000000003217
 51
269.99999999999937
  0
LINE
  8
0
  6
CONTINUOUS
 62
               3
  5
381
 10
81.99999999999919
 20
-485.13940728487717
 30
0.0
 11
144.99999999999932
 21
-485.13940728487762
 31
0.0
  0
LINE
  8
0
  6
CONTINUOUS
 62
               3
  5
382
 10
81.99999999999919
 20
-484.13940728487717
 30
0.0
 11
144.99999999999932
 21
-484.13940728487762
 31
0.0
  0
LINE
  8
0
  6
CONTINUOUS
 62
               3
  5
383
 10
64.999999999999872
 20
-418.1394072848783
 30
0.0
 11
78.999999999999645
 21
-418.1394072848783
 31
0.0
  0
LINE
  8
0
  6
CONTINUOUS
 62
               3
  5
384
 10
-0.0000000000000995
 20
-419.13940728487762
 30
0.0
 11
78.999999999999645
 21
-419.1394072848783
 31
0.0
  0
LINE
  8
0
  6
CONTINUOUS
 62
               3
  5
385
 10
64.999999999999872
 20
-418.1394072848783
 30
0.0
 11
64.999999999999872
 21
-419.13940728487819
 31
0.0
  0
LINE
  8
0
  6
CONTINUOUS
 62
               3
  5
386
 10
64.999999999998167
 20
-550.13940728487717
 30
0.0
 11
78.999999999998224
 21
-550.13940728487739
 31
0.0
  0
ARC
  8
0
  6
CONTINUOUS
 62
               3
  5
387
 10
78.999999999998224
 20
-548.13940728487739
 30
0.0
 40
1.0000000000000004
 50
269.99999999999937
 51
359.99999999996663
  0
ARC
  8
0
  6
CONTINUOUS
 62
               3
  5
388
 10
78.999999999998224
 20
-548.13940728487739
 30
0.0
 40
1.9999999999999996
 50
269.99999999999818
 51
359.99999999996339
  0
ARC
  8
0
  6
CONTINUOUS
 62
               3
  5
389
 10
75.99999999999828
 20
-545.13940728487739
 30
0.0
 40
4.0
 50
269.99999999999818
 51
359.99999999996339
  0
LINE
  8
0
  6
CONTINUOUS
 62
               3
  5
38A
 10
64.999999999998167
 20
-550.13940728487717
 30
0.0
 11
64.999999999998167
 21
-549.13940728487739
 31
0.0
  0
LINE
  8
0
  6
CONTINUOUS
 62
               3
  5
38B
 10
80.99999999999811
 20
-548.13940728487739
 30
0.0
 11
80.999999999999133
 21
-487.13940728487717
 31
0.0
  0
LINE
  8
0
  6
CONTINUOUS
 62
               3
  5
38C
 10
79.999999999998167
 20
-548.13940728487739
 30
0.0
 11
79.99999999999919
 21
-487.13940728487717
 31
0.0
  0
LINE
  8
0
  6
CONTINUOUS
 62
               3
  5
38D
 10
-0.0000000000006679
 20
-549.13940728487648
 30
0.0
 11
78.999999999998224
 21
-549.13940728487739
 31
0.0
  0
LINE
  8
0
  6
CONTINUOUS
 62
               3
  5
38E
 10
-0.0000000000006679
 20
-526.63940728487648
 30
0.0
 11
79.999999999998451
 21
-526.63940728487717
 31
0.0
  0
ARC
  8
0
  6
CONTINUOUS
 62
               3
  5
38F
 10
81.99999999999919
 20
-487.13940728487717
 30
0.0
 40
1.9999999999999996
 50
89.999999999999389
 51
179.99999999996376
  0
ARC
  8
0
  6
CONTINUOUS
 62
               3
  5
390
 10
81.99999999999919
 20
-487.13940728487717
 30
0.0
 40
1.0000000000000004
 50
89.999999999998167
 51
179.99999999996703
  0
LINE
  8
0
  6
CONTINUOUS
 62
               3
  5
391
 10
81.99999999999919
 20
-486.13940728487717
 30
0.0
 11
144.99999999999932
 21
-486.13940728487762
 31
0.0
  0
LINE
  8
0
  6
CONTINUOUS
 62
               3
  5
392
 10
79.999999999999872
 20
-442.1394072848783
 30
0.0
 11
-0.0000000000000995
 21
-442.1394072848783
 31
0.0
  0
LINE
  8
0
  6
CONTINUOUS
 62
               3
  5
393
 10
76.999999999999758
 20
-442.1394072848783
 30
0.0
 11
76.99999999999919
 21
-526.63940728487717
 31
0.0
  0
LINE
  8
0
  6
CONTINUOUS
 62
               3
  5
394
 10
144.99999999999932
 20
-484.13940728487762
 30
0.0
 11
144.99999999999932
 21
-485.13940728487762
 31
0.0
  0
LINE
  8
0
  6
CONTINUOUS
 62
               3
  5
395
 10
144.99999999999932
 20
-486.13940728487762
 30
0.0
 11
144.99999999999932
 21
-485.13940728487762
 31
0.0
  0
LINE
  8
0
  6
CONTINUOUS
 62
               3
  5
396
 10
87.249999999999133
 20
-482.63940728487717
 30
0.0
 11
94.749999999999133
 21
-482.63940728487717
 31
0.0
  0
LINE
  8
0
  6
CONTINUOUS
 62
               3
  5
397
 10
87.249999999999133
 20
-487.63940728487717
 30
0.0
 11
94.749999999999133
 21
-487.63940728487739
 31
0.0
  0
LINE
  8
0
  6
CONTINUOUS
 62
               3
  5
398
 10
87.249999999999133
 20
-482.63940728487717
 30
0.0
 11
87.249999999999133
 21
-484.13940728487717
 31
0.0
  0
LINE
  8
0
  6
CONTINUOUS
 62
               3
  5
399
 10
87.249999999999133
 20
-486.13940728487717
 30
0.0
 11
87.249999999999133
 21
-487.63940728487717
 31
0.0
  0
LINE
  8
0
  6
CONTINUOUS
 62
               3
  5
39A
 10
94.749999999999133
 20
-482.63940728487717
 30
0.0
 11
94.749999999999133
 21
-484.13940728487717
 31
0.0
  0
LINE
  8
0
  6
CONTINUOUS
 62
               3
  5
39B
 10
94.749999999999133
 20
-486.13940728487739
 30
0.0
 11
94.749999999999133
 21
-487.63940728487739
 31
0.0
  0
LINE
  8
0
  6
CONTINUOUS
 62
               3
  5
39C
 10
61.999999999999218
 20
-564.13940728487648
 30
0.0
 11
61.999999999999218
 21
-549.13940728487739
 31
0.0
  0
LINE
  8
0
  6
CONTINUOUS
 62
               3
  5
39D
 10
533.49999999999966
 20
-372.21496875454966
 30
0.0
 11
666.49999999999989
 21
-372.21496875454966
 31
0.0
  0
LINE
  8
0
  6
CONTINUOUS
 62
               3
  5
39E
 10
537.99999999999966
 20
-564.13940728487648
 30
0.0
 11
537.99999999999966
 21
-549.13940728487739
 31
0.0
  0
LINE
  8
0
  6
CONTINUOUS
 62
               3
  5
39F
 10
534.99999999999989
 20
-564.13940728487648
 30
0.0
 11
664.99999999999977
 21
-564.13940728487648
 31
0.0
  0
ARC
  8
0
  6
CONTINUOUS
 62
               3
  5
3A0
 10
524.00000000000045
 20
-423.1394072848783
 30
0.0
 40
4.0
 50
89.999999999965596
 51
179.99999999993119
  0
LINE
  8
0
  6
CONTINUOUS
 62
               3
  5
3A1
 10
520.00000000000045
 20
-423.13940728487603
 30
0.0
 11
520.00000000000023
 21
-442.1394072848783
 31
0.0
  0
LINE
  8
0
  6
CONTINUOUS
 62
               3
  5
3A2
 10
584.00000000000045
 20
-419.13940728487785
 30
0.0
 11
524.00000000000034
 21
-419.1394072848783
 31
0.0
  0
LINE
  8
0
  6
CONTINUOUS
 62
               3
  5
3A3
 10
584.00000000000045
 20
-550.13940728487648
 30
0.0
 11
616.00000000000091
 21
-550.13940728487603
 31
0.0
  0
ARC
  8
0
  6
CONTINUOUS
 62
               3
  5
3A4
 10
524.0000000000008
 20
-545.13940728487739
 30
0.0
 40
4.0
 50
179.99999999993119
 51
269.99999999989683
  0
LINE
  8
0
  6
CONTINUOUS
 62
               3
  5
3A5
 10
520.00000000000068
 20
-545.13940728487739
 30
0.0
 11
520.0000000000008
 21
-526.63940728487717
 31
0.0
  0
LINE
  8
0
  6
CONTINUOUS
 62
               3
  5
3A6
 10
584.00000000000045
 20
-549.13940728487671
 30
0.0
 11
523.99999999999716
 21
-549.13940728487739
 31
0.0
  0
LINE
  8
0
  6
CONTINUOUS
 62
               3
  5
3A7
 10
584.00000000000045
 20
-526.63940728487671
 30
0.0
 11
520.00000000000068
 21
-526.63940728487717
 31
0.0
  0
LINE
  8
0
  6
CONTINUOUS
 62
               3
  5
3A8
 10
520.00000000000023
 20
-442.1394072848783
 30
0.0
 11
584.00000000000045
 21
-442.1394072848783
 31
0.0
  0
LINE
  8
0
  6
CONTINUOUS
 62
               3
  5
3A9
 10
523.00000000000023
 20
-442.1394072848783
 30
0.0
 11
522.99999999999966
 21
-526.63940728487717
 31
0.0
  0
LINE
  8
0
  6
CONTINUOUS
 62
               3
  5
3AA
 10
616.00000000000045
 20
-419.13940728487785
 30
0.0
 11
679.00000000000023
 21
-419.1394072848783
 31
0.0
  0
LINE
  8
0
  6
CONTINUOUS
 62
               3
  5
3AB
 10
616.00000000000091
 20
-549.13940728487671
 30
0.0
 11
675.99999999999886
 21
-549.13940728487739
 31
0.0
  0
LINE
  8
0
  6
CONTINUOUS
 62
               3
  5
3AC
 10
616.00000000000091
 20
-526.63940728487671
 30
0.0
 11
679.99999999999898
 21
-526.63940728487717
 31
0.0
  0
LINE
  8
0
  6
CONTINUOUS
 62
               3
  5
3AD
 10
680.00000000000045
 20
-442.1394072848783
 30
0.0
 11
616.00000000000045
 21
-442.1394072848783
 31
0.0
  0
LINE
  8
0
  6
CONTINUOUS
 62
               3
  5
3AE
 10
661.99999999999977
 20
-564.13940728487648
 30
0.0
 11
661.99999999999977
 21
-549.13940728487739
 31
0.0
  0
LINE
  8
0
  6
CONTINUOUS
 62
               3
  5
3AF
 10
584.00000000000045
 20
-418.1394072848783
 30
0.0
 11
584.00000000000045
 21
-550.13940728487648
 31
0.0
  0
LINE
  8
0
  6
CONTINUOUS
 62
               3
  5
3B0
 10
616.00000000000091
 20
-550.13940728487603
 30
0.0
 11
616.00000000000045
 21
-418.1394072848783
 31
0.0
  0
LINE
  8
0
  6
CONTINUOUS
 62
               3
  5
3B1
 10
583.99999999999977
 20
-418.1394072848783
 30
0.0
 11
615.99999999999977
 21
-418.1394072848783
 31
0.0
  0
LINE
  8
0
  6
CONTINUOUS
 62
               3
  5
3B2
 10
584.00000000000045
 20
-485.13940728487717
 30
0.0
 11
616.00000000000091
 21
-485.13940728487717
 31
0.0
  0
LINE
  8
0
  6
CONTINUOUS
 62
               3
  5
3B3
 10
584.00000000000045
 20
-484.13940728487739
 30
0.0
 11
616.00000000000091
 21
-484.13940728487739
 31
0.0
  0
LINE
  8
0
  6
CONTINUOUS
 62
               3
  5
3B4
 10
584.00000000000045
 20
-486.13940728487739
 30
0.0
 11
616.00000000000091
 21
-486.13940728487739
 31
0.0
  0
ARC
  8
0
  6
CONTINUOUS
 62
               3
  5
3B5
 10
675.9999999999992
 20
-423.1394072848783
 30
0.0
 40
4.0
 50
0.0000000000341973
 51
89.999999999999801
  0
LINE
  8
0
  6
CONTINUOUS
 62
               3
  5
3B6
 10
679.9999999999992
 20
-423.13940728487603
 30
0.0
 11
679.99999999999943
 21
-442.1394072848783
 31
0.0
  0
ARC
  8
0
  6
CONTINUOUS
 62
               3
  5
3B7
 10
675.99999999999886
 20
-545.13940728487739
 30
0.0
 40
4.0
 50
269.99999999999778
 51
359.99999999996339
  0
LINE
  8
0
  6
CONTINUOUS
 62
               3
  5
3B8
 10
679.99999999999898
 20
-545.13940728487739
 30
0.0
 11
679.99999999999886
 21
-526.63940728487717
 31
0.0
  0
LINE
  8
0
  6
CONTINUOUS
 62
               3
  5
3B9
 10
676.99999999999943
 20
-442.1394072848783
 30
0.0
 11
677.0
 21
-526.63940728487717
 31
0.0
  0
LINE
  8
0
  6
CONTINUOUS
 62
               3
  5
3BA
 10
533.49999999999966
 20
-404.21496875454966
 30
0.0
 11
666.5
 21
-404.21496875454966
 31
0.0
  0
LINE
  8
0
  6
CONTINUOUS
 62
               3
  5
3BB
 10
533.49999999999966
 20
-368.28759334908204
 30
0.0
 11
533.49999999999966
 21
-404.21496875454966
 31
0.0
  0
LINE
  8
0
  6
CONTINUOUS
 62
               3
  5
3BC
 10
666.5
 20
-368.28759334908216
 30
0.0
 11
666.5
 21
-404.21496875454966
 31
0.0
  0
LINE
  8
0
  6
CONTINUOUS
 62
               3
  5
3BD
 10
-666.50000000000023
 20
-372.13940728487762
 30
0.0
 11
-533.5
 21
-372.13940728487762
 31
0.0
  0
LINE
  8
0
  6
CONTINUOUS
 62
               3
  5
3BE
 10
-662.00000000000034
 20
-564.06384581520444
 30
0.0
 11
-662.00000000000034
 21
-549.06384581520535
 31
0.0
  0
LINE
  8
0
  6
CONTINUOUS
 62
               3
  5
3BF
 10
-665.00000000000011
 20
-564.06384581520444
 30
0.0
 11
-535.00000000000011
 21
-564.06384581520444
 31
0.0
  0
ARC
  8
0
  6
CONTINUOUS
 62
               3
  5
3C0
 10
-675.99999999999943
 20
-423.06384581520626
 30
0.0
 40
4.0
 50
89.999999999965596
 51
179.99999999993119
  0
LINE
  8
0
  6
CONTINUOUS
 62
               3
  5
3C1
 10
-679.99999999999943
 20
-423.06384581520399
 30
0.0
 11
-679.99999999999966
 21
-442.06384581520626
 31
0.0
  0
LINE
  8
0
  6
CONTINUOUS
 62
               3
  5
3C2
 10
-615.99999999999955
 20
-419.06384581520581
 30
0.0
 11
-675.99999999999955
 21
-419.06384581520626
 31
0.0
  0
LINE
  8
0
  6
CONTINUOUS
 62
               3
  5
3C3
 10
-615.99999999999955
 20
-550.06384581520444
 30
0.0
 11
-583.99999999999898
 21
-550.06384581520399
 31
0.0
  0
ARC
  8
0
  6
CONTINUOUS
 62
               3
  5
3C4
 10
-675.9999999999992
 20
-545.06384581520535
 30
0.0
 40
4.0
 50
179.99999999993119
 51
269.99999999989683
  0
LINE
  8
0
  6
CONTINUOUS
 62
               3
  5
3C5
 10
-679.9999999999992
 20
-545.06384581520535
 30
0.0
 11
-679.9999999999992
 21
-526.56384581520513
 31
0.0
  0
LINE
  8
0
  6
CONTINUOUS
 62
               3
  5
3C6
 10
-615.99999999999955
 20
-549.06384581520467
 30
0.0
 11
-676.00000000000273
 21
-549.06384581520535
 31
0.0
  0
LINE
  8
0
  6
CONTINUOUS
 62
               3
  5
3C7
 10
-615.99999999999955
 20
-526.56384581520467
 30
0.0
 11
-679.9999999999992
 21
-526.56384581520513
 31
0.0
  0
LINE
  8
0
  6
CONTINUOUS
 62
               3
  5
3C8
 10
-679.99999999999966
 20
-442.06384581520626
 30
0.0
 11
-615.99999999999955
 21
-442.06384581520626
 31
0.0
  0
LINE
  8
0
  6
CONTINUOUS
 62
               3
  5
3C9
 10
-676.99999999999966
 20
-442.06384581520626
 30
0.0
 11
-677.00000000000034
 21
-526.56384581520513
 31
0.0
  0
LINE
  8
0
  6
CONTINUOUS
 62
               3
  5
3CA
 10
-583.99999999999955
 20
-419.06384581520581
 30
0.0
 11
-520.99999999999977
 21
-419.06384581520626
 31
0.0
  0
LINE
  8
0
  6
CONTINUOUS
 62
               3
  5
3CB
 10
-583.99999999999898
 20
-549.06384581520467
 30
0.0
 11
-524.00000000000102
 21
-549.06384581520535
 31
0.0
  0
LINE
  8
0
  6
CONTINUOUS
 62
               3
  5
3CC
 10
-583.99999999999898
 20
-526.56384581520467
 30
0.0
 11
-520.00000000000102
 21
-526.56384581520513
 31
0.0
  0
LINE
  8
0
  6
CONTINUOUS
 62
               3
  5
3CD
 10
-519.99999999999955
 20
-442.06384581520626
 30
0.0
 11
-583.99999999999955
 21
-442.06384581520626
 31
0.0
  0
LINE
  8
0
  6
CONTINUOUS
 62
               3
  5
3CE
 10
-538.00000000000023
 20
-564.06384581520444
 30
0.0
 11
-538.00000000000023
 21
-549.06384581520535
 31
0.0
  0
LINE
  8
0
  6
CONTINUOUS
 62
               3
  5
3CF
 10
-615.99999999999955
 20
-418.06384581520626
 30
0.0
 11
-615.99999999999955
 21
-550.06384581520444
 31
0.0
  0
LINE
  8
0
  6
CONTINUOUS
 62
               3
  5
3D0
 10
-583.99999999999898
 20
-550.06384581520399
 30
0.0
 11
-583.99999999999955
 21
-418.06384581520626
 31
0.0
  0
LINE
  8
0
  6
CONTINUOUS
 62
               3
  5
3D1
 10
-616.00000000000011
 20
-418.06384581520626
 30
0.0
 11
-584.00000000000011
 21
-418.06384581520626
 31
0.0
  0
LINE
  8
0
  6
CONTINUOUS
 62
               3
  5
3D2
 10
-615.99999999999955
 20
-485.06384581520513
 30
0.0
 11
-583.99999999999898
 21
-485.06384581520513
 31
0.0
  0
LINE
  8
0
  6
CONTINUOUS
 62
               3
  5
3D3
 10
-615.99999999999955
 20
-484.06384581520535
 30
0.0
 11
-583.99999999999898
 21
-484.06384581520535
 31
0.0
  0
LINE
  8
0
  6
CONTINUOUS
 62
               3
  5
3D4
 10
-615.99999999999955
 20
-486.06384581520535
 30
0.0
 11
-583.99999999999898
 21
-486.06384581520535
 31
0.0
  0
ARC
  8
0
  6
CONTINUOUS
 62
               3
  5
3D5
 10
-524.0000000000008
 20
-423.06384581520626
 30
0.0
 40
4.0
 50
0.0000000000341973
 51
89.999999999999801
  0
LINE
  8
0
  6
CONTINUOUS
 62
               3
  5
3D6
 10
-520.0000000000008
 20
-423.06384581520399
 30
0.0
 11
-520.00000000000057
 21
-442.06384581520626
 31
0.0
  0
ARC
  8
0
  6
CONTINUOUS
 62
               3
  5
3D7
 10
-524.00000000000102
 20
-545.06384581520535
 30
0.0
 40
4.0
 50
269.99999999999778
 51
359.99999999996339
  0
LINE
  8
0
  6
CONTINUOUS
 62
               3
  5
3D8
 10
-520.00000000000102
 20
-545.06384581520535
 30
0.0
 11
-520.00000000000102
 21
-526.56384581520513
 31
0.0
  0
LINE
  8
0
  6
CONTINUOUS
 62
               3
  5
3D9
 10
-523.00000000000057
 20
-442.06384581520626
 30
0.0
 11
-522.99999999999989
 21
-526.56384581520513
 31
0.0
  0
LINE
  8
0
  6
CONTINUOUS
 62
               3
  5
3DA
 10
-666.50000000000023
 20
-404.13940728487762
 30
0.0
 11
-533.5
 21
-404.13940728487762
 31
0.0
  0
LINE
  8
0
  6
CONTINUOUS
 62
               3
  5
3DB
 10
-666.50000000000023
 20
-368.21203187941001
 30
0.0
 11
-666.50000000000023
 21
-404.13940728487762
 31
0.0
  0
LINE
  8
0
  6
CONTINUOUS
 62
               3
  5
3DC
 10
-533.5
 20
-368.21203187941012
 30
0.0
 11
-533.5
 21
-404.13940728487762
 31
0.0
  0
LINE
  8
0
  6
CONTINUOUS
 62
               3
  5
3DD
 10
-128.00000000000023
 20
558.05229666162631
 30
0.0
 11
-128.00000000000023
 21
682.17406989515848
 31
0.0
  0
LINE
  8
0
  6
CONTINUOUS
 62
               3
  5
3DE
 10
-128.00000000000023
 20
558.05229666162631
 30
0.0
 11
-128.00000000000023
 21
549.54711553508639
 31
0.0
  0
LINE
  8
0
  6
CONTINUOUS
 62
               3
  5
3DF
 10
-128.00000000000023
 20
549.54711553508628
 30
0.0
 11
-47.517615216234553
 21
546.73660872790606
 31
0.0
  0
LINE
  8
0
  6
CONTINUOUS
 62
               3
  5
3E0
 10
-128.00000000000023
 20
682.17406989515848
 30
0.0
 11
-47.517615216234553
 21
684.9845767023387
 31
0.0
  0
LINE
  8
0
  6
CONTINUOUS
 62
               3
  5
3E1
 10
-128.00000000000026
 20
-42.947703338373714
 30
0.0
 11
-128.00000000000026
 21
81.174069895158425
 31
0.0
  0
LINE
  8
0
  6
CONTINUOUS
 62
               3
  5
3E2
 10
-128.00000000000026
 20
-42.947703338373714
 30
0.0
 11
-128.00000000000026
 21
-51.452884464913666
 31
0.0
  0
LINE
  8
0
  6
CONTINUOUS
 62
               3
  5
3E3
 10
-98.306178725698246
 20
-52.489815552962256
 30
0.0
 11
-128.00000000000026
 21
-51.452884464913524
 31
0.0
  0
LINE
  8
0
  6
CONTINUOUS
 62
               3
  5
3E4
 10
-85.32550251648766
 20
82.664296184958744
 30
0.0
 11
-128.00000000000026
 21
81.174069895161296
 31
0.0
  0
LINE
  8
0
  6
CONTINUOUS
 62
               3
  5
3E5
 10
-674.99999999999966
 20
180.86059271512238
 30
0.0
 11
-525.00000000000034
 21
180.86059271512238
 31
0.0
  0
LINE
  8
0
  6
CONTINUOUS
 62
               3
  5
3E6
 10
-688.49999999999989
 20
170.86059271512238
 30
0.0
 11
-688.49999999999989
 21
163.86059271512272
 31
0.0
  0
LINE
  8
0
  6
CONTINUOUS
 62
               3
  5
3E7
 10
-688.49999999999989
 20
170.86059271512238
 30
0.0
 11
-674.99999999999966
 21
180.86059271512238
 31
0.0
  0
LINE
  8
0
  6
CONTINUOUS
 62
               3
  5
3E8
 10
-511.50000000000006
 20
170.86059271512238
 30
0.0
 11
-511.50000000000006
 21
163.86059271512272
 31
0.0
  0
LINE
  8
0
  6
CONTINUOUS
 62
               3
  5
3E9
 10
-511.50000000000006
 20
170.86059271512238
 30
0.0
 11
-525.00000000000034
 21
180.86059271512238
 31
0.0
  0
ARC
  8
0
  6
CONTINUOUS
 62
               3
  5
3EA
 10
-685.49999999999966
 20
158.86059271512272
 30
0.0
 40
5.0
 50
0.0
 51
89.999999999982862
  0
LINE
  8
0
  6
CONTINUOUS
 62
               3
  5
3EB
 10
-688.49999999999989
 20
163.86059271512272
 30
0.0
 11
-685.49999999999966
 21
163.86059271512272
 31
0.0
  0
ARC
  8
0
  6
CONTINUOUS
 62
               3
  5
3EC
 10
-514.49999999999966
 20
158.86059271512272
 30
0.0
 40
5.0
 50
89.999999999982862
 51
179.99999999996524
  0
LINE
  8
0
  6
CONTINUOUS
 62
               3
  5
3ED
 10
-511.50000000000006
 20
163.86059271512272
 30
0.0
 11
-514.49999999999966
 21
163.86059271512272
 31
0.0
  0
LINE
  8
0
  6
CONTINUOUS
 62
               3
  5
3EE
 10
-75.000000000000014
 20
180.86059271512238
 30
0.0
 11
74.999999999999432
 21
180.86059271512238
 31
0.0
  0
LINE
  8
0
  6
CONTINUOUS
 62
               3
  5
3EF
 10
-88.500000000000185
 20
170.86059271512238
 30
0.0
 11
-88.500000000000185
 21
163.86059271512272
 31
0.0
  0
LINE
  8
0
  6
CONTINUOUS
 62
               3
  5
3F0
 10
-88.500000000000185
 20
170.86059271512238
 30
0.0
 11
-75.000000000000014
 21
180.86059271512238
 31
0.0
  0
LINE
  8
0
  6
CONTINUOUS
 62
               3
  5
3F1
 10
88.499999999999659
 20
170.86059271512238
 30
0.0
 11
88.499999999999659
 21
163.86059271512272
 31
0.0
  0
LINE
  8
0
  6
CONTINUOUS
 62
               3
  5
3F2
 10
88.499999999999659
 20
170.86059271512238
 30
0.0
 11
74.999999999999432
 21
180.86059271512238
 31
0.0
  0
ARC
  8
0
  6
CONTINUOUS
 62
               3
  5
3F3
 10
-85.499999999999957
 20
158.86059271512272
 30
0.0
 40
5.0
 50
0.0
 51
89.999999999982705
  0
LINE
  8
0
  6
CONTINUOUS
 62
               3
  5
3F4
 10
-88.500000000000185
 20
163.86059271512272
 30
0.0
 11
-85.499999999999957
 21
163.86059271512272
 31
0.0
  0
ARC
  8
0
  6
CONTINUOUS
 62
               3
  5
3F5
 10
85.5
 20
158.86059271512272
 30
0.0
 40
5.0
 50
89.999999999982535
 51
179.99999999996524
  0
LINE
  8
0
  6
CONTINUOUS
 62
               3
  5
3F6
 10
88.499999999999659
 20
163.86059271512272
 30
0.0
 11
85.5
 21
163.86059271512272
 31
0.0
  0
LINE
  8
0
  6
CONTINUOUS
 62
               3
  5
3F7
 10
525.0
 20
180.86059271512238
 30
0.0
 11
674.99999999999943
 21
180.86059271512238
 31
0.0
  0
LINE
  8
0
  6
CONTINUOUS
 62
               3
  5
3F8
 10
511.49999999999983
 20
170.86059271512238
 30
0.0
 11
511.49999999999983
 21
163.86059271512272
 31
0.0
  0
LINE
  8
0
  6
CONTINUOUS
 62
               3
  5
3F9
 10
511.49999999999983
 20
170.86059271512238
 30
0.0
 11
525.0
 21
180.86059271512238
 31
0.0
  0
LINE
  8
0
  6
CONTINUOUS
 62
               3
  5
3FA
 10
688.49999999999966
 20
170.86059271512238
 30
0.0
 11
688.49999999999966
 21
163.86059271512272
 31
0.0
  0
LINE
  8
0
  6
CONTINUOUS
 62
               3
  5
3FB
 10
688.49999999999966
 20
170.86059271512238
 30
0.0
 11
674.99999999999943
 21
180.86059271512238
 31
0.0
  0
ARC
  8
0
  6
CONTINUOUS
 62
               3
  5
3FC
 10
514.50000000000011
 20
158.86059271512272
 30
0.0
 40
5.0
 50
0.0
 51
89.999999999982862
  0
LINE
  8
0
  6
CONTINUOUS
 62
               3
  5
3FD
 10
511.49999999999983
 20
163.86059271512272
 30
0.0
 11
514.50000000000011
 21
163.86059271512272
 31
0.0
  0
ARC
  8
0
  6
CONTINUOUS
 62
               3
  5
3FE
 10
685.49999999999989
 20
158.86059271512272
 30
0.0
 40
5.0
 50
89.999999999982862
 51
179.99999999996524
  0
LINE
  8
0
  6
CONTINUOUS
 62
               3
  5
3FF
 10
688.49999999999966
 20
163.86059271512272
 30
0.0
 11
685.49999999999989
 21
163.86059271512272
 31
0.0
  0
LINE
  8
0
  6
CONTINUOUS
 62
               3
  5
400
 10
-680.49999999999966
 20
158.86059271512272
 30
0.0
 11
-680.49999999999989
 21
150.36059271512283
 31
0.0
  0
LINE
  8
0
  6
CONTINUOUS
 62
               3
  5
401
 10
-519.49999999999966
 20
158.86059271512272
 30
0.0
 11
-519.49999999999966
 21
150.36059271512283
 31
0.0
  0
LINE
  8
0
  6
CONTINUOUS
 62
               3
  5
402
 10
-80.499999999999957
 20
158.86059271512272
 30
0.0
 11
-80.500000000000071
 21
150.36059271512283
 31
0.0
  0
LINE
  8
0
  6
CONTINUOUS
 62
               3
  5
403
 10
80.5
 20
158.86059271512272
 30
0.0
 11
80.5
 21
150.36059271512283
 31
0.0
  0
LINE
  8
0
  6
CONTINUOUS
 62
               3
  5
404
 10
519.50000000000011
 20
158.86059271512272
 30
0.0
 11
519.49999999999989
 21
150.36059271512283
 31
0.0
  0
LINE
  8
0
  6
CONTINUOUS
 62
               3
  5
405
 10
680.49999999999989
 20
158.86059271512272
 30
0.0
 11
680.49999999999989
 21
150.36059271512283
 31
0.0
  0
ARC
  8
0
  6
CONTINUOUS
 62
               3
  5
406
 10
-47.604863957990929
 20
544.23813166035836
 30
0.0
 40
2.5
 50
56.389448470461609
 51
87.999999999982776
  0
ARC
  8
0
  6
CONTINUOUS
 62
               3
  5
407
 10
-0.0000000000000995
 20
615.86059271512238
 30
0.0
 40
88.5
 50
76.938975885051988
 51
103.06102411463802
  0
ARC
  8
0
  6
CONTINUOUS
 62
               3
  5
408
 10
-35.000000000000327
 20
698.77621247400725
 30
0.0
 40
15.0
 50
292.88538047610245
 51
359.99999999993059
  0
ARC
  8
0
  6
CONTINUOUS
 62
               3
  5
409
 10
34.999999999999957
 20
698.77621247400737
 30
0.0
 40
15.0
 50
179.9999999999653
 51
247.11461952379301
  0
LINE
  8
0
  6
CONTINUOUS
 62
               3
  5
40A
 10
-20.000000000000099
 20
696.93000741635228
 30
0.0
 11
-20.000000000000099
 21
702.07109091574705
 31
0.0
  0
LINE
  8
0
  6
CONTINUOUS
 62
               3
  5
40B
 10
19.999999999999901
 20
698.77621247400737
 30
0.0
 11
19.999999999999901
 21
702.07109091574705
 31
0.0
  0
CIRCLE
  8
0
  6
CONTINUOUS
 62
               3
  5
40C
 10
-0.0000000000000995
 20
615.86059271512238
 30
0.0
 40
75.0
  0
ARC
  8
0
  6
CONTINUOUS
 62
               3
  5
40D
 10
-0.0000000000000995
 20
615.86059271512238
 30
0.0
 40
80.500000000000043
 50
105.06541275407906
 51
165.61435521392212
  0
ARC
  8
0
  6
CONTINUOUS
 62
               3
  5
40E
 10
-0.0000000000000995
 20
615.86059271512238
 30
0.0
 40
80.500000000000043
 50
195.0654127540615
 51
254.93458724585153
  0
ARC
  8
0
  6
CONTINUOUS
 62
               3
  5
40F
 10
-0.0000000000000995
 20
615.86059271512238
 30
0.0
 40
88.5
 50
166.93897588513781
 51
193.06102411472381
  0
ARC
  8
0
  6
CONTINUOUS
 62
               3
  5
410
 10
-82.915619758885086
 20
650.86059271512238
 30
0.0
 40
15.0
 50
269.99999999994782
 51
337.11461952377596
  0
LINE
  8
0
  6
CONTINUOUS
 62
               3
  5
411
 10
-86.210498200625679
 20
595.86059271512238
 30
0.0
 11
-82.915619758885086
 21
595.86059271512238
 31
0.0
  0
LINE
  8
0
  6
CONTINUOUS
 62
               3
  5
412
 10
-86.210498200625679
 20
635.86059271512238
 30
0.0
 11
-81.069414701230002
 21
635.86059271512238
 31
0.0
  0
ARC
  8
0
  6
CONTINUOUS
 62
               3
  5
413
 10
-82.915619758885086
 20
580.86059271512238
 30
0.0
 40
15.0
 50
22.885380476153959
 51
89.999999999982592
  0
ARC
  8
0
  6
CONTINUOUS
 62
               3
  5
414
 10
-0.0000000000000995
 20
615.86059271512227
 30
0.0
 40
88.5
 50
256.93897588508594
 51
283.06102411467197
  0
ARC
  8
0
  6
CONTINUOUS
 62
               3
  5
415
 10
34.999999999999844
 20
532.94497295623739
 30
0.0
 40
15.0
 50
112.88538047613693
 51
179.9999999999653
  0
ARC
  8
0
  6
CONTINUOUS
 62
               3
  5
416
 10
-35.000000000000099
 20
532.94497295623739
 30
0.0
 40
15.0
 50
359.99999999993037
 51
427.11461952375919
  0
LINE
  8
0
  6
CONTINUOUS
 62
               3
  5
417
 10
19.999999999999901
 20
529.65009451449714
 30
0.0
 11
19.999999999999901
 21
532.94497295623739
 31
0.0
  0
LINE
  8
0
  6
CONTINUOUS
 62
               3
  5
418
 10
-20.000000000000099
 20
529.65009451449714
 30
0.0
 11
-20.000000000000099
 21
532.94497295623739
 31
0.0
  0
ARC
  8
0
  6
CONTINUOUS
 62
               3
  5
419
 10
-0.0000000000000995
 20
615.86059271512238
 30
0.0
 40
88.5
 50
346.93897588503427
 51
373.06102411462018
  0
LINE
  8
0
  6
CONTINUOUS
 62
               3
  5
41A
 10
82.915619758884901
 20
595.86059271512238
 30
0.0
 11
86.210498200624812
 21
595.86059271512238
 31
0.0
  0
LINE
  8
0
  6
CONTINUOUS
 62
               3
  5
41B
 10
82.915619758884901
 20
635.86059271512238
 30
0.0
 11
86.210498200624812
 21
635.86059271512238
 31
0.0
  0
ARC
  8
0
  6
CONTINUOUS
 62
               3
  5
41C
 10
82.915619758884901
 20
650.86059271512238
 30
0.0
 40
15.0
 50
202.88538047611959
 51
269.99999999994782
  0
ARC
  8
0
  6
CONTINUOUS
 62
               3
  5
41D
 10
82.915619758884901
 20
580.86059271512238
 30
0.0
 40
15.0
 50
89.999999999982592
 51
157.11461952381123
  0
ARC
  8
0
  6
CONTINUOUS
 62
               3
  5
41E
 10
-0.0000000000000995
 20
615.86059271512238
 30
0.0
 40
80.500000000000043
 50
15.065412754096309
 51
74.934587245886249
  0
ARC
  8
0
  6
CONTINUOUS
 62
               3
  5
41F
 10
-0.0000000000000995
 20
615.86059271512238
 30
0.0
 40
80.500000000000043
 50
285.06541275404408
 51
344.93458724583411
  0
ARC
  8
0
  6
CONTINUOUS
 62
               3
  5
420
 10
0.0
 20
615.86059271512238
 30
0.0
 40
83.499999999999901
 50
236.38944847042708
 51
256.14173134477483
  0
ARC
  8
0
  6
CONTINUOUS
 62
               3
  5
421
 10
-48.393892694184501
 20
689.95702414001448
 30
0.0
 40
5.0
 50
271.99999999994759
 51
303.14937354327907
  0
ARC
  8
0
  6
CONTINUOUS
 62
               3
  5
422
 10
0.0
 20
615.86059271512238
 30
0.0
 40
83.499999999999901
 50
103.85826865515553
 51
166.14173134479228
  0
ARC
  8
0
  6
CONTINUOUS
 62
               3
  5
423
 10
0.0
 20
615.86059271512238
 30
0.0
 40
83.499999999999901
 50
103.06102411478059
 51
166.14173134479228
  0
ARC
  8
0
  6
CONTINUOUS
 62
               3
  5
424
 10
0.0
 20
615.86059271512238
 30
0.0
 40
83.499999999999901
 50
193.85826865513809
 51
256.14173134477483
  0
ARC
  8
0
  6
CONTINUOUS
 62
               3
  5
425
 10
0.0
 20
615.86059271512238
 30
0.0
 40
83.499999999999901
 50
193.85826865513809
 51
236.38944847042708
  0
ARC
  8
0
  6
CONTINUOUS
 62
               3
  5
426
 10
-74.096431424891833
 20
567.46670002092731
 30
0.0
 40
5.0
 50
2.0000000000029963
 51
33.14937354333685
  0
ARC
  8
0
  6
CONTINUOUS
 62
               3
  5
427
 10
74.096431424891989
 20
567.46670002093958
 30
0.0
 40
5.0
 50
146.85062645663493
 51
177.99999999996729
  0
ARC
  8
0
  6
CONTINUOUS
 62
               3
  5
428
 10
0.0
 20
615.86059271512238
 30
0.0
 40
83.499999999999901
 50
13.858268655172918
 51
76.141731344809685
  0
ARC
  8
0
  6
CONTINUOUS
 62
               3
  5
429
 10
0.0
 20
615.86059271512238
 30
0.0
 40
83.499999999999901
 50
283.06102411474581
 51
346.14173134475743
  0
CIRCLE
  8
0
  6
CONTINUOUS
 62
               3
  5
42A
 10
609.28652321630784
 20
-1047.9962717979274
 30
0.0
 40
75.0
  0
CIRCLE
  8
0
  6
CONTINUOUS
 62
               3
  5
42B
 10
609.28652321630784
 20
-1047.9962717979274
 30
0.0
 40
52.5
  0
LINE
  8
0
  6
CONTINUOUS
 62
               3
  5
42C
 10
523.0760250156826
 20
-1027.9962717979274
 30
0.0
 11
537.00236174230247
 21
-1027.9962717979274
 31
0.0
  0
LINE
  8
0
  6
CONTINUOUS
 62
               3
  5
42D
 10
537.00236174230247
 20
-1067.9962717979274
 30
0.0
 11
523.0760250156826
 21
-1067.9962717979274
 31
0.0
  0
ARC
  8
0
  6
CONTINUOUS
 62
               3
  5
42E
 10
609.28652321630784
 20
-1047.9962717979274
 30
0.0
 40
88.5
 50
166.93897588510336
 51
193.06102411468945
  0
LINE
  8
0
  6
CONTINUOUS
 62
               3
  5
42F
 10
589.28652321630784
 20
-1134.2067699985523
 30
0.0
 11
589.28652321630784
 21
-1120.2804332719325
 31
0.0
  0
LINE
  8
0
  6
CONTINUOUS
 62
               3
  5
430
 10
629.28652321630784
 20
-1120.2804332719325
 30
0.0
 11
629.28652321630784
 21
-1134.2067699985523
 31
0.0
  0
ARC
  8
0
  6
CONTINUOUS
 62
               3
  5
431
 10
609.28652321630784
 20
-1047.9962717979274
 30
0.0
 40
88.5
 50
256.93897588505166
 51
283.06102411463769
  0
LINE
  8
0
  6
CONTINUOUS
 62
               3
  5
432
 10
695.49702141693251
 20
-1067.9962717979274
 30
0.0
 11
681.57068469031196
 21
-1067.9962717979274
 31
0.0
  0
LINE
  8
0
  6
CONTINUOUS
 62
               3
  5
433
 10
681.57068469031196
 20
-1027.9962717979274
 30
0.0
 11
695.49702141693251
 21
-1027.9962717979274
 31
0.0
  0
ARC
  8
0
  6
CONTINUOUS
 62
               3
  5
434
 10
609.28652321630784
 20
-1047.9962717979274
 30
0.0
 40
88.5
 50
346.93897588499982
 51
373.06102411458585
  0
LINE
  8
0
  6
CONTINUOUS
 62
               3
  5
435
 10
629.28652321630784
 20
-961.78577359730184
 30
0.0
 11
629.28652321630784
 21
-975.71211032392239
 31
0.0
  0
LINE
  8
0
  6
CONTINUOUS
 62
               3
  5
436
 10
589.28652321630784
 20
-975.71211032392239
 30
0.0
 11
589.28652321630784
 21
-961.78577359730184
 31
0.0
  0
ARC
  8
0
  6
CONTINUOUS
 62
               3
  5
437
 10
609.28652321630784
 20
-1047.9962717979274
 30
0.0
 40
88.5
 50
76.938975885155216
 51
103.06102411474124
  0
LINE
  8
0
  6
CONTINUOUS
 62
               3
  5
438
 10
561.61839969544678
 20
-1069.9962717979279
 30
0.0
 11
656.95464673716765
 21
-1069.9962717979279
 31
0.0
  0
ARC
  8
0
  6
CONTINUOUS
 62
               3
  5
439
 10
621.79013486568897
 20
-1039.2898741703084
 30
0.0
 40
54.763804151667173
 50
141.3859176367566
 51
145.15009542087031
  0
ARC
  8
0
  6
CONTINUOUS
 62
               3
  5
43A
 10
609.28652321630784
 20
-1047.9962717979274
 30
0.0
 40
51.5
 50
334.71098847326505
 51
410.95932736340404
  0
ARC
  8
0
  6
CONTINUOUS
 62
               3
  5
43B
 10
609.28652321630784
 20
-1047.9962717979274
 30
0.0
 40
51.5
 50
129.04067263628559
 51
205.28901152642416
  0
ARC
  8
0
  6
CONTINUOUS
 62
               3
  5
43C
 10
609.28652321630784
 20
-1047.9962717979274
 30
0.0
 40
77.5
 50
104.95524831658301
 51
128.57288309095932
  0
ARC
  8
0
  6
CONTINUOUS
 62
               3
  5
43D
 10
609.28652321630784
 20
-1047.9962717979274
 30
0.0
 40
77.5
 50
14.9552483166347
 51
75.044751683313535
  0
ARC
  8
0
  6
CONTINUOUS
 62
               3
  5
43E
 10
609.28652321630784
 20
-1047.9962717979274
 30
0.0
 40
77.5
 50
321.42711690878122
 51
345.04475168315804
  0
LINE
  8
0
  6
CONTINUOUS
 62
               3
  5
43F
 10
469.28652321630778
 20
-1102.9962717979274
 30
0.0
 11
469.95807934227201
 21
-1102.9962717979274
 31
0.0
  0
LINE
  8
0
  6
CONTINUOUS
 62
               3
  5
440
 10
472.45807934227247
 20
-1105.4962717979274
 30
0.0
 11
469.95807934227201
 21
-1102.9962717979274
 31
0.0
  0
LINE
  8
0
  6
CONTINUOUS
 62
               3
  5
441
 10
469.28652321630778
 20
-992.99627179792742
 30
0.0
 11
469.95807934227201
 21
-992.99627179792742
 31
0.0
  0
LINE
  8
0
  6
CONTINUOUS
 62
               3
  5
442
 10
472.45807934227201
 20
-990.49627179792742
 30
0.0
 11
469.95807934227201
 21
-992.99627179792742
 31
0.0
  0
LINE
  8
0
  6
CONTINUOUS
 62
               3
  5
443
 10
469.95807934227201
 20
-992.99627179792742
 30
0.0
 11
469.95807934227201
 21
-1102.9962717979274
 31
0.0
  0
LINE
  8
0
  6
CONTINUOUS
 62
               3
  5
444
 10
563.79618742992989
 20
-987.30667477958582
 30
0.0
 11
472.45807934227201
 21
-990.49627179792742
 31
0.0
  0
LINE
  8
0
  6
CONTINUOUS
 62
               3
  5
445
 10
544.4500514997568
 20
-1108.0102868628951
 30
0.0
 11
472.45807934227258
 21
-1105.4962717979274
 31
0.0
  0
LINE
  8
0
  6
CONTINUOUS
 62
               3
  5
446
 10
464.28652321630778
 20
-993.16782792389154
 30
0.0
 11
464.28652321630778
 21
-1103.0962717979273
 31
0.0
  0
LINE
  8
0
  6
CONTINUOUS
 62
               3
  5
447
 10
469.28652321630778
 20
-1105.5962717979273
 30
0.0
 11
469.28652321630778
 21
-990.39627179792728
 31
0.0
  0
LINE
  8
0
  6
CONTINUOUS
 62
               3
  5
448
 10
469.28652321630778
 20
-990.39627179792728
 30
0.0
 11
466.78652321630778
 21
-990.39627179792728
 31
0.0
  0
LINE
  8
0
  6
CONTINUOUS
 62
               3
  5
449
 10
469.28652321630778
 20
-1105.5962717979273
 30
0.0
 11
466.78652321630778
 21
-1105.5962717979273
 31
0.0
  0
ARC
  8
0
  6
CONTINUOUS
 62
               3
  5
44A
 10
466.78652321630778
 20
-1103.0962717979273
 30
0.0
 40
2.5
 50
179.99999999989538
 51
269.99999999984436
  0
ARC
  8
0
  6
CONTINUOUS
 62
               3
  5
44B
 10
466.78652321630778
 20
-992.89627179792728
 30
0.0
 40
2.5
 50
89.999999999948997
 51
179.99999999989538
  0
LINE
  8
0
  6
CONTINUOUS
 62
               3
  5
44C
 10
576.84812004969024
 20
-1007.9962717979276
 30
0.0
 11
609.28652321630784
 21
-1007.9962717979276
 31
0.0
  0
LINE
  8
0
  6
CONTINUOUS
 62
               3
  5
44D
 10
609.28652321630784
 20
-1007.9962717979276
 30
0.0
 11
643.29019948814653
 21
-1007.9962717979276
 31
0.0
  0
LINE
  8
0
  6
CONTINUOUS
 62
               3
  5
44E
 10
472.45807934227247
 20
-1105.4962717979274
 30
0.0
 11
472.45807934227201
 21
-990.49627179792742
 31
0.0
  0
ARC
  8
0
  6
CONTINUOUS
 62
               3
  5
44F
 10
563.6216899464174
 20
-982.3097206444902
 30
0.0
 40
5.0
 50
271.99999999984402
 51
304.806757870252
  0
LINE
  8
0
  6
CONTINUOUS
 62
               3
  5
450
 10
664.28652321630761
 20
-1187.9962717979274
 30
0.0
 11
664.28652321630761
 21
-1187.3247156719631
 31
0.0
  0
LINE
  8
0
  6
CONTINUOUS
 62
               3
  5
451
 10
666.78652321630761
 20
-1184.8247156719626
 30
0.0
 11
664.28652321630761
 21
-1187.3247156719631
 31
0.0
  0
LINE
  8
0
  6
CONTINUOUS
 62
               3
  5
452
 10
554.28652321630773
 20
-1187.9962717979274
 30
0.0
 11
554.28652321630773
 21
-1187.3247156719631
 31
0.0
  0
LINE
  8
0
  6
CONTINUOUS
 62
               3
  5
453
 10
551.78652321630773
 20
-1184.8247156719631
 30
0.0
 11
554.28652321630773
 21
-1187.3247156719631
 31
0.0
  0
LINE
  8
0
  6
CONTINUOUS
 62
               3
  5
454
 10
554.28652321630773
 20
-1187.3247156719631
 30
0.0
 11
664.28652321630761
 21
-1187.3247156719631
 31
0.0
  0
LINE
  8
0
  6
CONTINUOUS
 62
               3
  5
455
 10
554.45807934227184
 20
-1192.9962717979274
 30
0.0
 11
664.38652321630775
 21
-1192.9962717979274
 31
0.0
  0
LINE
  8
0
  6
CONTINUOUS
 62
               3
  5
456
 10
666.88652321630775
 20
-1187.9962717979274
 30
0.0
 11
551.68652321630771
 21
-1187.9962717979274
 31
0.0
  0
LINE
  8
0
  6
CONTINUOUS
 62
               3
  5
457
 10
551.68652321630771
 20
-1187.9962717979274
 30
0.0
 11
551.68652321630771
 21
-1190.4962717979274
 31
0.0
  0
LINE
  8
0
  6
CONTINUOUS
 62
               3
  5
458
 10
666.88652321630775
 20
-1187.9962717979274
 30
0.0
 11
666.88652321630775
 21
-1190.4962717979274
 31
0.0
  0
ARC
  8
0
  6
CONTINUOUS
 62
               3
  5
459
 10
664.38652321630775
 20
-1190.4962717979274
 30
0.0
 40
2.5
 50
269.99999999984567
 51
359.99999999979337
  0
ARC
  8
0
  6
CONTINUOUS
 62
               3
  5
45A
 10
554.18652321630771
 20
-1190.4962717979274
 30
0.0
 40
2.5
 50
179.99999999989538
 51
269.99999999984567
  0
LINE
  8
0
  6
CONTINUOUS
 62
               3
  5
45B
 10
666.78652321630761
 20
-1184.8247156719626
 30
0.0
 11
551.78652321630773
 21
-1184.8247156719631
 31
0.0
  0
LINE
  8
0
  6
CONTINUOUS
 62
               3
  5
45C
 10
669.97612023464876
 20
-1093.4866075843056
 30
0.0
 11
666.78652321630761
 21
-1184.8247156719626
 31
0.0
  0
ARC
  8
0
  6
CONTINUOUS
 62
               3
  5
45D
 10
674.97307436974438
 20
-1093.6611050678184
 30
0.0
 40
5.0
 50
145.19324212948862
 51
177.99999999989819
  0
LINE
  8
0
  6
CONTINUOUS
 62
               3
  5
45E
 10
549.27250815133971
 20
-1112.8327435144784
 30
0.0
 11
551.78652321630773
 21
-1184.8247156719631
 31
0.0
  0
ARC
  8
0
  6
CONTINUOUS
 62
               3
  5
45F
 10
544.27555401624431
 20
-1113.0072409979903
 30
0.0
 40
5.0
 50
1.9999999999958187
 51
87.99999999994921
  0
LINE
  8
0
  6
CONTINUOUS
 62
               3
  5
460
 10
534.28652321630784
 20
-1356.4957055465115
 30
0.0
 11
684.28652321630784
 21
-1356.4957055465115
 31
0.0
  0
LINE
  8
0
  6
CONTINUOUS
 62
               3
  5
461
 10
520.78652321630761
 20
-1366.4957055465115
 30
0.0
 11
520.78652321630761
 21
-1373.4957055465111
 31
0.0
  0
LINE
  8
0
  6
CONTINUOUS
 62
               3
  5
462
 10
520.78652321630761
 20
-1366.4957055465115
 30
0.0
 11
534.28652321630784
 21
-1356.4957055465115
 31
0.0
  0
ARC
  8
0
  6
CONTINUOUS
 62
               3
  5
463
 10
532.28652321630796
 20
-1378.0782812414668
 30
0.0
 40
4.9999999999999991
 50
0.0
 51
66.421821521760023
  0
LINE
  8
0
  6
CONTINUOUS
 62
               3
  5
464
 10
520.78652321630761
 20
-1373.4957055465111
 30
0.0
 11
697.78652321630739
 21
-1373.4957055465111
 31
0.0
  0
ARC
  8
0
  6
CONTINUOUS
 62
               3
  5
465
 10
554.28652321630784
 20
-1463.4957055465115
 30
0.0
 40
19.999999999999996
 50
148.21166938286279
 51
167.26981986159123
  0
LINE
  8
0
  6
CONTINUOUS
 62
               3
  5
466
 10
537.28652321630796
 20
-1378.0782812414668
 30
0.0
 11
537.28652321630796
 21
-1452.9600517936587
 31
0.0
  0
LINE
  8
0
  6
CONTINUOUS
 62
               3
  5
467
 10
681.28652321630761
 20
-1447.9600517936583
 30
0.0
 11
681.28652321630761
 21
-1378.0782812414668
 31
0.0
  0
LINE
  8
0
  6
CONTINUOUS
 62
               3
  5
468
 10
537.28652321630796
 20
-1452.9600517936587
 30
0.0
 11
680.78652321630807
 21
-1452.9600517936587
 31
0.0
  0
LINE
  8
0
  6
CONTINUOUS
 62
               3
  5
469
 10
589.28652321630784
 20
-1373.4957055465111
 30
0.0
 11
589.28652321630784
 21
-1356.4957055465115
 31
0.0
  0
LINE
  8
0
  6
CONTINUOUS
 62
               3
  5
46A
 10
629.28652321630784
 20
-1356.4957055465115
 30
0.0
 11
629.28652321630784
 21
-1373.4957055465111
 31
0.0
  0
LINE
  8
0
  6
CONTINUOUS
 62
               3
  5
46B
 10
589.28652321630784
 20
-1366.4957055465115
 30
0.0
 11
629.28652321630784
 21
-1366.4957055465115
 31
0.0
  0
LINE
  8
0
  6
CONTINUOUS
 62
               3
  5
46C
 10
537.00236174230247
 20
-1356.4957055465115
 30
0.0
 11
537.00236174230247
 21
-1373.4957055465111
 31
0.0
  0
LINE
  8
0
  6
CONTINUOUS
 62
               3
  5
46D
 10
523.0760250156826
 20
-1366.4957055465115
 30
0.0
 11
523.0760250156826
 21
-1373.4957055465111
 31
0.0
  0
LINE
  8
0
  6
CONTINUOUS
 62
               3
  5
46E
 10
520.78652321630761
 20
-1366.4957055465115
 30
0.0
 11
523.0760250156826
 21
-1366.4957055465115
 31
0.0
  0
LINE
  8
0
  6
CONTINUOUS
 62
               3
  5
46F
 10
523.0760250156826
 20
-1366.4957055465115
 30
0.0
 11
537.00236174230247
 21
-1356.4957055465115
 31
0.0
  0
LINE
  8
0
  6
CONTINUOUS
 62
               3
  5
470
 10
697.78652321630739
 20
-1366.4957055465115
 30
0.0
 11
697.78652321630739
 21
-1373.4957055465111
 31
0.0
  0
LINE
  8
0
  6
CONTINUOUS
 62
               3
  5
471
 10
697.78652321630739
 20
-1366.4957055465115
 30
0.0
 11
684.28652321630784
 21
-1356.4957055465115
 31
0.0
  0
ARC
  8
0
  6
CONTINUOUS
 62
               3
  5
472
 10
686.28652321630761
 20
-1378.0782812414668
 30
0.0
 40
4.9999999999999991
 50
113.57817847813573
 51
179.99999999989538
  0
LINE
  8
0
  6
CONTINUOUS
 62
               3
  5
473
 10
681.57068469031196
 20
-1356.4957055465115
 30
0.0
 11
681.57068469031196
 21
-1373.4957055465111
 31
0.0
  0
LINE
  8
0
  6
CONTINUOUS
 62
               3
  5
474
 10
695.49702141693297
 20
-1366.4957055465115
 30
0.0
 11
695.49702141693297
 21
-1373.4957055465111
 31
0.0
  0
LINE
  8
0
  6
CONTINUOUS
 62
               3
  5
475
 10
697.78652321630739
 20
-1366.4957055465115
 30
0.0
 11
695.49702141693297
 21
-1366.4957055465115
 31
0.0
  0
LINE
  8
0
  6
CONTINUOUS
 62
               3
  5
476
 10
695.49702141693297
 20
-1366.4957055465115
 30
0.0
 11
681.57068469031196
 21
-1356.4957055465115
 31
0.0
  0
ARC
  8
0
  6
CONTINUOUS
 62
               3
  5
477
 10
544.28652321630784
 20
-1584.9957055465115
 30
0.0
 40
2.4999999999999996
 50
89.99999999994769
 51
269.99999999984567
  0
ARC
  8
0
  6
CONTINUOUS
 62
               3
  5
478
 10
684.28652321630784
 20
-1584.9957055465115
 30
0.0
 40
2.4999999999999996
 50
269.99999999984567
 51
449.99999999974102
  0
LINE
  8
0
  6
CONTINUOUS
 62
               3
  5
479
 10
469.28652321630778
 20
-1577.4957055465115
 30
0.0
 11
469.95807934227213
 21
-1577.4957055465115
 31
0.0
  0
LINE
  8
0
  6
CONTINUOUS
 62
               3
  5
47A
 10
472.45807934227224
 20
-1579.9957055465111
 30
0.0
 11
469.95807934227213
 21
-1577.4957055465115
 31
0.0
  0
LINE
  8
0
  6
CONTINUOUS
 62
               3
  5
47B
 10
472.45807934227304
 20
-1579.9957055465115
 30
0.0
 11
514.62318959855043
 21
-1581.4681436423657
 31
0.0
  0
LINE
  8
0
  6
CONTINUOUS
 62
               3
  5
47C
 10
532.82205712224038
 20
-1597.7673949727978
 30
0.0
 11
517.9842260209706
 21
-1582.9295638715284
 31
0.0
  0
ARC
  8
0
  6
CONTINUOUS
 62
               3
  5
47D
 10
529.28652321630784
 20
-1601.3029288787307
 30
0.0
 40
4.9999999999999991
 50
0.0
 51
44.999999999973191
  0
LINE
  8
0
  6
CONTINUOUS
 62
               3
  5
47E
 10
469.28652321630778
 20
-1467.4957055465115
 30
0.0
 11
469.95807934227213
 21
-1467.4957055465115
 31
0.0
  0
LINE
  8
0
  6
CONTINUOUS
 62
               3
  5
47F
 10
472.45807934227224
 20
-1464.9957055465115
 30
0.0
 11
469.95807934227213
 21
-1467.4957055465115
 31
0.0
  0
LINE
  8
0
  6
CONTINUOUS
 62
               3
  5
480
 10
472.45807934227213
 20
-1464.9957055465115
 30
0.0
 11
530.0755555444465
 21
-1462.9836589413594
 31
0.0
  0
LINE
  8
0
  6
CONTINUOUS
 62
               3
  5
481
 10
469.95807934227213
 20
-1467.4957055465115
 30
0.0
 11
469.95807934227213
 21
-1577.4957055465115
 31
0.0
  0
LINE
  8
0
  6
CONTINUOUS
 62
               3
  5
482
 10
469.28652321630778
 20
-1580.0957055465115
 30
0.0
 11
469.28652321630778
 21
-1464.8957055465116
 31
0.0
  0
LINE
  8
0
  6
CONTINUOUS
 62
               3
  5
483
 10
469.28652321630778
 20
-1464.8957055465116
 30
0.0
 11
466.78652321630778
 21
-1464.8957055465116
 31
0.0
  0
ARC
  8
0
  6
CONTINUOUS
 62
               3
  5
484
 10
466.78652321630778
 20
-1467.3957055465116
 30
0.0
 40
2.5
 50
89.999999999948997
 51
179.99999999989538
  0
LINE
  8
0
  6
CONTINUOUS
 62
               3
  5
485
 10
464.28652321630778
 20
-1467.3957055465116
 30
0.0
 11
464.28652321630778
 21
-1577.5957055465115
 31
0.0
  0
LINE
  8
0
  6
CONTINUOUS
 62
               3
  5
486
 10
469.28652321630778
 20
-1580.0957055465115
 30
0.0
 11
466.78652321630778
 21
-1580.0957055465115
 31
0.0
  0
ARC
  8
0
  6
CONTINUOUS
 62
               3
  5
487
 10
466.78652321630778
 20
-1577.5957055465115
 30
0.0
 40
2.5
 50
179.99999999989538
 51
269.99999999984436
  0
LINE
  8
0
  6
CONTINUOUS
 62
               3
  5
488
 10
472.45807934227224
 20
-1464.9957055465115
 30
0.0
 11
472.45807934227304
 21
-1579.9957055465115
 31
0.0
  0
ARC
  8
0
  6
CONTINUOUS
 62
               3
  5
489
 10
514.44869211503794
 20
-1586.4650977774613
 30
0.0
 40
5.0
 50
44.999999999975948
 51
87.999999999949253
  0
ARC
  8
0
  6
CONTINUOUS
 62
               3
  5
48A
 10
529.90105806093402
 20
-1457.9867048062638
 30
0.0
 40
5.0
 50
271.99999999984408
 51
347.26981986148661
  0
CIRCLE
  8
0
  6
CONTINUOUS
 62
               3
  5
48B
 10
609.28652321630784
 20
-1522.4957055465115
 30
0.0
 40
48.5
  0
CIRCLE
  8
0
  6
CONTINUOUS
 62
               3
  5
48C
 10
609.28652321630784
 20
-1522.4957055465115
 30
0.0
 40
47.299999999999997
  0
LINE
  8
0
  6
CONTINUOUS
 62
               3
  5
48D
 10
577.46671806291329
 20
-1554.3155106999061
 30
0.0
 11
575.84037246618414
 21
-1555.9418562966353
 31
0.0
  0
LINE
  8
0
  6
CONTINUOUS
 62
               3
  5
48E
 10
641.1063283697024
 20
-1554.3155106999061
 30
0.0
 11
642.73267396643155
 21
-1555.9418562966353
 31
0.0
  0
ARC
  8
0
  6
CONTINUOUS
 62
               3
  5
48F
 10
609.28652321630784
 20
-1522.4957055465115
 30
0.0
 40
45.0
 50
224.99999999987043
 51
314.99999999981884
  0
CIRCLE
  8
0
  6
CONTINUOUS
 62
               3
  5
490
 10
609.28652321630784
 20
-1522.4957055465115
 30
0.0
 40
57.600000000000001
  0
ARC
  8
0
  6
CONTINUOUS
 62
               3
  5
491
 10
586.78652321630841
 20
-1584.9957055465115
 30
0.0
 40
2.4999999999999996
 50
269.99999999984567
 51
449.99999999974102
  0
ARC
  8
0
  6
CONTINUOUS
 62
               3
  5
492
 10
631.7865232163083
 20
-1584.9957055465115
 30
0.0
 40
2.4999999999999996
 50
89.99999999994769
 51
269.99999999984567
  0
LINE
  8
0
  6
CONTINUOUS
 62
               3
  5
493
 10
544.28652321630784
 20
-1587.4957055465115
 30
0.0
 11
586.78652321630841
 21
-1587.4957055465115
 31
0.0
  0
LINE
  8
0
  6
CONTINUOUS
 62
               3
  5
494
 10
544.28652321630784
 20
-1582.4957055465115
 30
0.0
 11
586.78652321630841
 21
-1582.4957055465115
 31
0.0
  0
LINE
  8
0
  6
CONTINUOUS
 62
               3
  5
495
 10
631.7865232163083
 20
-1582.4957055465115
 30
0.0
 11
684.28652321630784
 21
-1582.4957055465115
 31
0.0
  0
LINE
  8
0
  6
CONTINUOUS
 62
               3
  5
496
 10
631.7865232163083
 20
-1587.4957055465115
 30
0.0
 11
684.28652321630784
 21
-1587.4957055465115
 31
0.0
  0
CIRCLE
  8
0
  6
CONTINUOUS
 62
               3
  5
497
 10
609.28652321630784
 20
-1047.9962717979274
 30
0.0
 40
59.0
  0
INSERT
  8
0
  6
CONTINUOUS
  5
498
  2
GROUP_1
 10
0.0
 20
0.0
 30
0.0
  0
INSERT
  8
0
  6
CONTINUOUS
  5
499
  2
GROUP_2
 10
0.0
 20
0.0
 30
0.0
  0
INSERT
  8
0
  6
CONTINUOUS
  5
49A
  2
GROUP_3
 10
0.0
 20
0.0
 30
0.0
  0
LINE
  8
LAYER001
  6
CONTINUOUS
 62
               3
  5
49B
 10
-60.269964753301039
 20
-404.13940728487762
 30
0.0
 11
-60.269964753301039
 21
-419.13940728487762
 31
0.0
  0
LINE
  8
LAYER001
  6
CONTINUOUS
 62
               3
  5
49C
 10
60.269964753300727
 20
-404.13940728487762
 30
0.0
 11
60.269964753300727
 21
-419.13940728487762
 31
0.0
  0
LINE
  8
LAYER001
  6
CONTINUOUS
 62
               3
  5
49D
 10
660.26996475330066
 20
-404.21496875454966
 30
0.0
 11
660.26996475330066
 21
-419.21496875454966
 31
0.0
  0
LINE
  8
LAYER001
  6
CONTINUOUS
 62
               3
  5
49E
 10
539.73003524669889
 20
-404.21496875454966
 30
0.0
 11
539.73003524669889
 21
-419.21496875454966
 31
0.0
  0
LINE
  8
LAYER001
  6
CONTINUOUS
 62
               3
  5
49F
 10
-539.73003524669923
 20
-404.13940728487762
 30
0.0
 11
-539.73003524669923
 21
-419.13940728487762
 31
0.0
  0
LINE
  8
LAYER001
  6
CONTINUOUS
 62
               3
  5
4A0
 10
-660.269964753301
 20
-404.13940728487762
 30
0.0
 11
-660.269964753301
 21
-419.13940728487762
 31
0.0
  0
POINT
  8
0
  6
CONTINUOUS
 62
               5
  5
4A1
 10
-392.13776905046876
 20
-1105.6807073697182
 30
0.0
  0
POINT
  8
0
  6
CONTINUOUS
 62
               5
  5
4A2
 10
-218.90769754050842
 20
-1106.9715014446074
 30
0.0
  0
POINT
  8
0
  6
CONTINUOUS
 62
               5
  5
4A3
 10
-565.36784056042893
 20
-1106.9715014446069
 30
0.0
  0
POINT
  8
0
  6
CONTINUOUS
 62
               5
  5
4A4
 10
-395.37452052112434
 20
-924.98275179072311
 30
0.0
  0
POINT
  8
0
  6
CONTINUOUS
 62
               5
  5
4A5
 10
493.01659472626812
 20
-1523.7864996214007
 30
0.0
  0
POINT
  8
0
  6
CONTINUOUS
 62
               5
  5
4A6
 10
493.01659472626824
 20
-1046.7054777230383
 30
0.0
  0
CIRCLE
  8
0
  6
CONTINUOUS
 62
               7
  5
4A7
 10
-392.13776905046876
 20
-1112.1807073697182
 30
0.0
 40
38.0
  0
CIRCLE
  8
0
  6
CONTINUOUS
 62
               7
  5
4A8
 10
-392.13776905046876
 20
-1112.1807073697182
 30
0.0
 40
33.5
  0
LINE
  8
0
  6
CONTINUOUS
 62
               7
  5
4A9
 10
-247.63776905046876
 20
-1061.1807073697182
 30
0.0
 11
-247.63776905046876
 21
-1150.1754712490438
 31
0.0
  0
LINE
  8
0
  6
CONTINUOUS
 62
               7
  5
4AA
 10
-247.03776905046874
 20
-1061.1807073697182
 30
0.0
 11
-247.63776905046876
 21
-1061.1807073697182
 31
0.0
  0
LINE
  8
0
  6
CONTINUOUS
 62
               7
  5
4AB
 10
-282.63776905046876
 20
-1149.1807073697182
 30
0.0
 11
-282.63776905046876
 21
-1075.1807073697182
 31
0.0
  0
LINE
  8
0
  6
CONTINUOUS
 62
               7
  5
4AC
 10
-189.63776905046876
 20
-1149.1807073697182
 30
0.0
 11
-189.63776905046876
 21
-1062.1807073697182
 31
0.0
  0
LINE
  8
0
  6
CONTINUOUS
 62
               7
  5
4AD
 10
-247.63776905046876
 20
-1061.1807073697182
 30
0.0
 11
-190.63776905046876
 21
-1061.1807073697182
 31
0.0
  0
LINE
  8
0
  6
CONTINUOUS
 62
               7
  5
4AE
 10
-281.63776905046876
 20
-1150.1807073697182
 30
0.0
 11
-190.63776905046876
 21
-1150.1807073697182
 31
0.0
  0
LINE
  8
0
  6
CONTINUOUS
 62
               7
  5
4AF
 10
-190.63776905046876
 20
-1061.1807073697182
 30
0.0
 11
-189.63776905046876
 21
-1062.1807073697182
 31
0.0
  0
LINE
  8
0
  6
CONTINUOUS
 62
               7
  5
4B0
 10
-189.63776905046876
 20
-1149.1807073697182
 30
0.0
 11
-190.63776905046876
 21
-1150.1807073697182
 31
0.0
  0
LINE
  8
0
  6
CONTINUOUS
 62
               7
  5
4B1
 10
-281.63776905046876
 20
-1074.1807073697182
 30
0.0
 11
-247.63776905046876
 21
-1074.1807073697182
 31
0.0
  0
CIRCLE
  8
0
  6
CONTINUOUS
 62
               7
  5
4B2
 10
-392.13776905046876
 20
-1105.6807073697182
 30
0.0
 40
44.5
  0
LINE
  8
0
  6
CONTINUOUS
 62
               7
  5
4B3
 10
-281.63776905046876
 20
-1074.1807073697182
 30
0.0
 11
-282.63776905046876
 21
-1075.1807073697182
 31
0.0
  0
LINE
  8
0
  6
CONTINUOUS
 62
               7
  5
4B4
 10
-282.63776905046876
 20
-1149.1807073697182
 30
0.0
 11
-281.63776905046876
 21
-1150.1807073697182
 31
0.0
  0
LINE
  8
0
  6
CONTINUOUS
 62
               7
  5
4B5
 10
-536.63776905046871
 20
-1061.1807073697182
 30
0.0
 11
-536.63776905046871
 21
-1150.1754712490438
 31
0.0
  0
LINE
  8
0
  6
CONTINUOUS
 62
               7
  5
4B6
 10
-537.23776905046861
 20
-1061.1807073697182
 30
0.0
 11
-536.63776905046871
 21
-1061.1807073697182
 31
0.0
  0
LINE
  8
0
  6
CONTINUOUS
 62
               7
  5
4B7
 10
-501.63776905046871
 20
-1149.1807073697182
 30
0.0
 11
-501.63776905046871
 21
-1075.1807073697182
 31
0.0
  0
LINE
  8
0
  6
CONTINUOUS
 62
               7
  5
4B8
 10
-594.63776905046871
 20
-1149.1807073697182
 30
0.0
 11
-594.63776905046871
 21
-1062.1807073697182
 31
0.0
  0
LINE
  8
0
  6
CONTINUOUS
 62
               7
  5
4B9
 10
-536.63776905046871
 20
-1061.1807073697182
 30
0.0
 11
-593.63776905046871
 21
-1061.1807073697182
 31
0.0
  0
LINE
  8
0
  6
CONTINUOUS
 62
               7
  5
4BA
 10
-502.63776905046871
 20
-1150.1807073697182
 30
0.0
 11
-593.63776905046871
 21
-1150.1807073697182
 31
0.0
  0
LINE
  8
0
  6
CONTINUOUS
 62
               7
  5
4BB
 10
-593.63776905046871
 20
-1061.1807073697182
 30
0.0
 11
-594.63776905046871
 21
-1062.1807073697182
 31
0.0
  0
LINE
  8
0
  6
CONTINUOUS
 62
               7
  5
4BC
 10
-594.63776905046871
 20
-1149.1807073697182
 30
0.0
 11
-593.63776905046871
 21
-1150.1807073697182
 31
0.0
  0
LINE
  8
0
  6
CONTINUOUS
 62
               7
  5
4BD
 10
-502.63776905046871
 20
-1074.1807073697182
 30
0.0
 11
-536.63776905046871
 21
-1074.1807073697182
 31
0.0
  0
LINE
  8
0
  6
CONTINUOUS
 62
               7
  5
4BE
 10
-502.63776905046871
 20
-1074.1807073697182
 30
0.0
 11
-501.63776905046871
 21
-1075.1807073697182
 31
0.0
  0
LINE
  8
0
  6
CONTINUOUS
 62
               7
  5
4BF
 10
-501.63776905046871
 20
-1149.1807073697182
 30
0.0
 11
-502.63776905046871
 21
-1150.1807073697182
 31
0.0
  0
LINE
  8
0
  6
CONTINUOUS
 62
               7
  5
4C0
 10
-349.58372644623529
 20
-953.71282330068357
 30
0.0
 11
-438.57849032556078
 21
-953.71282330068334
 31
0.0
  0
LINE
  8
0
  6
CONTINUOUS
 62
               7
  5
4C1
 10
-349.58372644623529
 20
-953.11282330068343
 30
0.0
 11
-349.58372644623529
 21
-953.71282330068357
 31
0.0
  0
LINE
  8
0
  6
CONTINUOUS
 62
               7
  5
4C2
 10
-431.08372644623523
 20
-988.71282330068334
 30
0.0
 11
-357.08372644623529
 21
-988.71282330068357
 31
0.0
  0
LINE
  8
0
  6
CONTINUOUS
 62
               7
  5
4C3
 10
-437.58372644623523
 20
-895.71282330068334
 30
0.0
 11
-350.58372644623529
 21
-895.71282330068357
 31
0.0
  0
LINE
  8
0
  6
CONTINUOUS
 62
               7
  5
4C4
 10
-349.58372644623529
 20
-953.71282330068357
 30
0.0
 11
-349.58372644623529
 21
-896.71282330068357
 31
0.0
  0
LINE
  8
0
  6
CONTINUOUS
 62
               7
  5
4C5
 10
-432.08372644623523
 20
-987.71282330068334
 30
0.0
 11
-432.08372644623523
 21
-953.71282330068334
 31
0.0
  0
LINE
  8
0
  6
CONTINUOUS
 62
               7
  5
4C6
 10
-349.58372644623529
 20
-896.71282330068357
 30
0.0
 11
-350.58372644623529
 21
-895.71282330068357
 31
0.0
  0
LINE
  8
0
  6
CONTINUOUS
 62
               7
  5
4C7
 10
-437.58372644623523
 20
-895.71282330068334
 30
0.0
 11
-438.58372644623523
 21
-896.71282330068334
 31
0.0
  0
LINE
  8
0
  6
CONTINUOUS
 62
               7
  5
4C8
 10
-356.08372644623529
 20
-987.71282330068357
 30
0.0
 11
-356.08372644623529
 21
-953.71282330068334
 31
0.0
  0
LINE
  8
0
  6
CONTINUOUS
 62
               7
  5
4C9
 10
-356.08372644623529
 20
-987.71282330068357
 30
0.0
 11
-357.08372644623529
 21
-988.71282330068357
 31
0.0
  0
LINE
  8
0
  6
CONTINUOUS
 62
               7
  5
4CA
 10
-431.08372644623523
 20
-988.71282330068334
 30
0.0
 11
-432.08372644623523
 21
-987.71282330068334
 31
0.0
  0
LINE
  8
0
  6
CONTINUOUS
 62
               7
  5
4CB
 10
-438.58372644623523
 20
-953.71282330068334
 30
0.0
 11
-438.58372644623523
 21
-896.71282330068334
 31
0.0
  0
LINE
  8
0
  6
CONTINUOUS
 62
               7
  5
4CC
 10
216.63392368588092
 20
-1149.1807073697182
 30
0.0
 11
216.63392368588092
 21
-1091.1807073697182
 31
0.0
  0
LINE
  8
0
  6
CONTINUOUS
 62
               7
  5
4CD
 10
242.23392368588082
 20
-1061.1807073697182
 30
0.0
 11
242.23392368588082
 21
-1150.1807073697182
 31
0.0
  0
LINE
  8
0
  6
CONTINUOUS
 62
               7
  5
4CE
 10
242.83392368588096
 20
-1061.1807073697182
 30
0.0
 11
242.23392368588082
 21
-1061.1807073697182
 31
0.0
  0
LINE
  8
0
  6
CONTINUOUS
 62
               7
  5
4CF
 10
300.23392368588105
 20
-1149.1807073697182
 30
0.0
 11
300.23392368588105
 21
-1062.1807073697182
 31
0.0
  0
CIRCLE
  8
0
  6
CONTINUOUS
 62
               7
  5
4D0
 10
120.87790746063791
 20
-1120.1807073697182
 30
0.0
 40
30.0
  0
CIRCLE
  8
0
  6
CONTINUOUS
 62
               7
  5
4D1
 10
120.87790746063791
 20
-1120.1807073697182
 30
0.0
 40
25.5
  0
CIRCLE
  8
0
  6
CONTINUOUS
 62
               7
  5
4D2
 10
120.87790746063791
 20
-1105.6807073697182
 30
0.0
 40
44.5
  0
LINE
  8
0
  6
CONTINUOUS
 62
               7
  5
4D3
 10
242.36837543136124
 20
-1061.1807073697182
 30
0.0
 11
299.23392368588105
 21
-1061.1807073697182
 31
0.0
  0
LINE
  8
0
  6
CONTINUOUS
 62
               7
  5
4D4
 10
217.63392368588092
 20
-1150.1807073697182
 30
0.0
 11
299.23392368588105
 21
-1150.1807073697182
 31
0.0
  0
LINE
  8
0
  6
CONTINUOUS
 62
               7
  5
4D5
 10
217.63392368588092
 20
-1090.1807073697182
 30
0.0
 11
242.23392368588082
 21
-1090.1807073697182
 31
0.0
  0
LINE
  8
0
  6
CONTINUOUS
 62
               7
  5
4D6
 10
217.63392368588092
 20
-1090.1807073697182
 30
0.0
 11
216.63392368588092
 21
-1091.1807073697182
 31
0.0
  0
LINE
  8
0
  6
CONTINUOUS
 62
               7
  5
4D7
 10
299.23392368588105
 20
-1061.1807073697182
 30
0.0
 11
300.23392368588105
 21
-1062.1807073697182
 31
0.0
  0
LINE
  8
0
  6
CONTINUOUS
 62
               7
  5
4D8
 10
216.63392368588092
 20
-1149.1807073697182
 30
0.0
 11
217.63392368588092
 21
-1150.1807073697182
 31
0.0
  0
LINE
  8
0
  6
CONTINUOUS
 62
               7
  5
4D9
 10
300.23392368588105
 20
-1149.1807073697182
 30
0.0
 11
299.23392368588105
 21
-1150.1807073697182
 31
0.0
  0
LINE
  8
0
  6
CONTINUOUS
 62
               7
  5
4DA
 10
25.12189123539514
 20
-1149.1807073697182
 30
0.0
 11
25.12189123539514
 21
-1091.1807073697182
 31
0.0
  0
LINE
  8
0
  6
CONTINUOUS
 62
               7
  5
4DB
 10
-0.4781087646048826
 20
-1061.1807073697182
 30
0.0
 11
-0.4781087646048826
 21
-1150.1807073697182
 31
0.0
  0
LINE
  8
0
  6
CONTINUOUS
 62
               7
  5
4DC
 10
-1.0781087646049052
 20
-1061.1807073697182
 30
0.0
 11
-0.4781087646048826
 21
-1061.1807073697182
 31
0.0
  0
LINE
  8
0
  6
CONTINUOUS
 62
               7
  5
4DD
 10
-58.478108764604883
 20
-1149.1807073697182
 30
0.0
 11
-58.478108764604883
 21
-1062.1807073697182
 31
0.0
  0
LINE
  8
0
  6
CONTINUOUS
 62
               7
  5
4DE
 10
-0.6125605100851879
 20
-1061.1807073697182
 30
0.0
 11
-57.478108764604883
 21
-1061.1807073697182
 31
0.0
  0
LINE
  8
0
  6
CONTINUOUS
 62
               7
  5
4DF
 10
24.12189123539514
 20
-1150.1807073697182
 30
0.0
 11
-57.478108764604883
 21
-1150.1807073697182
 31
0.0
  0
LINE
  8
0
  6
CONTINUOUS
 62
               7
  5
4E0
 10
24.12189123539514
 20
-1090.1807073697182
 30
0.0
 11
-0.4781087646048826
 21
-1090.1807073697182
 31
0.0
  0
LINE
  8
0
  6
CONTINUOUS
 62
               7
  5
4E1
 10
24.12189123539514
 20
-1090.1807073697182
 30
0.0
 11
25.12189123539514
 21
-1091.1807073697182
 31
0.0
  0
LINE
  8
0
  6
CONTINUOUS
 62
               7
  5
4E2
 10
-57.478108764604883
 20
-1061.1807073697182
 30
0.0
 11
-58.478108764604883
 21
-1062.1807073697182
 31
0.0
  0
LINE
  8
0
  6
CONTINUOUS
 62
               7
  5
4E3
 10
25.12189123539514
 20
-1149.1807073697182
 30
0.0
 11
24.12189123539514
 21
-1150.1807073697182
 31
0.0
  0
LINE
  8
0
  6
CONTINUOUS
 62
               7
  5
4E4
 10
-58.478108764604883
 20
-1149.1807073697182
 30
0.0
 11
-57.478108764604883
 21
-1150.1807073697182
 31
0.0
  0
LINE
  8
0
  6
CONTINUOUS
 62
               7
  5
4E5
 10
91.877907460638141
 20
-999.42469114447567
 30
0.0
 11
149.87790746063814
 21
-999.42469114447567
 31
0.0
  0
LINE
  8
0
  6
CONTINUOUS
 62
               7
  5
4E6
 10
165.37790746063814
 20
-973.82469114447554
 30
0.0
 11
76.377907460638141
 21
-973.82469114447554
 31
0.0
  0
LINE
  8
0
  6
CONTINUOUS
 62
               7
  5
4E7
 10
165.37790746063814
 20
-973.22469114447563
 30
0.0
 11
165.37790746063814
 21
-973.82469114447554
 31
0.0
  0
LINE
  8
0
  6
CONTINUOUS
 62
               7
  5
4E8
 10
77.377907460638141
 20
-915.82469114447554
 30
0.0
 11
164.37790746063814
 21
-915.82469114447554
 31
0.0
  0
LINE
  8
0
  6
CONTINUOUS
 62
               7
  5
4E9
 10
165.37790746063814
 20
-973.69023939899535
 30
0.0
 11
165.37790746063814
 21
-916.82469114447554
 31
0.0
  0
LINE
  8
0
  6
CONTINUOUS
 62
               7
  5
4EA
 10
90.877907460638141
 20
-998.42469114447567
 30
0.0
 11
90.877907460638141
 21
-973.82469114447554
 31
0.0
  0
LINE
  8
0
  6
CONTINUOUS
 62
               7
  5
4EB
 10
150.87790746063814
 20
-998.42469114447567
 30
0.0
 11
150.87790746063814
 21
-973.82469114447554
 31
0.0
  0
LINE
  8
0
  6
CONTINUOUS
 62
               7
  5
4EC
 10
150.87790746063814
 20
-998.42469114447567
 30
0.0
 11
149.87790746063814
 21
-999.42469114447567
 31
0.0
  0
LINE
  8
0
  6
CONTINUOUS
 62
               7
  5
4ED
 10
165.37790746063814
 20
-916.82469114447554
 30
0.0
 11
164.37790746063814
 21
-915.82469114447554
 31
0.0
  0
LINE
  8
0
  6
CONTINUOUS
 62
               7
  5
4EE
 10
91.877907460638141
 20
-999.42469114447567
 30
0.0
 11
90.877907460638141
 21
-998.42469114447567
 31
0.0
  0
LINE
  8
0
  6
CONTINUOUS
 62
               7
  5
4EF
 10
77.377907460638141
 20
-915.82469114447554
 30
0.0
 11
76.377907460638141
 21
-916.82469114447554
 31
0.0
  0
LINE
  8
0
  6
CONTINUOUS
 62
               7
  5
4F0
 10
76.377907460638141
 20
-973.69023939899512
 30
0.0
 11
76.377907460638141
 21
-916.82469114447554
 31
0.0
  0
CIRCLE
  8
0
  6
CONTINUOUS
 62
               7
  5
4F1
 10
609.28652321630784
 20
-1536.9957055465115
 30
0.0
 40
25.5
  0
CIRCLE
  8
0
  6
CONTINUOUS
 62
               7
  5
4F2
 10
609.28652321630784
 20
-1522.4957055465115
 30
0.0
 40
44.5
  0
CIRCLE
  8
0
  6
CONTINUOUS
 62
               7
  5
4F3
 10
609.28652321630784
 20
-1536.9957055465115
 30
0.0
 40
30.0
  0
LINE
  8
0
  6
CONTINUOUS
 62
               7
  5
4F4
 10
580.28652321630784
 20
-1218.5962717979273
 30
0.0
 11
638.28652321630784
 21
-1218.5962717979273
 31
0.0
  0
LINE
  8
0
  6
CONTINUOUS
 62
               7
  5
4F5
 10
653.78652321630784
 20
-1192.9962717979274
 30
0.0
 11
564.78652321630784
 21
-1192.9962717979274
 31
0.0
  0
LINE
  8
0
  6
CONTINUOUS
 62
               7
  5
4F6
 10
653.78652321630784
 20
-1192.3962717979275
 30
0.0
 11
653.78652321630784
 21
-1192.9962717979274
 31
0.0
  0
LINE
  8
0
  6
CONTINUOUS
 62
               7
  5
4F7
 10
565.78652321630784
 20
-1134.996271797927
 30
0.0
 11
652.78652321630784
 21
-1134.996271797927
 31
0.0
  0
LINE
  8
0
  6
CONTINUOUS
 62
               7
  5
4F8
 10
653.78652321630784
 20
-1192.861820052447
 30
0.0
 11
653.78652321630784
 21
-1135.996271797927
 31
0.0
  0
LINE
  8
0
  6
CONTINUOUS
 62
               7
  5
4F9
 10
579.28652321630784
 20
-1217.5962717979273
 30
0.0
 11
579.28652321630784
 21
-1192.9962717979274
 31
0.0
  0
LINE
  8
0
  6
CONTINUOUS
 62
               7
  5
4FA
 10
639.28652321630784
 20
-1217.5962717979273
 30
0.0
 11
639.28652321630784
 21
-1192.9962717979274
 31
0.0
  0
LINE
  8
0
  6
CONTINUOUS
 62
               7
  5
4FB
 10
639.28652321630784
 20
-1217.5962717979273
 30
0.0
 11
638.28652321630784
 21
-1218.5962717979273
 31
0.0
  0
LINE
  8
0
  6
CONTINUOUS
 62
               7
  5
4FC
 10
653.78652321630784
 20
-1135.996271797927
 30
0.0
 11
652.78652321630784
 21
-1134.996271797927
 31
0.0
  0
LINE
  8
0
  6
CONTINUOUS
 62
               7
  5
4FD
 10
580.28652321630784
 20
-1218.5962717979273
 30
0.0
 11
579.28652321630784
 21
-1217.5962717979273
 31
0.0
  0
LINE
  8
0
  6
CONTINUOUS
 62
               7
  5
4FE
 10
565.78652321630784
 20
-1134.996271797927
 30
0.0
 11
564.78652321630784
 21
-1135.996271797927
 31
0.0
  0
LINE
  8
0
  6
CONTINUOUS
 62
               7
  5
4FF
 10
564.78652321630784
 20
-1192.861820052447
 30
0.0
 11
564.78652321630784
 21
-1135.996271797927
 31
0.0
  0
LINE
  8
0
  6
CONTINUOUS
 62
               7
  5
500
 10
464.28652321630778
 20
-1477.9957055465115
 30
0.0
 11
464.28652321630778
 21
-1566.9904694258371
 31
0.0
  0
LINE
  8
0
  6
CONTINUOUS
 62
               7
  5
501
 10
464.88652321630781
 20
-1477.9957055465115
 30
0.0
 11
464.28652321630778
 21
-1477.9957055465115
 31
0.0
  0
LINE
  8
0
  6
CONTINUOUS
 62
               7
  5
502
 10
429.28652321630778
 20
-1565.9957055465115
 30
0.0
 11
429.28652321630778
 21
-1491.9957055465115
 31
0.0
  0
LINE
  8
0
  6
CONTINUOUS
 62
               7
  5
503
 10
522.28652321630784
 20
-1565.9957055465115
 30
0.0
 11
522.28652321630784
 21
-1478.9957055465115
 31
0.0
  0
LINE
  8
0
  6
CONTINUOUS
 62
               7
  5
504
 10
464.28652321630778
 20
-1477.9957055465115
 30
0.0
 11
521.28652321630784
 21
-1477.9957055465115
 31
0.0
  0
LINE
  8
0
  6
CONTINUOUS
 62
               7
  5
505
 10
430.28652321630778
 20
-1566.9957055465115
 30
0.0
 11
521.28652321630784
 21
-1566.9957055465115
 31
0.0
  0
LINE
  8
0
  6
CONTINUOUS
 62
               7
  5
506
 10
521.28652321630784
 20
-1477.9957055465115
 30
0.0
 11
522.28652321630784
 21
-1478.9957055465115
 31
0.0
  0
LINE
  8
0
  6
CONTINUOUS
 62
               7
  5
507
 10
522.28652321630784
 20
-1565.9957055465115
 30
0.0
 11
521.28652321630784
 21
-1566.9957055465115
 31
0.0
  0
LINE
  8
0
  6
CONTINUOUS
 62
               7
  5
508
 10
430.28652321630778
 20
-1490.9957055465115
 30
0.0
 11
464.28652321630778
 21
-1490.9957055465115
 31
0.0
  0
LINE
  8
0
  6
CONTINUOUS
 62
               7
  5
509
 10
430.28652321630778
 20
-1490.9957055465115
 30
0.0
 11
429.28652321630778
 21
-1491.9957055465115
 31
0.0
  0
LINE
  8
0
  6
CONTINUOUS
 62
               7
  5
50A
 10
429.28652321630778
 20
-1565.9957055465115
 30
0.0
 11
430.28652321630778
 21
-1566.9957055465115
 31
0.0
  0
LINE
  8
0
  6
CONTINUOUS
 62
               7
  5
50B
 10
464.28652321630778
 20
-1092.496271797927
 30
0.0
 11
464.28652321630801
 21
-1003.5015079186016
 31
0.0
  0
LINE
  8
0
  6
CONTINUOUS
 62
               7
  5
50C
 10
464.88652321630792
 20
-1092.496271797927
 30
0.0
 11
464.28652321630778
 21
-1092.496271797927
 31
0.0
  0
LINE
  8
0
  6
CONTINUOUS
 62
               7
  5
50D
 10
429.28652321630801
 20
-1010.9962717979272
 30
0.0
 11
429.28652321630778
 21
-1084.996271797927
 31
0.0
  0
LINE
  8
0
  6
CONTINUOUS
 62
               7
  5
50E
 10
522.28652321630807
 20
-1004.4962717979274
 30
0.0
 11
522.28652321630784
 21
-1091.496271797927
 31
0.0
  0
LINE
  8
0
  6
CONTINUOUS
 62
               7
  5
50F
 10
464.28652321630778
 20
-1092.496271797927
 30
0.0
 11
521.28652321630784
 21
-1092.496271797927
 31
0.0
  0
LINE
  8
0
  6
CONTINUOUS
 62
               7
  5
510
 10
430.28652321630801
 20
-1009.9962717979272
 30
0.0
 11
464.28652321630801
 21
-1009.9962717979272
 31
0.0
  0
LINE
  8
0
  6
CONTINUOUS
 62
               7
  5
511
 10
521.28652321630784
 20
-1092.496271797927
 30
0.0
 11
522.28652321630784
 21
-1091.496271797927
 31
0.0
  0
LINE
  8
0
  6
CONTINUOUS
 62
               7
  5
512
 10
522.28652321630807
 20
-1004.4962717979274
 30
0.0
 11
521.28652321630807
 21
-1003.4962717979274
 31
0.0
  0
LINE
  8
0
  6
CONTINUOUS
 62
               7
  5
513
 10
430.28652321630778
 20
-1085.996271797927
 30
0.0
 11
464.28652321630801
 21
-1085.996271797927
 31
0.0
  0
LINE
  8
0
  6
CONTINUOUS
 62
               7
  5
514
 10
430.28652321630778
 20
-1085.996271797927
 30
0.0
 11
429.28652321630778
 21
-1084.996271797927
 31
0.0
  0
LINE
  8
0
  6
CONTINUOUS
 62
               7
  5
515
 10
429.28652321630801
 20
-1010.9962717979272
 30
0.0
 11
430.28652321630801
 21
-1009.9962717979272
 31
0.0
  0
LINE
  8
0
  6
CONTINUOUS
 62
               7
  5
516
 10
464.28652321630801
 20
-1003.4962717979272
 30
0.0
 11
521.28652321630807
 21
-1003.4962717979272
 31
0.0
  0
CIRCLE
  8
0
  6
DASHED
 62
               7
  5
517
 10
-392.13776905046876
 20
-1105.6807073697182
 30
0.0
 40
40.0
  0
CIRCLE
  8
0
  6
DASHED
 62
               7
  5
518
 10
120.87790746063791
 20
-1105.6807073697182
 30
0.0
 40
40.0
  0
CIRCLE
  8
0
  6
DASHED
 62
               7
  5
519
 10
609.28652321630784
 20
-1522.4957055465115
 30
0.0
 40
40.0
  0
TEXT
  8
0
 62
               3
  5
51A
 10
-392.13776905046876
 20
-1190.1807073697182
 30
0.0
 40
40.0
  1
EMB_80×65
 41
0.8
 72
               1
 11
-392.13776905046876
 21
-1190.1807073697182
 31
0.0
 73
               3
  0
TEXT
  8
0
 62
               3
  5
51B
 10
120.87790746063791
 20
-1190.1807073697182
 30
0.0
 40
40.0
  1
EMB_80×50
 41
0.8
 72
               1
 11
120.87790746063791
 21
-1190.1807073697182
 31
0.0
 73
               3
  0
TEXT
  8
0
 62
               3
  5
51C
 10
605.58911923866754
 20
-868.549903292708
 30
0.0
 40
40.0
  1
EMB使用例
 41
0.8
 72
               1
 11
605.58911923866754
 21
-868.549903292708
 31
0.0
 73
               3
  0
TEXT
  8
0
 62
               3
  5
51D
 10
-123.74270409089095
 20
-814.18976739236859
 30
0.0
 40
35.0
  1
横枝管に呼び６５、５０の管を接続するときは、EMBをご使用ください。
 41
0.8
 72
               1
 11
-123.74270409089095
 21
-814.18976739236859
 31
0.0
 73
               3
  0
ENDSEC
  0
EOF
