  0
SECTION
  2
HEADER
  9
$ACADVER
  1
AC1009
  9
$INSBASE
 10
0.0
 20
0.0
 30
0.0
  9
$EXTMIN
 10
-641.28625489580452
 20
-1714.8067920257295
 30
0.0
  9
$EXTMAX
 10
744.43500906164343
 20
814.64327043187757
 30
0.0
  9
$LIMMIN
 10
-684.59004439447472
 20
-1793.8521064775298
  9
$LIMMAX
 10
787.73879856031363
 20
893.68858488367778
  9
$ORTHOMODE
 70
               0
  9
$REGENMODE
 70
               1
  9
$FILLMODE
 70
               1
  9
$QTEXTMODE
 70
               0
  9
$MIRRTEXT
 70
               1
  9
$DRAGMODE
 70
               2
  9
$LTSCALE
 40
1.0
  9
$OSMODE
 70
               0
  9
$ATTMODE
 70
               1
  9
$TEXTSIZE
 40
0.2
  9
$TRACEWID
 40
0.05
  9
$TEXTSTYLE
  7
STANDARD
  9
$CLAYER
  8
0
  9
$CELTYPE
  6
CONTINUOUS
  9
$CECOLOR
 62
             256
  9
$DIMSCALE
 40
1.0
  9
$DIMASZ
 40
0.18
  9
$DIMEXO
 40
0.0625
  9
$DIMDLI
 40
0.38
  9
$DIMRND
 40
0.0
  9
$DIMDLE
 40
0.0
  9
$DIMEXE
 40
0.18
  9
$DIMTP
 40
0.0
  9
$DIMTM
 40
0.0
  9
$DIMTXT
 40
0.18
  9
$DIMCEN
 40
0.09
  9
$DIMTSZ
 40
0.0
  9
$DIMTOL
 70
               0
  9
$DIMLIM
 70
               0
  9
$DIMTIH
 70
               1
  9
$DIMTOH
 70
               1
  9
$DIMSE1
 70
               0
  9
$DIMSE2
 70
               0
  9
$DIMTAD
 70
               0
  9
$DIMZIN
 70
               0
  9
$DIMBLK
  1

  9
$DIMASO
 70
               1
  9
$DIMSHO
 70
               1
  9
$DIMPOST
  1

  9
$DIMAPOST
  1

  9
$DIMALT
 70
               0
  9
$DIMALTD
 70
               2
  9
$DIMALTF
 40
25.399999999999999
  9
$DIMLFAC
 40
1.0
  9
$DIMTOFL
 70
               0
  9
$DIMTVP
 40
0.0
  9
$DIMTIX
 70
               0
  9
$DIMSOXD
 70
               0
  9
$DIMSAH
 70
               0
  9
$DIMBLK1
  1

  9
$DIMBLK2
  1

  9
$DIMSTYLE
  2
STANDARD
  9
$DIMCLRD
 70
               0
  9
$DIMCLRE
 70
               0
  9
$DIMCLRT
 70
               0
  9
$DIMTFAC
 40
1.0
  9
$DIMGAP
 40
0.09
  9
$LUNITS
 70
               2
  9
$LUPREC
 70
               4
  9
$AXISMODE
 70
               0
  9
$AXISUNIT
 10
0.0
 20
0.0
  9
$SKETCHINC
 40
0.1
  9
$FILLETRAD
 40
0.0
  9
$AUNITS
 70
               0
  9
$AUPREC
 70
               0
  9
$MENU
  1
acad
  9
$ELEVATION
 40
0.0
  9
$PELEVATION
 40
0.0
  9
$THICKNESS
 40
0.0
  9
$LIMCHECK
 70
               0
  9
$BLIPMODE
 70
               1
  9
$CHAMFERA
 40
0.0
  9
$CHAMFERB
 40
0.0
  9
$SKPOLY
 70
               0
  9
$TDCREATE
 40
0.000000000
  9
$TDUPDATE
 40
0.000000000
  9
$TDINDWG
 40
0.0000000000
  9
$TDUSRTIMER
 40
0.0000000000
  9
$USRTIMER
 70
               1
  9
$ANGBASE
 50
0.0
  9
$ANGDIR
 70
               0
  9
$PDMODE
 70
               0
  9
$PDSIZE
 40
1.0
  9
$PLINEWID
 40
0.0
  9
$COORDS
 70
               1
  9
$SPLFRAME
 70
               0
  9
$SPLINETYPE
 70
               6
  9
$SPLINESEGS
 70
               8
  9
$ATTDIA
 70
               0
  9
$ATTREQ
 70
               1
  9
$HANDLING
 70
               1
  9
$HANDSEED
  5
6D8
  9
$SURFTAB1
 70
               6
  9
$SURFTAB2
 70
               6
  9
$SURFTYPE
 70
               6
  9
$SURFU
 70
               6
  9
$SURFV
 70
               6
  9
$UCSNAME
  2

  9
$UCSORG
 10
0.0
 20
0.0
 30
0.0
  9
$UCSXDIR
 10
1.0
 20
0.0
 30
0.0
  9
$UCSYDIR
 10
0.0
 20
1.0
 30
0.0
  9
$PUCSNAME
  2

  9
$PUCSORG
 10
0.0
 20
0.0
 30
0.0
  9
$PUCSXDIR
 10
1.0
 20
0.0
 30
0.0
  9
$PUCSYDIR
 10
0.0
 20
1.0
 30
0.0
  9
$USERI1
 70
               0
  9
$USERI2
 70
               0
  9
$USERI3
 70
               0
  9
$USERI4
 70
               0
  9
$USERI5
 70
               0
  9
$USERR1
 40
0.0
  9
$USERR2
 40
0.0
  9
$USERR3
 40
0.0
  9
$USERR4
 40
0.0
  9
$USERR5
 40
0.0
  9
$WORLDVIEW
 70
               1
  9
$SHADEDGE
 70
               3
  9
$SHADEDIF
 70
              70
  9
$TILEMODE
 70
               1
  9
$MAXACTVP
 70
              16
  9
$PINSBASE
 10
0.0
 20
0.0
 30
0.0
  9
$PLIMCHECK
 70
               0
  9
$PEXTMIN
 10
1.0000000000000000E+20
 20
1.0000000000000000E+20
 30
1.0000000000000000E+20
  9
$PEXTMAX
 10
-1.0000000000000000E+20
 20
-1.0000000000000000E+20
 30
-1.0000000000000000E+20
  9
$PLIMMIN
 10
0.0
 20
0.0
  9
$PLIMMAX
 10
12.0
 20
9.0
  9
$UNITMODE
 70
               0
  9
$VISRETAIN
 70
               0
  9
$PLINEGEN
 70
               1
  9
$PSLTSCALE
 70
               0
  9
$TREEDEPTH
 70
            3020
  9
$DWGCODEPAGE
  3
dos932
  0
ENDSEC
  0
SECTION
  2
TABLES
  0
TABLE
  2
VPORT
 70
               1
  0
VPORT
  2
*ACTIVE
 70
               0
 10
0.0
 20
0.0
 11
1.0
 21
1.0
 12
51.574377082919455
 22
-450.08176079692601
 13
0.0
 23
0.0
 14
1.0
 24
1.0
 15
0.0
 25
0.0
 16
0.0
 26
0.0
 36
1.0
 17
0.0
 27
0.0
 37
0.0
 40
2687.5406913612078
 41
0.5478349956476645
 42
50.0
 43
0.0
 44
0.0
 50
0.0
 51
0.0
 71
               0
 72
             100
 73
               1
 74
               1
 75
               0
 76
               0
 77
               0
 78
               0
  0
ENDTAB
  0
TABLE
  2
LTYPE
 70
              26
  0
LTYPE
  2
CONTINUOUS
 70
               0
  3
Solid line
 72
              65
 73
               0
 40
0.0
  0
LTYPE
  2
HIDDENX2
 70
               0
  3
CADPAC FUSION LINETYPE
 72
              65
 73
               2
 40
80.0
 49
60.0
 49
-20.0
  0
LTYPE
  2
HIDDEN
 70
               0
  3
CADPAC FUSION LINETYPE
 72
              65
 73
               2
 40
60.0
 49
40.0
 49
-20.0
  0
LTYPE
  2
HIDDEN2
 70
               0
  3
CADPAC FUSION LINETYPE
 72
              65
 73
               2
 40
50.0
 49
30.0
 49
-20.0
  0
LTYPE
  2
DASHED
 70
               0
  3
CADPAC FUSION LINETYPE
 72
              65
 73
               2
 40
60.0
 49
40.0
 49
-20.0
  0
LTYPE
  2
DASHED2
 70
               0
  3
CADPAC FUSION LINETYPE
 72
              65
 73
               2
 40
45.0
 49
30.0
 49
-15.0
  0
LTYPE
  2
DASHEDX2
 70
               0
  3
CADPAC FUSION LINETYPE
 72
              65
 73
               2
 40
90.0
 49
60.0
 49
-30.0
  0
LTYPE
  2
DOTX2
 70
               0
  3
CADPAC FUSION LINETYPE
 72
              65
 73
               2
 40
25.0
 49
0.0
 49
-25.0
  0
LTYPE
  2
DOT
 70
               0
  3
CADPAC FUSION LINETYPE
 72
              65
 73
               2
 40
20.0
 49
0.0
 49
-20.0
  0
LTYPE
  2
DOTS
 70
               0
  3
CADPAC FUSION LINETYPE
 72
              65
 73
               2
 40
20.0
 49
0.0
 49
-20.0
  0
LTYPE
  2
DOT2
 70
               0
  3
CADPAC FUSION LINETYPE
 72
              65
 73
               2
 40
15.0
 49
0.0
 49
-15.0
  0
LTYPE
  2
CENTERX2
 70
               0
  3
CADPAC FUSION LINETYPE
 72
              65
 73
               4
 40
120.0
 49
50.0
 49
-25.0
 49
20.0
 49
-25.0
  0
LTYPE
  2
CENTER
 70
               0
  3
CADPAC FUSION LINETYPE
 72
              65
 73
               4
 40
92.0
 49
40.0
 49
-20.0
 49
12.0
 49
-20.0
  0
LTYPE
  2
CENTER2
 70
               0
  3
CADPAC FUSION LINETYPE
 72
              65
 73
               4
 40
64.0
 49
30.0
 49
-15.0
 49
4.0
 49
-15.0
  0
LTYPE
  2
DASHDOTX2
 70
               0
  3
CADPAC FUSION LINETYPE
 72
              65
 73
               4
 40
100.0
 49
50.0
 49
-25.0
 49
0.0
 49
-25.0
  0
LTYPE
  2
DASHDOT
 70
               0
  3
CADPAC FUSION LINETYPE
 72
              65
 73
               4
 40
80.0
 49
40.0
 49
-20.0
 49
0.0
 49
-20.0
  0
LTYPE
  2
DASHDOT2
 70
               0
  3
CADPAC FUSION LINETYPE
 72
              65
 73
               4
 40
60.0
 49
30.0
 49
-15.0
 49
0.0
 49
-15.0
  0
LTYPE
  2
DIVIDEX2
 70
               0
  3
CADPAC FUSION LINETYPE
 72
              65
 73
               6
 40
125.0
 49
50.0
 49
-25.0
 49
0.0
 49
-25.0
 49
0.0
 49
-25.0
  0
LTYPE
  2
DIVIDE
 70
               0
  3
CADPAC FUSION LINETYPE
 72
              65
 73
               6
 40
100.0
 49
40.0
 49
-20.0
 49
0.0
 49
-20.0
 49
0.0
 49
-20.0
  0
LTYPE
  2
DIVIDE2
 70
               0
  3
CADPAC FUSION LINETYPE
 72
              65
 73
               6
 40
75.0
 49
30.0
 49
-15.0
 49
0.0
 49
-15.0
 49
0.0
 49
-15.0
  0
LTYPE
  2
BORDERX2
 70
               0
  3
CADPAC FUSION LINETYPE
 72
              65
 73
               6
 40
175.0
 49
50.0
 49
-25.0
 49
50.0
 49
-25.0
 49
0.0
 49
-25.0
  0
LTYPE
  2
BORDER
 70
               0
  3
CADPAC FUSION LINETYPE
 72
              65
 73
               6
 40
140.0
 49
40.0
 49
-20.0
 49
40.0
 49
-20.0
 49
0.0
 49
-20.0
  0
LTYPE
  2
BORDER2
 70
               0
  3
CADPAC FUSION LINETYPE
 72
              65
 73
               6
 40
105.0
 49
30.0
 49
-15.0
 49
30.0
 49
-15.0
 49
0.0
 49
-15.0
  0
LTYPE
  2
PHANTOMX2
 70
               0
  3
CADPAC FUSION LINETYPE
 72
              65
 73
               6
 40
150.0
 49
50.0
 49
-20.0
 49
20.0
 49
-20.0
 49
20.0
 49
-20.0
  0
LTYPE
  2
PHANTOM
 70
               0
  3
CADPAC FUSION LINETYPE
 72
              65
 73
               6
 40
124.0
 49
40.0
 49
-20.0
 49
12.0
 49
-20.0
 49
12.0
 49
-20.0
  0
LTYPE
  2
PHANTOM2
 70
               0
  3
CADPAC FUSION LINETYPE
 72
              65
 73
               6
 40
106.0
 49
30.0
 49
-20.0
 49
8.0
 49
-20.0
 49
8.0
 49
-20.0
  0
ENDTAB
  0
TABLE
  2
LAYER
 70
             256
  0
LAYER
  2
0
 70
               0
 62
               7
  6
CONTINUOUS
  0
LAYER
  2
LAYER001
 70
               0
 62
               7
  6
CONTINUOUS
  0
LAYER
  2
LAYER002
 70
               0
 62
               7
  6
CONTINUOUS
  0
LAYER
  2
LAYER003
 70
               0
 62
               7
  6
CONTINUOUS
  0
LAYER
  2
LAYER004
 70
               0
 62
               7
  6
CONTINUOUS
  0
LAYER
  2
LAYER005
 70
               0
 62
               7
  6
CONTINUOUS
  0
LAYER
  2
LAYER006
 70
               0
 62
               7
  6
CONTINUOUS
  0
LAYER
  2
LAYER007
 70
               0
 62
               7
  6
CONTINUOUS
  0
LAYER
  2
LAYER008
 70
               0
 62
               7
  6
CONTINUOUS
  0
LAYER
  2
LAYER009
 70
               0
 62
               7
  6
CONTINUOUS
  0
LAYER
  2
LAYER010
 70
               0
 62
               7
  6
CONTINUOUS
  0
LAYER
  2
LAYER011
 70
               0
 62
               7
  6
CONTINUOUS
  0
LAYER
  2
LAYER012
 70
               0
 62
               7
  6
CONTINUOUS
  0
LAYER
  2
LAYER013
 70
               0
 62
               7
  6
CONTINUOUS
  0
LAYER
  2
LAYER014
 70
               0
 62
               7
  6
CONTINUOUS
  0
LAYER
  2
LAYER015
 70
               0
 62
               7
  6
CONTINUOUS
  0
LAYER
  2
LAYER016
 70
               0
 62
               7
  6
CONTINUOUS
  0
LAYER
  2
LAYER017
 70
               0
 62
               7
  6
CONTINUOUS
  0
LAYER
  2
LAYER018
 70
               0
 62
               7
  6
CONTINUOUS
  0
LAYER
  2
LAYER019
 70
               0
 62
               7
  6
CONTINUOUS
  0
LAYER
  2
LAYER020
 70
               0
 62
               7
  6
CONTINUOUS
  0
LAYER
  2
LAYER021
 70
               0
 62
               7
  6
CONTINUOUS
  0
LAYER
  2
LAYER022
 70
               0
 62
               7
  6
CONTINUOUS
  0
LAYER
  2
LAYER023
 70
               0
 62
               7
  6
CONTINUOUS
  0
LAYER
  2
LAYER024
 70
               0
 62
               7
  6
CONTINUOUS
  0
LAYER
  2
LAYER025
 70
               0
 62
               7
  6
CONTINUOUS
  0
LAYER
  2
LAYER026
 70
               0
 62
               7
  6
CONTINUOUS
  0
LAYER
  2
LAYER027
 70
               0
 62
               7
  6
CONTINUOUS
  0
LAYER
  2
LAYER028
 70
               0
 62
               7
  6
CONTINUOUS
  0
LAYER
  2
LAYER029
 70
               0
 62
               7
  6
CONTINUOUS
  0
LAYER
  2
LAYER030
 70
               0
 62
               7
  6
CONTINUOUS
  0
LAYER
  2
LAYER031
 70
               0
 62
               7
  6
CONTINUOUS
  0
LAYER
  2
LAYER032
 70
               0
 62
               7
  6
CONTINUOUS
  0
LAYER
  2
LAYER033
 70
               0
 62
               7
  6
CONTINUOUS
  0
LAYER
  2
LAYER034
 70
               0
 62
               7
  6
CONTINUOUS
  0
LAYER
  2
LAYER035
 70
               0
 62
               7
  6
CONTINUOUS
  0
LAYER
  2
LAYER036
 70
               0
 62
               7
  6
CONTINUOUS
  0
LAYER
  2
LAYER037
 70
               0
 62
               7
  6
CONTINUOUS
  0
LAYER
  2
LAYER038
 70
               0
 62
               7
  6
CONTINUOUS
  0
LAYER
  2
LAYER039
 70
               0
 62
               7
  6
CONTINUOUS
  0
LAYER
  2
LAYER040
 70
               0
 62
               7
  6
CONTINUOUS
  0
LAYER
  2
LAYER041
 70
               0
 62
               7
  6
CONTINUOUS
  0
LAYER
  2
LAYER042
 70
               0
 62
               7
  6
CONTINUOUS
  0
LAYER
  2
LAYER043
 70
               0
 62
               7
  6
CONTINUOUS
  0
LAYER
  2
LAYER044
 70
               0
 62
               7
  6
CONTINUOUS
  0
LAYER
  2
LAYER045
 70
               0
 62
               7
  6
CONTINUOUS
  0
LAYER
  2
LAYER046
 70
               0
 62
               7
  6
CONTINUOUS
  0
LAYER
  2
LAYER047
 70
               0
 62
               7
  6
CONTINUOUS
  0
LAYER
  2
LAYER048
 70
               0
 62
               7
  6
CONTINUOUS
  0
LAYER
  2
LAYER049
 70
               0
 62
               7
  6
CONTINUOUS
  0
LAYER
  2
LAYER050
 70
               0
 62
               7
  6
CONTINUOUS
  0
LAYER
  2
LAYER051
 70
               0
 62
               7
  6
CONTINUOUS
  0
LAYER
  2
LAYER052
 70
               0
 62
               7
  6
CONTINUOUS
  0
LAYER
  2
LAYER053
 70
               0
 62
               7
  6
CONTINUOUS
  0
LAYER
  2
LAYER054
 70
               0
 62
               7
  6
CONTINUOUS
  0
LAYER
  2
LAYER055
 70
               0
 62
               7
  6
CONTINUOUS
  0
LAYER
  2
LAYER056
 70
               0
 62
               7
  6
CONTINUOUS
  0
LAYER
  2
LAYER057
 70
               0
 62
               7
  6
CONTINUOUS
  0
LAYER
  2
LAYER058
 70
               0
 62
               7
  6
CONTINUOUS
  0
LAYER
  2
LAYER059
 70
               0
 62
               7
  6
CONTINUOUS
  0
LAYER
  2
LAYER060
 70
               0
 62
               7
  6
CONTINUOUS
  0
LAYER
  2
LAYER061
 70
               0
 62
               7
  6
CONTINUOUS
  0
LAYER
  2
LAYER062
 70
               0
 62
               7
  6
CONTINUOUS
  0
LAYER
  2
LAYER063
 70
               0
 62
               7
  6
CONTINUOUS
  0
LAYER
  2
LAYER064
 70
               0
 62
               7
  6
CONTINUOUS
  0
LAYER
  2
LAYER065
 70
               0
 62
               7
  6
CONTINUOUS
  0
LAYER
  2
LAYER066
 70
               0
 62
               7
  6
CONTINUOUS
  0
LAYER
  2
LAYER067
 70
               0
 62
               7
  6
CONTINUOUS
  0
LAYER
  2
LAYER068
 70
               0
 62
               7
  6
CONTINUOUS
  0
LAYER
  2
LAYER069
 70
               0
 62
               7
  6
CONTINUOUS
  0
LAYER
  2
LAYER070
 70
               0
 62
               7
  6
CONTINUOUS
  0
LAYER
  2
LAYER071
 70
               0
 62
               7
  6
CONTINUOUS
  0
LAYER
  2
LAYER072
 70
               0
 62
               7
  6
CONTINUOUS
  0
LAYER
  2
LAYER073
 70
               0
 62
               7
  6
CONTINUOUS
  0
LAYER
  2
LAYER074
 70
               0
 62
               7
  6
CONTINUOUS
  0
LAYER
  2
LAYER075
 70
               0
 62
               7
  6
CONTINUOUS
  0
LAYER
  2
LAYER076
 70
               0
 62
               7
  6
CONTINUOUS
  0
LAYER
  2
LAYER077
 70
               0
 62
               7
  6
CONTINUOUS
  0
LAYER
  2
LAYER078
 70
               0
 62
               7
  6
CONTINUOUS
  0
LAYER
  2
LAYER079
 70
               0
 62
               7
  6
CONTINUOUS
  0
LAYER
  2
LAYER080
 70
               0
 62
               7
  6
CONTINUOUS
  0
LAYER
  2
LAYER081
 70
               0
 62
               7
  6
CONTINUOUS
  0
LAYER
  2
LAYER082
 70
               0
 62
               7
  6
CONTINUOUS
  0
LAYER
  2
LAYER083
 70
               0
 62
               7
  6
CONTINUOUS
  0
LAYER
  2
LAYER084
 70
               0
 62
               7
  6
CONTINUOUS
  0
LAYER
  2
LAYER085
 70
               0
 62
               7
  6
CONTINUOUS
  0
LAYER
  2
LAYER086
 70
               0
 62
               7
  6
CONTINUOUS
  0
LAYER
  2
LAYER087
 70
               0
 62
               7
  6
CONTINUOUS
  0
LAYER
  2
LAYER088
 70
               0
 62
               7
  6
CONTINUOUS
  0
LAYER
  2
LAYER089
 70
               0
 62
               7
  6
CONTINUOUS
  0
LAYER
  2
LAYER090
 70
               0
 62
               7
  6
CONTINUOUS
  0
LAYER
  2
LAYER091
 70
               0
 62
               7
  6
CONTINUOUS
  0
LAYER
  2
LAYER092
 70
               0
 62
               7
  6
CONTINUOUS
  0
LAYER
  2
LAYER093
 70
               0
 62
               7
  6
CONTINUOUS
  0
LAYER
  2
LAYER094
 70
               0
 62
               7
  6
CONTINUOUS
  0
LAYER
  2
LAYER095
 70
               0
 62
               7
  6
CONTINUOUS
  0
LAYER
  2
LAYER096
 70
               0
 62
               7
  6
CONTINUOUS
  0
LAYER
  2
LAYER097
 70
               0
 62
               7
  6
CONTINUOUS
  0
LAYER
  2
LAYER098
 70
               0
 62
               7
  6
CONTINUOUS
  0
LAYER
  2
LAYER099
 70
               0
 62
               7
  6
CONTINUOUS
  0
LAYER
  2
LAYER100
 70
               0
 62
               7
  6
CONTINUOUS
  0
LAYER
  2
LAYER101
 70
               0
 62
               7
  6
CONTINUOUS
  0
LAYER
  2
LAYER102
 70
               0
 62
               7
  6
CONTINUOUS
  0
LAYER
  2
LAYER103
 70
               0
 62
               7
  6
CONTINUOUS
  0
LAYER
  2
LAYER104
 70
               0
 62
               7
  6
CONTINUOUS
  0
LAYER
  2
LAYER105
 70
               0
 62
               7
  6
CONTINUOUS
  0
LAYER
  2
LAYER106
 70
               0
 62
               7
  6
CONTINUOUS
  0
LAYER
  2
LAYER107
 70
               0
 62
               7
  6
CONTINUOUS
  0
LAYER
  2
LAYER108
 70
               0
 62
               7
  6
CONTINUOUS
  0
LAYER
  2
LAYER109
 70
               0
 62
               7
  6
CONTINUOUS
  0
LAYER
  2
LAYER110
 70
               0
 62
               7
  6
CONTINUOUS
  0
LAYER
  2
LAYER111
 70
               0
 62
               7
  6
CONTINUOUS
  0
LAYER
  2
LAYER112
 70
               0
 62
               7
  6
CONTINUOUS
  0
LAYER
  2
LAYER113
 70
               0
 62
               7
  6
CONTINUOUS
  0
LAYER
  2
LAYER114
 70
               0
 62
               7
  6
CONTINUOUS
  0
LAYER
  2
LAYER115
 70
               0
 62
               7
  6
CONTINUOUS
  0
LAYER
  2
LAYER116
 70
               0
 62
               7
  6
CONTINUOUS
  0
LAYER
  2
LAYER117
 70
               0
 62
               7
  6
CONTINUOUS
  0
LAYER
  2
LAYER118
 70
               0
 62
               7
  6
CONTINUOUS
  0
LAYER
  2
LAYER119
 70
               0
 62
               7
  6
CONTINUOUS
  0
LAYER
  2
LAYER120
 70
               0
 62
               7
  6
CONTINUOUS
  0
LAYER
  2
LAYER121
 70
               0
 62
               7
  6
CONTINUOUS
  0
LAYER
  2
LAYER122
 70
               0
 62
               7
  6
CONTINUOUS
  0
LAYER
  2
LAYER123
 70
               0
 62
               7
  6
CONTINUOUS
  0
LAYER
  2
LAYER124
 70
               0
 62
               7
  6
CONTINUOUS
  0
LAYER
  2
LAYER125
 70
               0
 62
               7
  6
CONTINUOUS
  0
LAYER
  2
LAYER126
 70
               0
 62
               7
  6
CONTINUOUS
  0
LAYER
  2
LAYER127
 70
               0
 62
               7
  6
CONTINUOUS
  0
LAYER
  2
LAYER128
 70
               0
 62
               7
  6
CONTINUOUS
  0
LAYER
  2
LAYER129
 70
               0
 62
               7
  6
CONTINUOUS
  0
LAYER
  2
LAYER130
 70
               0
 62
               7
  6
CONTINUOUS
  0
LAYER
  2
LAYER131
 70
               0
 62
               7
  6
CONTINUOUS
  0
LAYER
  2
LAYER132
 70
               0
 62
               7
  6
CONTINUOUS
  0
LAYER
  2
LAYER133
 70
               0
 62
               7
  6
CONTINUOUS
  0
LAYER
  2
LAYER134
 70
               0
 62
               7
  6
CONTINUOUS
  0
LAYER
  2
LAYER135
 70
               0
 62
               7
  6
CONTINUOUS
  0
LAYER
  2
LAYER136
 70
               0
 62
               7
  6
CONTINUOUS
  0
LAYER
  2
LAYER137
 70
               0
 62
               7
  6
CONTINUOUS
  0
LAYER
  2
LAYER138
 70
               0
 62
               7
  6
CONTINUOUS
  0
LAYER
  2
LAYER139
 70
               0
 62
               7
  6
CONTINUOUS
  0
LAYER
  2
LAYER140
 70
               0
 62
               7
  6
CONTINUOUS
  0
LAYER
  2
LAYER141
 70
               0
 62
               7
  6
CONTINUOUS
  0
LAYER
  2
LAYER142
 70
               0
 62
               7
  6
CONTINUOUS
  0
LAYER
  2
LAYER143
 70
               0
 62
               7
  6
CONTINUOUS
  0
LAYER
  2
LAYER144
 70
               0
 62
               7
  6
CONTINUOUS
  0
LAYER
  2
LAYER145
 70
               0
 62
               7
  6
CONTINUOUS
  0
LAYER
  2
LAYER146
 70
               0
 62
               7
  6
CONTINUOUS
  0
LAYER
  2
LAYER147
 70
               0
 62
               7
  6
CONTINUOUS
  0
LAYER
  2
LAYER148
 70
               0
 62
               7
  6
CONTINUOUS
  0
LAYER
  2
LAYER149
 70
               0
 62
               7
  6
CONTINUOUS
  0
LAYER
  2
LAYER150
 70
               0
 62
               7
  6
CONTINUOUS
  0
LAYER
  2
LAYER151
 70
               0
 62
               7
  6
CONTINUOUS
  0
LAYER
  2
LAYER152
 70
               0
 62
               7
  6
CONTINUOUS
  0
LAYER
  2
LAYER153
 70
               0
 62
               7
  6
CONTINUOUS
  0
LAYER
  2
LAYER154
 70
               0
 62
               7
  6
CONTINUOUS
  0
LAYER
  2
LAYER155
 70
               0
 62
               7
  6
CONTINUOUS
  0
LAYER
  2
LAYER156
 70
               0
 62
               7
  6
CONTINUOUS
  0
LAYER
  2
LAYER157
 70
               0
 62
               7
  6
CONTINUOUS
  0
LAYER
  2
LAYER158
 70
               0
 62
               7
  6
CONTINUOUS
  0
LAYER
  2
LAYER159
 70
               0
 62
               7
  6
CONTINUOUS
  0
LAYER
  2
LAYER160
 70
               0
 62
               7
  6
CONTINUOUS
  0
LAYER
  2
LAYER161
 70
               0
 62
               7
  6
CONTINUOUS
  0
LAYER
  2
LAYER162
 70
               0
 62
               7
  6
CONTINUOUS
  0
LAYER
  2
LAYER163
 70
               0
 62
               7
  6
CONTINUOUS
  0
LAYER
  2
LAYER164
 70
               0
 62
               7
  6
CONTINUOUS
  0
LAYER
  2
LAYER165
 70
               0
 62
               7
  6
CONTINUOUS
  0
LAYER
  2
LAYER166
 70
               0
 62
               7
  6
CONTINUOUS
  0
LAYER
  2
LAYER167
 70
               0
 62
               7
  6
CONTINUOUS
  0
LAYER
  2
LAYER168
 70
               0
 62
               7
  6
CONTINUOUS
  0
LAYER
  2
LAYER169
 70
               0
 62
               7
  6
CONTINUOUS
  0
LAYER
  2
LAYER170
 70
               0
 62
               7
  6
CONTINUOUS
  0
LAYER
  2
LAYER171
 70
               0
 62
               7
  6
CONTINUOUS
  0
LAYER
  2
LAYER172
 70
               0
 62
               7
  6
CONTINUOUS
  0
LAYER
  2
LAYER173
 70
               0
 62
               7
  6
CONTINUOUS
  0
LAYER
  2
LAYER174
 70
               0
 62
               7
  6
CONTINUOUS
  0
LAYER
  2
LAYER175
 70
               0
 62
               7
  6
CONTINUOUS
  0
LAYER
  2
LAYER176
 70
               0
 62
               7
  6
CONTINUOUS
  0
LAYER
  2
LAYER177
 70
               0
 62
               7
  6
CONTINUOUS
  0
LAYER
  2
LAYER178
 70
               0
 62
               7
  6
CONTINUOUS
  0
LAYER
  2
LAYER179
 70
               0
 62
               7
  6
CONTINUOUS
  0
LAYER
  2
LAYER180
 70
               0
 62
               7
  6
CONTINUOUS
  0
LAYER
  2
LAYER181
 70
               0
 62
               7
  6
CONTINUOUS
  0
LAYER
  2
LAYER182
 70
               0
 62
               7
  6
CONTINUOUS
  0
LAYER
  2
LAYER183
 70
               0
 62
               7
  6
CONTINUOUS
  0
LAYER
  2
LAYER184
 70
               0
 62
               7
  6
CONTINUOUS
  0
LAYER
  2
LAYER185
 70
               0
 62
               7
  6
CONTINUOUS
  0
LAYER
  2
LAYER186
 70
               0
 62
               7
  6
CONTINUOUS
  0
LAYER
  2
LAYER187
 70
               0
 62
               7
  6
CONTINUOUS
  0
LAYER
  2
LAYER188
 70
               0
 62
               7
  6
CONTINUOUS
  0
LAYER
  2
LAYER189
 70
               0
 62
               7
  6
CONTINUOUS
  0
LAYER
  2
LAYER190
 70
               0
 62
               7
  6
CONTINUOUS
  0
LAYER
  2
LAYER191
 70
               0
 62
               7
  6
CONTINUOUS
  0
LAYER
  2
LAYER192
 70
               0
 62
               7
  6
CONTINUOUS
  0
LAYER
  2
LAYER193
 70
               0
 62
               7
  6
CONTINUOUS
  0
LAYER
  2
LAYER194
 70
               0
 62
               7
  6
CONTINUOUS
  0
LAYER
  2
LAYER195
 70
               0
 62
               7
  6
CONTINUOUS
  0
LAYER
  2
LAYER196
 70
               0
 62
               7
  6
CONTINUOUS
  0
LAYER
  2
LAYER197
 70
               0
 62
               7
  6
CONTINUOUS
  0
LAYER
  2
LAYER198
 70
               0
 62
               7
  6
CONTINUOUS
  0
LAYER
  2
LAYER199
 70
               0
 62
               7
  6
CONTINUOUS
  0
LAYER
  2
LAYER200
 70
               0
 62
               7
  6
CONTINUOUS
  0
LAYER
  2
LAYER201
 70
               0
 62
               7
  6
CONTINUOUS
  0
LAYER
  2
LAYER202
 70
               0
 62
               7
  6
CONTINUOUS
  0
LAYER
  2
LAYER203
 70
               0
 62
               7
  6
CONTINUOUS
  0
LAYER
  2
LAYER204
 70
               0
 62
               7
  6
CONTINUOUS
  0
LAYER
  2
LAYER205
 70
               0
 62
               7
  6
CONTINUOUS
  0
LAYER
  2
LAYER206
 70
               0
 62
               7
  6
CONTINUOUS
  0
LAYER
  2
LAYER207
 70
               0
 62
               7
  6
CONTINUOUS
  0
LAYER
  2
LAYER208
 70
               0
 62
               7
  6
CONTINUOUS
  0
LAYER
  2
LAYER209
 70
               0
 62
               7
  6
CONTINUOUS
  0
LAYER
  2
LAYER210
 70
               0
 62
               7
  6
CONTINUOUS
  0
LAYER
  2
LAYER211
 70
               0
 62
               7
  6
CONTINUOUS
  0
LAYER
  2
LAYER212
 70
               0
 62
               7
  6
CONTINUOUS
  0
LAYER
  2
LAYER213
 70
               0
 62
               7
  6
CONTINUOUS
  0
LAYER
  2
LAYER214
 70
               0
 62
               7
  6
CONTINUOUS
  0
LAYER
  2
LAYER215
 70
               0
 62
               7
  6
CONTINUOUS
  0
LAYER
  2
LAYER216
 70
               0
 62
               7
  6
CONTINUOUS
  0
LAYER
  2
LAYER217
 70
               0
 62
               7
  6
CONTINUOUS
  0
LAYER
  2
LAYER218
 70
               0
 62
               7
  6
CONTINUOUS
  0
LAYER
  2
LAYER219
 70
               0
 62
               7
  6
CONTINUOUS
  0
LAYER
  2
LAYER220
 70
               0
 62
               7
  6
CONTINUOUS
  0
LAYER
  2
LAYER221
 70
               0
 62
               7
  6
CONTINUOUS
  0
LAYER
  2
LAYER222
 70
               0
 62
               7
  6
CONTINUOUS
  0
LAYER
  2
LAYER223
 70
               0
 62
               7
  6
CONTINUOUS
  0
LAYER
  2
LAYER224
 70
               0
 62
               7
  6
CONTINUOUS
  0
LAYER
  2
LAYER225
 70
               0
 62
               7
  6
CONTINUOUS
  0
LAYER
  2
LAYER226
 70
               0
 62
               7
  6
CONTINUOUS
  0
LAYER
  2
LAYER227
 70
               0
 62
               7
  6
CONTINUOUS
  0
LAYER
  2
LAYER228
 70
               0
 62
               7
  6
CONTINUOUS
  0
LAYER
  2
LAYER229
 70
               0
 62
               7
  6
CONTINUOUS
  0
LAYER
  2
LAYER230
 70
               0
 62
               7
  6
CONTINUOUS
  0
LAYER
  2
LAYER231
 70
               0
 62
               7
  6
CONTINUOUS
  0
LAYER
  2
LAYER232
 70
               0
 62
               7
  6
CONTINUOUS
  0
LAYER
  2
LAYER233
 70
               0
 62
               7
  6
CONTINUOUS
  0
LAYER
  2
LAYER234
 70
               0
 62
               7
  6
CONTINUOUS
  0
LAYER
  2
LAYER235
 70
               0
 62
               7
  6
CONTINUOUS
  0
LAYER
  2
LAYER236
 70
               0
 62
               7
  6
CONTINUOUS
  0
LAYER
  2
LAYER237
 70
               0
 62
               7
  6
CONTINUOUS
  0
LAYER
  2
LAYER238
 70
               0
 62
               7
  6
CONTINUOUS
  0
LAYER
  2
LAYER239
 70
               0
 62
               7
  6
CONTINUOUS
  0
LAYER
  2
LAYER240
 70
               0
 62
               7
  6
CONTINUOUS
  0
LAYER
  2
LAYER241
 70
               0
 62
               7
  6
CONTINUOUS
  0
LAYER
  2
LAYER242
 70
               0
 62
               7
  6
CONTINUOUS
  0
LAYER
  2
LAYER243
 70
               0
 62
               7
  6
CONTINUOUS
  0
LAYER
  2
LAYER244
 70
               0
 62
               7
  6
CONTINUOUS
  0
LAYER
  2
LAYER245
 70
               0
 62
               7
  6
CONTINUOUS
  0
LAYER
  2
LAYER246
 70
               0
 62
               7
  6
CONTINUOUS
  0
LAYER
  2
LAYER247
 70
               0
 62
               7
  6
CONTINUOUS
  0
LAYER
  2
LAYER248
 70
               0
 62
               7
  6
CONTINUOUS
  0
LAYER
  2
LAYER249
 70
               0
 62
               7
  6
CONTINUOUS
  0
LAYER
  2
LAYER250
 70
               0
 62
               7
  6
CONTINUOUS
  0
LAYER
  2
LAYER251
 70
               0
 62
               7
  6
CONTINUOUS
  0
LAYER
  2
LAYER252
 70
               0
 62
               7
  6
CONTINUOUS
  0
LAYER
  2
LAYER253
 70
               0
 62
               7
  6
CONTINUOUS
  0
LAYER
  2
LAYER254
 70
               0
 62
               7
  6
CONTINUOUS
  0
LAYER
  2
LAYER255
 70
               0
 62
               7
  6
CONTINUOUS
  0
ENDTAB
  0
TABLE
  2
STYLE
 70
               1
  0
STYLE
  2
STANDARD
 70
               0
 40
0.0
 41
0.8
 50
0.0
 71
               0
 42
40.0
  3
MS PGothic.ttf
  4

  0
ENDTAB
  0
TABLE
  2
VIEW
 70
               0
  0
VIEW
  2
QQQQ
 70
               0
 40
2687.5406913612078
 10
51.574377082919455
 20
-450.08176079692601
 41
1472.3288429547883
 11
0.0
 21
0.0
 31
1.0
 12
100.0
 22
100.0
 32
0.0
 42
50.0
 43
0.0
 44
0.0
 50
0.0
 71
               0
  0
ENDTAB
  0
TABLE
  2
UCS
 70
               0
  0
ENDTAB
  0
TABLE
  2
APPID
 70
               1
  0
APPID
  2
ACAD
 70
               0
  0
ENDTAB
  0
TABLE
  2
DIMSTYLE
 70
               1
  0
DIMSTYLE
  2
STANDARD
 70
               0
  3

  4

  5

  6

  7

 40
1.0
 41
0.18
 42
0.0625
 43
0.38
 44
0.18
 45
0.0
 46
0.0
 47
0.0
 48
0.0
140
0.18
141
0.09
142
0.0
143
25.399999999999999
144
1.0
145
0.0
146
1.0
147
0.09
 71
               0
 72
               0
 73
               1
 74
               1
 75
               0
 76
               0
 77
               0
 78
               0
170
               0
171
               2
172
               0
173
               0
174
               0
175
               0
176
               0
177
               0
178
               0
  0
ENDTAB
  0
ENDSEC
  0
SECTION
  2
BLOCKS
  0
BLOCK
  8
0
  5
143
  2
GROUP_1
 70
               0
 10
0.0
 20
0.0
 30
0.0
  3
GROUP_1
  0
LINE
  8
0
  6
CONTINUOUS
 62
               4
  5
144
 10
-62.999999999999375
 20
-276.87458705902037
 30
0.0
 11
63.638466492967694
 21
-150.2361205660533
 31
0.0
  0
LINE
  8
0
  6
CONTINUOUS
 62
               4
  5
145
 10
-62.999999999999375
 20
-206.16390895843443
 30
0.0
 11
-4.5106948890226031
 21
-147.67460384745766
 31
0.0
  0
LINE
  8
0
  6
CONTINUOUS
 62
               4
  5
146
 10
-33.089338687850713
 20
-317.67460384745766
 30
0.0
 11
62.999999999998096
 21
-221.58526515960884
 31
0.0
  0
LINE
  8
0
  6
CONTINUOUS
 62
               4
  5
147
 10
37.621339412735196
 20
-317.67460384745766
 30
0.0
 11
62.999999999998096
 21
-292.2959432601948
 31
0.0
  0
ENDBLK
  8
0
  5
148
  0
BLOCK
  8
0
  5
149
  2
GROUP_2
 70
               0
 10
0.0
 20
0.0
 30
0.0
  3
GROUP_2
  0
LINE
  8
0
  6
CONTINUOUS
 62
               4
  5
14A
 10
-562.99999999999886
 20
-276.87458705901975
 30
0.0
 11
-436.36153350703177
 21
-150.23612056605276
 31
0.0
  0
LINE
  8
0
  6
CONTINUOUS
 62
               4
  5
14B
 10
-562.99999999999886
 20
-206.16390895843381
 30
0.0
 11
-504.51069488902255
 21
-147.67460384745755
 31
0.0
  0
LINE
  8
0
  6
CONTINUOUS
 62
               4
  5
14C
 10
-533.08933868785061
 20
-317.67460384745743
 30
0.0
 11
-437.00000000000148
 21
-221.58526515960835
 31
0.0
  0
LINE
  8
0
  6
CONTINUOUS
 62
               4
  5
14D
 10
-462.37866058726462
 20
-317.67460384745743
 30
0.0
 11
-437.00000000000148
 21
-292.29594326019429
 31
0.0
  0
ENDBLK
  8
0
  5
14E
  0
BLOCK
  8
0
  5
14F
  2
GROUP_3
 70
               0
 10
0.0
 20
0.0
 30
0.0
  3
GROUP_3
  0
LINE
  8
0
  6
CONTINUOUS
 62
               4
  5
150
 10
437.0000000000029
 20
-276.8745880126923
 30
0.0
 11
563.63846649297147
 21
-150.23612056604952
 31
0.0
  0
LINE
  8
0
  6
CONTINUOUS
 62
               4
  5
151
 10
466.91066226582365
 20
-317.67460384745749
 30
0.0
 11
563.00000000000034
 21
-221.5852661132808
 31
0.0
  0
LINE
  8
0
  6
CONTINUOUS
 62
               4
  5
152
 10
537.62134036640953
 20
-317.67460384745755
 30
0.0
 11
563.00000000000034
 21
-292.29594421386673
 31
0.0
  0
LINE
  8
0
  6
CONTINUOUS
 62
               4
  5
153
 10
437.0000000000029
 20
-206.16390991210636
 30
0.0
 11
495.48930606465171
 21
-147.67460384745755
 31
0.0
  0
ENDBLK
  8
0
  5
154
  0
BLOCK
  8
0
  5
155
  2
GROUP_4
 70
               0
 10
0.0
 20
0.0
 30
0.0
  3
GROUP_4
  0
LINE
  8
0
  6
CONTINUOUS
 62
               4
  5
156
 10
-54.850000000000307
 20
30.300000000001717
 30
0.0
 11
-73.850000000000421
 21
30.300000000001717
 31
0.0
  0
LINE
  8
0
  6
CONTINUOUS
 62
               4
  5
157
 10
-73.850000000000421
 20
30.300000000001717
 30
0.0
 11
-73.850000000000421
 21
20.300000000001717
 31
0.0
  0
LINE
  8
0
  6
CONTINUOUS
 62
               4
  5
158
 10
-73.850000000000421
 20
20.300000000001717
 30
0.0
 11
-54.850000000000307
 21
20.300000000001717
 31
0.0
  0
LINE
  8
0
  6
CONTINUOUS
 62
               4
  5
159
 10
-54.850000000000307
 20
20.300000000001717
 30
0.0
 11
-54.850000000000307
 21
30.300000000001717
 31
0.0
  0
LINE
  8
0
  6
CONTINUOUS
 62
               4
  5
15A
 10
-64.350000000000534
 20
20.300000000001717
 30
0.0
 11
-64.350000000000534
 21
29.174166975081903
 31
0.0
  0
ARC
  8
0
  6
CONTINUOUS
 62
               4
  5
15B
 10
-69.100000000000534
 20
19.823097394061904
 30
0.0
 40
10.488326954718639
 50
63.071102706951748
 51
116.92889729304785
  0
ARC
  8
0
  6
CONTINUOUS
 62
               4
  5
15C
 10
-59.600000000000307
 20
19.823097394061904
 30
0.0
 40
10.488326954718639
 50
63.071102706951748
 51
116.92889729304785
  0
ARC
  8
0
  6
CONTINUOUS
 62
               4
  5
15D
 10
-59.600000000000307
 20
19.823097394061904
 30
0.0
 40
10.488326954718639
 50
63.071102706951748
 51
116.92889729304785
  0
ARC
  8
0
  6
CONTINUOUS
 62
               4
  5
15E
 10
-59.600000000000307
 20
19.823097394061904
 30
0.0
 40
10.488326954718639
 50
63.071102706951748
 51
116.92889729304785
  0
ENDBLK
  8
0
  5
15F
  0
BLOCK
  8
0
  5
160
  2
GROUP_5
 70
               0
 10
0.0
 20
0.0
 30
0.0
  3
GROUP_5
  0
LINE
  8
0
  6
CONTINUOUS
 62
               4
  5
161
 10
73.849999999999966
 20
30.300000000000864
 30
0.0
 11
54.849999999999966
 21
30.300000000000864
 31
0.0
  0
LINE
  8
0
  6
CONTINUOUS
 62
               4
  5
162
 10
54.849999999999966
 20
30.300000000000864
 30
0.0
 11
54.849999999999966
 21
20.300000000000864
 31
0.0
  0
LINE
  8
0
  6
CONTINUOUS
 62
               4
  5
163
 10
54.849999999999966
 20
20.300000000000864
 30
0.0
 11
73.849999999999966
 21
20.300000000000864
 31
0.0
  0
LINE
  8
0
  6
CONTINUOUS
 62
               4
  5
164
 10
73.849999999999966
 20
20.300000000000864
 30
0.0
 11
73.849999999999966
 21
30.300000000000864
 31
0.0
  0
LINE
  8
0
  6
CONTINUOUS
 62
               4
  5
165
 10
64.349999999999739
 20
20.300000000000864
 30
0.0
 11
64.349999999999739
 21
29.174166975081164
 31
0.0
  0
ARC
  8
0
  6
CONTINUOUS
 62
               4
  5
166
 10
59.599999999999852
 20
19.823097394061051
 30
0.0
 40
10.488326954718639
 50
63.071102706951748
 51
116.92889729304785
  0
ARC
  8
0
  6
CONTINUOUS
 62
               4
  5
167
 10
69.099999999999739
 20
19.823097394061051
 30
0.0
 40
10.488326954718639
 50
63.071102706951748
 51
116.92889729304785
  0
ARC
  8
0
  6
CONTINUOUS
 62
               4
  5
168
 10
69.099999999999739
 20
19.823097394061051
 30
0.0
 40
10.488326954718639
 50
63.071102706951748
 51
116.92889729304785
  0
ARC
  8
0
  6
CONTINUOUS
 62
               4
  5
169
 10
69.099999999999739
 20
19.823097394061051
 30
0.0
 40
10.488326954718639
 50
63.071102706951748
 51
116.92889729304785
  0
ENDBLK
  8
0
  5
16A
  0
BLOCK
  8
0
  5
16B
  2
GROUP_6
 70
               0
 10
0.0
 20
0.0
 30
0.0
  3
GROUP_6
  0
LINE
  8
0
  6
CONTINUOUS
 62
               4
  5
16C
 10
-445.15000000000009
 20
30.300000000001148
 30
0.0
 11
-426.15000000000009
 21
30.300000000001148
 31
0.0
  0
LINE
  8
0
  6
CONTINUOUS
 62
               4
  5
16D
 10
-426.15000000000009
 20
30.300000000001148
 30
0.0
 11
-426.15000000000009
 21
20.300000000001148
 31
0.0
  0
LINE
  8
0
  6
CONTINUOUS
 62
               4
  5
16E
 10
-426.15000000000009
 20
20.300000000001148
 30
0.0
 11
-445.15000000000009
 21
20.300000000001148
 31
0.0
  0
LINE
  8
0
  6
CONTINUOUS
 62
               4
  5
16F
 10
-445.15000000000009
 20
20.300000000001148
 30
0.0
 11
-445.15000000000009
 21
30.300000000001148
 31
0.0
  0
LINE
  8
0
  6
CONTINUOUS
 62
               4
  5
170
 10
-435.65000000000009
 20
20.300000000001148
 30
0.0
 11
-435.65000000000009
 21
29.174166975081278
 31
0.0
  0
ARC
  8
0
  6
CONTINUOUS
 62
               4
  5
171
 10
-430.90000000000009
 20
19.823097394061335
 30
0.0
 40
10.488326954718639
 50
63.071102706951748
 51
116.92889729304785
  0
ARC
  8
0
  6
CONTINUOUS
 62
               4
  5
172
 10
-440.39999999999986
 20
19.823097394061335
 30
0.0
 40
10.488326954718639
 50
63.071102706951748
 51
116.92889729304785
  0
ARC
  8
0
  6
CONTINUOUS
 62
               4
  5
173
 10
-440.39999999999986
 20
19.823097394061335
 30
0.0
 40
10.488326954718639
 50
63.071102706951748
 51
116.92889729304785
  0
ARC
  8
0
  6
CONTINUOUS
 62
               4
  5
174
 10
-440.39999999999986
 20
19.823097394061335
 30
0.0
 40
10.488326954718639
 50
63.071102706951748
 51
116.92889729304785
  0
ENDBLK
  8
0
  5
175
  0
BLOCK
  8
0
  5
176
  2
GROUP_7
 70
               0
 10
0.0
 20
0.0
 30
0.0
  3
GROUP_7
  0
LINE
  8
0
  6
CONTINUOUS
 62
               4
  5
177
 10
-573.85000000000036
 20
30.300000000000296
 30
0.0
 11
-554.85000000000036
 21
30.300000000000296
 31
0.0
  0
LINE
  8
0
  6
CONTINUOUS
 62
               4
  5
178
 10
-554.85000000000036
 20
30.300000000000296
 30
0.0
 11
-554.85000000000036
 21
20.300000000000296
 31
0.0
  0
LINE
  8
0
  6
CONTINUOUS
 62
               4
  5
179
 10
-554.85000000000036
 20
20.300000000000296
 30
0.0
 11
-573.85000000000036
 21
20.300000000000296
 31
0.0
  0
LINE
  8
0
  6
CONTINUOUS
 62
               4
  5
17A
 10
-573.85000000000036
 20
20.300000000000296
 30
0.0
 11
-573.85000000000036
 21
30.300000000000296
 31
0.0
  0
LINE
  8
0
  6
CONTINUOUS
 62
               4
  5
17B
 10
-564.35000000000036
 20
20.300000000000296
 30
0.0
 11
-564.35000000000036
 21
29.174166975080595
 31
0.0
  0
ARC
  8
0
  6
CONTINUOUS
 62
               4
  5
17C
 10
-559.60000000000036
 20
19.823097394060483
 30
0.0
 40
10.488326954718639
 50
63.071102706951748
 51
116.92889729304785
  0
ARC
  8
0
  6
CONTINUOUS
 62
               4
  5
17D
 10
-569.10000000000036
 20
19.823097394060483
 30
0.0
 40
10.488326954718639
 50
63.071102706951748
 51
116.92889729304785
  0
ARC
  8
0
  6
CONTINUOUS
 62
               4
  5
17E
 10
-569.10000000000036
 20
19.823097394060483
 30
0.0
 40
10.488326954718639
 50
63.071102706951748
 51
116.92889729304785
  0
ARC
  8
0
  6
CONTINUOUS
 62
               4
  5
17F
 10
-569.10000000000036
 20
19.823097394060483
 30
0.0
 40
10.488326954718639
 50
63.071102706951748
 51
116.92889729304785
  0
ENDBLK
  8
0
  5
180
  0
BLOCK
  8
0
  5
181
  2
GROUP_8
 70
               0
 10
0.0
 20
0.0
 30
0.0
  3
GROUP_8
  0
LINE
  8
0
  6
CONTINUOUS
 62
               4
  5
182
 10
554.85000000000014
 20
30.300000000001148
 30
0.0
 11
573.85000000000036
 21
30.300000000001148
 31
0.0
  0
LINE
  8
0
  6
CONTINUOUS
 62
               4
  5
183
 10
573.85000000000036
 20
30.300000000001148
 30
0.0
 11
573.85000000000036
 21
20.300000000001148
 31
0.0
  0
LINE
  8
0
  6
CONTINUOUS
 62
               4
  5
184
 10
573.85000000000036
 20
20.300000000001148
 30
0.0
 11
554.85000000000014
 21
20.300000000001148
 31
0.0
  0
LINE
  8
0
  6
CONTINUOUS
 62
               4
  5
185
 10
554.85000000000014
 20
20.300000000001148
 30
0.0
 11
554.85000000000014
 21
30.300000000001148
 31
0.0
  0
LINE
  8
0
  6
CONTINUOUS
 62
               4
  5
186
 10
564.35000000000036
 20
20.300000000001148
 30
0.0
 11
564.35000000000036
 21
29.174166975081278
 31
0.0
  0
ARC
  8
0
  6
CONTINUOUS
 62
               4
  5
187
 10
569.10000000000036
 20
19.823097394061335
 30
0.0
 40
10.488326954718639
 50
63.071102706951748
 51
116.92889729304785
  0
ARC
  8
0
  6
CONTINUOUS
 62
               4
  5
188
 10
559.60000000000036
 20
19.823097394061335
 30
0.0
 40
10.488326954718639
 50
63.071102706951748
 51
116.92889729304785
  0
ARC
  8
0
  6
CONTINUOUS
 62
               4
  5
189
 10
559.60000000000036
 20
19.823097394061335
 30
0.0
 40
10.488326954718639
 50
63.071102706951748
 51
116.92889729304785
  0
ARC
  8
0
  6
CONTINUOUS
 62
               4
  5
18A
 10
559.60000000000036
 20
19.823097394061335
 30
0.0
 40
10.488326954718639
 50
63.071102706951748
 51
116.92889729304785
  0
ENDBLK
  8
0
  5
18B
  0
BLOCK
  8
0
  5
18C
  2
GROUP_9
 70
               0
 10
0.0
 20
0.0
 30
0.0
  3
GROUP_9
  0
LINE
  8
0
  6
CONTINUOUS
 62
               4
  5
18D
 10
426.15000000000009
 20
30.300000000000296
 30
0.0
 11
445.15000000000009
 21
30.300000000000296
 31
0.0
  0
LINE
  8
0
  6
CONTINUOUS
 62
               4
  5
18E
 10
445.15000000000009
 20
30.300000000000296
 30
0.0
 11
445.15000000000009
 21
20.300000000000296
 31
0.0
  0
LINE
  8
0
  6
CONTINUOUS
 62
               4
  5
18F
 10
445.15000000000009
 20
20.300000000000296
 30
0.0
 11
426.15000000000009
 21
20.300000000000296
 31
0.0
  0
LINE
  8
0
  6
CONTINUOUS
 62
               4
  5
190
 10
426.15000000000009
 20
20.300000000000296
 30
0.0
 11
426.15000000000009
 21
30.300000000000296
 31
0.0
  0
LINE
  8
0
  6
CONTINUOUS
 62
               4
  5
191
 10
435.65000000000009
 20
20.300000000000296
 30
0.0
 11
435.65000000000009
 21
29.174166975080595
 31
0.0
  0
ARC
  8
0
  6
CONTINUOUS
 62
               4
  5
192
 10
440.40000000000009
 20
19.823097394060483
 30
0.0
 40
10.488326954718639
 50
63.071102706951748
 51
116.92889729304785
  0
ARC
  8
0
  6
CONTINUOUS
 62
               4
  5
193
 10
430.89999999999986
 20
19.823097394060483
 30
0.0
 40
10.488326954718639
 50
63.071102706951748
 51
116.92889729304785
  0
ARC
  8
0
  6
CONTINUOUS
 62
               4
  5
194
 10
430.89999999999986
 20
19.823097394060483
 30
0.0
 40
10.488326954718639
 50
63.071102706951748
 51
116.92889729304785
  0
ARC
  8
0
  6
CONTINUOUS
 62
               4
  5
195
 10
430.89999999999986
 20
19.823097394060483
 30
0.0
 40
10.488326954718639
 50
63.071102706951748
 51
116.92889729304785
  0
ENDBLK
  8
0
  5
196
  0
BLOCK
  8
0
  5
197
  2
GROUP_10
 70
               0
 10
0.0
 20
0.0
 30
0.0
  3
GROUP_10
  0
CIRCLE
  8
0
  6
CONTINUOUS
 62
               4
  5
198
 10
64.34671708797535
 20
720.34671708797691
 30
0.0
 40
9.5
  0
LINE
  8
0
  6
CONTINUOUS
 62
               4
  5
199
 10
64.34671708797535
 20
731.31637220257994
 30
0.0
 11
73.846717087975094
 21
725.83154464527797
 31
0.0
  0
LINE
  8
0
  6
CONTINUOUS
 62
               4
  5
19A
 10
73.846717087975094
 20
725.83154464527797
 30
0.0
 11
73.846717087975094
 21
714.86188953067517
 31
0.0
  0
LINE
  8
0
  6
CONTINUOUS
 62
               4
  5
19B
 10
73.846717087975094
 20
714.86188953067517
 30
0.0
 11
64.34671708797535
 21
709.37706197337366
 31
0.0
  0
LINE
  8
0
  6
CONTINUOUS
 62
               4
  5
19C
 10
64.34671708797535
 20
709.37706197337366
 30
0.0
 11
54.846717087975321
 21
714.86188953067517
 31
0.0
  0
LINE
  8
0
  6
CONTINUOUS
 62
               4
  5
19D
 10
54.846717087975321
 20
714.86188953067517
 30
0.0
 11
54.846717087975321
 21
725.83154464527797
 31
0.0
  0
LINE
  8
0
  6
CONTINUOUS
 62
               4
  5
19E
 10
54.846717087975321
 20
725.83154464527797
 30
0.0
 11
64.34671708797535
 21
731.31637220257994
 31
0.0
  0
CIRCLE
  8
0
  6
CONTINUOUS
 62
               4
  5
19F
 10
64.34671708797535
 20
720.34671708797691
 30
0.0
 40
5.1250000000000009
  0
CIRCLE
  8
0
  6
CONTINUOUS
 62
               4
  5
1A0
 10
64.34671708797535
 20
720.34671708797691
 30
0.0
 40
6.0000000000000009
  0
ENDBLK
  8
0
  5
1A1
  0
BLOCK
  8
0
  5
1A2
  2
GROUP_11
 70
               0
 10
0.0
 20
0.0
 30
0.0
  3
GROUP_11
  0
CIRCLE
  8
0
  6
CONTINUOUS
 62
               4
  5
1A3
 10
64.34671708797535
 20
591.65328291202513
 30
0.0
 40
9.5
  0
LINE
  8
0
  6
CONTINUOUS
 62
               4
  5
1A4
 10
64.34671708797535
 20
602.62293802662816
 30
0.0
 11
73.846717087975094
 21
597.13811046932642
 31
0.0
  0
LINE
  8
0
  6
CONTINUOUS
 62
               4
  5
1A5
 10
73.846717087975094
 20
597.13811046932642
 30
0.0
 11
73.846717087975094
 21
586.16845535472339
 31
0.0
  0
LINE
  8
0
  6
CONTINUOUS
 62
               4
  5
1A6
 10
73.846717087975094
 20
586.16845535472339
 30
0.0
 11
64.34671708797535
 21
580.6836277974221
 31
0.0
  0
LINE
  8
0
  6
CONTINUOUS
 62
               4
  5
1A7
 10
64.34671708797535
 20
580.6836277974221
 30
0.0
 11
54.846717087975108
 21
586.16845535472339
 31
0.0
  0
LINE
  8
0
  6
CONTINUOUS
 62
               4
  5
1A8
 10
54.846717087975108
 20
586.16845535472339
 30
0.0
 11
54.846717087975108
 21
597.13811046932642
 31
0.0
  0
LINE
  8
0
  6
CONTINUOUS
 62
               4
  5
1A9
 10
54.846717087975108
 20
597.13811046932642
 30
0.0
 11
64.34671708797535
 21
602.62293802662816
 31
0.0
  0
CIRCLE
  8
0
  6
CONTINUOUS
 62
               4
  5
1AA
 10
64.34671708797535
 20
591.65328291202513
 30
0.0
 40
5.1250000000000009
  0
CIRCLE
  8
0
  6
CONTINUOUS
 62
               4
  5
1AB
 10
64.34671708797535
 20
591.65328291202513
 30
0.0
 40
6.0000000000000009
  0
ENDBLK
  8
0
  5
1AC
  0
BLOCK
  8
0
  5
1AD
  2
GROUP_12
 70
               0
 10
0.0
 20
0.0
 30
0.0
  3
GROUP_12
  0
CIRCLE
  8
0
  6
CONTINUOUS
 62
               4
  5
1AE
 10
-64.346717087976259
 20
591.65328291202513
 30
0.0
 40
9.5
  0
LINE
  8
0
  6
CONTINUOUS
 62
               4
  5
1AF
 10
-64.346717087976259
 20
602.62293802662816
 30
0.0
 11
-73.846717087976003
 21
597.13811046932642
 31
0.0
  0
LINE
  8
0
  6
CONTINUOUS
 62
               4
  5
1B0
 10
-73.846717087976003
 20
597.13811046932642
 30
0.0
 11
-73.846717087976003
 21
586.16845535472339
 31
0.0
  0
LINE
  8
0
  6
CONTINUOUS
 62
               4
  5
1B1
 10
-73.846717087976003
 20
586.16845535472339
 30
0.0
 11
-64.346717087976259
 21
580.6836277974221
 31
0.0
  0
LINE
  8
0
  6
CONTINUOUS
 62
               4
  5
1B2
 10
-64.346717087976259
 20
580.6836277974221
 30
0.0
 11
-54.846717087976003
 21
586.16845535472339
 31
0.0
  0
LINE
  8
0
  6
CONTINUOUS
 62
               4
  5
1B3
 10
-54.846717087976003
 20
586.16845535472339
 30
0.0
 11
-54.846717087976003
 21
597.13811046932642
 31
0.0
  0
LINE
  8
0
  6
CONTINUOUS
 62
               4
  5
1B4
 10
-54.846717087976003
 20
597.13811046932642
 30
0.0
 11
-64.346717087976259
 21
602.62293802662816
 31
0.0
  0
CIRCLE
  8
0
  6
CONTINUOUS
 62
               4
  5
1B5
 10
-64.346717087976259
 20
591.65328291202513
 30
0.0
 40
5.1250000000000009
  0
CIRCLE
  8
0
  6
CONTINUOUS
 62
               4
  5
1B6
 10
-64.346717087976259
 20
591.65328291202513
 30
0.0
 40
6.0000000000000009
  0
ENDBLK
  8
0
  5
1B7
  0
BLOCK
  8
0
  5
1B8
  2
GROUP_13
 70
               0
 10
0.0
 20
0.0
 30
0.0
  3
GROUP_13
  0
CIRCLE
  8
0
  6
CONTINUOUS
 62
               4
  5
1B9
 10
-64.346717087976259
 20
720.34671708797691
 30
0.0
 40
9.5
  0
LINE
  8
0
  6
CONTINUOUS
 62
               4
  5
1BA
 10
-64.346717087976259
 20
731.31637220257994
 30
0.0
 11
-73.846717087976003
 21
725.83154464527797
 31
0.0
  0
LINE
  8
0
  6
CONTINUOUS
 62
               4
  5
1BB
 10
-73.846717087976003
 20
725.83154464527797
 30
0.0
 11
-73.846717087976003
 21
714.86188953067517
 31
0.0
  0
LINE
  8
0
  6
CONTINUOUS
 62
               4
  5
1BC
 10
-73.846717087976003
 20
714.86188953067517
 30
0.0
 11
-64.346717087976259
 21
709.37706197337366
 31
0.0
  0
LINE
  8
0
  6
CONTINUOUS
 62
               4
  5
1BD
 10
-64.346717087976259
 20
709.37706197337366
 30
0.0
 11
-54.846717087976231
 21
714.86188953067517
 31
0.0
  0
LINE
  8
0
  6
CONTINUOUS
 62
               4
  5
1BE
 10
-54.846717087976231
 20
714.86188953067517
 30
0.0
 11
-54.846717087976231
 21
725.83154464527797
 31
0.0
  0
LINE
  8
0
  6
CONTINUOUS
 62
               4
  5
1BF
 10
-54.846717087976231
 20
725.83154464527797
 30
0.0
 11
-64.346717087976259
 21
731.31637220257994
 31
0.0
  0
CIRCLE
  8
0
  6
CONTINUOUS
 62
               4
  5
1C0
 10
-64.346717087976259
 20
720.34671708797691
 30
0.0
 40
5.1250000000000009
  0
CIRCLE
  8
0
  6
CONTINUOUS
 62
               4
  5
1C1
 10
-64.346717087976259
 20
720.34671708797691
 30
0.0
 40
6.0000000000000009
  0
ENDBLK
  8
0
  5
1C2
  0
ENDSEC
  0
SECTION
  2
ENTITIES
  0
LINE
  8
0
  6
CONTINUOUS
 62
               4
  5
1C3
 10
-56.000000000000512
 20
-248.49999999999972
 30
0.0
 11
-56.000000000000504
 21
-151.61014531588728
 31
0.0
  0
LINE
  8
0
  6
CONTINUOUS
 62
               4
  5
1C4
 10
56.500000000000057
 20
-248.99999999999957
 30
0.0
 11
-56.499999999999972
 21
-248.99999999999923
 31
0.0
  0
LINE
  8
0
  6
CONTINUOUS
 62
               4
  5
1C5
 10
56.500000000000057
 20
-248.99999999999957
 30
0.0
 11
56.500000000000071
 21
-473.99999999999943
 31
0.0
  0
LINE
  8
0
  6
CONTINUOUS
 62
               4
  5
1C6
 10
-56.499999999999972
 20
-248.99999999999923
 30
0.0
 11
-56.499999999999972
 21
-473.99999999999943
 31
0.0
  0
LINE
  8
0
  6
CONTINUOUS
 62
               4
  5
1C7
 10
-56.499999999999972
 20
-248.99999999999923
 30
0.0
 11
-56.00000000000027
 21
-248.49999999999949
 31
0.0
  0
LINE
  8
0
  6
CONTINUOUS
 62
               4
  5
1C8
 10
56.500000000000057
 20
-248.99999999999957
 30
0.0
 11
56.000000000000441
 21
-248.5
 31
0.0
  0
LINE
  8
0
  6
CONTINUOUS
 62
               4
  5
1C9
 10
56.000000000000227
 20
-248.49999999999977
 30
0.0
 11
-56.000000000000512
 21
-248.49999999999977
 31
0.0
  0
LINE
  8
0
  6
CONTINUOUS
 62
               4
  5
1CA
 10
-443.99999999999994
 20
-248.49999999999972
 30
0.0
 11
-443.99999999999966
 21
-151.61014531588728
 31
0.0
  0
LINE
  8
0
  6
CONTINUOUS
 62
               4
  5
1CB
 10
-555.99999999999977
 20
-151.61014531588711
 30
0.0
 11
-556.00000000000068
 21
-248.49999999999977
 31
0.0
  0
LINE
  8
0
  6
CONTINUOUS
 62
               4
  5
1CC
 10
-556.50000000000045
 20
-248.99999999999957
 30
0.0
 11
-443.50000000000045
 21
-248.99999999999923
 31
0.0
  0
LINE
  8
0
  6
CONTINUOUS
 62
               4
  5
1CD
 10
-556.50000000000045
 20
-248.99999999999957
 30
0.0
 11
-556.50000000000045
 21
-473.99999999999932
 31
0.0
  0
LINE
  8
0
  6
CONTINUOUS
 62
               4
  5
1CE
 10
-443.50000000000045
 20
-248.99999999999923
 30
0.0
 11
-443.50000000000045
 21
-473.99999999999932
 31
0.0
  0
LINE
  8
0
  6
CONTINUOUS
 62
               4
  5
1CF
 10
-443.50000000000045
 20
-248.99999999999923
 30
0.0
 11
-444.00000000000017
 21
-248.49999999999949
 31
0.0
  0
LINE
  8
0
  6
CONTINUOUS
 62
               4
  5
1D0
 10
-556.50000000000045
 20
-248.99999999999957
 30
0.0
 11
-556.00000000000091
 21
-248.5
 31
0.0
  0
LINE
  8
0
  6
CONTINUOUS
 62
               4
  5
1D1
 10
-556.00000000000068
 20
-248.49999999999977
 30
0.0
 11
-443.99999999999994
 21
-248.49999999999977
 31
0.0
  0
LINE
  8
0
  6
CONTINUOUS
 62
               4
  5
1D2
 10
-137.00000000000099
 20
-137.32844387403441
 30
0.0
 11
-67.689887356162288
 21
-139.74880634111781
 31
0.0
  0
LINE
  8
0
  6
CONTINUOUS
 62
               4
  5
1D3
 10
-62.999999999999218
 20
-316.49999999999909
 30
0.0
 11
62.999999999998309
 21
-316.49999999999909
 31
0.0
  0
LINE
  8
0
  6
CONTINUOUS
 62
               4
  5
1D4
 10
-575.00000000000045
 20
-126.39694188029046
 30
0.0
 11
-575.00000000000045
 21
-31.466767657286027
 31
0.0
  0
LINE
  8
0
  6
CONTINUOUS
 62
               4
  5
1D5
 10
-362.99999999999943
 20
-137.32844387403429
 30
0.0
 11
-432.31011264383812
 21
-139.7488063411177
 31
0.0
  0
LINE
  8
0
  6
CONTINUOUS
 62
               4
  5
1D6
 10
-562.99999999999875
 20
-316.49999999999898
 30
0.0
 11
-437.00000000000125
 21
-316.49999999999898
 31
0.0
  0
LINE
  8
0
  6
CONTINUOUS
 62
               4
  5
1D7
 10
443.99999999999903
 20
-248.49999999999972
 30
0.0
 11
443.99999999999886
 21
-151.61014531588722
 31
0.0
  0
LINE
  8
0
  6
CONTINUOUS
 62
               4
  5
1D8
 10
555.99999999999886
 20
-151.61014531588705
 30
0.0
 11
555.99999999999977
 21
-248.49999999999977
 31
0.0
  0
LINE
  8
0
  6
CONTINUOUS
 62
               4
  5
1D9
 10
556.49999999999955
 20
-248.99999999999957
 30
0.0
 11
443.49999999999955
 21
-248.99999999999923
 31
0.0
  0
LINE
  8
0
  6
CONTINUOUS
 62
               4
  5
1DA
 10
556.49999999999955
 20
-248.99999999999957
 30
0.0
 11
556.49999999999955
 21
-473.99999999999932
 31
0.0
  0
LINE
  8
0
  6
CONTINUOUS
 62
               4
  5
1DB
 10
443.49999999999955
 20
-248.99999999999923
 30
0.0
 11
443.49999999999955
 21
-473.99999999999932
 31
0.0
  0
LINE
  8
0
  6
CONTINUOUS
 62
               4
  5
1DC
 10
443.49999999999955
 20
-248.99999999999923
 30
0.0
 11
443.99999999999926
 21
-248.49999999999949
 31
0.0
  0
LINE
  8
0
  6
CONTINUOUS
 62
               4
  5
1DD
 10
556.49999999999955
 20
-248.99999999999957
 30
0.0
 11
556.0
 21
-248.5
 31
0.0
  0
LINE
  8
0
  6
CONTINUOUS
 62
               4
  5
1DE
 10
555.99999999999977
 20
-248.49999999999977
 30
0.0
 11
443.99999999999903
 21
-248.49999999999977
 31
0.0
  0
LINE
  8
0
  6
CONTINUOUS
 62
               4
  5
1DF
 10
574.99999999999807
 20
-126.39694188029054
 30
0.0
 11
574.99999999999955
 21
-25.999999999999545
 31
0.0
  0
LINE
  8
0
  6
CONTINUOUS
 62
               4
  5
1E0
 10
362.99999999999852
 20
-137.32844387403429
 30
0.0
 11
432.31011264383721
 21
-139.7488063411177
 31
0.0
  0
LINE
  8
0
  6
CONTINUOUS
 62
               4
  5
1E1
 10
562.99999999999784
 20
-316.49999999999898
 30
0.0
 11
437.00000000000034
 21
-316.49999999999898
 31
0.0
  0
ARC
  8
0
  6
CONTINUOUS
 62
               4
  5
1E2
 10
-432.13561516032559
 20
-144.74576047621315
 30
0.0
 40
5.0
 50
92.000000000000583
 51
135.00000000000085
  0
LINE
  8
0
  6
CONTINUOUS
 62
               4
  5
1E3
 10
-433.80001619080036
 20
-147.67460384745749
 30
0.0
 11
-564.93554146842939
 21
-147.67460384745749
 31
0.0
  0
LINE
  8
0
  6
CONTINUOUS
 62
               4
  5
1E4
 10
-442.53553390593243
 20
-148.07461140995463
 30
0.0
 11
-435.67114906625835
 21
-141.21022657028027
 31
0.0
  0
ARC
  8
0
  6
CONTINUOUS
 62
               4
  5
1E5
 10
-438.99999999999966
 20
-151.61014531588728
 30
0.0
 40
5.0
 50
135.00000000000085
 51
179.9999999999996
  0
ARC
  8
0
  6
CONTINUOUS
 62
               4
  5
1E6
 10
-560.99999999999977
 20
-151.61014531588711
 30
0.0
 40
5.0
 50
359.9999999999992
 51
404.99999999999886
  0
LINE
  8
0
  6
CONTINUOUS
 62
               4
  5
1E7
 10
-557.46446609406689
 20
-148.07461140995434
 30
0.0
 11
-572.0710678118653
 21
-133.46800969215587
 31
0.0
  0
ARC
  8
0
  6
CONTINUOUS
 62
               4
  5
1E8
 10
-564.99999999999977
 20
-126.39694188029046
 30
0.0
 40
10.0
 50
179.9999999999996
 51
224.99999999999955
  0
LINE
  8
0
  6
CONTINUOUS
 62
               4
  5
1E9
 10
-66.199983809200049
 20
-147.6746038474576
 30
0.0
 11
64.935541468428866
 21
-147.6746038474576
 31
0.0
  0
ARC
  8
0
  6
CONTINUOUS
 62
               4
  5
1EA
 10
-67.864384839674827
 20
-144.74576047621292
 30
0.0
 40
5.0
 50
44.999999999998749
 51
87.999999999999005
  0
LINE
  8
0
  6
CONTINUOUS
 62
               4
  5
1EB
 10
-57.464466094067987
 20
-148.07461140995463
 30
0.0
 11
-64.328850933742061
 21
-141.21022657028027
 31
0.0
  0
ARC
  8
0
  6
CONTINUOUS
 62
               4
  5
1EC
 10
-61.000000000000753
 20
-151.61014531588728
 30
0.0
 40
5.0
 50
0.0
 51
44.999999999998749
  0
LINE
  8
0
  6
CONTINUOUS
 62
               4
  5
1ED
 10
433.80001619079951
 20
-147.67460384745749
 30
0.0
 11
564.93554146842848
 21
-147.67460384745749
 31
0.0
  0
ARC
  8
0
  6
CONTINUOUS
 62
               4
  5
1EE
 10
564.99999999999898
 20
-126.39694188029038
 30
0.0
 40
10.0
 50
314.99999999999926
 51
359.9999999999992
  0
LINE
  8
0
  6
CONTINUOUS
 62
               4
  5
1EF
 10
557.4644660940661
 20
-148.07461140995429
 30
0.0
 11
572.0710678118644
 21
-133.46800969215582
 31
0.0
  0
ARC
  8
0
  6
CONTINUOUS
 62
               4
  5
1F0
 10
560.99999999999886
 20
-151.61014531588705
 30
0.0
 40
5.0
 50
134.99999999999991
 51
179.9999999999996
  0
ARC
  8
0
  6
CONTINUOUS
 62
               4
  5
1F1
 10
432.13561516032479
 20
-144.74576047621309
 30
0.0
 40
5.0
 50
44.999999999998764
 51
87.999999999999019
  0
LINE
  8
0
  6
CONTINUOUS
 62
               4
  5
1F2
 10
442.53553390593163
 20
-148.07461140995457
 30
0.0
 11
435.67114906625756
 21
-141.21022657028021
 31
0.0
  0
ARC
  8
0
  6
CONTINUOUS
 62
               4
  5
1F3
 10
438.99999999999886
 20
-151.61014531588722
 30
0.0
 40
5.0
 50
0.0000000000000133
 51
44.999999999998764
  0
LINE
  8
0
  6
CONTINUOUS
 62
               4
  5
1F4
 10
-86.000000000000767
 20
0.0000000000005684
 30
0.0
 11
-86.000000000000767
 21
-7.4999999999994316
 31
0.0
  0
LINE
  8
0
  6
CONTINUOUS
 62
               4
  5
1F5
 10
86.000000000000114
 20
0.0000000000005684
 30
0.0
 11
86.000000000000114
 21
-7.4999999999994316
 31
0.0
  0
LINE
  8
0
  6
CONTINUOUS
 62
               4
  5
1F6
 10
-90.000000000000455
 20
0.0000000000005684
 30
0.0
 11
-90.000000000000455
 21
18.000000000000568
 31
0.0
  0
LINE
  8
0
  6
CONTINUOUS
 62
               4
  5
1F7
 10
89.999999999999545
 20
0.0000000000005684
 30
0.0
 11
89.999999999999545
 21
18.000000000000568
 31
0.0
  0
LINE
  8
0
  6
CONTINUOUS
 62
               4
  5
1F8
 10
90.000000000000114
 20
0.0000000000005684
 30
0.0
 11
-90.000000000000028
 21
0.0000000000005684
 31
0.0
  0
LINE
  8
0
  6
CONTINUOUS
 62
               4
  5
1F9
 10
-413.99999999999955
 20
0.0000000000002842
 30
0.0
 11
-413.99999999999955
 21
-7.4999999999994316
 31
0.0
  0
LINE
  8
0
  6
CONTINUOUS
 62
               4
  5
1FA
 10
-586.00000000000068
 20
0.0000000000002842
 30
0.0
 11
-586.00000000000068
 21
-7.4999999999994316
 31
0.0
  0
LINE
  8
0
  6
CONTINUOUS
 62
               4
  5
1FB
 10
-409.99999999999955
 20
0.0000000000002842
 30
0.0
 11
-409.99999999999955
 21
18.000000000000398
 31
0.0
  0
LINE
  8
0
  6
CONTINUOUS
 62
               4
  5
1FC
 10
-589.99999999999955
 20
0.0000000000002842
 30
0.0
 11
-589.99999999999955
 21
18.000000000000398
 31
0.0
  0
LINE
  8
0
  6
CONTINUOUS
 62
               4
  5
1FD
 10
-409.99999999999955
 20
0.0000000000002842
 30
0.0
 11
-589.99999999999955
 21
0.0000000000002842
 31
0.0
  0
LINE
  8
0
  6
CONTINUOUS
 62
               4
  5
1FE
 10
586.28416147400435
 20
0.0000000000005684
 30
0.0
 11
586.28416147400435
 21
-7.4999999999994316
 31
0.0
  0
LINE
  8
0
  6
CONTINUOUS
 62
               4
  5
1FF
 10
414.28416147400344
 20
0.0000000000005684
 30
0.0
 11
414.28416147400344
 21
-7.4999999999994316
 31
0.0
  0
ARC
  8
0
  6
CONTINUOUS
 62
               4
  5
200
 10
-54.999999999999943
 20
139.00000000000057
 30
0.0
 40
19.999999999999996
 50
148.21166938294789
 51
179.9999999999996
  0
LINE
  8
0
  6
CONTINUOUS
 62
               4
  5
201
 10
-72.000000000000171
 20
224.41742430504507
 30
0.0
 11
-72.000000000000171
 21
149.53565375285325
 31
0.0
  0
ARC
  8
0
  6
CONTINUOUS
 62
               4
  5
202
 10
54.999999999999488
 20
139.00000000000057
 30
0.0
 40
19.999999999999996
 50
0.0
 51
31.788330617051724
  0
LINE
  8
0
  6
CONTINUOUS
 62
               4
  5
203
 10
71.999999999999943
 20
149.53565375285325
 30
0.0
 11
71.999999999999943
 21
224.41742430504507
 31
0.0
  0
LINE
  8
0
  6
CONTINUOUS
 62
               4
  5
204
 10
-89.999999999999943
 20
18.000000000001933
 30
0.0
 11
90.000000000000057
 21
18.000000000000796
 31
0.0
  0
LINE
  8
0
  6
CONTINUOUS
 62
               4
  5
205
 10
590.00000000000091
 20
0.0000000000005684
 30
0.0
 11
590.00000000000091
 21
18.000000000000512
 31
0.0
  0
LINE
  8
0
  6
CONTINUOUS
 62
               4
  5
206
 10
410.00000000000091
 20
0.0000000000005684
 30
0.0
 11
410.00000000000091
 21
18.000000000000512
 31
0.0
  0
LINE
  8
0
  6
CONTINUOUS
 62
               4
  5
207
 10
590.00000000000091
 20
0.0000000000005684
 30
0.0
 11
410.00000000000091
 21
0.0000000000005684
 31
0.0
  0
LINE
  8
0
  6
CONTINUOUS
 62
               4
  5
208
 10
74.999999999999488
 20
23.000000000000796
 30
0.0
 11
74.999999999999488
 21
139.00000000000057
 31
0.0
  0
LINE
  8
0
  6
CONTINUOUS
 62
               4
  5
209
 10
-74.999999999999943
 20
139.00000000000057
 30
0.0
 11
-74.999999999999943
 21
23.000000000001819
 31
0.0
  0
LINE
  8
0
  6
CONTINUOUS
 62
               4
  5
20A
 10
-51.350000000000421
 20
18.000000000001819
 30
0.0
 11
-51.350000000000421
 21
20.300000000001717
 31
0.0
  0
LINE
  8
0
  6
CONTINUOUS
 62
               4
  5
20B
 10
-51.350000000000421
 20
20.300000000001717
 30
0.0
 11
-77.350000000000307
 21
20.300000000001717
 31
0.0
  0
LINE
  8
0
  6
CONTINUOUS
 62
               4
  5
20C
 10
-77.350000000000307
 20
20.300000000001717
 30
0.0
 11
-77.350000000000307
 21
18.000000000001819
 31
0.0
  0
LINE
  8
0
  6
CONTINUOUS
 62
               4
  5
20D
 10
51.349999999999966
 20
20.300000000000864
 30
0.0
 11
51.349999999999966
 21
18.000000000000966
 31
0.0
  0
LINE
  8
0
  6
CONTINUOUS
 62
               4
  5
20E
 10
77.349999999999966
 20
18.000000000000966
 30
0.0
 11
77.349999999999966
 21
20.300000000000864
 31
0.0
  0
LINE
  8
0
  6
CONTINUOUS
 62
               4
  5
20F
 10
77.349999999999966
 20
20.300000000000864
 30
0.0
 11
51.349999999999966
 21
20.300000000000864
 31
0.0
  0
ARC
  8
0
  6
CONTINUOUS
 62
               4
  5
210
 10
-79.999999999999943
 20
23.000000000001819
 30
0.0
 40
5.0
 50
269.99999999999937
 51
302.00545482775999
  0
ARC
  8
0
  6
CONTINUOUS
 62
               4
  5
211
 10
-79.999999999999943
 20
23.000000000001819
 30
0.0
 40
5.0
 50
327.31636115374096
 51
359.9999999999992
  0
ARC
  8
0
  6
CONTINUOUS
 62
               4
  5
212
 10
80.000000000000057
 20
23.000000000000796
 30
0.0
 40
5.0
 50
179.9999999999996
 51
212.683638846256
  0
ARC
  8
0
  6
CONTINUOUS
 62
               4
  5
213
 10
80.000000000000057
 20
23.000000000000796
 30
0.0
 40
5.0
 50
237.99454517223401
 51
269.99999999999937
  0
LINE
  8
0
  6
CONTINUOUS
 62
               4
  5
214
 10
-70.350000000000534
 20
30.300000000001717
 30
0.0
 11
-70.350000000000534
 21
39.000000000001478
 31
0.0
  0
LINE
  8
0
  6
CONTINUOUS
 62
               4
  5
215
 10
-58.350000000000307
 20
39.000000000001478
 30
0.0
 11
-58.350000000000307
 21
30.300000000001717
 31
0.0
  0
LINE
  8
0
  6
CONTINUOUS
 62
               4
  5
216
 10
-58.350000000000307
 20
39.000000000001478
 30
0.0
 11
-70.350000000000534
 21
39.000000000001478
 31
0.0
  0
LINE
  8
0
  6
CONTINUOUS
 62
               4
  5
217
 10
58.349999999999852
 20
30.300000000000864
 30
0.0
 11
58.349999999999852
 21
39.000000000000909
 31
0.0
  0
LINE
  8
0
  6
CONTINUOUS
 62
               4
  5
218
 10
70.349999999999739
 20
39.000000000000909
 30
0.0
 11
70.349999999999739
 21
30.300000000000864
 31
0.0
  0
LINE
  8
0
  6
CONTINUOUS
 62
               4
  5
219
 10
70.349999999999739
 20
39.000000000000909
 30
0.0
 11
58.349999999999852
 21
39.000000000000909
 31
0.0
  0
ARC
  8
0
  6
CONTINUOUS
 62
               4
  5
21A
 10
-25.783965811966652
 20
139.00000000000057
 30
0.0
 40
17.566965811965957
 50
0.0
 51
36.851448659230869
  0
LINE
  8
0
  6
CONTINUOUS
 62
               4
  5
21B
 10
11.726999999999691
 20
154.53565375285325
 30
0.0
 11
-11.727000000000714
 21
154.53565375285325
 31
0.0
  0
ARC
  8
0
  6
CONTINUOUS
 62
               4
  5
21C
 10
25.783965811965061
 20
139.00000000000057
 30
0.0
 40
17.566965811965957
 50
143.14855134076873
 51
179.9999999999996
  0
LINE
  8
0
  6
CONTINUOUS
 62
               4
  5
21D
 10
-11.727000000000714
 20
149.53565375285325
 30
0.0
 11
-11.727000000000714
 21
154.53565375285325
 31
0.0
  0
LINE
  8
0
  6
CONTINUOUS
 62
               4
  5
21E
 10
11.726999999999691
 20
149.53565375285325
 30
0.0
 11
11.726999999999691
 21
154.53565375285325
 31
0.0
  0
LINE
  8
0
  6
CONTINUOUS
 62
               4
  5
21F
 10
-11.727000000000714
 20
154.53565375285325
 30
0.0
 11
-6.000000000000739
 21
149.53565375285325
 31
0.0
  0
LINE
  8
0
  6
CONTINUOUS
 62
               4
  5
220
 10
5.9999999999991473
 20
149.53565375285325
 30
0.0
 11
11.726999999999691
 21
154.53565375285325
 31
0.0
  0
LINE
  8
0
  6
CONTINUOUS
 62
               4
  5
221
 10
-6.000000000000739
 20
149.53565375285325
 30
0.0
 11
5.9999999999991473
 21
149.53565375285325
 31
0.0
  0
LINE
  8
0
  6
CONTINUOUS
 62
               4
  5
222
 10
5.9999999999991473
 20
23.000000000001137
 30
0.0
 11
5.9999999999991473
 21
149.53565375285325
 31
0.0
  0
LINE
  8
0
  6
CONTINUOUS
 62
               4
  5
223
 10
-6.000000000000739
 20
149.53565375285325
 30
0.0
 11
-6.000000000000739
 21
23.000000000001137
 31
0.0
  0
ARC
  8
0
  6
CONTINUOUS
 62
               4
  5
224
 10
-13.217000000000724
 20
23.000000000001535
 30
0.0
 40
5.0
 50
269.99999999999937
 51
359.9999999999992
  0
ARC
  8
0
  6
CONTINUOUS
 62
               4
  5
225
 10
13.216999999999132
 20
23.000000000001535
 30
0.0
 40
5.0
 50
179.9999999999996
 51
269.99999999999937
  0
LINE
  8
0
  6
CONTINUOUS
 62
               4
  5
226
 10
-8.2170000000007235
 20
139.00000000000057
 30
0.0
 11
-8.2170000000007235
 21
23.000000000001535
 31
0.0
  0
LINE
  8
0
  6
CONTINUOUS
 62
               4
  5
227
 10
8.2169999999991319
 20
139.00000000000057
 30
0.0
 11
8.2169999999991319
 21
23.000000000001535
 31
0.0
  0
LINE
  8
0
  6
CONTINUOUS
 62
               4
  5
228
 10
-72.000000000000171
 20
149.53565375285325
 30
0.0
 11
-11.727000000000714
 21
149.53565375285342
 31
0.0
  0
LINE
  8
0
  6
CONTINUOUS
 62
               4
  5
229
 10
11.726999999999123
 20
149.53565375285325
 30
0.0
 11
71.999999999999943
 21
149.53565375285325
 31
0.0
  0
ARC
  8
0
  6
CONTINUOUS
 62
               4
  5
22A
 10
-11.000000000000398
 20
23.000000000001364
 30
0.0
 40
5.0
 50
269.99999999999937
 51
359.9999999999992
  0
ARC
  8
0
  6
CONTINUOUS
 62
               4
  5
22B
 10
10.999999999999375
 20
23.000000000001137
 30
0.0
 40
5.0
 50
179.9999999999996
 51
269.99999999999937
  0
LINE
  8
0
  6
CONTINUOUS
 62
               4
  5
22C
 10
-572.0
 20
224.41742430504507
 30
0.0
 11
-572.0
 21
154.53565375285353
 31
0.0
  0
LINE
  8
0
  6
CONTINUOUS
 62
               4
  5
22D
 10
-427.99999999999977
 20
154.53565375285393
 30
0.0
 11
-427.99999999999977
 21
224.41742430504507
 31
0.0
  0
LINE
  8
0
  6
CONTINUOUS
 62
               4
  5
22E
 10
-571.50000000000068
 20
149.53565375285251
 30
0.0
 11
-428.49999999999932
 21
149.53565375285325
 31
0.0
  0
LINE
  8
0
  6
CONTINUOUS
 62
               4
  5
22F
 10
-422.99999999999977
 20
149.53565375285325
 30
0.0
 11
-427.99999999999977
 21
154.53565375285325
 31
0.0
  0
ARC
  8
0
  6
CONTINUOUS
 62
               4
  5
230
 10
-445.49999999999977
 20
139.00000000000051
 30
0.0
 40
19.999999999999996
 50
359.9999999999992
 51
391.78833061705092
  0
LINE
  8
0
  6
CONTINUOUS
 62
               4
  5
231
 10
-428.49999999999932
 20
149.53565375285325
 30
0.0
 11
-428.49999999999932
 21
154.53565375285393
 31
0.0
  0
LINE
  8
0
  6
CONTINUOUS
 62
               4
  5
232
 10
-427.99999999999977
 20
154.53565375285325
 30
0.0
 11
-428.49999999999932
 21
154.53565375285325
 31
0.0
  0
LINE
  8
0
  6
CONTINUOUS
 62
               4
  5
233
 10
-423.25
 20
149.28565375285336
 30
0.0
 11
-428.49999999999932
 21
154.53565375285325
 31
0.0
  0
LINE
  8
0
  6
CONTINUOUS
 62
               4
  5
234
 10
-423.25
 20
149.28565375285336
 30
0.0
 11
-422.99999999999977
 21
149.53565375285325
 31
0.0
  0
LINE
  8
0
  6
CONTINUOUS
 62
               4
  5
235
 10
-425.49999999999977
 20
139.00000000000051
 30
0.0
 11
-425.50000000000068
 21
23.000000000002387
 31
0.0
  0
LINE
  8
0
  6
CONTINUOUS
 62
               4
  5
236
 10
-423.25
 20
149.28565375285336
 30
0.0
 11
-423.25
 21
23.000000000001251
 31
0.0
  0
LINE
  8
0
  6
CONTINUOUS
 62
               4
  5
237
 10
-422.99999999999977
 20
149.53565375285325
 30
0.0
 11
-422.99999999999977
 21
23.000000000000284
 31
0.0
  0
LINE
  8
0
  6
CONTINUOUS
 62
               4
  5
238
 10
-410.00000000000023
 20
18.000000000001421
 30
0.0
 11
-590.00000000000045
 21
18.000000000000284
 31
0.0
  0
LINE
  8
0
  6
CONTINUOUS
 62
               4
  5
239
 10
-448.65000000000009
 20
18.000000000001251
 30
0.0
 11
-448.65000000000009
 21
20.300000000001148
 31
0.0
  0
LINE
  8
0
  6
CONTINUOUS
 62
               4
  5
23A
 10
-448.65000000000009
 20
20.300000000001148
 30
0.0
 11
-422.65000000000009
 21
20.300000000001148
 31
0.0
  0
LINE
  8
0
  6
CONTINUOUS
 62
               4
  5
23B
 10
-422.65000000000009
 20
20.300000000001148
 30
0.0
 11
-422.65000000000009
 21
18.000000000001251
 31
0.0
  0
LINE
  8
0
  6
CONTINUOUS
 62
               4
  5
23C
 10
-551.35000000000036
 20
20.300000000000296
 30
0.0
 11
-551.35000000000036
 21
18.000000000000398
 31
0.0
  0
LINE
  8
0
  6
CONTINUOUS
 62
               4
  5
23D
 10
-577.35000000000036
 20
18.000000000000398
 30
0.0
 11
-577.35000000000036
 21
20.300000000000296
 31
0.0
  0
LINE
  8
0
  6
CONTINUOUS
 62
               4
  5
23E
 10
-577.35000000000036
 20
20.300000000000296
 30
0.0
 11
-551.35000000000036
 21
20.300000000000296
 31
0.0
  0
LINE
  8
0
  6
CONTINUOUS
 62
               4
  5
23F
 10
-429.65000000000009
 20
30.300000000001148
 30
0.0
 11
-429.65000000000009
 21
39.000000000000909
 31
0.0
  0
LINE
  8
0
  6
CONTINUOUS
 62
               4
  5
240
 10
-441.64999999999986
 20
39.000000000000909
 30
0.0
 11
-441.64999999999986
 21
30.300000000001148
 31
0.0
  0
LINE
  8
0
  6
CONTINUOUS
 62
               4
  5
241
 10
-441.64999999999986
 20
39.000000000000909
 30
0.0
 11
-429.65000000000009
 21
39.000000000000909
 31
0.0
  0
LINE
  8
0
  6
CONTINUOUS
 62
               4
  5
242
 10
-558.35000000000036
 20
30.300000000000296
 30
0.0
 11
-558.35000000000036
 21
39.000000000000341
 31
0.0
  0
LINE
  8
0
  6
CONTINUOUS
 62
               4
  5
243
 10
-570.35000000000036
 20
39.000000000000341
 30
0.0
 11
-570.35000000000036
 21
30.300000000000296
 31
0.0
  0
LINE
  8
0
  6
CONTINUOUS
 62
               4
  5
244
 10
-570.35000000000036
 20
39.000000000000341
 30
0.0
 11
-558.35000000000036
 21
39.000000000000341
 31
0.0
  0
ARC
  8
0
  6
CONTINUOUS
 62
               4
  5
245
 10
-418.00000000000068
 20
23.000000000001421
 30
0.0
 40
5.0
 50
179.9999999999996
 51
269.99999999999937
  0
ARC
  8
0
  6
CONTINUOUS
 62
               4
  5
246
 10
-418.25000000000068
 20
23.000000000002387
 30
0.0
 40
5.0
 50
179.9999999999996
 51
269.99999999999937
  0
ARC
  8
0
  6
CONTINUOUS
 62
               4
  5
247
 10
-420.50000000000068
 20
23.000000000002387
 30
0.0
 40
5.0
 50
179.9999999999996
 51
212.68363884627433
  0
ARC
  8
0
  6
CONTINUOUS
 62
               4
  5
248
 10
-420.50000000000068
 20
23.000000000002387
 30
0.0
 40
5.0
 50
244.53243985753562
 51
269.99999999999937
  0
LINE
  8
0
  6
CONTINUOUS
 62
               4
  5
249
 10
26.787357092478999
 20
-51.999999999999545
 30
0.0
 11
-26.787357092479901
 21
-51.999999999999545
 31
0.0
  0
LINE
  8
0
  6
CONTINUOUS
 62
               4
  5
24A
 10
-577.00000000000023
 20
149.53565375285325
 30
0.0
 11
-572.00000000000023
 21
154.53565375285325
 31
0.0
  0
ARC
  8
0
  6
CONTINUOUS
 62
               4
  5
24B
 10
-554.50000000000023
 20
139.00000000000051
 30
0.0
 40
19.999999999999996
 50
148.21166938294789
 51
179.9999999999996
  0
LINE
  8
0
  6
CONTINUOUS
 62
               4
  5
24C
 10
-571.50000000000068
 20
149.53565375285325
 30
0.0
 11
-571.50000000000068
 21
154.53565375285393
 31
0.0
  0
LINE
  8
0
  6
CONTINUOUS
 62
               4
  5
24D
 10
-572.00000000000023
 20
154.53565375285325
 30
0.0
 11
-571.50000000000068
 21
154.53565375285325
 31
0.0
  0
LINE
  8
0
  6
CONTINUOUS
 62
               4
  5
24E
 10
-576.75000000000023
 20
149.28565375285336
 30
0.0
 11
-571.50000000000068
 21
154.53565375285325
 31
0.0
  0
LINE
  8
0
  6
CONTINUOUS
 62
               4
  5
24F
 10
-576.75000000000023
 20
149.28565375285336
 30
0.0
 11
-577.00000000000023
 21
149.53565375285325
 31
0.0
  0
LINE
  8
0
  6
CONTINUOUS
 62
               4
  5
250
 10
-574.50000000000023
 20
139.00000000000051
 30
0.0
 11
-574.49999999999932
 21
23.000000000002387
 31
0.0
  0
LINE
  8
0
  6
CONTINUOUS
 62
               4
  5
251
 10
-576.75000000000023
 20
149.28565375285336
 30
0.0
 11
-576.75000000000023
 21
23.000000000001251
 31
0.0
  0
LINE
  8
0
  6
CONTINUOUS
 62
               4
  5
252
 10
-577.00000000000023
 20
149.53565375285325
 30
0.0
 11
-577.00000000000023
 21
23.000000000000284
 31
0.0
  0
ARC
  8
0
  6
CONTINUOUS
 62
               4
  5
253
 10
-581.99999999999932
 20
23.000000000001421
 30
0.0
 40
5.0
 50
269.99999999999937
 51
359.9999999999992
  0
ARC
  8
0
  6
CONTINUOUS
 62
               4
  5
254
 10
-581.74999999999932
 20
23.000000000002387
 30
0.0
 40
5.0
 50
269.99999999999937
 51
359.9999999999992
  0
ARC
  8
0
  6
CONTINUOUS
 62
               4
  5
255
 10
-579.49999999999932
 20
23.000000000002387
 30
0.0
 40
5.0
 50
327.31636115372447
 51
359.9999999999992
  0
ARC
  8
0
  6
CONTINUOUS
 62
               4
  5
256
 10
-579.49999999999932
 20
23.000000000002387
 30
0.0
 40
5.0
 50
269.99999999999937
 51
295.46756014246313
  0
LINE
  8
0
  6
CONTINUOUS
 62
               4
  5
257
 10
572.00000000000045
 20
224.41742430504507
 30
0.0
 11
572.00000000000045
 21
154.53565375285353
 31
0.0
  0
LINE
  8
0
  6
CONTINUOUS
 62
               4
  5
258
 10
428.00000000000023
 20
154.53565375285393
 30
0.0
 11
428.00000000000023
 21
224.41742430504507
 31
0.0
  0
LINE
  8
0
  6
CONTINUOUS
 62
               4
  5
259
 10
571.50000000000114
 20
149.53565375285251
 30
0.0
 11
428.49999999999977
 21
149.53565375285325
 31
0.0
  0
LINE
  8
0
  6
CONTINUOUS
 62
               4
  5
25A
 10
423.00000000000023
 20
149.53565375285325
 30
0.0
 11
428.00000000000023
 21
154.53565375285325
 31
0.0
  0
ARC
  8
0
  6
CONTINUOUS
 62
               4
  5
25B
 10
445.50000000000023
 20
139.00000000000051
 30
0.0
 40
19.999999999999996
 50
148.21166938294789
 51
179.9999999999996
  0
LINE
  8
0
  6
CONTINUOUS
 62
               4
  5
25C
 10
428.49999999999977
 20
149.53565375285325
 30
0.0
 11
428.49999999999977
 21
154.53565375285393
 31
0.0
  0
LINE
  8
0
  6
CONTINUOUS
 62
               4
  5
25D
 10
428.00000000000023
 20
154.53565375285325
 30
0.0
 11
428.49999999999977
 21
154.53565375285325
 31
0.0
  0
LINE
  8
0
  6
CONTINUOUS
 62
               4
  5
25E
 10
423.25000000000045
 20
149.28565375285336
 30
0.0
 11
428.49999999999977
 21
154.53565375285325
 31
0.0
  0
LINE
  8
0
  6
CONTINUOUS
 62
               4
  5
25F
 10
423.25000000000045
 20
149.28565375285336
 30
0.0
 11
423.00000000000023
 21
149.53565375285325
 31
0.0
  0
LINE
  8
0
  6
CONTINUOUS
 62
               4
  5
260
 10
425.50000000000023
 20
139.00000000000051
 30
0.0
 11
425.50000000000114
 21
23.000000000002387
 31
0.0
  0
LINE
  8
0
  6
CONTINUOUS
 62
               4
  5
261
 10
423.25000000000045
 20
149.28565375285336
 30
0.0
 11
423.25000000000045
 21
23.000000000001251
 31
0.0
  0
LINE
  8
0
  6
CONTINUOUS
 62
               4
  5
262
 10
423.00000000000023
 20
149.53565375285325
 30
0.0
 11
423.00000000000023
 21
23.000000000000284
 31
0.0
  0
LINE
  8
0
  6
CONTINUOUS
 62
               4
  5
263
 10
410.00000000000068
 20
18.000000000001421
 30
0.0
 11
590.00000000000091
 21
18.000000000000284
 31
0.0
  0
LINE
  8
0
  6
CONTINUOUS
 62
               4
  5
264
 10
551.35000000000036
 20
18.000000000001251
 30
0.0
 11
551.35000000000036
 21
20.300000000001148
 31
0.0
  0
LINE
  8
0
  6
CONTINUOUS
 62
               4
  5
265
 10
551.35000000000036
 20
20.300000000001148
 30
0.0
 11
577.35000000000014
 21
20.300000000001148
 31
0.0
  0
LINE
  8
0
  6
CONTINUOUS
 62
               4
  5
266
 10
577.35000000000014
 20
20.300000000001148
 30
0.0
 11
577.35000000000014
 21
18.000000000001251
 31
0.0
  0
LINE
  8
0
  6
CONTINUOUS
 62
               4
  5
267
 10
448.65000000000009
 20
20.300000000000296
 30
0.0
 11
448.65000000000009
 21
18.000000000000398
 31
0.0
  0
LINE
  8
0
  6
CONTINUOUS
 62
               4
  5
268
 10
422.64999999999986
 20
18.000000000000398
 30
0.0
 11
422.64999999999986
 21
20.300000000000296
 31
0.0
  0
LINE
  8
0
  6
CONTINUOUS
 62
               4
  5
269
 10
422.64999999999986
 20
20.300000000000296
 30
0.0
 11
448.65000000000009
 21
20.300000000000296
 31
0.0
  0
LINE
  8
0
  6
CONTINUOUS
 62
               4
  5
26A
 10
570.35000000000036
 20
30.300000000001148
 30
0.0
 11
570.35000000000036
 21
39.000000000000909
 31
0.0
  0
LINE
  8
0
  6
CONTINUOUS
 62
               4
  5
26B
 10
558.35000000000036
 20
39.000000000000909
 30
0.0
 11
558.35000000000036
 21
30.300000000001148
 31
0.0
  0
LINE
  8
0
  6
CONTINUOUS
 62
               4
  5
26C
 10
558.35000000000036
 20
39.000000000000909
 30
0.0
 11
570.35000000000036
 21
39.000000000000909
 31
0.0
  0
LINE
  8
0
  6
CONTINUOUS
 62
               4
  5
26D
 10
441.65000000000009
 20
30.300000000000296
 30
0.0
 11
441.65000000000009
 21
39.000000000000341
 31
0.0
  0
LINE
  8
0
  6
CONTINUOUS
 62
               4
  5
26E
 10
429.65000000000009
 20
39.000000000000341
 30
0.0
 11
429.65000000000009
 21
30.300000000000296
 31
0.0
  0
LINE
  8
0
  6
CONTINUOUS
 62
               4
  5
26F
 10
429.65000000000009
 20
39.000000000000341
 30
0.0
 11
441.65000000000009
 21
39.000000000000341
 31
0.0
  0
ARC
  8
0
  6
CONTINUOUS
 62
               4
  5
270
 10
581.99999999999977
 20
23.000000000001421
 30
0.0
 40
5.0
 50
179.9999999999996
 51
269.99999999999937
  0
ARC
  8
0
  6
CONTINUOUS
 62
               4
  5
271
 10
581.74999999999955
 20
23.000000000002387
 30
0.0
 40
5.0
 50
179.9999999999996
 51
269.99999999999937
  0
ARC
  8
0
  6
CONTINUOUS
 62
               4
  5
272
 10
579.49999999999977
 20
23.000000000002387
 30
0.0
 40
5.0
 50
179.9999999999996
 51
212.68363884627433
  0
ARC
  8
0
  6
CONTINUOUS
 62
               4
  5
273
 10
579.49999999999977
 20
23.000000000002387
 30
0.0
 40
5.0
 50
244.53243985753562
 51
269.99999999999937
  0
LINE
  8
0
  6
CONTINUOUS
 62
               4
  5
274
 10
577.00000000000068
 20
149.53565375285325
 30
0.0
 11
572.00000000000068
 21
154.53565375285325
 31
0.0
  0
ARC
  8
0
  6
CONTINUOUS
 62
               4
  5
275
 10
554.50000000000068
 20
139.00000000000051
 30
0.0
 40
19.999999999999996
 50
359.9999999999992
 51
391.78833061705092
  0
LINE
  8
0
  6
CONTINUOUS
 62
               4
  5
276
 10
571.50000000000114
 20
149.53565375285325
 30
0.0
 11
571.50000000000114
 21
154.53565375285393
 31
0.0
  0
LINE
  8
0
  6
CONTINUOUS
 62
               4
  5
277
 10
572.00000000000068
 20
154.53565375285325
 30
0.0
 11
571.50000000000114
 21
154.53565375285325
 31
0.0
  0
LINE
  8
0
  6
CONTINUOUS
 62
               4
  5
278
 10
576.75000000000068
 20
149.28565375285336
 30
0.0
 11
571.50000000000114
 21
154.53565375285325
 31
0.0
  0
LINE
  8
0
  6
CONTINUOUS
 62
               4
  5
279
 10
576.75000000000068
 20
149.28565375285336
 30
0.0
 11
577.00000000000068
 21
149.53565375285325
 31
0.0
  0
LINE
  8
0
  6
CONTINUOUS
 62
               4
  5
27A
 10
574.50000000000068
 20
139.00000000000051
 30
0.0
 11
574.49999999999977
 21
23.000000000002387
 31
0.0
  0
LINE
  8
0
  6
CONTINUOUS
 62
               4
  5
27B
 10
576.75000000000068
 20
149.28565375285336
 30
0.0
 11
576.75000000000068
 21
23.000000000001251
 31
0.0
  0
LINE
  8
0
  6
CONTINUOUS
 62
               4
  5
27C
 10
577.00000000000068
 20
149.53565375285325
 30
0.0
 11
577.00000000000068
 21
23.000000000000284
 31
0.0
  0
ARC
  8
0
  6
CONTINUOUS
 62
               4
  5
27D
 10
418.00000000000114
 20
23.000000000001421
 30
0.0
 40
5.0
 50
269.99999999999937
 51
359.9999999999992
  0
ARC
  8
0
  6
CONTINUOUS
 62
               4
  5
27E
 10
418.25000000000114
 20
23.000000000002387
 30
0.0
 40
5.0
 50
269.99999999999937
 51
359.9999999999992
  0
ARC
  8
0
  6
CONTINUOUS
 62
               4
  5
27F
 10
420.50000000000114
 20
23.000000000002387
 30
0.0
 40
5.0
 50
327.31636115372447
 51
359.9999999999992
  0
ARC
  8
0
  6
CONTINUOUS
 62
               4
  5
280
 10
420.50000000000114
 20
23.000000000002387
 30
0.0
 40
5.0
 50
269.99999999999937
 51
295.46756014246313
  0
LINE
  8
0
  6
CONTINUOUS
 62
               4
  5
281
 10
-90.000000000000284
 20
-7.4999999999994316
 30
0.0
 11
-90.000000000000398
 21
-22.999999999999432
 31
0.0
  0
LINE
  8
0
  6
CONTINUOUS
 62
               4
  5
282
 10
-55.000000000000398
 20
-8.9999999999994316
 30
0.0
 11
54.999999999999602
 21
-8.9999999999994316
 31
0.0
  0
LINE
  8
0
  6
CONTINUOUS
 62
               4
  5
283
 10
-78.226474001362647
 20
-29.599999999999397
 30
0.0
 11
-72.350000000000875
 21
-32.999999999999432
 31
0.0
  0
LINE
  8
0
  6
CONTINUOUS
 62
               4
  5
284
 10
-55.850000000000819
 20
-32.999999999999432
 30
0.0
 11
-55.850000000000819
 21
-25.999999999999432
 31
0.0
  0
LINE
  8
0
  6
CONTINUOUS
 62
               4
  5
285
 10
-55.850000000000819
 20
-32.999999999999432
 30
0.0
 11
-72.350000000000875
 21
-32.999999999999432
 31
0.0
  0
LINE
  8
0
  6
CONTINUOUS
 62
               4
  5
286
 10
-81.177061466478506
 20
-29.599999999999397
 30
0.0
 11
-78.226474001362647
 21
-29.599999999999397
 31
0.0
  0
LINE
  8
0
  6
CONTINUOUS
 62
               4
  5
287
 10
-81.177061466478506
 20
-25.999999999999432
 30
0.0
 11
-81.177061466478506
 21
-29.599999999999397
 31
0.0
  0
LINE
  8
0
  6
CONTINUOUS
 62
               4
  5
288
 10
47.522938533521881
 20
-25.999999999999432
 30
0.0
 11
47.522938533521881
 21
-29.599999999999397
 31
0.0
  0
LINE
  8
0
  6
CONTINUOUS
 62
               4
  5
289
 10
47.522938533521881
 20
-29.599999999999397
 30
0.0
 11
62.494341278809031
 21
-29.599999999999397
 31
0.0
  0
LINE
  8
0
  6
CONTINUOUS
 62
               4
  5
28A
 10
50.47352599863774
 20
-29.599999999999397
 30
0.0
 11
56.349999999999511
 21
-32.999999999999432
 31
0.0
  0
LINE
  8
0
  6
CONTINUOUS
 62
               4
  5
28B
 10
59.543753813693172
 20
-25.999999999999432
 30
0.0
 11
59.543753813693172
 21
-29.599999999999397
 31
0.0
  0
LINE
  8
0
  6
CONTINUOUS
 62
               4
  5
28C
 10
70.006854249491823
 20
-32.999999999999432
 30
0.0
 11
62.494341278809031
 21
-29.599999999999397
 31
0.0
  0
LINE
  8
0
  6
CONTINUOUS
 62
               4
  5
28D
 10
72.849999999999511
 20
-32.999999999999432
 30
0.0
 11
56.349999999999511
 21
-32.999999999999432
 31
0.0
  0
LINE
  8
0
  6
CONTINUOUS
 62
               4
  5
28E
 10
72.849999999999511
 20
-32.999999999999432
 30
0.0
 11
72.849999999999511
 21
-25.999999999999432
 31
0.0
  0
LINE
  8
0
  6
CONTINUOUS
 62
               4
  5
28F
 10
-56.500000000000227
 20
-7.4999999999994316
 30
0.0
 11
-90.000000000000284
 21
-7.4999999999994316
 31
0.0
  0
LINE
  8
0
  6
CONTINUOUS
 62
               4
  5
290
 10
-56.500000000000227
 20
-7.4999999999994316
 30
0.0
 11
-55.000000000000341
 21
-8.9999999999994316
 31
0.0
  0
LINE
  8
0
  6
CONTINUOUS
 62
               4
  5
291
 10
56.499999999999375
 20
-7.4999999999994316
 30
0.0
 11
89.999999999999602
 21
-7.4999999999994316
 31
0.0
  0
LINE
  8
0
  6
CONTINUOUS
 62
               4
  5
292
 10
56.499999999999375
 20
-7.4999999999994316
 30
0.0
 11
54.999999999999488
 21
-8.9999999999994316
 31
0.0
  0
ARC
  8
0
  6
CONTINUOUS
 62
               4
  5
293
 10
-87.000000000000398
 20
-22.999999999999432
 30
0.0
 40
3.0000000000000004
 50
179.9999999999996
 51
269.99999999999937
  0
LINE
  8
0
  6
CONTINUOUS
 62
               4
  5
294
 10
-87.000000000000398
 20
-25.999999999999432
 30
0.0
 11
-19.754746265138351
 21
-25.999999999999261
 31
0.0
  0
ARC
  8
0
  6
CONTINUOUS
 62
               4
  5
295
 10
86.999999999999488
 20
-22.999999999999432
 30
0.0
 40
3.0000000000000004
 50
269.99999999999937
 51
359.9999999999992
  0
LINE
  8
0
  6
CONTINUOUS
 62
               4
  5
296
 10
89.999999999999602
 20
-7.4999999999994316
 30
0.0
 11
90.000000000000071
 21
-22.999999999999346
 31
0.0
  0
LINE
  8
0
  6
CONTINUOUS
 62
               4
  5
297
 10
19.754746265137385
 20
-25.999999999999261
 30
0.0
 11
86.999999999999488
 21
-25.999999999999432
 31
0.0
  0
ARC
  8
0
  6
CONTINUOUS
 62
               4
  5
298
 10
406.99999999999977
 20
-18.133213635430195
 30
0.0
 40
3.0
 50
271.99999999999869
 51
359.9999999999992
  0
LINE
  8
0
  6
CONTINUOUS
 62
               4
  5
299
 10
410.00000000000068
 20
-7.4999999999994316
 30
0.0
 11
410.00000000000045
 21
-22.999999999999432
 31
0.0
  0
LINE
  8
0
  6
CONTINUOUS
 62
               4
  5
29A
 10
445.00000000000045
 20
-8.9999999999994316
 30
0.0
 11
555.00000000000045
 21
-8.9999999999994316
 31
0.0
  0
LINE
  8
0
  6
CONTINUOUS
 62
               4
  5
29B
 10
421.77352599863821
 20
-29.599999999999397
 30
0.0
 11
427.65000000000009
 21
-32.999999999999432
 31
0.0
  0
LINE
  8
0
  6
CONTINUOUS
 62
               4
  5
29C
 10
444.15000000000009
 20
-32.999999999999432
 30
0.0
 11
444.15000000000009
 21
-25.999999999999432
 31
0.0
  0
LINE
  8
0
  6
CONTINUOUS
 62
               4
  5
29D
 10
444.15000000000009
 20
-32.999999999999432
 30
0.0
 11
427.65000000000009
 21
-32.999999999999432
 31
0.0
  0
LINE
  8
0
  6
CONTINUOUS
 62
               4
  5
29E
 10
418.82293853352235
 20
-29.599999999999397
 30
0.0
 11
421.77352599863821
 21
-29.599999999999397
 31
0.0
  0
LINE
  8
0
  6
CONTINUOUS
 62
               4
  5
29F
 10
418.82293853352235
 20
-25.999999999999432
 30
0.0
 11
418.82293853352235
 21
-29.599999999999397
 31
0.0
  0
LINE
  8
0
  6
CONTINUOUS
 62
               4
  5
2A0
 10
547.52293853352285
 20
-25.999999999999432
 30
0.0
 11
547.52293853352285
 21
-29.599999999999397
 31
0.0
  0
LINE
  8
0
  6
CONTINUOUS
 62
               4
  5
2A1
 10
547.52293853352285
 20
-29.599999999999397
 30
0.0
 11
562.49434127881
 21
-29.599999999999397
 31
0.0
  0
LINE
  8
0
  6
CONTINUOUS
 62
               4
  5
2A2
 10
550.47352599863871
 20
-29.599999999999397
 30
0.0
 11
556.35000000000036
 21
-32.999999999999432
 31
0.0
  0
LINE
  8
0
  6
CONTINUOUS
 62
               4
  5
2A3
 10
559.54375381369414
 20
-25.999999999999432
 30
0.0
 11
559.54375381369414
 21
-29.599999999999397
 31
0.0
  0
LINE
  8
0
  6
CONTINUOUS
 62
               4
  5
2A4
 10
570.00685424949279
 20
-32.999999999999432
 30
0.0
 11
562.49434127881
 21
-29.599999999999397
 31
0.0
  0
LINE
  8
0
  6
CONTINUOUS
 62
               4
  5
2A5
 10
572.85000000000036
 20
-32.999999999999432
 30
0.0
 11
556.35000000000036
 21
-32.999999999999432
 31
0.0
  0
LINE
  8
0
  6
CONTINUOUS
 62
               4
  5
2A6
 10
572.85000000000036
 20
-32.999999999999432
 30
0.0
 11
572.85000000000036
 21
-25.999999999999432
 31
0.0
  0
LINE
  8
0
  6
CONTINUOUS
 62
               4
  5
2A7
 10
443.50000000000068
 20
-7.4999999999994316
 30
0.0
 11
410.00000000000068
 21
-7.4999999999994316
 31
0.0
  0
LINE
  8
0
  6
CONTINUOUS
 62
               4
  5
2A8
 10
443.50000000000068
 20
-7.4999999999994316
 30
0.0
 11
445.00000000000045
 21
-8.9999999999994316
 31
0.0
  0
LINE
  8
0
  6
CONTINUOUS
 62
               4
  5
2A9
 10
556.50000000000023
 20
-7.4999999999994316
 30
0.0
 11
590.00000000000045
 21
-7.4999999999994316
 31
0.0
  0
LINE
  8
0
  6
CONTINUOUS
 62
               4
  5
2AA
 10
556.50000000000023
 20
-7.4999999999994316
 30
0.0
 11
555.00000000000045
 21
-8.9999999999994316
 31
0.0
  0
ARC
  8
0
  6
CONTINUOUS
 62
               4
  5
2AB
 10
413.00000000000045
 20
-22.999999999999432
 30
0.0
 40
3.0000000000000004
 50
179.9999999999996
 51
269.99999999999937
  0
LINE
  8
0
  6
CONTINUOUS
 62
               4
  5
2AC
 10
413.00000000000045
 20
-25.999999999999432
 30
0.0
 11
480.24525373486244
 21
-25.999999999999261
 31
0.0
  0
ARC
  8
0
  6
CONTINUOUS
 62
               4
  5
2AD
 10
587.00000000000045
 20
-22.999999999999432
 30
0.0
 40
3.0000000000000004
 50
269.99999999999937
 51
359.9999999999992
  0
LINE
  8
0
  6
CONTINUOUS
 62
               4
  5
2AE
 10
590.00000000000045
 20
-7.4999999999994316
 30
0.0
 11
590.00000000000091
 21
-22.999999999999346
 31
0.0
  0
LINE
  8
0
  6
CONTINUOUS
 62
               4
  5
2AF
 10
519.75474626513824
 20
-25.999999999999261
 30
0.0
 11
587.00000000000045
 21
-25.999999999999432
 31
0.0
  0
LINE
  8
0
  6
CONTINUOUS
 62
               4
  5
2B0
 10
-589.99999999999977
 20
-7.4999999999994316
 30
0.0
 11
-590.0
 21
-22.999999999999432
 31
0.0
  0
LINE
  8
0
  6
CONTINUOUS
 62
               4
  5
2B1
 10
-555.0
 20
-8.9999999999994316
 30
0.0
 11
-445.0
 21
-8.9999999999994316
 31
0.0
  0
LINE
  8
0
  6
CONTINUOUS
 62
               4
  5
2B2
 10
-578.22647400136225
 20
-29.599999999999397
 30
0.0
 11
-572.35000000000036
 21
-32.999999999999432
 31
0.0
  0
LINE
  8
0
  6
CONTINUOUS
 62
               4
  5
2B3
 10
-555.85000000000036
 20
-32.999999999999432
 30
0.0
 11
-555.85000000000036
 21
-25.999999999999432
 31
0.0
  0
LINE
  8
0
  6
CONTINUOUS
 62
               4
  5
2B4
 10
-555.85000000000036
 20
-32.999999999999432
 30
0.0
 11
-572.35000000000036
 21
-32.999999999999432
 31
0.0
  0
LINE
  8
0
  6
CONTINUOUS
 62
               4
  5
2B5
 10
-581.17706146647811
 20
-29.599999999999397
 30
0.0
 11
-578.22647400136225
 21
-29.599999999999397
 31
0.0
  0
LINE
  8
0
  6
CONTINUOUS
 62
               4
  5
2B6
 10
-581.17706146647811
 20
-25.999999999999432
 30
0.0
 11
-581.17706146647811
 21
-29.599999999999397
 31
0.0
  0
LINE
  8
0
  6
CONTINUOUS
 62
               4
  5
2B7
 10
-452.47706146647761
 20
-25.999999999999432
 30
0.0
 11
-452.47706146647761
 21
-29.599999999999397
 31
0.0
  0
LINE
  8
0
  6
CONTINUOUS
 62
               4
  5
2B8
 10
-452.47706146647761
 20
-29.599999999999397
 30
0.0
 11
-437.50565872119046
 21
-29.599999999999397
 31
0.0
  0
LINE
  8
0
  6
CONTINUOUS
 62
               4
  5
2B9
 10
-449.52647400136175
 20
-29.599999999999397
 30
0.0
 11
-443.65000000000009
 21
-32.999999999999432
 31
0.0
  0
LINE
  8
0
  6
CONTINUOUS
 62
               4
  5
2BA
 10
-440.45624618630632
 20
-25.999999999999432
 30
0.0
 11
-440.45624618630632
 21
-29.599999999999397
 31
0.0
  0
LINE
  8
0
  6
CONTINUOUS
 62
               4
  5
2BB
 10
-429.99314575050767
 20
-32.999999999999432
 30
0.0
 11
-437.50565872119046
 21
-29.599999999999397
 31
0.0
  0
LINE
  8
0
  6
CONTINUOUS
 62
               4
  5
2BC
 10
-427.15000000000009
 20
-32.999999999999432
 30
0.0
 11
-443.65000000000009
 21
-32.999999999999432
 31
0.0
  0
LINE
  8
0
  6
CONTINUOUS
 62
               4
  5
2BD
 10
-427.15000000000009
 20
-32.999999999999432
 30
0.0
 11
-427.15000000000009
 21
-25.999999999999432
 31
0.0
  0
LINE
  8
0
  6
CONTINUOUS
 62
               4
  5
2BE
 10
-556.49999999999977
 20
-7.4999999999994316
 30
0.0
 11
-589.99999999999977
 21
-7.4999999999994316
 31
0.0
  0
LINE
  8
0
  6
CONTINUOUS
 62
               4
  5
2BF
 10
-556.49999999999977
 20
-7.4999999999994316
 30
0.0
 11
-555.0
 21
-8.9999999999994316
 31
0.0
  0
LINE
  8
0
  6
CONTINUOUS
 62
               4
  5
2C0
 10
-443.50000000000023
 20
-7.4999999999994316
 30
0.0
 11
-410.0
 21
-7.4999999999994316
 31
0.0
  0
LINE
  8
0
  6
CONTINUOUS
 62
               4
  5
2C1
 10
-443.50000000000023
 20
-7.4999999999994316
 30
0.0
 11
-445.0
 21
-8.9999999999994316
 31
0.0
  0
ARC
  8
0
  6
CONTINUOUS
 62
               4
  5
2C2
 10
-587.0
 20
-22.999999999999432
 30
0.0
 40
3.0000000000000004
 50
179.9999999999996
 51
269.99999999999937
  0
LINE
  8
0
  6
CONTINUOUS
 62
               4
  5
2C3
 10
-587.0
 20
-25.999999999999432
 30
0.0
 11
-519.75474626513801
 21
-25.999999999999261
 31
0.0
  0
ARC
  8
0
  6
CONTINUOUS
 62
               4
  5
2C4
 10
-413.0
 20
-22.999999999999432
 30
0.0
 40
3.0000000000000004
 50
269.99999999999937
 51
359.9999999999992
  0
LINE
  8
0
  6
CONTINUOUS
 62
               4
  5
2C5
 10
-410.0
 20
-7.4999999999994316
 30
0.0
 11
-410.0
 21
-22.999999999999432
 31
0.0
  0
LINE
  8
0
  6
CONTINUOUS
 62
               4
  5
2C6
 10
-480.24525373486222
 20
-25.999999999999261
 30
0.0
 11
-413.0
 21
-25.999999999999432
 31
0.0
  0
LINE
  8
0
  6
CONTINUOUS
 62
               4
  5
2C7
 10
-363.17155612596457
 20
-22.499999999999417
 30
0.0
 11
-407.10469849010747
 21
-20.965820862453157
 31
0.0
  0
ARC
  8
0
  6
CONTINUOUS
 62
               4
  5
2C8
 10
-407.0
 20
-17.967648381395861
 30
0.0
 40
3.0
 50
179.9999999999996
 51
267.9999999999979
  0
LINE
  8
0
  6
CONTINUOUS
 62
               4
  5
2C9
 10
-136.82844387403605
 20
-22.499999999999474
 30
0.0
 11
-92.895301509893045
 21
-20.965820862453214
 31
0.0
  0
ARC
  8
0
  6
CONTINUOUS
 62
               4
  5
2CA
 10
-93.000000000000625
 20
-17.967648381395918
 30
0.0
 40
3.0
 50
272.00000000000085
 51
359.9999999999992
  0
LINE
  8
0
  6
CONTINUOUS
 62
               4
  5
2CB
 10
363.17155612596503
 20
-22.499999999999417
 30
0.0
 11
407.10469849010792
 21
-20.965820862453157
 31
0.0
  0
ARC
  8
0
  6
CONTINUOUS
 62
               4
  5
2CC
 10
407.00000000000045
 20
-17.967648381395861
 30
0.0
 40
3.0
 50
272.00000000000085
 51
359.9999999999992
  0
LINE
  8
0
  6
CONTINUOUS
 62
               4
  5
2CD
 10
136.82844387403514
 20
-22.499999999999474
 30
0.0
 11
92.895301509892136
 21
-20.965820862453214
 31
0.0
  0
ARC
  8
0
  6
CONTINUOUS
 62
               4
  5
2CE
 10
92.999999999999716
 20
-17.967648381395918
 30
0.0
 40
3.0
 50
179.9999999999996
 51
267.99999999999795
  0
CIRCLE
  8
0
  6
CONTINUOUS
 62
               4
  5
2CF
 10
-500.0
 20
-79.999999999999417
 30
0.0
 40
57.5
  0
CIRCLE
  8
0
  6
CONTINUOUS
 62
               4
  5
2D0
 10
-0.0000000000004547
 20
-79.999999999999432
 30
0.0
 40
57.5
  0
CIRCLE
  8
0
  6
CONTINUOUS
 62
               4
  5
2D1
 10
-0.0000000000004547
 20
-79.999999999999432
 30
0.0
 40
48.5
  0
CIRCLE
  8
0
  6
CONTINUOUS
 62
               4
  5
2D2
 10
-0.0000000000004547
 20
-79.999999999999432
 30
0.0
 40
38.75
  0
CIRCLE
  8
0
  6
CONTINUOUS
 62
               4
  5
2D3
 10
-0.0000000000004547
 20
-79.999999999999432
 30
0.0
 40
47.299999999999997
  0
LINE
  8
0
  6
CONTINUOUS
 62
               4
  5
2D4
 10
-31.819805153395059
 20
-111.81980515339399
 30
0.0
 11
-33.446150750124154
 21
-113.44615075012314
 31
0.0
  0
LINE
  8
0
  6
CONTINUOUS
 62
               4
  5
2D5
 10
31.819805153394213
 20
-111.81980515339399
 30
0.0
 11
33.446150750123309
 21
-113.44615075012302
 31
0.0
  0
ARC
  8
0
  6
CONTINUOUS
 62
               4
  5
2D6
 10
-0.0000000000004547
 20
-79.999999999999432
 30
0.0
 40
45.0
 50
224.99999999991346
 51
314.99999999987898
  0
CIRCLE
  8
0
  6
CONTINUOUS
 62
               4
  5
2D7
 10
-0.0000000000004547
 20
-79.999999999999432
 30
0.0
 40
43.0
  0
CIRCLE
  8
0
  6
CONTINUOUS
 62
               4
  5
2D8
 10
500.00000000000045
 20
-79.999999999999432
 30
0.0
 40
57.5
  0
LINE
  8
0
  6
CONTINUOUS
 62
               4
  5
2D9
 10
137.00000000000014
 20
-137.32844387403438
 30
0.0
 11
67.689887356161421
 21
-139.74880634111781
 31
0.0
  0
ARC
  8
0
  6
CONTINUOUS
 62
               4
  5
2DA
 10
67.86438483967396
 20
-144.74576047621292
 30
0.0
 40
5.0
 50
92.000000000000597
 51
135.00000000000088
  0
LINE
  8
0
  6
CONTINUOUS
 62
               4
  5
2DB
 10
57.464466094067134
 20
-148.07461140995463
 30
0.0
 11
64.328850933741194
 21
-141.21022657028027
 31
0.0
  0
ARC
  8
0
  6
CONTINUOUS
 62
               4
  5
2DC
 10
60.999999999999901
 20
-151.61014531588728
 30
0.0
 40
5.0
 50
135.00000000000088
 51
179.9999999999996
  0
CIRCLE
  8
0
  6
CONTINUOUS
 62
               4
  5
2DD
 10
-0.0000000000004512
 20
656.00000000000045
 30
0.0
 40
75.0
  0
CIRCLE
  8
0
  6
CONTINUOUS
 62
               4
  5
2DE
 10
-0.0000000000004512
 20
656.00000000000045
 30
0.0
 40
52.5
  0
LINE
  8
0
  6
CONTINUOUS
 62
               4
  5
2DF
 10
19.999999999999549
 20
569.78950179937533
 30
0.0
 11
19.999999999999549
 21
583.71583852599497
 31
0.0
  0
LINE
  8
0
  6
CONTINUOUS
 62
               4
  5
2E0
 10
-20.000000000000451
 20
583.71583852599497
 30
0.0
 11
-20.000000000000451
 21
569.78950179937533
 31
0.0
  0
ARC
  8
0
  6
CONTINUOUS
 62
               4
  5
2E1
 10
-0.0000000000004512
 20
656.00000000000045
 30
0.0
 40
88.5
 50
256.93897588519889
 51
283.06102411479992
  0
LINE
  8
0
  6
CONTINUOUS
 62
               4
  5
2E2
 10
-86.210498200625352
 20
636.00000000000045
 30
0.0
 11
-72.284161474005487
 21
636.00000000000045
 31
0.0
  0
LINE
  8
0
  6
CONTINUOUS
 62
               4
  5
2E3
 10
-72.284161474005487
 20
676.00000000000045
 30
0.0
 11
-86.210498200625352
 21
676.00000000000045
 31
0.0
  0
ARC
  8
0
  6
CONTINUOUS
 62
               4
  5
2E4
 10
-0.0000000000004512
 20
656.00000000000045
 30
0.0
 40
88.5
 50
166.93897588519908
 51
193.06102411480012
  0
LINE
  8
0
  6
CONTINUOUS
 62
               4
  5
2E5
 10
-20.000000000000451
 20
742.21049820062512
 30
0.0
 11
-20.000000000000451
 21
728.2841614740048
 31
0.0
  0
LINE
  8
0
  6
CONTINUOUS
 62
               4
  5
2E6
 10
19.999999999999549
 20
728.2841614740048
 30
0.0
 11
19.999999999999549
 21
742.21049820062512
 31
0.0
  0
ARC
  8
0
  6
CONTINUOUS
 62
               4
  5
2E7
 10
-0.0000000000004512
 20
656.00000000000045
 30
0.0
 40
88.5
 50
76.938975885199298
 51
103.06102411480035
  0
LINE
  8
0
  6
CONTINUOUS
 62
               4
  5
2E8
 10
86.210498200625153
 20
676.00000000000045
 30
0.0
 11
72.28416147400435
 21
676.00000000000045
 31
0.0
  0
LINE
  8
0
  6
CONTINUOUS
 62
               4
  5
2E9
 10
72.28416147400435
 20
636.00000000000045
 30
0.0
 11
86.210498200625153
 21
636.00000000000045
 31
0.0
  0
ARC
  8
0
  6
CONTINUOUS
 62
               4
  5
2EA
 10
-0.0000000000004512
 20
656.00000000000045
 30
0.0
 40
88.5
 50
346.93897588519866
 51
373.06102411479969
  0
ARC
  8
0
  6
CONTINUOUS
 62
               4
  5
2EB
 10
-0.0000000000004512
 20
656.00000000000045
 30
0.0
 40
77.5
 50
284.95524831664267
 51
345.04475168335591
  0
ARC
  8
0
  6
CONTINUOUS
 62
               4
  5
2EC
 10
-0.0000000000004512
 20
656.00000000000045
 30
0.0
 40
77.5
 50
14.955248316643303
 51
75.044751683356509
  0
ARC
  8
0
  6
CONTINUOUS
 62
               4
  5
2ED
 10
64.34671708797535
 20
591.65328291202513
 30
0.0
 40
17.5
 50
277.81643360647047
 51
352.18356639352811
  0
ARC
  8
0
  6
CONTINUOUS
 62
               4
  5
2EE
 10
64.34671708797535
 20
720.34671708797691
 30
0.0
 40
17.5
 50
7.8164336064711
 51
82.183566393528679
  0
ARC
  8
0
  6
CONTINUOUS
 62
               4
  5
2EF
 10
-64.346717087975975
 20
720.34671708797691
 30
0.0
 40
17.5
 50
97.816433606470895
 51
172.18356639352851
  0
ARC
  8
0
  6
CONTINUOUS
 62
               4
  5
2F0
 10
-64.346717087975975
 20
591.65328291202513
 30
0.0
 40
17.5
 50
187.8164336064707
 51
262.18356639352828
  0
LINE
  8
0
  6
CONTINUOUS
 62
               4
  5
2F1
 10
-66.726712427367573
 20
737.68412237782536
 30
0.0
 11
-12.239976031157081
 21
745.1637986335088
 31
0.0
  0
ARC
  8
0
  6
CONTINUOUS
 62
               4
  5
2F2
 10
-0.0000000000004512
 20
656.00000000000045
 30
0.0
 40
90.0
 50
82.18356639352865
 51
97.816433606470923
  0
LINE
  8
0
  6
CONTINUOUS
 62
               4
  5
2F3
 10
66.726712427366948
 20
737.68412237782536
 30
0.0
 11
12.239976031155951
 21
745.1637986335088
 31
0.0
  0
LINE
  8
0
  6
CONTINUOUS
 62
               4
  5
2F4
 10
81.684122377824252
 20
722.72671242736828
 30
0.0
 11
89.163798633507241
 21
668.23997603115731
 31
0.0
  0
ARC
  8
0
  6
CONTINUOUS
 62
               4
  5
2F5
 10
-0.0000000000004512
 20
656.00000000000045
 30
0.0
 40
90.0
 50
352.18356639352805
 51
367.81643360647035
  0
LINE
  8
0
  6
CONTINUOUS
 62
               4
  5
2F6
 10
81.684122377824252
 20
589.27328757263331
 30
0.0
 11
89.163798633507241
 21
643.76002396884405
 31
0.0
  0
ARC
  8
0
  6
CONTINUOUS
 62
               4
  5
2F7
 10
-0.0000000000004512
 20
656.00000000000045
 30
0.0
 40
77.5
 50
194.95524831664289
 51
255.04475168335611
  0
ARC
  8
0
  6
CONTINUOUS
 62
               4
  5
2F8
 10
-0.0000000000004512
 20
656.00000000000045
 30
0.0
 40
77.5
 50
104.95524831664311
 51
165.04475168335631
  0
CIRCLE
  8
0
  6
CONTINUOUS
 62
               4
  5
2F9
 10
64.34671708797535
 20
720.34671708797691
 30
0.0
 40
13.0
  0
LINE
  8
0
  6
CONTINUOUS
 62
               4
  5
2FA
 10
21.999999999999066
 20
656.00000000000045
 30
0.0
 11
21.999999999999066
 21
703.66812352086117
 31
0.0
  0
LINE
  8
0
  6
CONTINUOUS
 62
               4
  5
2FB
 10
44.870491366484856
 20
628.74400974959644
 30
0.0
 11
21.999999999999066
 21
656.00000000000045
 31
0.0
  0
CIRCLE
  8
0
  6
CONTINUOUS
 62
               4
  5
2FC
 10
64.34671708797535
 20
591.65328291202513
 30
0.0
 40
13.0
  0
LINE
  8
0
  6
CONTINUOUS
 62
               4
  5
2FD
 10
-66.726712427367573
 20
574.31587762217578
 30
0.0
 11
-12.239976031157081
 21
566.83620136649211
 31
0.0
  0
LINE
  8
0
  6
CONTINUOUS
 62
               4
  5
2FE
 10
66.726712427366948
 20
574.31587762217578
 30
0.0
 11
12.239976031156008
 21
566.83620136649256
 31
0.0
  0
ARC
  8
0
  6
CONTINUOUS
 62
               4
  5
2FF
 10
-0.0000000000004512
 20
656.00000000000045
 30
0.0
 40
90.0
 50
262.18356639352828
 51
277.81643360647053
  0
LINE
  8
0
  6
CONTINUOUS
 62
               4
  5
300
 10
-0.0000000000004512
 20
696.00000000000045
 30
0.0
 11
-15.972157327522954
 21
706.01140060331159
 31
0.0
  0
LINE
  8
0
  6
CONTINUOUS
 62
               4
  5
301
 10
-0.0000000000004512
 20
696.00000000000045
 30
0.0
 11
21.999999999999066
 21
696.00000000000045
 31
0.0
  0
LINE
  8
0
  6
CONTINUOUS
 62
               4
  5
302
 10
-81.684122377825133
 20
722.72671242736828
 30
0.0
 11
-89.163798633508151
 21
668.23997603115731
 31
0.0
  0
ARC
  8
0
  6
CONTINUOUS
 62
               4
  5
303
 10
-0.0000000000004512
 20
656.00000000000045
 30
0.0
 40
90.0
 50
172.18356639352845
 51
187.81643360647072
  0
LINE
  8
0
  6
CONTINUOUS
 62
               4
  5
304
 10
-81.684122377825133
 20
589.27328757263331
 30
0.0
 11
-89.163798633508151
 21
643.76002396884405
 31
0.0
  0
CIRCLE
  8
0
  6
CONTINUOUS
 62
               4
  5
305
 10
-64.346717087976259
 20
591.65328291202513
 30
0.0
 40
13.0
  0
CIRCLE
  8
0
  6
CONTINUOUS
 62
               4
  5
306
 10
-64.346717087976259
 20
720.34671708797691
 30
0.0
 40
13.0
  0
CIRCLE
  8
0
  6
CONTINUOUS
 62
               4
  5
307
 10
-0.0000000000004512
 20
656.00000000000045
 30
0.0
 40
59.0
  0
LINE
  8
0
  6
CONTINUOUS
 62
               4
  5
308
 10
-82.691200270199644
 20
715.39051420480882
 30
0.0
 11
-136.82844387403631
 21
713.50000000000057
 31
0.0
  0
LINE
  8
0
  6
CONTINUOUS
 62
               4
  5
309
 10
-82.691200270199602
 20
596.60948579519231
 30
0.0
 11
-136.82844387403583
 21
598.50000000000057
 31
0.0
  0
LINE
  8
0
  6
CONTINUOUS
 62
               4
  5
30A
 10
82.691200270198692
 20
596.60948579519231
 30
0.0
 11
136.82844387403495
 21
598.50000000000057
 31
0.0
  0
LINE
  8
0
  6
CONTINUOUS
 62
               4
  5
30B
 10
82.691200270198735
 20
715.39051420480882
 30
0.0
 11
136.8284438740354
 21
713.50000000000057
 31
0.0
  0
LINE
  8
0
  6
CONTINUOUS
 62
               4
  5
30C
 10
-59.390514204808852
 20
573.30879972980119
 30
0.0
 11
-57.500000000000597
 21
519.17155612596457
 31
0.0
  0
LINE
  8
0
  6
CONTINUOUS
 62
               4
  5
30D
 10
59.390514204807658
 20
573.30879972980131
 30
0.0
 11
57.499999999999403
 21
519.17155612596503
 31
0.0
  0
LINE
  8
0
  6
CONTINUOUS
 62
               4
  5
30E
 10
55.999999999999666
 20
-248.49999999999972
 30
0.0
 11
55.999999999999652
 21
-151.61014531588728
 31
0.0
  0
LINE
  8
0
  6
CONTINUOUS
 62
               4
  5
30F
 10
526.78735709247985
 20
-51.999999999999545
 30
0.0
 11
473.212642907521
 21
-51.999999999999545
 31
0.0
  0
CIRCLE
  8
0
  6
CONTINUOUS
 62
               4
  5
310
 10
500.00000000000045
 20
-79.999999999999432
 30
0.0
 40
48.5
  0
CIRCLE
  8
0
  6
CONTINUOUS
 62
               4
  5
311
 10
500.00000000000045
 20
-79.999999999999432
 30
0.0
 40
38.75
  0
CIRCLE
  8
0
  6
CONTINUOUS
 62
               4
  5
312
 10
500.00000000000045
 20
-79.999999999999432
 30
0.0
 40
47.299999999999997
  0
LINE
  8
0
  6
CONTINUOUS
 62
               4
  5
313
 10
468.18019484660584
 20
-111.81980515339399
 30
0.0
 11
466.55384924987675
 21
-113.44615075012314
 31
0.0
  0
LINE
  8
0
  6
CONTINUOUS
 62
               4
  5
314
 10
531.81980515339512
 20
-111.81980515339399
 30
0.0
 11
533.44615075012416
 21
-113.44615075012302
 31
0.0
  0
ARC
  8
0
  6
CONTINUOUS
 62
               4
  5
315
 10
500.00000000000045
 20
-79.999999999999432
 30
0.0
 40
45.0
 50
224.99999999991346
 51
314.99999999987898
  0
CIRCLE
  8
0
  6
CONTINUOUS
 62
               4
  5
316
 10
500.00000000000045
 20
-79.999999999999432
 30
0.0
 40
43.0
  0
LINE
  8
0
  6
CONTINUOUS
 62
               4
  5
317
 10
-531.81980515339455
 20
-111.81980515339399
 30
0.0
 11
-533.44615075012371
 21
-113.44615075012314
 31
0.0
  0
LINE
  8
0
  6
CONTINUOUS
 62
               4
  5
318
 10
-473.21264290752055
 20
-51.999999999999545
 30
0.0
 11
-526.7873570924794
 21
-51.999999999999545
 31
0.0
  0
CIRCLE
  8
0
  6
CONTINUOUS
 62
               4
  5
319
 10
-500.0
 20
-79.999999999999432
 30
0.0
 40
48.5
  0
CIRCLE
  8
0
  6
CONTINUOUS
 62
               4
  5
31A
 10
-500.0
 20
-79.999999999999432
 30
0.0
 40
38.75
  0
CIRCLE
  8
0
  6
CONTINUOUS
 62
               4
  5
31B
 10
-500.0
 20
-79.999999999999432
 30
0.0
 40
47.299999999999997
  0
CIRCLE
  8
0
  6
CONTINUOUS
 62
               4
  5
31C
 10
-500.0
 20
-79.999999999999432
 30
0.0
 40
43.0
  0
ARC
  8
0
  6
CONTINUOUS
 62
               4
  5
31D
 10
-500.0
 20
-79.999999999999432
 30
0.0
 40
45.0
 50
224.99999999991346
 51
314.99999999987898
  0
LINE
  8
0
  6
CONTINUOUS
 62
               4
  5
31E
 10
-468.18019484660533
 20
-111.81980515339399
 30
0.0
 11
-466.55384924987624
 21
-113.44615075012302
 31
0.0
  0
LINE
  8
0
  6
CONTINUOUS
 62
               4
  5
31F
 10
-575.0
 20
246.00000000000057
 30
0.0
 11
-425.0
 21
246.00000000000057
 31
0.0
  0
LINE
  8
0
  6
CONTINUOUS
 62
               4
  5
320
 10
-588.50000000000045
 20
236.00000000000057
 30
0.0
 11
-588.50000000000045
 21
229.00000000000091
 31
0.0
  0
LINE
  8
0
  6
CONTINUOUS
 62
               4
  5
321
 10
-588.50000000000045
 20
236.00000000000057
 30
0.0
 11
-575.0
 21
246.00000000000057
 31
0.0
  0
ARC
  8
0
  6
CONTINUOUS
 62
               4
  5
322
 10
-577.0
 20
224.41742430504519
 30
0.0
 40
4.9999999999999991
 50
0.0
 51
66.421821521798009
  0
LINE
  8
0
  6
CONTINUOUS
 62
               4
  5
323
 10
-588.50000000000045
 20
229.00000000000091
 30
0.0
 11
-411.50000000000023
 21
229.00000000000091
 31
0.0
  0
LINE
  8
0
  6
CONTINUOUS
 62
               4
  5
324
 10
-520.0
 20
229.00000000000091
 30
0.0
 11
-520.0
 21
246.00000000000057
 31
0.0
  0
LINE
  8
0
  6
CONTINUOUS
 62
               4
  5
325
 10
-480.0
 20
246.00000000000057
 30
0.0
 11
-480.0
 21
229.00000000000091
 31
0.0
  0
LINE
  8
0
  6
CONTINUOUS
 62
               4
  5
326
 10
-520.0
 20
236.00000000000057
 30
0.0
 11
-480.0
 21
236.00000000000057
 31
0.0
  0
LINE
  8
0
  6
CONTINUOUS
 62
               4
  5
327
 10
-572.28416147400549
 20
246.00000000000057
 30
0.0
 11
-572.28416147400549
 21
229.00000000000091
 31
0.0
  0
LINE
  8
0
  6
CONTINUOUS
 62
               4
  5
328
 10
-586.21049820062535
 20
236.00000000000057
 30
0.0
 11
-586.21049820062535
 21
229.00000000000091
 31
0.0
  0
LINE
  8
0
  6
CONTINUOUS
 62
               4
  5
329
 10
-588.50000000000045
 20
236.00000000000057
 30
0.0
 11
-586.21049820062535
 21
236.00000000000057
 31
0.0
  0
LINE
  8
0
  6
CONTINUOUS
 62
               4
  5
32A
 10
-586.21049820062535
 20
236.00000000000057
 30
0.0
 11
-572.28416147400549
 21
246.00000000000057
 31
0.0
  0
LINE
  8
0
  6
CONTINUOUS
 62
               4
  5
32B
 10
-411.50000000000023
 20
236.00000000000057
 30
0.0
 11
-411.50000000000023
 21
229.00000000000091
 31
0.0
  0
LINE
  8
0
  6
CONTINUOUS
 62
               4
  5
32C
 10
-411.50000000000023
 20
236.00000000000057
 30
0.0
 11
-425.0
 21
246.00000000000057
 31
0.0
  0
ARC
  8
0
  6
CONTINUOUS
 62
               4
  5
32D
 10
-423.0
 20
224.41742430504519
 30
0.0
 40
4.9999999999999991
 50
113.57817847820161
 51
179.9999999999996
  0
LINE
  8
0
  6
CONTINUOUS
 62
               4
  5
32E
 10
-427.71583852599588
 20
246.00000000000057
 30
0.0
 11
-427.71583852599588
 21
229.00000000000091
 31
0.0
  0
LINE
  8
0
  6
CONTINUOUS
 62
               4
  5
32F
 10
-413.78950179937465
 20
236.00000000000057
 30
0.0
 11
-413.78950179937465
 21
229.00000000000091
 31
0.0
  0
LINE
  8
0
  6
CONTINUOUS
 62
               4
  5
330
 10
-411.50000000000023
 20
236.00000000000057
 30
0.0
 11
-413.78950179937465
 21
236.00000000000057
 31
0.0
  0
LINE
  8
0
  6
CONTINUOUS
 62
               4
  5
331
 10
-413.78950179937465
 20
236.00000000000057
 30
0.0
 11
-427.71583852599588
 21
246.00000000000057
 31
0.0
  0
LINE
  8
0
  6
CONTINUOUS
 62
               4
  5
332
 10
-75.000000000000455
 20
246.00000000000057
 30
0.0
 11
74.999999999999545
 21
246.00000000000057
 31
0.0
  0
LINE
  8
0
  6
CONTINUOUS
 62
               4
  5
333
 10
-88.500000000000909
 20
236.00000000000057
 30
0.0
 11
-88.500000000000909
 21
229.00000000000091
 31
0.0
  0
LINE
  8
0
  6
CONTINUOUS
 62
               4
  5
334
 10
-88.500000000000909
 20
236.00000000000057
 30
0.0
 11
-75.000000000000455
 21
246.00000000000057
 31
0.0
  0
ARC
  8
0
  6
CONTINUOUS
 62
               4
  5
335
 10
-77.000000000000455
 20
224.41742430504519
 30
0.0
 40
4.9999999999999991
 50
0.0
 51
66.421821521798009
  0
LINE
  8
0
  6
CONTINUOUS
 62
               4
  5
336
 10
-88.500000000000909
 20
229.00000000000091
 30
0.0
 11
88.499999999999318
 21
229.00000000000091
 31
0.0
  0
LINE
  8
0
  6
CONTINUOUS
 62
               4
  5
337
 10
-20.000000000000455
 20
229.00000000000091
 30
0.0
 11
-20.000000000000455
 21
246.00000000000057
 31
0.0
  0
LINE
  8
0
  6
CONTINUOUS
 62
               4
  5
338
 10
19.999999999999545
 20
246.00000000000057
 30
0.0
 11
19.999999999999545
 21
229.00000000000091
 31
0.0
  0
LINE
  8
0
  6
CONTINUOUS
 62
               4
  5
339
 10
-20.000000000000455
 20
236.00000000000057
 30
0.0
 11
19.999999999999545
 21
236.00000000000057
 31
0.0
  0
LINE
  8
0
  6
CONTINUOUS
 62
               4
  5
33A
 10
-72.284161474005941
 20
246.00000000000057
 30
0.0
 11
-72.284161474005941
 21
229.00000000000091
 31
0.0
  0
LINE
  8
0
  6
CONTINUOUS
 62
               4
  5
33B
 10
-86.210498200625807
 20
236.00000000000057
 30
0.0
 11
-86.210498200625807
 21
229.00000000000091
 31
0.0
  0
LINE
  8
0
  6
CONTINUOUS
 62
               4
  5
33C
 10
-88.500000000000909
 20
236.00000000000057
 30
0.0
 11
-86.210498200625807
 21
236.00000000000057
 31
0.0
  0
LINE
  8
0
  6
CONTINUOUS
 62
               4
  5
33D
 10
-86.210498200625807
 20
236.00000000000057
 30
0.0
 11
-72.284161474005941
 21
246.00000000000057
 31
0.0
  0
LINE
  8
0
  6
CONTINUOUS
 62
               4
  5
33E
 10
88.499999999999318
 20
236.00000000000057
 30
0.0
 11
88.499999999999318
 21
229.00000000000091
 31
0.0
  0
LINE
  8
0
  6
CONTINUOUS
 62
               4
  5
33F
 10
88.499999999999318
 20
236.00000000000057
 30
0.0
 11
74.999999999999545
 21
246.00000000000057
 31
0.0
  0
ARC
  8
0
  6
CONTINUOUS
 62
               4
  5
340
 10
76.999999999999545
 20
224.41742430504519
 30
0.0
 40
4.9999999999999991
 50
113.57817847820161
 51
179.9999999999996
  0
LINE
  8
0
  6
CONTINUOUS
 62
               4
  5
341
 10
72.284161474003668
 20
246.00000000000057
 30
0.0
 11
72.284161474003668
 21
229.00000000000091
 31
0.0
  0
LINE
  8
0
  6
CONTINUOUS
 62
               4
  5
342
 10
86.210498200624897
 20
236.00000000000057
 30
0.0
 11
86.210498200624897
 21
229.00000000000091
 31
0.0
  0
LINE
  8
0
  6
CONTINUOUS
 62
               4
  5
343
 10
88.499999999999318
 20
236.00000000000057
 30
0.0
 11
86.210498200624897
 21
236.00000000000057
 31
0.0
  0
LINE
  8
0
  6
CONTINUOUS
 62
               4
  5
344
 10
86.210498200624897
 20
236.00000000000057
 30
0.0
 11
72.284161474003668
 21
246.00000000000057
 31
0.0
  0
LINE
  8
0
  6
CONTINUOUS
 62
               4
  5
345
 10
425.00000000000045
 20
246.00000000000057
 30
0.0
 11
575.00000000000045
 21
246.00000000000057
 31
0.0
  0
LINE
  8
0
  6
CONTINUOUS
 62
               4
  5
346
 10
411.5
 20
236.00000000000057
 30
0.0
 11
411.5
 21
229.00000000000091
 31
0.0
  0
LINE
  8
0
  6
CONTINUOUS
 62
               4
  5
347
 10
411.5
 20
236.00000000000057
 30
0.0
 11
425.00000000000045
 21
246.00000000000057
 31
0.0
  0
ARC
  8
0
  6
CONTINUOUS
 62
               4
  5
348
 10
423.00000000000045
 20
224.41742430504519
 30
0.0
 40
4.9999999999999991
 50
0.0
 51
66.421821521798009
  0
LINE
  8
0
  6
CONTINUOUS
 62
               4
  5
349
 10
411.5
 20
229.00000000000091
 30
0.0
 11
588.50000000000023
 21
229.00000000000091
 31
0.0
  0
LINE
  8
0
  6
CONTINUOUS
 62
               4
  5
34A
 10
480.00000000000045
 20
229.00000000000091
 30
0.0
 11
480.00000000000045
 21
246.00000000000057
 31
0.0
  0
LINE
  8
0
  6
CONTINUOUS
 62
               4
  5
34B
 10
520.00000000000045
 20
246.00000000000057
 30
0.0
 11
520.00000000000045
 21
229.00000000000091
 31
0.0
  0
LINE
  8
0
  6
CONTINUOUS
 62
               4
  5
34C
 10
480.00000000000045
 20
236.00000000000057
 30
0.0
 11
520.00000000000045
 21
236.00000000000057
 31
0.0
  0
LINE
  8
0
  6
CONTINUOUS
 62
               4
  5
34D
 10
427.71583852599497
 20
246.00000000000057
 30
0.0
 11
427.71583852599497
 21
229.00000000000091
 31
0.0
  0
LINE
  8
0
  6
CONTINUOUS
 62
               4
  5
34E
 10
413.7895017993751
 20
236.00000000000057
 30
0.0
 11
413.7895017993751
 21
229.00000000000091
 31
0.0
  0
LINE
  8
0
  6
CONTINUOUS
 62
               4
  5
34F
 10
411.5
 20
236.00000000000057
 30
0.0
 11
413.7895017993751
 21
236.00000000000057
 31
0.0
  0
LINE
  8
0
  6
CONTINUOUS
 62
               4
  5
350
 10
413.7895017993751
 20
236.00000000000057
 30
0.0
 11
427.71583852599497
 21
246.00000000000057
 31
0.0
  0
LINE
  8
0
  6
CONTINUOUS
 62
               4
  5
351
 10
588.50000000000023
 20
236.00000000000057
 30
0.0
 11
588.50000000000023
 21
229.00000000000091
 31
0.0
  0
LINE
  8
0
  6
CONTINUOUS
 62
               4
  5
352
 10
588.50000000000023
 20
236.00000000000057
 30
0.0
 11
575.00000000000045
 21
246.00000000000057
 31
0.0
  0
ARC
  8
0
  6
CONTINUOUS
 62
               4
  5
353
 10
577.00000000000045
 20
224.41742430504519
 30
0.0
 40
4.9999999999999991
 50
113.57817847820161
 51
179.9999999999996
  0
LINE
  8
0
  6
CONTINUOUS
 62
               4
  5
354
 10
572.28416147400458
 20
246.00000000000057
 30
0.0
 11
572.28416147400458
 21
229.00000000000091
 31
0.0
  0
LINE
  8
0
  6
CONTINUOUS
 62
               4
  5
355
 10
586.21049820062581
 20
236.00000000000057
 30
0.0
 11
586.21049820062581
 21
229.00000000000091
 31
0.0
  0
LINE
  8
0
  6
CONTINUOUS
 62
               4
  5
356
 10
588.50000000000023
 20
236.00000000000057
 30
0.0
 11
586.21049820062581
 21
236.00000000000057
 31
0.0
  0
LINE
  8
0
  6
CONTINUOUS
 62
               4
  5
357
 10
586.21049820062581
 20
236.00000000000057
 30
0.0
 11
572.28416147400458
 21
246.00000000000057
 31
0.0
  0
LINE
  8
0
  6
CONTINUOUS
 62
               4
  5
358
 10
-565.00000000000068
 20
-653.99999999999807
 30
0.0
 11
-435.00000000000063
 21
-653.99999999999807
 31
0.0
  0
LINE
  8
0
  6
CONTINUOUS
 62
               4
  5
359
 10
-91.000000000000966
 20
-554.74522178732184
 30
0.0
 11
-91.000000000000966
 21
-544.87093558026606
 31
0.0
  0
LINE
  8
0
  6
CONTINUOUS
 62
               4
  5
35A
 10
90.999999999998778
 20
-554.74522178732184
 30
0.0
 11
90.999999999998778
 21
-544.87093558026606
 31
0.0
  0
LINE
  8
0
  6
CONTINUOUS
 62
               4
  5
35B
 10
-65.000000000001023
 20
-653.99999999999818
 30
0.0
 11
64.999999999998948
 21
-653.99999999999818
 31
0.0
  0
LINE
  8
0
  6
CONTINUOUS
 62
               4
  5
35C
 10
435.00000000000114
 20
-653.99999999999841
 30
0.0
 11
565.00000000000114
 21
-653.99999999999841
 31
0.0
  0
POINT
  8
0
  6
CONTINUOUS
 62
               4
  5
35D
 10
-247.03776905046908
 20
-1126.04130008484
 30
0.0
  0
POINT
  8
0
  6
CONTINUOUS
 62
               4
  5
35E
 10
-537.23776905046884
 20
-1126.04130008484
 30
0.0
  0
POINT
  8
0
  6
CONTINUOUS
 62
               4
  5
35F
 10
-349.58372644623563
 20
-1017.9734160158052
 30
0.0
  0
POINT
  8
0
  6
CONTINUOUS
 62
               4
  5
360
 10
242.83392368588062
 20
-1126.04130008484
 30
0.0
  0
POINT
  8
0
  6
CONTINUOUS
 62
               4
  5
361
 10
-1.078108764605247
 20
-1126.04130008484
 30
0.0
  0
POINT
  8
0
  6
CONTINUOUS
 62
               4
  5
362
 10
165.3779074606378
 20
-1038.0852838595974
 30
0.0
  0
LINE
  8
0
  6
CONTINUOUS
 62
               4
  5
363
 10
686.28652321630739
 20
-1517.8206445087806
 30
0.0
 11
681.28652321630739
 21
-1512.8206445087806
 31
0.0
  0
ARC
  8
0
  6
CONTINUOUS
 62
               4
  5
364
 10
663.78652321630739
 20
-1528.3562982616334
 30
0.0
 40
19.999999999999996
 50
0.0
 51
31.788330617027277
  0
LINE
  8
0
  6
CONTINUOUS
 62
               4
  5
365
 10
680.78652321630784
 20
-1517.8206445087806
 30
0.0
 11
680.78652321630784
 21
-1512.8206445087801
 31
0.0
  0
LINE
  8
0
  6
CONTINUOUS
 62
               4
  5
366
 10
681.28652321630739
 20
-1512.8206445087806
 30
0.0
 11
680.78652321630784
 21
-1512.8206445087806
 31
0.0
  0
LINE
  8
0
  6
CONTINUOUS
 62
               4
  5
367
 10
686.03652321630761
 20
-1518.0706445087806
 30
0.0
 11
680.78652321630784
 21
-1512.8206445087806
 31
0.0
  0
LINE
  8
0
  6
CONTINUOUS
 62
               4
  5
368
 10
686.03652321630761
 20
-1518.0706445087806
 30
0.0
 11
686.28652321630739
 21
-1517.8206445087806
 31
0.0
  0
LINE
  8
0
  6
CONTINUOUS
 62
               4
  5
369
 10
686.28652321630739
 20
-1517.8206445087806
 30
0.0
 11
686.28652321630739
 21
-1648.5093218587506
 31
0.0
  0
LINE
  8
0
  6
CONTINUOUS
 62
               4
  5
36A
 10
686.03652321630761
 20
-1518.0706445087806
 30
0.0
 11
686.03652321630761
 21
-1648.2239647516151
 31
0.0
  0
LINE
  8
0
  6
CONTINUOUS
 62
               4
  5
36B
 10
683.78652321630739
 20
-1528.2032746645161
 30
0.0
 11
683.78652321630739
 21
-1647.3562982616334
 31
0.0
  0
POINT
  8
0
  6
CONTINUOUS
 62
               4
  5
36C
 10
653.78652321630761
 20
-1257.2568645130493
 30
0.0
  0
POINT
  8
0
  6
CONTINUOUS
 62
               4
  5
36D
 10
464.88652321630747
 20
-1542.8562982616334
 30
0.0
  0
POINT
  8
0
  6
CONTINUOUS
 62
               4
  5
36E
 10
464.88652321630758
 20
-1157.3568645130488
 30
0.0
  0
LINE
  8
0
  6
DASHDOT
 62
               4
  5
36F
 10
-500.0
 20
266.00000000000057
 30
0.0
 11
-499.99999999999994
 21
-776.85322790313046
 31
0.0
  0
LINE
  8
0
  6
DASHDOT
 62
               4
  5
370
 10
-0.0000000000004547
 20
266.00000000000051
 30
0.0
 11
-0.0000000000003909
 21
-776.85322790313057
 31
0.0
  0
LINE
  8
0
  6
DASHDOT
 62
               4
  5
371
 10
500.00000000000045
 20
266.00000000000057
 30
0.0
 11
500.00000000000051
 21
-776.8532279031308
 31
0.0
  0
LINE
  8
0
  6
DASHDOT
 62
               4
  5
372
 10
76.099999999999554
 20
-79.999999999999432
 30
0.0
 11
-76.100000000000449
 21
-79.999999999999432
 31
0.0
  0
LINE
  8
0
  6
DASHDOT
 62
               4
  5
373
 10
-325.57872588873738
 20
-79.99999999999946
 30
0.0
 11
-408.00401829960902
 21
-79.99999999999946
 31
0.0
  0
LINE
  8
0
  6
DASHDOT
 62
               4
  5
374
 10
325.57872588873795
 20
-79.99999999999946
 30
0.0
 11
408.00401829960947
 21
-79.99999999999946
 31
0.0
  0
LINE
  8
0
  6
DASHDOT
 62
               4
  5
375
 10
174.42127411126225
 20
656.00000000000045
 30
0.0
 11
-174.42127411126287
 21
656.00000000000045
 31
0.0
  0
LINE
  8
0
  6
DASHDOT
 62
               4
  5
376
 10
-0.0000000000004512
 20
491.00000000000068
 30
0.0
 11
-0.0000000000004512
 21
766.00000000000045
 31
0.0
  0
LINE
  8
0
  6
DASHDOT
 62
               4
  5
377
 10
174.42127411126216
 20
-79.999999999998948
 30
0.0
 11
91.99598170039053
 21
-79.999999999998948
 31
0.0
  0
LINE
  8
0
  6
DASHDOT
 62
               4
  5
378
 10
-174.42127411126296
 20
-79.999999999998948
 30
0.0
 11
-91.99598170039144
 21
-79.999999999998948
 31
0.0
  0
LINE
  8
0
  6
DASHDOT
 62
               4
  5
379
 10
576.10000000000048
 20
-79.999999999999432
 30
0.0
 11
423.90000000000043
 21
-79.999999999999432
 31
0.0
  0
LINE
  8
0
  6
DASHDOT
 62
               4
  5
37A
 10
-423.89999999999998
 20
-79.999999999999432
 30
0.0
 11
-576.10000000000002
 21
-79.999999999999432
 31
0.0
  0
LINE
  8
0
  6
DASHDOT
 62
               4
  5
37B
 10
-125.00000000000102
 20
-428.00989800199409
 30
0.0
 11
-125.00000000000102
 21
-592.38825962148451
 31
0.0
  0
LINE
  8
0
  6
DASHDOT
 62
               4
  5
37C
 10
124.99999999999895
 20
-428.00989800199409
 30
0.0
 11
124.99999999999895
 21
-592.38825962148451
 31
0.0
  0
LINE
  8
0
  6
DASHDOT
 62
               4
  5
37D
 10
-392.1377690504691
 20
-1235.04130008484
 30
0.0
 11
-392.13776905046899
 21
-1106.0413000848403
 31
0.0
  0
LINE
  8
0
  6
DASHDOT
 62
               4
  5
37E
 10
-450.13776905046899
 20
-1177.04130008484
 30
0.0
 11
-334.1377690504691
 21
-1177.04130008484
 31
0.0
  0
LINE
  8
0
  6
DASHDOT
 62
               4
  5
37F
 10
-461.94094753457654
 20
-1170.54130008484
 30
0.0
 11
-327.6377690504691
 21
-1170.54130008484
 31
0.0
  0
LINE
  8
0
  6
DASHDOT
 62
               4
  5
380
 10
-268.23776905046901
 20
-1170.54130008484
 30
0.0
 11
-169.6377690504691
 21
-1170.54130008484
 31
0.0
  0
LINE
  8
0
  6
DASHDOT
 62
               4
  5
381
 10
-302.6377690504691
 20
-1177.04130008484
 30
0.0
 11
-228.23776905046913
 21
-1177.04130008484
 31
0.0
  0
LINE
  8
0
  6
DASHDOT
 62
               4
  5
382
 10
-516.0377690504688
 20
-1170.54130008484
 30
0.0
 11
-614.63776905046893
 21
-1170.5413000848396
 31
0.0
  0
LINE
  8
0
  6
DASHDOT
 62
               4
  5
383
 10
-481.63776905046899
 20
-1177.04130008484
 30
0.0
 11
-556.0377690504688
 21
-1177.04130008484
 31
0.0
  0
LINE
  8
0
  6
DASHDOT
 62
               4
  5
384
 10
-394.08372644623563
 20
-1073.5734160158052
 30
0.0
 11
-394.08372644623563
 21
-940.57341601580515
 31
0.0
  0
LINE
  8
0
  6
DASHDOT
 62
               4
  5
385
 10
221.63392368588057
 20
-1170.54130008484
 30
0.0
 11
320.23392368588071
 21
-1170.54130008484
 31
0.0
  0
LINE
  8
0
  6
DASHDOT
 62
               4
  5
386
 10
196.63392368588057
 20
-1185.04130008484
 30
0.0
 11
261.63392368588057
 21
-1185.04130008484
 31
0.0
  0
LINE
  8
0
  6
DASHDOT
 62
               4
  5
387
 10
70.877907460637573
 20
-1185.04130008484
 30
0.0
 11
170.8779074606378
 21
-1185.04130008484
 31
0.0
  0
LINE
  8
0
  6
DASHDOT
 62
               4
  5
388
 10
120.87790746063757
 20
-1235.04130008484
 30
0.0
 11
120.8779074606378
 21
-1106.0413000848403
 31
0.0
  0
LINE
  8
0
  6
DASHDOT
 62
               4
  5
389
 10
56.377907460637573
 20
-1170.54130008484
 30
0.0
 11
190.92191724058881
 21
-1170.54130008484
 31
0.0
  0
LINE
  8
0
  6
DASHDOT
 62
               4
  5
38A
 10
20.121891235394799
 20
-1170.54130008484
 30
0.0
 11
-78.478108764605224
 21
-1170.54130008484
 31
0.0
  0
LINE
  8
0
  6
DASHDOT
 62
               4
  5
38B
 10
45.121891235394799
 20
-1185.04130008484
 30
0.0
 11
-19.878108764605201
 21
-1185.04130008484
 31
0.0
  0
LINE
  8
0
  6
DASHDOT
 62
               4
  5
38C
 10
120.8779074606378
 20
-1084.2852838595975
 30
0.0
 11
120.8779074606378
 21
-960.68528385959735
 31
0.0
  0
LINE
  8
0
  6
DASHDOT
 62
               4
  5
38D
 10
609.28652321630761
 20
-1004.3568645130492
 30
0.0
 11
609.28652321630761
 21
-1274.9036513128756
 31
0.0
  0
LINE
  8
0
  6
DASHDOT
 62
               4
  5
38E
 10
447.28652321630756
 20
-1112.8568645130492
 30
0.0
 11
717.78652321630784
 21
-1112.8568645130492
 31
0.0
  0
LINE
  8
0
  6
DASHDOT
 62
               4
  5
38F
 10
677.81174799153223
 20
-1587.3562982616334
 30
0.0
 11
447.55790992287922
 21
-1587.3562982616334
 31
0.0
  0
LINE
  8
0
  6
DASHDOT
 62
               4
  5
390
 10
609.28652321630761
 20
-1401.3562982616334
 30
0.0
 11
609.28652321630761
 21
-1652.3562982616334
 31
0.0
  0
LINE
  8
0
  6
DASHDOT
 62
               4
  5
391
 10
559.28652321630761
 20
-1601.8562982616334
 30
0.0
 11
659.28652321630784
 21
-1601.8562982616334
 31
0.0
  0
LINE
  8
0
  6
DASHDOT
 62
               4
  5
392
 10
609.28652321630761
 20
-1303.4568645130491
 30
0.0
 11
609.28652321630761
 21
-1179.8568645130488
 31
0.0
  0
LINE
  8
0
  6
DASHDOT
 62
               4
  5
393
 10
409.28652321630744
 20
-1593.8562982616334
 30
0.0
 11
483.68652321630742
 21
-1593.8562982616334
 31
0.0
  0
LINE
  8
0
  6
DASHDOT
 62
               4
  5
394
 10
409.28652321630767
 20
-1112.856864513049
 30
0.0
 11
542.28652321630784
 21
-1112.856864513049
 31
0.0
  0
LINE
  8
0
  6
DASHED2
 62
               4
  5
395
 10
51.499999999999531
 20
-548.99999999999943
 30
0.0
 11
51.499999999999531
 21
-157.08604066087003
 31
0.0
  0
LINE
  8
0
  6
DASHED2
 62
               4
  5
396
 10
-51.500000000000583
 20
-548.99999999999943
 30
0.0
 11
-51.500000000000583
 21
-157.08604066087003
 31
0.0
  0
LINE
  8
0
  6
DASHED2
 62
               4
  5
397
 10
-551.50000000000011
 20
-548.99999999999932
 30
0.0
 11
-551.50000000000011
 21
-157.08604066086991
 31
0.0
  0
LINE
  8
0
  6
DASHED2
 62
               4
  5
398
 10
-448.5
 20
-548.99999999999932
 30
0.0
 11
-448.5
 21
-157.08604066086991
 31
0.0
  0
LINE
  8
0
  6
DASHED2
 62
               4
  5
399
 10
551.4999999999992
 20
-548.99999999999932
 30
0.0
 11
551.4999999999992
 21
-157.08604066086991
 31
0.0
  0
LINE
  8
0
  6
DASHED2
 62
               4
  5
39A
 10
448.49999999999909
 20
-548.99999999999932
 30
0.0
 11
448.49999999999909
 21
-157.08604066086991
 31
0.0
  0
LINE
  8
0
  6
DASHED2
 62
               4
  5
39B
 10
-557.0
 20
181.00000000000057
 30
0.0
 11
-442.99999999999977
 21
181.00000000000057
 31
0.0
  0
LINE
  8
0
  6
DASHED2
 62
               4
  5
39C
 10
-57.000000000000398
 20
181.00000000000057
 30
0.0
 11
56.999999999999716
 21
181.00000000000057
 31
0.0
  0
LINE
  8
0
  6
DASHED2
 62
               4
  5
39D
 10
557.00000000000045
 20
181.00000000000057
 30
0.0
 11
443.00000000000023
 21
181.00000000000057
 31
0.0
  0
LINE
  8
0
  6
DASHED2
 62
               4
  5
39E
 10
-445.4987816540368
 20
-548.99999999999932
 30
0.0
 11
-554.50121834596348
 21
-548.99999999999932
 31
0.0
  0
LINE
  8
0
  6
DASHED2
 62
               4
  5
39F
 10
-557.50000000000296
 20
-564.00000000000045
 30
0.0
 11
-557.50000000000296
 21
-628.99999999999818
 31
0.0
  0
LINE
  8
0
  6
DASHED2
 62
               4
  5
3A0
 10
-557.50000000000296
 20
-564.00000000000045
 30
0.0
 11
-500.00000000000119
 21
-563.99999999999932
 31
0.0
  0
LINE
  8
0
  6
DASHED2
 62
               4
  5
3A1
 10
-442.49999999999835
 20
-564.00000000000045
 30
0.0
 11
-500.00000000000006
 21
-563.99999999999932
 31
0.0
  0
LINE
  8
0
  6
DASHED2
 62
               4
  5
3A2
 10
-442.49999999999835
 20
-564.00000000000045
 30
0.0
 11
-442.49999999999835
 21
-628.99999999999818
 31
0.0
  0
LINE
  8
0
  6
DASHED2
 62
               4
  5
3A3
 10
-508.81551362713486
 20
-560.59999999999945
 30
0.0
 11
-491.18448637286923
 21
-560.59999999999945
 31
0.0
  0
ARC
  8
0
  6
DASHED2
 62
               4
  5
3A4
 10
-508.81551362713486
 20
-556.02626841588403
 30
0.0
 40
4.5737315841157447
 50
229.92557966157796
 51
310.07442033831961
  0
ARC
  8
0
  6
DASHED2
 62
               4
  5
3A5
 10
-491.18448637286923
 20
-556.02626841588403
 30
0.0
 40
4.5737315841157686
 50
229.92557966157852
 51
310.07442033831961
  0
ARC
  8
0
  6
DASHED2
 62
               4
  5
3A6
 10
-500.0000000000021
 20
-544.01414173047954
 30
0.0
 40
16.58585826952007
 50
249.26918485851303
 51
290.73081514138352
  0
LINE
  8
0
  6
DASHED2
 62
               4
  5
3A7
 10
-506.00000000000063
 20
-560.59999999999945
 30
0.0
 11
-506.00000000000063
 21
-571.11936624232408
 31
0.0
  0
LINE
  8
0
  6
DASHED2
 62
               4
  5
3A8
 10
-494.00000000000074
 20
-560.59999999999945
 30
0.0
 11
-494.00000000000074
 21
-571.11936624232408
 31
0.0
  0
LINE
  8
0
  6
DASHED2
 62
               4
  5
3A9
 10
-504.80000000000081
 20
-572.31936624232446
 30
0.0
 11
-495.20000000000078
 21
-572.31936624232446
 31
0.0
  0
LINE
  8
0
  6
DASHED2
 62
               4
  5
3AA
 10
-506.00000000000063
 20
-571.11936624232408
 30
0.0
 11
-504.80000000000081
 21
-572.31936624232446
 31
0.0
  0
LINE
  8
0
  6
DASHED2
 62
               4
  5
3AB
 10
-494.00000000000074
 20
-571.11936624232408
 30
0.0
 11
-495.20000000000078
 21
-572.31936624232446
 31
0.0
  0
LINE
  8
0
  6
DASHED2
 62
               4
  5
3AC
 10
-511.76000000000084
 20
-548.99999999999932
 30
0.0
 11
-511.76000000000084
 21
-540.4738715006921
 31
0.0
  0
LINE
  8
0
  6
DASHED2
 62
               4
  5
3AD
 10
-505.87102725426638
 20
-540.4738715006921
 30
0.0
 11
-505.87102725426638
 21
-548.99999999999932
 31
0.0
  0
LINE
  8
0
  6
DASHED2
 62
               4
  5
3AE
 10
-508.8155136271335
 20
-539.39999999999918
 30
0.0
 11
-491.18448637286753
 21
-539.39999999999918
 31
0.0
  0
LINE
  8
0
  6
DASHED2
 62
               4
  5
3AF
 10
-488.24000000000052
 20
-548.99999999999932
 30
0.0
 11
-488.24000000000052
 21
-540.4738715006921
 31
0.0
  0
LINE
  8
0
  6
DASHED2
 62
               4
  5
3B0
 10
-494.12897274573521
 20
-548.99999999999932
 30
0.0
 11
-494.12897274573521
 21
-540.4738715006921
 31
0.0
  0
ARC
  8
0
  6
DASHED2
 62
               4
  5
3B1
 10
-508.8155136271335
 20
-543.97373158411517
 30
0.0
 40
4.5737315841157447
 50
49.925579661612304
 51
130.07442033835341
  0
ARC
  8
0
  6
DASHED2
 62
               4
  5
3B2
 10
-491.18448637286753
 20
-543.97373158411517
 30
0.0
 40
4.5737315841157686
 50
49.925579661612304
 51
130.07442033835341
  0
ARC
  8
0
  6
DASHED2
 62
               4
  5
3B3
 10
-500.00000000000063
 20
-555.98585826951967
 30
0.0
 40
16.58585826952007
 50
69.269184858547646
 51
110.73081514141818
  0
LINE
  8
0
  6
DASHED2
 62
               4
  5
3B4
 10
-511.76000000000221
 20
-550.99999999999966
 30
0.0
 11
-511.76000000000221
 21
-559.52612849930688
 31
0.0
  0
LINE
  8
0
  6
DASHED2
 62
               4
  5
3B5
 10
-505.87102725426786
 20
-559.52612849930688
 30
0.0
 11
-505.87102725426786
 21
-550.99999999999966
 31
0.0
  0
LINE
  8
0
  6
DASHED2
 62
               4
  5
3B6
 10
-488.24000000000188
 20
-550.99999999999966
 30
0.0
 11
-488.24000000000188
 21
-559.52612849930688
 31
0.0
  0
LINE
  8
0
  6
DASHED2
 62
               4
  5
3B7
 10
-494.12897274573635
 20
-550.99999999999966
 30
0.0
 11
-494.12897274573635
 21
-559.52612849930688
 31
0.0
  0
LINE
  8
0
  6
DASHED2
 62
               4
  5
3B8
 10
-511.76000000000084
 20
-548.99999999999932
 30
0.0
 11
-488.24000000000052
 21
-548.99999999999932
 31
0.0
  0
LINE
  8
0
  6
DASHED2
 62
               4
  5
3B9
 10
-488.24000000000188
 20
-550.99999999999966
 30
0.0
 11
-511.76000000000221
 21
-550.99999999999966
 31
0.0
  0
LINE
  8
0
  6
DASHED2
 62
               4
  5
3BA
 10
-506.00000000000063
 20
-433.93642052407051
 30
0.0
 11
-506.00000000000063
 21
-539.39999999999918
 31
0.0
  0
LINE
  8
0
  6
DASHED2
 62
               4
  5
3BB
 10
-494.00000000000074
 20
-433.93642052407051
 30
0.0
 11
-494.00000000000074
 21
-539.39999999999918
 31
0.0
  0
LINE
  8
0
  6
DASHED2
 62
               4
  5
3BC
 10
-494.00000000000074
 20
-433.93642052407051
 30
0.0
 11
-506.00000000000063
 21
-433.93642052407051
 31
0.0
  0
LINE
  8
0
  6
DASHED2
 62
               4
  5
3BD
 10
54.501218345962783
 20
-548.99999999999943
 30
0.0
 11
-54.501218345963835
 21
-548.99999999999943
 31
0.0
  0
LINE
  8
0
  6
DASHED2
 62
               4
  5
3BE
 10
-57.500000000003439
 20
-564.00000000000057
 30
0.0
 11
-57.500000000003439
 21
-628.99999999999829
 31
0.0
  0
LINE
  8
0
  6
DASHED2
 62
               4
  5
3BF
 10
-57.500000000003439
 20
-564.00000000000057
 30
0.0
 11
-0.0000000000015934
 21
-563.99999999999943
 31
0.0
  0
LINE
  8
0
  6
DASHED2
 62
               4
  5
3C0
 10
57.500000000001251
 20
-564.00000000000057
 30
0.0
 11
-0.0000000000004565
 21
-563.99999999999943
 31
0.0
  0
LINE
  8
0
  6
DASHED2
 62
               4
  5
3C1
 10
57.500000000001251
 20
-564.00000000000057
 30
0.0
 11
57.500000000001251
 21
-628.99999999999829
 31
0.0
  0
LINE
  8
0
  6
DASHED2
 62
               4
  5
3C2
 10
-136.76000000000118
 20
-548.99999999999898
 30
0.0
 11
-136.76000000000118
 21
-540.47387150069176
 31
0.0
  0
LINE
  8
0
  6
DASHED2
 62
               4
  5
3C3
 10
-130.87102725426678
 20
-540.47387150069176
 30
0.0
 11
-130.87102725426678
 21
-548.99999999999898
 31
0.0
  0
LINE
  8
0
  6
DASHED2
 62
               4
  5
3C4
 10
-133.81551362713384
 20
-539.39999999999884
 30
0.0
 11
-116.18448637286792
 21
-539.39999999999884
 31
0.0
  0
LINE
  8
0
  6
DASHED2
 62
               4
  5
3C5
 10
-113.24000000000086
 20
-548.99999999999898
 30
0.0
 11
-113.24000000000086
 21
-540.47387150069176
 31
0.0
  0
LINE
  8
0
  6
DASHED2
 62
               4
  5
3C6
 10
-119.12897274573555
 20
-548.99999999999898
 30
0.0
 11
-119.12897274573555
 21
-540.47387150069176
 31
0.0
  0
ARC
  8
0
  6
DASHED2
 62
               4
  5
3C7
 10
-133.81551362713384
 20
-543.97373158411483
 30
0.0
 40
4.5737315841157447
 50
49.925579661612304
 51
130.07442033835341
  0
ARC
  8
0
  6
DASHED2
 62
               4
  5
3C8
 10
-116.18448637286792
 20
-543.97373158411483
 30
0.0
 40
4.5737315841157686
 50
49.925579661612304
 51
130.07442033835341
  0
ARC
  8
0
  6
DASHED2
 62
               4
  5
3C9
 10
-125.00000000000102
 20
-555.98585826951933
 30
0.0
 40
16.58585826952007
 50
69.269184858547646
 51
110.73081514141818
  0
LINE
  8
0
  6
DASHED2
 62
               4
  5
3CA
 10
-136.76000000000261
 20
-550.99999999999932
 30
0.0
 11
-136.76000000000261
 21
-559.52612849930654
 31
0.0
  0
LINE
  8
0
  6
DASHED2
 62
               4
  5
3CB
 10
-130.8710272542682
 20
-559.52612849930654
 30
0.0
 11
-130.8710272542682
 21
-550.99999999999932
 31
0.0
  0
LINE
  8
0
  6
DASHED2
 62
               4
  5
3CC
 10
-133.81551362713526
 20
-560.59999999999911
 30
0.0
 11
-116.18448637286963
 21
-560.59999999999911
 31
0.0
  0
LINE
  8
0
  6
DASHED2
 62
               4
  5
3CD
 10
-113.24000000000228
 20
-550.99999999999932
 30
0.0
 11
-113.24000000000228
 21
-559.52612849930654
 31
0.0
  0
LINE
  8
0
  6
DASHED2
 62
               4
  5
3CE
 10
-119.12897274573669
 20
-550.99999999999932
 30
0.0
 11
-119.12897274573669
 21
-559.52612849930654
 31
0.0
  0
ARC
  8
0
  6
DASHED2
 62
               4
  5
3CF
 10
-133.81551362713526
 20
-556.02626841588369
 30
0.0
 40
4.5737315841157447
 50
229.92557966157796
 51
310.07442033831961
  0
ARC
  8
0
  6
DASHED2
 62
               4
  5
3D0
 10
-116.18448637286963
 20
-556.02626841588369
 30
0.0
 40
4.5737315841157686
 50
229.92557966157852
 51
310.07442033831961
  0
ARC
  8
0
  6
DASHED2
 62
               4
  5
3D1
 10
-125.00000000000244
 20
-544.0141417304792
 30
0.0
 40
16.58585826952007
 50
249.26918485851303
 51
290.73081514138352
  0
LINE
  8
0
  6
DASHED2
 62
               4
  5
3D2
 10
-131.00000000000097
 20
-560.59999999999911
 30
0.0
 11
-131.00000000000097
 21
-571.11936624232374
 31
0.0
  0
LINE
  8
0
  6
DASHED2
 62
               4
  5
3D3
 10
-119.00000000000108
 20
-560.59999999999911
 30
0.0
 11
-119.00000000000108
 21
-571.11936624232374
 31
0.0
  0
LINE
  8
0
  6
DASHED2
 62
               4
  5
3D4
 10
-129.80000000000121
 20
-572.31936624232412
 30
0.0
 11
-120.20000000000113
 21
-572.31936624232412
 31
0.0
  0
LINE
  8
0
  6
DASHED2
 62
               4
  5
3D5
 10
-131.00000000000097
 20
-571.11936624232374
 30
0.0
 11
-129.80000000000121
 21
-572.31936624232412
 31
0.0
  0
LINE
  8
0
  6
DASHED2
 62
               4
  5
3D6
 10
-119.00000000000108
 20
-571.11936624232374
 30
0.0
 11
-120.20000000000113
 21
-572.31936624232412
 31
0.0
  0
LINE
  8
0
  6
DASHED2
 62
               4
  5
3D7
 10
-136.76000000000118
 20
-548.99999999999898
 30
0.0
 11
-113.24000000000086
 21
-548.99999999999898
 31
0.0
  0
LINE
  8
0
  6
DASHED2
 62
               4
  5
3D8
 10
-113.24000000000228
 20
-550.99999999999932
 30
0.0
 11
-136.76000000000261
 21
-550.99999999999932
 31
0.0
  0
LINE
  8
0
  6
DASHED2
 62
               4
  5
3D9
 10
-131.00000000000097
 20
-433.93642052407017
 30
0.0
 11
-131.00000000000097
 21
-539.39999999999884
 31
0.0
  0
LINE
  8
0
  6
DASHED2
 62
               4
  5
3DA
 10
-119.00000000000108
 20
-433.93642052407017
 30
0.0
 11
-119.00000000000108
 21
-539.39999999999884
 31
0.0
  0
LINE
  8
0
  6
DASHED2
 62
               4
  5
3DB
 10
-119.00000000000108
 20
-433.93642052407017
 30
0.0
 11
-131.00000000000097
 21
-433.93642052407017
 31
0.0
  0
LINE
  8
0
  6
DASHED2
 62
               4
  5
3DC
 10
136.75999999999911
 20
-548.99999999999898
 30
0.0
 11
136.75999999999911
 21
-540.47387150069176
 31
0.0
  0
LINE
  8
0
  6
DASHED2
 62
               4
  5
3DD
 10
130.8710272542647
 20
-540.47387150069176
 30
0.0
 11
130.8710272542647
 21
-548.99999999999898
 31
0.0
  0
LINE
  8
0
  6
DASHED2
 62
               4
  5
3DE
 10
133.81551362713176
 20
-539.39999999999884
 30
0.0
 11
116.18448637286585
 21
-539.39999999999884
 31
0.0
  0
LINE
  8
0
  6
DASHED2
 62
               4
  5
3DF
 10
113.23999999999879
 20
-548.99999999999898
 30
0.0
 11
113.23999999999879
 21
-540.47387150069176
 31
0.0
  0
LINE
  8
0
  6
DASHED2
 62
               4
  5
3E0
 10
119.12897274573348
 20
-548.99999999999898
 30
0.0
 11
119.12897274573348
 21
-540.47387150069176
 31
0.0
  0
ARC
  8
0
  6
DASHED2
 62
               4
  5
3E1
 10
133.81551362713176
 20
-543.97373158411483
 30
0.0
 40
4.5737315841157447
 50
49.925579661646204
 51
130.07442033838728
  0
ARC
  8
0
  6
DASHED2
 62
               4
  5
3E2
 10
116.18448637286585
 20
-543.97373158411483
 30
0.0
 40
4.5737315841157686
 50
49.925579661646204
 51
130.07442033838728
  0
ARC
  8
0
  6
DASHED2
 62
               4
  5
3E3
 10
124.99999999999895
 20
-555.98585826951933
 30
0.0
 40
16.58585826952007
 50
69.269184858581426
 51
110.73081514145197
  0
LINE
  8
0
  6
DASHED2
 62
               4
  5
3E4
 10
136.76000000000053
 20
-550.99999999999932
 30
0.0
 11
136.76000000000053
 21
-559.52612849930654
 31
0.0
  0
LINE
  8
0
  6
DASHED2
 62
               4
  5
3E5
 10
130.87102725426612
 20
-559.52612849930654
 30
0.0
 11
130.87102725426612
 21
-550.99999999999932
 31
0.0
  0
LINE
  8
0
  6
DASHED2
 62
               4
  5
3E6
 10
133.81551362713319
 20
-560.59999999999911
 30
0.0
 11
116.18448637286755
 21
-560.59999999999911
 31
0.0
  0
LINE
  8
0
  6
DASHED2
 62
               4
  5
3E7
 10
113.24000000000021
 20
-550.99999999999932
 30
0.0
 11
113.24000000000021
 21
-559.52612849930654
 31
0.0
  0
LINE
  8
0
  6
DASHED2
 62
               4
  5
3E8
 10
119.12897274573461
 20
-550.99999999999932
 30
0.0
 11
119.12897274573461
 21
-559.52612849930654
 31
0.0
  0
ARC
  8
0
  6
DASHED2
 62
               4
  5
3E9
 10
133.81551362713319
 20
-556.02626841588369
 30
0.0
 40
4.5737315841157447
 50
229.92557966167917
 51
310.07442033842085
  0
ARC
  8
0
  6
DASHED2
 62
               4
  5
3EA
 10
116.18448637286755
 20
-556.02626841588369
 30
0.0
 40
4.5737315841157686
 50
229.92557966167917
 51
310.07442033842028
  0
ARC
  8
0
  6
DASHED2
 62
               4
  5
3EB
 10
125.00000000000037
 20
-544.0141417304792
 30
0.0
 40
16.58585826952007
 50
249.26918485861526
 51
290.73081514148578
  0
LINE
  8
0
  6
DASHED2
 62
               4
  5
3EC
 10
130.99999999999889
 20
-560.59999999999911
 30
0.0
 11
130.99999999999889
 21
-571.11936624232374
 31
0.0
  0
LINE
  8
0
  6
DASHED2
 62
               4
  5
3ED
 10
118.99999999999901
 20
-560.59999999999911
 30
0.0
 11
118.99999999999901
 21
-571.11936624232374
 31
0.0
  0
LINE
  8
0
  6
DASHED2
 62
               4
  5
3EE
 10
129.79999999999913
 20
-572.31936624232412
 30
0.0
 11
120.19999999999905
 21
-572.31936624232412
 31
0.0
  0
LINE
  8
0
  6
DASHED2
 62
               4
  5
3EF
 10
130.99999999999889
 20
-571.11936624232374
 30
0.0
 11
129.79999999999913
 21
-572.31936624232412
 31
0.0
  0
LINE
  8
0
  6
DASHED2
 62
               4
  5
3F0
 10
118.99999999999901
 20
-571.11936624232374
 30
0.0
 11
120.19999999999905
 21
-572.31936624232412
 31
0.0
  0
LINE
  8
0
  6
DASHED2
 62
               4
  5
3F1
 10
136.75999999999911
 20
-548.99999999999898
 30
0.0
 11
113.23999999999879
 21
-548.99999999999898
 31
0.0
  0
LINE
  8
0
  6
DASHED2
 62
               4
  5
3F2
 10
113.24000000000021
 20
-550.99999999999932
 30
0.0
 11
136.76000000000053
 21
-550.99999999999932
 31
0.0
  0
LINE
  8
0
  6
DASHED2
 62
               4
  5
3F3
 10
130.99999999999889
 20
-433.93642052407017
 30
0.0
 11
130.99999999999889
 21
-539.39999999999884
 31
0.0
  0
LINE
  8
0
  6
DASHED2
 62
               4
  5
3F4
 10
118.99999999999901
 20
-433.93642052407017
 30
0.0
 11
118.99999999999901
 21
-539.39999999999884
 31
0.0
  0
LINE
  8
0
  6
DASHED2
 62
               4
  5
3F5
 10
118.99999999999901
 20
-433.93642052407017
 30
0.0
 11
130.99999999999889
 21
-433.93642052407017
 31
0.0
  0
LINE
  8
0
  6
DASHED2
 62
               4
  5
3F6
 10
445.49878165403584
 20
-548.99999999999932
 30
0.0
 11
554.50121834596246
 21
-548.99999999999932
 31
0.0
  0
LINE
  8
0
  6
DASHED2
 62
               4
  5
3F7
 10
442.49999999999886
 20
-564.00000000000068
 30
0.0
 11
442.49999999999886
 21
-628.99999999999841
 31
0.0
  0
LINE
  8
0
  6
DASHED2
 62
               4
  5
3F8
 10
442.49999999999886
 20
-564.00000000000068
 30
0.0
 11
500.00000000000068
 21
-563.99999999999955
 31
0.0
  0
LINE
  8
0
  6
DASHED2
 62
               4
  5
3F9
 10
557.50000000000341
 20
-564.00000000000068
 30
0.0
 11
500.00000000000182
 21
-563.99999999999955
 31
0.0
  0
LINE
  8
0
  6
DASHED2
 62
               4
  5
3FA
 10
557.50000000000341
 20
-564.00000000000068
 30
0.0
 11
557.50000000000341
 21
-628.99999999999841
 31
0.0
  0
LINE
  8
0
  6
DASHED2
 62
               4
  5
3FB
 10
488.24000000000092
 20
-548.99999999999955
 30
0.0
 11
488.24000000000092
 21
-540.47387150069233
 31
0.0
  0
LINE
  8
0
  6
DASHED2
 62
               4
  5
3FC
 10
494.12897274573538
 20
-540.47387150069233
 30
0.0
 11
494.12897274573538
 21
-548.99999999999955
 31
0.0
  0
LINE
  8
0
  6
DASHED2
 62
               4
  5
3FD
 10
491.18448637286838
 20
-539.39999999999941
 30
0.0
 11
508.81551362713435
 21
-539.39999999999941
 31
0.0
  0
LINE
  8
0
  6
DASHED2
 62
               4
  5
3FE
 10
511.76000000000136
 20
-548.99999999999955
 30
0.0
 11
511.76000000000136
 21
-540.47387150069233
 31
0.0
  0
LINE
  8
0
  6
DASHED2
 62
               4
  5
3FF
 10
505.87102725426666
 20
-548.99999999999955
 30
0.0
 11
505.87102725426666
 21
-540.47387150069233
 31
0.0
  0
ARC
  8
0
  6
DASHED2
 62
               4
  5
400
 10
491.18448637286838
 20
-543.9737315841154
 30
0.0
 40
4.5737315841157447
 50
49.925579661612304
 51
130.07442033835341
  0
ARC
  8
0
  6
DASHED2
 62
               4
  5
401
 10
508.81551362713435
 20
-543.9737315841154
 30
0.0
 40
4.5737315841157686
 50
49.925579661612304
 51
130.07442033835341
  0
ARC
  8
0
  6
DASHED2
 62
               4
  5
402
 10
500.00000000000114
 20
-555.98585826951989
 30
0.0
 40
16.58585826952007
 50
69.269184858547646
 51
110.73081514141818
  0
LINE
  8
0
  6
DASHED2
 62
               4
  5
403
 10
488.23999999999955
 20
-550.99999999999989
 30
0.0
 11
488.23999999999955
 21
-559.52612849930711
 31
0.0
  0
LINE
  8
0
  6
DASHED2
 62
               4
  5
404
 10
494.12897274573402
 20
-559.52612849930711
 30
0.0
 11
494.12897274573402
 21
-550.99999999999989
 31
0.0
  0
LINE
  8
0
  6
DASHED2
 62
               4
  5
405
 10
491.18448637286701
 20
-560.59999999999968
 30
0.0
 11
508.81551362713253
 21
-560.59999999999968
 31
0.0
  0
LINE
  8
0
  6
DASHED2
 62
               4
  5
406
 10
511.75999999999999
 20
-550.99999999999989
 30
0.0
 11
511.75999999999999
 21
-559.52612849930711
 31
0.0
  0
LINE
  8
0
  6
DASHED2
 62
               4
  5
407
 10
505.87102725426553
 20
-550.99999999999989
 30
0.0
 11
505.87102725426553
 21
-559.52612849930711
 31
0.0
  0
ARC
  8
0
  6
DASHED2
 62
               4
  5
408
 10
491.18448637286701
 20
-556.02626841588426
 30
0.0
 40
4.5737315841157447
 50
229.92557966157796
 51
310.07442033831961
  0
ARC
  8
0
  6
DASHED2
 62
               4
  5
409
 10
508.81551362713253
 20
-556.02626841588426
 30
0.0
 40
4.5737315841157686
 50
229.92557966157852
 51
310.07442033831961
  0
ARC
  8
0
  6
DASHED2
 62
               4
  5
40A
 10
499.99999999999977
 20
-544.01414173047976
 30
0.0
 40
16.58585826952007
 50
249.26918485851303
 51
290.73081514138352
  0
LINE
  8
0
  6
DASHED2
 62
               4
  5
40B
 10
494.00000000000114
 20
-560.59999999999968
 30
0.0
 11
494.00000000000114
 21
-571.1193662423243
 31
0.0
  0
LINE
  8
0
  6
DASHED2
 62
               4
  5
40C
 10
506.00000000000114
 20
-560.59999999999968
 30
0.0
 11
506.00000000000114
 21
-571.1193662423243
 31
0.0
  0
LINE
  8
0
  6
DASHED2
 62
               4
  5
40D
 10
495.20000000000095
 20
-572.31936624232469
 30
0.0
 11
504.80000000000109
 21
-572.31936624232469
 31
0.0
  0
LINE
  8
0
  6
DASHED2
 62
               4
  5
40E
 10
494.00000000000114
 20
-571.1193662423243
 30
0.0
 11
495.20000000000095
 21
-572.31936624232469
 31
0.0
  0
LINE
  8
0
  6
DASHED2
 62
               4
  5
40F
 10
506.00000000000114
 20
-571.1193662423243
 30
0.0
 11
504.80000000000109
 21
-572.31936624232469
 31
0.0
  0
LINE
  8
0
  6
DASHED2
 62
               4
  5
410
 10
488.24000000000092
 20
-548.99999999999955
 30
0.0
 11
511.76000000000136
 21
-548.99999999999955
 31
0.0
  0
LINE
  8
0
  6
DASHED2
 62
               4
  5
411
 10
511.75999999999999
 20
-550.99999999999989
 30
0.0
 11
488.23999999999955
 21
-550.99999999999989
 31
0.0
  0
LINE
  8
0
  6
DASHED2
 62
               4
  5
412
 10
494.00000000000114
 20
-433.93642052407074
 30
0.0
 11
494.00000000000114
 21
-539.39999999999941
 31
0.0
  0
LINE
  8
0
  6
DASHED2
 62
               4
  5
413
 10
506.00000000000114
 20
-433.93642052407074
 30
0.0
 11
506.00000000000114
 21
-539.39999999999941
 31
0.0
  0
LINE
  8
0
  6
DASHED2
 62
               4
  5
414
 10
506.00000000000114
 20
-433.93642052407074
 30
0.0
 11
494.00000000000114
 21
-433.93642052407074
 31
0.0
  0
LINE
  8
0
  6
DASHED2
 62
               4
  5
415
 10
552.28652321630761
 20
-1486.3562982616334
 30
0.0
 11
666.28652321630739
 21
-1486.3562982616334
 31
0.0
  0
ARC
  8
0
  6
DIVIDE
 62
               4
  5
416
 10
-528.50000000000045
 20
-795.93298130416781
 30
0.0
 40
55.0
 50
58.789629707489617
 51
121.21037029250985
  0
ARC
  8
0
  6
DIVIDE
 62
               4
  5
417
 10
-528.50000000000045
 20
-701.85322790313023
 30
0.0
 40
55.0
 50
238.78962970748935
 51
301.21037029250937
  0
ARC
  8
0
  6
DIVIDE
 62
               4
  5
418
 10
-532.50000000000068
 20
-771.39560203944563
 30
0.0
 40
65.0
 50
59.999999999999723
 51
119.99999999999987
  0
ARC
  8
0
  6
DIVIDE
 62
               4
  5
419
 10
-471.50000000000051
 20
-701.85322790313046
 30
0.0
 40
55.0
 50
238.78962970748941
 51
301.21037029250959
  0
ARC
  8
0
  6
DIVIDE
 62
               4
  5
41A
 10
-467.50000000000063
 20
-658.81229954746857
 30
0.0
 40
65.0
 50
239.99999999999966
 51
299.99999999999932
  0
LINE
  8
0
  6
DIVIDE
 62
               4
  5
41B
 10
-557.00000000000045
 20
-711.18970531827711
 30
0.0
 11
-557.00000000000045
 21
-748.89310460364902
 31
0.0
  0
LINE
  8
0
  6
DIVIDE
 62
               4
  5
41C
 10
-443.00000000000051
 20
-719.0181962686371
 30
0.0
 11
-443.00000000000051
 21
-748.89310460364902
 31
0.0
  0
ARC
  8
0
  6
DIVIDE
 62
               4
  5
41D
 10
-532.50000000000068
 20
-658.8122995474688
 30
0.0
 40
65.0
 50
239.99999999999929
 51
247.85677929855132
  0
LINE
  8
0
  6
DIVIDE
 62
               4
  5
41E
 10
-435.00000000000063
 20
-628.99999999999818
 30
0.0
 11
-435.00000000000063
 21
-715.1039507934571
 31
0.0
  0
LINE
  8
0
  6
DIVIDE
 62
               4
  5
41F
 10
-565.00000000000068
 20
-628.99999999999818
 30
0.0
 11
-565.00000000000068
 21
-715.1039507934571
 31
0.0
  0
ARC
  8
0
  6
DIVIDE
 62
               4
  5
420
 10
-28.500000000000966
 20
-795.93298130416792
 30
0.0
 40
55.0
 50
58.789629707489617
 51
121.21037029250985
  0
ARC
  8
0
  6
DIVIDE
 62
               4
  5
421
 10
-28.500000000000966
 20
-701.85322790313035
 30
0.0
 40
55.0
 50
238.78962970748935
 51
301.21037029250937
  0
ARC
  8
0
  6
DIVIDE
 62
               4
  5
422
 10
-32.500000000001023
 20
-771.39560203944575
 30
0.0
 40
65.0
 50
59.999999999999723
 51
119.99999999999987
  0
ARC
  8
0
  6
DIVIDE
 62
               4
  5
423
 10
28.499999999999062
 20
-701.85322790313057
 30
0.0
 40
55.0
 50
238.78962970748941
 51
301.21037029250959
  0
ARC
  8
0
  6
DIVIDE
 62
               4
  5
424
 10
32.499999999998977
 20
-658.81229954746868
 30
0.0
 40
65.0
 50
239.99999999999966
 51
299.99999999999932
  0
LINE
  8
0
  6
DIVIDE
 62
               4
  5
425
 10
-57.000000000000909
 20
-711.18970531827722
 30
0.0
 11
-57.000000000000909
 21
-748.89310460364914
 31
0.0
  0
LINE
  8
0
  6
DIVIDE
 62
               4
  5
426
 10
56.999999999999147
 20
-719.01819626863721
 30
0.0
 11
56.999999999999147
 21
-748.89310460364914
 31
0.0
  0
ARC
  8
0
  6
DIVIDE
 62
               4
  5
427
 10
-32.500000000001023
 20
-658.81229954746891
 30
0.0
 40
65.0
 50
239.99999999999929
 51
247.85677929855132
  0
LINE
  8
0
  6
DIVIDE
 62
               4
  5
428
 10
64.999999999998948
 20
-628.99999999999829
 30
0.0
 11
64.999999999998948
 21
-715.10395079345722
 31
0.0
  0
LINE
  8
0
  6
DIVIDE
 62
               4
  5
429
 10
-65.000000000001023
 20
-628.99999999999829
 30
0.0
 11
-65.000000000001023
 21
-715.10395079345722
 31
0.0
  0
ARC
  8
0
  6
DIVIDE
 62
               4
  5
42A
 10
471.50000000000125
 20
-795.93298130416815
 30
0.0
 40
55.0
 50
58.789629707489617
 51
121.21037029250985
  0
ARC
  8
0
  6
DIVIDE
 62
               4
  5
42B
 10
471.50000000000125
 20
-701.85322790313057
 30
0.0
 40
55.0
 50
238.78962970748935
 51
301.21037029250937
  0
ARC
  8
0
  6
DIVIDE
 62
               4
  5
42C
 10
467.50000000000114
 20
-771.39560203944598
 30
0.0
 40
65.0
 50
59.999999999999723
 51
119.99999999999987
  0
ARC
  8
0
  6
DIVIDE
 62
               4
  5
42D
 10
528.50000000000136
 20
-701.8532279031308
 30
0.0
 40
55.0
 50
238.78962970748941
 51
301.21037029250959
  0
ARC
  8
0
  6
DIVIDE
 62
               4
  5
42E
 10
532.50000000000114
 20
-658.81229954746891
 30
0.0
 40
65.0
 50
239.99999999999966
 51
299.99999999999932
  0
LINE
  8
0
  6
DIVIDE
 62
               4
  5
42F
 10
443.00000000000136
 20
-711.18970531827745
 30
0.0
 11
443.00000000000136
 21
-748.89310460364936
 31
0.0
  0
LINE
  8
0
  6
DIVIDE
 62
               4
  5
430
 10
557.00000000000136
 20
-719.01819626863744
 30
0.0
 11
557.00000000000136
 21
-748.89310460364936
 31
0.0
  0
ARC
  8
0
  6
DIVIDE
 62
               4
  5
431
 10
467.50000000000114
 20
-658.81229954746914
 30
0.0
 40
65.0
 50
239.99999999999929
 51
247.85677929855132
  0
LINE
  8
0
  6
DIVIDE
 62
               4
  5
432
 10
565.00000000000114
 20
-628.99999999999841
 30
0.0
 11
565.00000000000114
 21
-715.10395079345744
 31
0.0
  0
LINE
  8
0
  6
DIVIDE
 62
               4
  5
433
 10
435.00000000000114
 20
-628.99999999999841
 30
0.0
 11
435.00000000000114
 21
-715.10395079345744
 31
0.0
  0
LINE
  8
0
  6
CONTINUOUS
 62
               3
  5
434
 10
54.501218345962783
 20
-548.99999999999943
 30
0.0
 11
-54.501218345963835
 21
-548.99999999999943
 31
0.0
  0
LINE
  8
0
  6
CONTINUOUS
 62
               3
  5
435
 10
-62.999999999999218
 20
-152.68091579493193
 30
0.0
 11
-62.999999999999218
 21
-473.99999999999943
 31
0.0
  0
LINE
  8
0
  6
CONTINUOUS
 62
               3
  5
436
 10
-140.00000000000111
 20
-134.99999999999943
 30
0.0
 11
-139.32844387403688
 21
-134.99999999999943
 31
0.0
  0
LINE
  8
0
  6
CONTINUOUS
 62
               3
  5
437
 10
-137.00000000000099
 20
-137.32844387403441
 30
0.0
 11
-139.32844387403688
 21
-134.99999999999943
 31
0.0
  0
LINE
  8
0
  6
CONTINUOUS
 62
               3
  5
438
 10
-139.32844387403688
 20
-24.999999999999545
 30
0.0
 11
-139.32844387403688
 21
-134.99999999999943
 31
0.0
  0
LINE
  8
0
  6
CONTINUOUS
 62
               3
  5
439
 10
-137.00000000000099
 20
-137.32844387403441
 30
0.0
 11
-137.00000000000099
 21
-22.671556125963662
 31
0.0
  0
LINE
  8
0
  6
CONTINUOUS
 62
               3
  5
43A
 10
-140.00000000000111
 20
-137.32844387403486
 30
0.0
 11
-140.00000000000111
 21
-22.671556125963775
 31
0.0
  0
LINE
  8
0
  6
CONTINUOUS
 62
               3
  5
43B
 10
-145.00000000000111
 20
-25.171556125963775
 30
0.0
 11
-145.00000000000111
 21
-134.82844387403486
 31
0.0
  0
LINE
  8
0
  6
CONTINUOUS
 62
               3
  5
43C
 10
-140.00000000000111
 20
-137.32844387403486
 30
0.0
 11
-142.50000000000111
 21
-137.32844387403486
 31
0.0
  0
ARC
  8
0
  6
CONTINUOUS
 62
               3
  5
43D
 10
-142.50000000000111
 20
-134.82844387403486
 30
0.0
 40
2.5
 50
179.9999999999996
 51
269.99999999999937
  0
LINE
  8
0
  6
CONTINUOUS
 62
               3
  5
43E
 10
-579.99999999999886
 20
-130.53907750402226
 30
0.0
 11
-579.99999999999886
 21
-37.999999999999716
 31
0.0
  0
LINE
  8
0
  6
CONTINUOUS
 62
               3
  5
43F
 10
-359.99999999999932
 20
-134.99999999999932
 30
0.0
 11
-360.67155612596355
 21
-134.99999999999932
 31
0.0
  0
LINE
  8
0
  6
CONTINUOUS
 62
               3
  5
440
 10
-362.99999999999943
 20
-137.32844387403429
 30
0.0
 11
-360.67155612596355
 21
-134.99999999999932
 31
0.0
  0
LINE
  8
0
  6
CONTINUOUS
 62
               3
  5
441
 10
-360.67155612596355
 20
-24.999999999999432
 30
0.0
 11
-360.67155612596355
 21
-134.99999999999932
 31
0.0
  0
LINE
  8
0
  6
CONTINUOUS
 62
               3
  5
442
 10
-362.99999999999943
 20
-137.32844387403429
 30
0.0
 11
-362.99999999999943
 21
-22.671556125963548
 31
0.0
  0
LINE
  8
0
  6
CONTINUOUS
 62
               3
  5
443
 10
-359.99999999999932
 20
-137.32844387403475
 30
0.0
 11
-359.99999999999932
 21
-22.671556125963662
 31
0.0
  0
LINE
  8
0
  6
CONTINUOUS
 62
               3
  5
444
 10
-354.99999999999932
 20
-25.171556125963662
 30
0.0
 11
-354.99999999999932
 21
-134.82844387403475
 31
0.0
  0
LINE
  8
0
  6
CONTINUOUS
 62
               3
  5
445
 10
-359.99999999999932
 20
-137.32844387403475
 30
0.0
 11
-357.49999999999932
 21
-137.32844387403475
 31
0.0
  0
ARC
  8
0
  6
CONTINUOUS
 62
               3
  5
446
 10
-357.49999999999932
 20
-134.82844387403475
 30
0.0
 40
2.5
 50
269.99999999999937
 51
359.9999999999992
  0
LINE
  8
0
  6
CONTINUOUS
 62
               3
  5
447
 10
-562.99999999999875
 20
-151.61014531588711
 30
0.0
 11
-562.99999999999875
 21
-473.99999999999932
 31
0.0
  0
LINE
  8
0
  6
CONTINUOUS
 62
               3
  5
448
 10
-437.00000000000131
 20
-473.99999999999932
 30
0.0
 11
-437.00000000000125
 21
-151.68121312775344
 31
0.0
  0
LINE
  8
0
  6
CONTINUOUS
 62
               3
  5
449
 10
-445.49878165403675
 20
-548.99999999999932
 30
0.0
 11
-554.50121834596337
 21
-548.99999999999932
 31
0.0
  0
LINE
  8
0
  6
CONTINUOUS
 62
               3
  5
44A
 10
579.99999999999795
 20
-130.53907750402226
 30
0.0
 11
579.99999999999795
 21
-37.999999999999716
 31
0.0
  0
LINE
  8
0
  6
CONTINUOUS
 62
               3
  5
44B
 10
359.99999999999841
 20
-134.99999999999932
 30
0.0
 11
360.67155612596264
 21
-134.99999999999932
 31
0.0
  0
LINE
  8
0
  6
CONTINUOUS
 62
               3
  5
44C
 10
362.99999999999852
 20
-137.32844387403429
 30
0.0
 11
360.67155612596264
 21
-134.99999999999932
 31
0.0
  0
LINE
  8
0
  6
CONTINUOUS
 62
               3
  5
44D
 10
360.67155612596264
 20
-24.999999999999432
 30
0.0
 11
360.67155612596264
 21
-134.99999999999932
 31
0.0
  0
LINE
  8
0
  6
CONTINUOUS
 62
               3
  5
44E
 10
362.99999999999852
 20
-137.32844387403429
 30
0.0
 11
362.99999999999852
 21
-22.671556125963548
 31
0.0
  0
LINE
  8
0
  6
CONTINUOUS
 62
               3
  5
44F
 10
359.99999999999841
 20
-137.32844387403475
 30
0.0
 11
359.99999999999841
 21
-22.671556125963662
 31
0.0
  0
LINE
  8
0
  6
CONTINUOUS
 62
               3
  5
450
 10
354.99999999999841
 20
-25.171556125963662
 30
0.0
 11
354.99999999999841
 21
-134.82844387403475
 31
0.0
  0
LINE
  8
0
  6
CONTINUOUS
 62
               3
  5
451
 10
359.99999999999841
 20
-137.32844387403475
 30
0.0
 11
357.49999999999841
 21
-137.32844387403475
 31
0.0
  0
ARC
  8
0
  6
CONTINUOUS
 62
               3
  5
452
 10
357.49999999999841
 20
-134.82844387403475
 30
0.0
 40
2.5
 50
179.9999999999996
 51
269.99999999999937
  0
LINE
  8
0
  6
CONTINUOUS
 62
               3
  5
453
 10
562.99999999999784
 20
-151.61014531588705
 30
0.0
 11
562.99999999999784
 21
-473.99999999999932
 31
0.0
  0
LINE
  8
0
  6
CONTINUOUS
 62
               3
  5
454
 10
437.00000000000034
 20
-473.99999999999932
 30
0.0
 11
437.00000000000034
 21
-151.68121312775344
 31
0.0
  0
LINE
  8
0
  6
CONTINUOUS
 62
               3
  5
455
 10
445.49878165403584
 20
-548.99999999999932
 30
0.0
 11
554.50121834596246
 21
-548.99999999999932
 31
0.0
  0
ARC
  8
0
  6
CONTINUOUS
 62
               3
  5
456
 10
-574.99999999999886
 20
-130.53907750402226
 30
0.0
 40
5.0
 50
179.9999999999996
 51
224.99999999999909
  0
ARC
  8
0
  6
CONTINUOUS
 62
               3
  5
457
 10
-567.99999999999864
 20
-151.68121312775344
 30
0.0
 40
5.0
 50
0.0
 51
44.999999999999318
  0
LINE
  8
0
  6
CONTINUOUS
 62
               3
  5
458
 10
-564.46446609406598
 20
-148.14567922182073
 30
0.0
 11
-578.53553390593152
 21
-134.07461140995497
 31
0.0
  0
LINE
  8
0
  6
CONTINUOUS
 62
               3
  5
459
 10
-435.53553390593396
 20
-149.14538188899917
 30
0.0
 11
-434.8907566858158
 21
-148.50060466888112
 31
0.0
  0
ARC
  8
0
  6
CONTINUOUS
 62
               3
  5
45A
 10
-432.00000000000119
 20
-152.68091579493182
 30
0.0
 40
5.0
 50
135.00000000000085
 51
179.9999999999996
  0
ARC
  8
0
  6
CONTINUOUS
 62
               3
  5
45B
 10
-431.35522277988304
 20
-152.03613857481372
 30
0.0
 40
5.0
 50
92.356258034031569
 51
135.00000000000142
  0
LINE
  8
0
  6
CONTINUOUS
 62
               3
  5
45C
 10
-64.464466094066452
 20
-149.14538188899928
 30
0.0
 11
-65.10924331418461
 21
-148.50060466888124
 31
0.0
  0
ARC
  8
0
  6
CONTINUOUS
 62
               3
  5
45D
 10
-67.999999999999218
 20
-152.68091579493193
 30
0.0
 40
5.0
 50
0.0
 51
44.999999999998749
  0
ARC
  8
0
  6
CONTINUOUS
 62
               3
  5
45E
 10
-68.644777220117376
 20
-152.03613857481383
 30
0.0
 40
5.0
 50
44.999999999998174
 51
87.643741965968047
  0
ARC
  8
0
  6
CONTINUOUS
 62
               3
  5
45F
 10
574.99999999999795
 20
-130.53907750402226
 30
0.0
 40
5.0
 50
314.99999999999972
 51
359.9999999999992
  0
ARC
  8
0
  6
CONTINUOUS
 62
               3
  5
460
 10
567.99999999999784
 20
-151.68121312775344
 30
0.0
 40
5.0
 50
135.00000000000028
 51
179.9999999999996
  0
LINE
  8
0
  6
CONTINUOUS
 62
               3
  5
461
 10
564.46446609406507
 20
-148.14567922182073
 30
0.0
 11
578.53553390593072
 21
-134.07461140995497
 31
0.0
  0
LINE
  8
0
  6
CONTINUOUS
 62
               3
  5
462
 10
435.53553390593311
 20
-149.14538188899917
 30
0.0
 11
434.89075668581495
 21
-148.50060466888112
 31
0.0
  0
ARC
  8
0
  6
CONTINUOUS
 62
               3
  5
463
 10
432.00000000000034
 20
-152.68091579493182
 30
0.0
 40
5.0
 50
0.0
 51
44.999999999998749
  0
ARC
  8
0
  6
CONTINUOUS
 62
               3
  5
464
 10
431.35522277988218
 20
-152.03613857481372
 30
0.0
 40
5.0
 50
44.999999999998174
 51
87.643741965968047
  0
LINE
  8
0
  6
CONTINUOUS
 62
               3
  5
465
 10
-360.0
 20
-24.999999999999588
 30
0.0
 11
-360.67155612596457
 21
-24.999999999999588
 31
0.0
  0
LINE
  8
0
  6
CONTINUOUS
 62
               3
  5
466
 10
-363.17155612596457
 20
-22.499999999999361
 30
0.0
 11
-360.67155612596457
 21
-24.999999999999588
 31
0.0
  0
LINE
  8
0
  6
CONTINUOUS
 62
               3
  5
467
 10
-360.0
 20
-22.399999999999451
 30
0.0
 11
-357.5
 21
-22.399999999999451
 31
0.0
  0
ARC
  8
0
  6
CONTINUOUS
 62
               3
  5
468
 10
-357.5
 20
-24.899999999999451
 30
0.0
 40
2.5
 50
0.0000000000690453
 51
90.000000000034007
  0
LINE
  8
0
  6
CONTINUOUS
 62
               3
  5
469
 10
-140.00000000000051
 20
-24.999999999999645
 30
0.0
 11
-139.32844387403605
 21
-24.999999999999645
 31
0.0
  0
LINE
  8
0
  6
CONTINUOUS
 62
               3
  5
46A
 10
-136.82844387403605
 20
-22.499999999999417
 30
0.0
 11
-139.32844387403605
 21
-24.999999999999645
 31
0.0
  0
LINE
  8
0
  6
CONTINUOUS
 62
               3
  5
46B
 10
-140.00000000000051
 20
-22.399999999999508
 30
0.0
 11
-142.50000000000051
 21
-22.399999999999508
 31
0.0
  0
ARC
  8
0
  6
CONTINUOUS
 62
               3
  5
46C
 10
-142.50000000000051
 20
-24.899999999999508
 30
0.0
 40
2.5
 50
89.999999999965596
 51
179.99999999993054
  0
LINE
  8
0
  6
CONTINUOUS
 62
               3
  5
46D
 10
360.00000000000045
 20
-24.999999999999588
 30
0.0
 11
360.67155612596503
 21
-24.999999999999588
 31
0.0
  0
LINE
  8
0
  6
CONTINUOUS
 62
               3
  5
46E
 10
363.17155612596503
 20
-22.499999999999361
 30
0.0
 11
360.67155612596503
 21
-24.999999999999588
 31
0.0
  0
LINE
  8
0
  6
CONTINUOUS
 62
               3
  5
46F
 10
360.00000000000045
 20
-22.399999999999451
 30
0.0
 11
357.50000000000045
 21
-22.399999999999451
 31
0.0
  0
ARC
  8
0
  6
CONTINUOUS
 62
               3
  5
470
 10
357.50000000000045
 20
-24.899999999999451
 30
0.0
 40
2.5
 50
89.999999999965596
 51
179.99999999993057
  0
LINE
  8
0
  6
CONTINUOUS
 62
               3
  5
471
 10
139.9999999999996
 20
-24.999999999999645
 30
0.0
 11
139.32844387403514
 21
-24.999999999999645
 31
0.0
  0
LINE
  8
0
  6
CONTINUOUS
 62
               3
  5
472
 10
136.82844387403514
 20
-22.499999999999417
 30
0.0
 11
139.32844387403514
 21
-24.999999999999645
 31
0.0
  0
LINE
  8
0
  6
CONTINUOUS
 62
               3
  5
473
 10
139.9999999999996
 20
-22.399999999999508
 30
0.0
 11
142.4999999999996
 21
-22.399999999999508
 31
0.0
  0
ARC
  8
0
  6
CONTINUOUS
 62
               3
  5
474
 10
142.4999999999996
 20
-24.899999999999508
 30
0.0
 40
2.5
 50
0.0000000000690514
 51
90.000000000034021
  0
LINE
  8
0
  6
CONTINUOUS
 62
               3
  5
475
 10
80.499999999999488
 20
215.50000000000077
 30
0.0
 11
80.499999999999488
 21
158.74583035297644
 31
0.0
  0
LINE
  8
0
  6
CONTINUOUS
 62
               3
  5
476
 10
83.499999999999432
 20
154.05447232828496
 30
0.0
 11
83.499999999999432
 21
31.500000000000114
 31
0.0
  0
LINE
  8
0
  6
CONTINUOUS
 62
               3
  5
477
 10
80.499999999999375
 20
158.74583035297661
 30
0.0
 11
83.499999999999432
 21
154.05447232828496
 31
0.0
  0
ARC
  8
0
  6
CONTINUOUS
 62
               3
  5
478
 10
93.499999999999147
 20
21.500000000000114
 30
0.0
 40
5.0
 50
0.0
 51
89.999999999999801
  0
LINE
  8
0
  6
CONTINUOUS
 62
               3
  5
479
 10
93.499999957048715
 20
26.500000000000114
 30
0.0
 11
88.499999999999432
 21
26.500000000000114
 31
0.0
  0
ARC
  8
0
  6
CONTINUOUS
 62
               3
  5
47A
 10
88.499999999999432
 20
31.500000000000114
 30
0.0
 40
5.0
 50
179.9999999999996
 51
269.99999999999937
  0
LINE
  8
0
  6
CONTINUOUS
 62
               3
  5
47B
 10
-83.500000000000341
 20
154.05447232828496
 30
0.0
 11
-83.500000000000341
 21
31.500000000000114
 31
0.0
  0
LINE
  8
0
  6
CONTINUOUS
 62
               3
  5
47C
 10
-80.500000000000284
 20
158.74583035297661
 30
0.0
 11
-83.500000000000341
 21
154.05447232828496
 31
0.0
  0
LINE
  8
0
  6
CONTINUOUS
 62
               3
  5
47D
 10
-80.500000000000398
 20
215.50000000000077
 30
0.0
 11
-80.500000000000398
 21
158.74583035297644
 31
0.0
  0
LINE
  8
0
  6
CONTINUOUS
 62
               3
  5
47E
 10
-98.500000000000057
 20
21.500000000000114
 30
0.0
 11
-98.500000000000057
 21
-7.8330973724613884
 31
0.0
  0
ARC
  8
0
  6
CONTINUOUS
 62
               3
  5
47F
 10
-93.500000000000057
 20
21.500000000000114
 30
0.0
 40
5.0
 50
89.999999999999801
 51
179.9999999999996
  0
LINE
  8
0
  6
CONTINUOUS
 62
               3
  5
480
 10
-93.499999957049624
 20
26.500000000000114
 30
0.0
 11
-88.500000000000341
 21
26.500000000000114
 31
0.0
  0
ARC
  8
0
  6
CONTINUOUS
 62
               3
  5
481
 10
-88.500000000000341
 20
31.500000000000114
 30
0.0
 40
5.0
 50
269.99999999999937
 51
359.9999999999992
  0
LINE
  8
0
  6
CONTINUOUS
 62
               3
  5
482
 10
-128.0000000000004
 20
-144.58957901784476
 30
0.0
 11
-128.0000000000004
 21
-13.691703946503367
 31
0.0
  0
LINE
  8
0
  6
CONTINUOUS
 62
               3
  5
483
 10
-128.0000000000004
 20
-13.691703946503367
 30
0.0
 11
-103.32550251648756
 21
-12.830051507556874
 31
0.0
  0
ARC
  8
0
  6
CONTINUOUS
 62
               3
  5
484
 10
-103.50000000000006
 20
-7.8330973724613884
 30
0.0
 40
5.0
 50
271.99999999999926
 51
359.9999999999992
  0
LINE
  8
0
  6
CONTINUOUS
 62
               3
  5
485
 10
127.99999999999949
 20
-13.691703946503367
 30
0.0
 11
127.99999999999949
 21
-144.58957901784473
 31
0.0
  0
LINE
  8
0
  6
CONTINUOUS
 62
               3
  5
486
 10
127.99999999999949
 20
-13.691703946503367
 30
0.0
 11
103.32550251648667
 21
-12.830051507556874
 31
0.0
  0
ARC
  8
0
  6
CONTINUOUS
 62
               3
  5
487
 10
103.49999999999915
 20
-7.8330973724613884
 30
0.0
 40
5.0
 50
179.9999999999996
 51
267.99999999999955
  0
LINE
  8
0
  6
CONTINUOUS
 62
               3
  5
488
 10
98.499999999999147
 20
21.500000000000114
 30
0.0
 11
98.499999999999147
 21
-7.8330973724613884
 31
0.0
  0
LINE
  8
0
  6
CONTINUOUS
 62
               3
  5
489
 10
-419.5
 20
215.50000000000026
 30
0.0
 11
-419.5
 21
158.74583035297593
 31
0.0
  0
LINE
  8
0
  6
CONTINUOUS
 62
               3
  5
48A
 10
-416.50000000000023
 20
154.05447232828445
 30
0.0
 11
-416.50000000000023
 21
31.499999999999602
 31
0.0
  0
LINE
  8
0
  6
CONTINUOUS
 62
               3
  5
48B
 10
-419.50000000000023
 20
158.7458303529761
 30
0.0
 11
-416.50000000000023
 21
154.05447232828445
 31
0.0
  0
ARC
  8
0
  6
CONTINUOUS
 62
               3
  5
48C
 10
-406.50000000000045
 20
21.499999999999602
 30
0.0
 40
5.0
 50
0.0
 51
89.999999999999801
  0
LINE
  8
0
  6
CONTINUOUS
 62
               3
  5
48D
 10
-406.50000004295089
 20
26.499999999999602
 30
0.0
 11
-411.50000000000023
 21
26.499999999999602
 31
0.0
  0
ARC
  8
0
  6
CONTINUOUS
 62
               3
  5
48E
 10
-411.50000000000023
 20
31.499999999999602
 30
0.0
 40
5.0
 50
179.9999999999996
 51
269.99999999999937
  0
LINE
  8
0
  6
CONTINUOUS
 62
               3
  5
48F
 10
-583.5
 20
154.05447232828445
 30
0.0
 11
-583.5
 21
31.499999999999602
 31
0.0
  0
LINE
  8
0
  6
CONTINUOUS
 62
               3
  5
490
 10
-580.49999999999977
 20
158.7458303529761
 30
0.0
 11
-583.5
 21
154.05447232828445
 31
0.0
  0
LINE
  8
0
  6
CONTINUOUS
 62
               3
  5
491
 10
-580.5
 20
215.50000000000026
 30
0.0
 11
-580.5
 21
158.74583035297593
 31
0.0
  0
ARC
  8
0
  6
CONTINUOUS
 62
               3
  5
492
 10
-593.49999999999955
 20
21.499999999999602
 30
0.0
 40
5.0
 50
89.999999999999801
 51
179.9999999999996
  0
LINE
  8
0
  6
CONTINUOUS
 62
               3
  5
493
 10
-593.49999995704911
 20
26.499999999999602
 30
0.0
 11
-588.5
 21
26.499999999999602
 31
0.0
  0
ARC
  8
0
  6
CONTINUOUS
 62
               3
  5
494
 10
-588.5
 20
31.499999999999602
 30
0.0
 40
5.0
 50
269.99999999999937
 51
359.9999999999992
  0
ARC
  8
0
  6
CONTINUOUS
 62
               3
  5
495
 10
-396.50000000000045
 20
-7.8330973724619
 30
0.0
 40
5.0
 50
179.9999999999996
 51
267.99999999999955
  0
LINE
  8
0
  6
CONTINUOUS
 62
               3
  5
496
 10
-401.50000000000045
 20
21.499999999999602
 30
0.0
 11
-401.50000000000045
 21
-7.8330973724619
 31
0.0
  0
LINE
  8
0
  6
CONTINUOUS
 62
               3
  5
497
 10
-372.0
 20
-13.691703946503878
 30
0.0
 11
-396.67449748351282
 21
-12.830051507557386
 31
0.0
  0
LINE
  8
0
  6
CONTINUOUS
 62
               3
  5
498
 10
580.50000000000045
 20
215.50000000000026
 30
0.0
 11
580.50000000000045
 21
158.74583035297593
 31
0.0
  0
LINE
  8
0
  6
CONTINUOUS
 62
               3
  5
499
 10
583.50000000000023
 20
154.05447232828445
 30
0.0
 11
583.50000000000023
 21
31.499999999999602
 31
0.0
  0
LINE
  8
0
  6
CONTINUOUS
 62
               3
  5
49A
 10
580.50000000000023
 20
158.7458303529761
 30
0.0
 11
583.50000000000023
 21
154.05447232828445
 31
0.0
  0
ARC
  8
0
  6
CONTINUOUS
 62
               3
  5
49B
 10
593.5
 20
21.499999999999602
 30
0.0
 40
5.0
 50
0.0
 51
89.999999999999801
  0
LINE
  8
0
  6
CONTINUOUS
 62
               3
  5
49C
 10
593.49999995704957
 20
26.499999999999602
 30
0.0
 11
588.50000000000023
 21
26.499999999999602
 31
0.0
  0
ARC
  8
0
  6
CONTINUOUS
 62
               3
  5
49D
 10
588.50000000000023
 20
31.499999999999602
 30
0.0
 40
5.0
 50
179.9999999999996
 51
269.99999999999937
  0
LINE
  8
0
  6
CONTINUOUS
 62
               3
  5
49E
 10
416.50000000000045
 20
154.05447232828445
 30
0.0
 11
416.50000000000045
 21
31.499999999999602
 31
0.0
  0
LINE
  8
0
  6
CONTINUOUS
 62
               3
  5
49F
 10
419.50000000000068
 20
158.7458303529761
 30
0.0
 11
416.50000000000045
 21
154.05447232828445
 31
0.0
  0
LINE
  8
0
  6
CONTINUOUS
 62
               3
  5
4A0
 10
419.50000000000045
 20
215.50000000000026
 30
0.0
 11
419.50000000000045
 21
158.74583035297593
 31
0.0
  0
LINE
  8
0
  6
CONTINUOUS
 62
               3
  5
4A1
 10
401.50000000000091
 20
21.499999999999602
 30
0.0
 11
401.50000000000091
 21
-7.8330973724619
 31
0.0
  0
ARC
  8
0
  6
CONTINUOUS
 62
               3
  5
4A2
 10
406.50000000000091
 20
21.499999999999602
 30
0.0
 40
5.0
 50
89.999999999999801
 51
179.9999999999996
  0
LINE
  8
0
  6
CONTINUOUS
 62
               3
  5
4A3
 10
406.50000004295134
 20
26.499999999999602
 30
0.0
 11
411.50000000000045
 21
26.499999999999602
 31
0.0
  0
ARC
  8
0
  6
CONTINUOUS
 62
               3
  5
4A4
 10
411.50000000000045
 20
31.499999999999602
 30
0.0
 40
5.0
 50
269.99999999999937
 51
359.9999999999992
  0
LINE
  8
0
  6
CONTINUOUS
 62
               3
  5
4A5
 10
372.00000000000045
 20
-22.191703946503878
 30
0.0
 11
372.00000000000045
 21
-144.58957901784467
 31
0.0
  0
LINE
  8
0
  6
CONTINUOUS
 62
               3
  5
4A6
 10
372.00000000000045
 20
-13.691703946503878
 30
0.0
 11
396.67449748351328
 21
-12.830051507557386
 31
0.0
  0
ARC
  8
0
  6
CONTINUOUS
 62
               3
  5
4A7
 10
396.50000000000091
 20
-7.8330973724619
 30
0.0
 40
5.0
 50
271.99999999999926
 51
359.9999999999992
  0
LINE
  8
0
  6
CONTINUOUS
 62
               3
  5
4A8
 10
593.50000000000045
 20
-32.999999999999716
 30
0.0
 11
584.99999999999795
 21
-32.999999999999716
 31
0.0
  0
ARC
  8
0
  6
CONTINUOUS
 62
               3
  5
4A9
 10
593.50000000000045
 20
-27.999999999999716
 30
0.0
 40
5.0
 50
269.99999999999937
 51
359.9999999999992
  0
LINE
  8
0
  6
CONTINUOUS
 62
               3
  5
4AA
 10
598.50000000000045
 20
21.500000000000057
 30
0.0
 11
598.50000000000045
 21
-27.999999999999716
 31
0.0
  0
LINE
  8
0
  6
CONTINUOUS
 62
               3
  5
4AB
 10
-593.5
 20
-32.999999999999716
 30
0.0
 11
-584.99999999999886
 21
-32.999999999999716
 31
0.0
  0
ARC
  8
0
  6
CONTINUOUS
 62
               3
  5
4AC
 10
-593.5
 20
-27.999999999999716
 30
0.0
 40
5.0
 50
179.9999999999996
 51
269.99999999999937
  0
LINE
  8
0
  6
CONTINUOUS
 62
               3
  5
4AD
 10
-598.5
 20
21.500000000000057
 30
0.0
 11
-598.5
 21
-27.999999999999716
 31
0.0
  0
LINE
  8
0
  6
CONTINUOUS
 62
               3
  5
4AE
 10
140.00000000000026
 20
-134.9999999999994
 30
0.0
 11
139.32844387403603
 21
-134.9999999999994
 31
0.0
  0
LINE
  8
0
  6
CONTINUOUS
 62
               3
  5
4AF
 10
137.00000000000014
 20
-137.32844387403438
 30
0.0
 11
139.32844387403603
 21
-134.9999999999994
 31
0.0
  0
LINE
  8
0
  6
CONTINUOUS
 62
               3
  5
4B0
 10
140.00000000000026
 20
-137.32844387403483
 30
0.0
 11
142.50000000000026
 21
-137.32844387403483
 31
0.0
  0
ARC
  8
0
  6
CONTINUOUS
 62
               3
  5
4B1
 10
142.50000000000026
 20
-134.82844387403483
 30
0.0
 40
2.5
 50
269.99999999999937
 51
359.9999999999992
  0
LINE
  8
0
  6
CONTINUOUS
 62
               3
  5
4B2
 10
64.464466094065585
 20
-149.14538188899928
 30
0.0
 11
65.109243314183743
 21
-148.50060466888124
 31
0.0
  0
ARC
  8
0
  6
CONTINUOUS
 62
               3
  5
4B3
 10
67.999999999998352
 20
-152.68091579493193
 30
0.0
 40
5.0
 50
135.00000000000088
 51
179.9999999999996
  0
ARC
  8
0
  6
CONTINUOUS
 62
               3
  5
4B4
 10
68.644777220116509
 20
-152.03613857481383
 30
0.0
 40
5.0
 50
92.356258034031583
 51
135.00000000000142
  0
LINE
  8
0
  6
CONTINUOUS
 62
               3
  5
4B5
 10
139.328443874036
 20
-24.999999999999527
 30
0.0
 11
139.32844387403603
 21
-134.9999999999994
 31
0.0
  0
LINE
  8
0
  6
CONTINUOUS
 62
               3
  5
4B6
 10
137.00000000000014
 20
-137.32844387403438
 30
0.0
 11
137.00000000000011
 21
-22.671556125963644
 31
0.0
  0
LINE
  8
0
  6
CONTINUOUS
 62
               3
  5
4B7
 10
140.00000000000026
 20
-137.32844387403483
 30
0.0
 11
140.00000000000023
 21
-22.671556125963757
 31
0.0
  0
LINE
  8
0
  6
CONTINUOUS
 62
               3
  5
4B8
 10
145.00000000000023
 20
-25.171556125963757
 30
0.0
 11
145.00000000000026
 21
-134.82844387403483
 31
0.0
  0
LINE
  8
0
  6
CONTINUOUS
 62
               3
  5
4B9
 10
-140.00000000000054
 20
601.00000000000057
 30
0.0
 11
-139.32844387403631
 21
601.00000000000057
 31
0.0
  0
LINE
  8
0
  6
CONTINUOUS
 62
               3
  5
4BA
 10
-136.82844387403586
 20
598.50000000000057
 30
0.0
 11
-139.32844387403631
 21
601.00000000000057
 31
0.0
  0
LINE
  8
0
  6
CONTINUOUS
 62
               3
  5
4BB
 10
-140.00000000000054
 20
711.00000000000057
 30
0.0
 11
-139.32844387403631
 21
711.00000000000057
 31
0.0
  0
LINE
  8
0
  6
CONTINUOUS
 62
               3
  5
4BC
 10
-136.82844387403631
 20
713.50000000000057
 30
0.0
 11
-139.32844387403631
 21
711.00000000000057
 31
0.0
  0
LINE
  8
0
  6
CONTINUOUS
 62
               3
  5
4BD
 10
-139.32844387403631
 20
711.00000000000057
 30
0.0
 11
-139.32844387403631
 21
601.00000000000057
 31
0.0
  0
LINE
  8
0
  6
CONTINUOUS
 62
               3
  5
4BE
 10
-145.00000000000054
 20
711.10000000000355
 30
0.0
 11
-145.00000000000054
 21
600.90000000000055
 31
0.0
  0
LINE
  8
0
  6
CONTINUOUS
 62
               3
  5
4BF
 10
-140.00000000000054
 20
598.40000000000055
 30
0.0
 11
-140.00000000000054
 21
713.60000000000059
 31
0.0
  0
LINE
  8
0
  6
CONTINUOUS
 62
               3
  5
4C0
 10
-140.00000000000054
 20
713.60000000000059
 30
0.0
 11
-142.50000000000054
 21
713.60000000000059
 31
0.0
  0
LINE
  8
0
  6
CONTINUOUS
 62
               3
  5
4C1
 10
-140.00000000000054
 20
598.40000000000055
 30
0.0
 11
-142.50000000000054
 21
598.40000000000055
 31
0.0
  0
ARC
  8
0
  6
CONTINUOUS
 62
               3
  5
4C2
 10
-142.50000000000054
 20
600.90000000000055
 30
0.0
 40
2.5
 50
179.99999999993088
 51
269.99999999989649
  0
ARC
  8
0
  6
CONTINUOUS
 62
               3
  5
4C3
 10
-142.50000000000054
 20
711.10000000000059
 30
0.0
 40
2.5
 50
89.999999999965596
 51
179.99999999993088
  0
LINE
  8
0
  6
CONTINUOUS
 62
               3
  5
4C4
 10
-136.82844387403586
 20
598.50000000000057
 30
0.0
 11
-136.82844387403631
 21
713.50000000000057
 31
0.0
  0
LINE
  8
0
  6
CONTINUOUS
 62
               3
  5
4C5
 10
139.99999999999963
 20
601.00000000000057
 30
0.0
 11
139.3284438740354
 21
601.00000000000057
 31
0.0
  0
LINE
  8
0
  6
CONTINUOUS
 62
               3
  5
4C6
 10
136.82844387403495
 20
598.50000000000057
 30
0.0
 11
139.3284438740354
 21
601.00000000000057
 31
0.0
  0
LINE
  8
0
  6
CONTINUOUS
 62
               3
  5
4C7
 10
139.99999999999963
 20
711.00000000000057
 30
0.0
 11
139.3284438740354
 21
711.00000000000057
 31
0.0
  0
LINE
  8
0
  6
CONTINUOUS
 62
               3
  5
4C8
 10
136.8284438740354
 20
713.50000000000057
 30
0.0
 11
139.3284438740354
 21
711.00000000000057
 31
0.0
  0
LINE
  8
0
  6
CONTINUOUS
 62
               3
  5
4C9
 10
139.3284438740354
 20
711.00000000000057
 30
0.0
 11
139.3284438740354
 21
601.00000000000057
 31
0.0
  0
LINE
  8
0
  6
CONTINUOUS
 62
               3
  5
4CA
 10
144.99999999999963
 20
711.10000000000355
 30
0.0
 11
144.99999999999963
 21
600.90000000000055
 31
0.0
  0
LINE
  8
0
  6
CONTINUOUS
 62
               3
  5
4CB
 10
139.99999999999963
 20
598.40000000000055
 30
0.0
 11
139.99999999999963
 21
713.60000000000059
 31
0.0
  0
LINE
  8
0
  6
CONTINUOUS
 62
               3
  5
4CC
 10
139.99999999999963
 20
713.60000000000059
 30
0.0
 11
142.49999999999963
 21
713.60000000000059
 31
0.0
  0
LINE
  8
0
  6
CONTINUOUS
 62
               3
  5
4CD
 10
139.99999999999963
 20
598.40000000000055
 30
0.0
 11
142.49999999999963
 21
598.40000000000055
 31
0.0
  0
ARC
  8
0
  6
CONTINUOUS
 62
               3
  5
4CE
 10
142.49999999999963
 20
600.90000000000055
 30
0.0
 40
2.5
 50
270.00000000010232
 51
360.00000000006793
  0
ARC
  8
0
  6
CONTINUOUS
 62
               3
  5
4CF
 10
142.49999999999963
 20
711.10000000000059
 30
0.0
 40
2.5
 50
0.0000000000687324
 51
90.000000000034007
  0
LINE
  8
0
  6
CONTINUOUS
 62
               3
  5
4D0
 10
136.82844387403495
 20
598.50000000000057
 30
0.0
 11
136.8284438740354
 21
713.50000000000057
 31
0.0
  0
LINE
  8
0
  6
CONTINUOUS
 62
               3
  5
4D1
 10
54.999999999999403
 20
516.00000000000034
 30
0.0
 11
54.999999999999403
 21
516.67155612596457
 31
0.0
  0
LINE
  8
0
  6
CONTINUOUS
 62
               3
  5
4D2
 10
57.499999999999403
 20
519.17155612596503
 30
0.0
 11
54.999999999999403
 21
516.67155612596457
 31
0.0
  0
LINE
  8
0
  6
CONTINUOUS
 62
               3
  5
4D3
 10
-55.000000000000597
 20
516.00000000000034
 30
0.0
 11
-55.000000000000597
 21
516.67155612596457
 31
0.0
  0
LINE
  8
0
  6
CONTINUOUS
 62
               3
  5
4D4
 10
-57.500000000000597
 20
519.17155612596457
 30
0.0
 11
-55.000000000000597
 21
516.67155612596457
 31
0.0
  0
LINE
  8
0
  6
CONTINUOUS
 62
               3
  5
4D5
 10
-55.000000000000597
 20
516.67155612596457
 30
0.0
 11
54.999999999999403
 21
516.67155612596457
 31
0.0
  0
LINE
  8
0
  6
CONTINUOUS
 62
               3
  5
4D6
 10
-55.100000000003575
 20
511.00000000000034
 30
0.0
 11
55.099999999999426
 21
511.00000000000034
 31
0.0
  0
LINE
  8
0
  6
CONTINUOUS
 62
               3
  5
4D7
 10
57.599999999999426
 20
516.00000000000034
 30
0.0
 11
-57.60000000000062
 21
516.00000000000034
 31
0.0
  0
LINE
  8
0
  6
CONTINUOUS
 62
               3
  5
4D8
 10
-57.60000000000062
 20
516.00000000000034
 30
0.0
 11
-57.60000000000062
 21
513.50000000000034
 31
0.0
  0
LINE
  8
0
  6
CONTINUOUS
 62
               3
  5
4D9
 10
57.599999999999426
 20
516.00000000000034
 30
0.0
 11
57.599999999999426
 21
513.50000000000034
 31
0.0
  0
ARC
  8
0
  6
CONTINUOUS
 62
               3
  5
4DA
 10
55.099999999999426
 20
513.50000000000034
 30
0.0
 40
2.5
 50
269.99999999993065
 51
359.99999999989632
  0
ARC
  8
0
  6
CONTINUOUS
 62
               3
  5
4DB
 10
-55.10000000000062
 20
513.50000000000034
 30
0.0
 40
2.5
 50
179.99999999996541
 51
269.99999999993065
  0
LINE
  8
0
  6
CONTINUOUS
 62
               3
  5
4DC
 10
57.499999999999403
 20
519.17155612596503
 30
0.0
 11
-57.500000000000597
 21
519.17155612596457
 31
0.0
  0
LINE
  8
0
  6
CONTINUOUS
 62
               3
  5
4DD
 10
-128.00000000000045
 20
598.19170394650462
 30
0.0
 11
-128.00000000000045
 21
722.30829605349663
 31
0.0
  0
LINE
  8
0
  6
CONTINUOUS
 62
               3
  5
4DE
 10
-128.00000000000045
 20
722.30829605349663
 30
0.0
 11
-90.139068516982221
 21
723.63042891455802
 31
0.0
  0
LINE
  8
0
  6
CONTINUOUS
 62
               3
  5
4DF
 10
-128.00000000000045
 20
598.19170394650428
 30
0.0
 11
-128.00000000000045
 21
589.69170394650428
 31
0.0
  0
LINE
  8
0
  6
CONTINUOUS
 62
               3
  5
4E0
 10
-128.00000000000045
 20
589.69170394650428
 30
0.0
 11
-90.139068516982221
 21
588.36957108544289
 31
0.0
  0
LINE
  8
0
  6
CONTINUOUS
 62
               3
  5
4E1
 10
66.308296053495695
 20
528.00000000000023
 30
0.0
 11
67.630428914557086
 21
565.86093148301836
 31
0.0
  0
LINE
  8
0
  6
CONTINUOUS
 62
               3
  5
4E2
 10
57.808296053495695
 20
528.00000000000023
 30
0.0
 11
66.308296053495695
 21
528.00000000000023
 31
0.0
  0
LINE
  8
0
  6
CONTINUOUS
 62
               3
  5
4E3
 10
-66.308296053496662
 20
528.00000000000023
 30
0.0
 11
-67.630428914558053
 21
565.86093148301848
 31
0.0
  0
LINE
  8
0
  6
CONTINUOUS
 62
               3
  5
4E4
 10
57.808296053495432
 20
528.00000000000023
 30
0.0
 11
-66.308296053496662
 21
528.00000000000023
 31
0.0
  0
LINE
  8
0
  6
CONTINUOUS
 62
               3
  5
4E5
 10
127.99999999999955
 20
598.1917039465045
 30
0.0
 11
127.99999999999955
 21
722.30829605349663
 31
0.0
  0
LINE
  8
0
  6
CONTINUOUS
 62
               3
  5
4E6
 10
127.99999999999955
 20
589.69170394650428
 30
0.0
 11
90.139068516981311
 21
588.36957108544289
 31
0.0
  0
LINE
  8
0
  6
CONTINUOUS
 62
               3
  5
4E7
 10
127.99999999999955
 20
722.30829605349663
 30
0.0
 11
90.139068516981311
 21
723.63042891455802
 31
0.0
  0
LINE
  8
0
  6
CONTINUOUS
 62
               3
  5
4E8
 10
127.99999999999955
 20
598.19170394650428
 30
0.0
 11
127.99999999999955
 21
589.69170394650428
 31
0.0
  0
LINE
  8
0
  6
CONTINUOUS
 62
               3
  5
4E9
 10
62.999999999998366
 20
-152.68091579493193
 30
0.0
 11
62.999999999998366
 21
-473.99999999999943
 31
0.0
  0
ARC
  8
0
  6
CONTINUOUS
 62
               3
  5
4EA
 10
584.99999999999795
 20
-37.999999999999716
 30
0.0
 40
5.0
 50
89.999999999999801
 51
179.9999999999996
  0
ARC
  8
0
  6
CONTINUOUS
 62
               3
  5
4EB
 10
-584.99999999999886
 20
-37.999999999999716
 30
0.0
 40
5.0
 50
0.0
 51
89.999999999999801
  0
LINE
  8
0
  6
CONTINUOUS
 62
               3
  5
4EC
 10
-574.99999999999955
 20
246.00000000000057
 30
0.0
 11
-425.00000000000023
 21
246.00000000000057
 31
0.0
  0
LINE
  8
0
  6
CONTINUOUS
 62
               3
  5
4ED
 10
-588.49999999999977
 20
236.00000000000057
 30
0.0
 11
-588.49999999999977
 21
229.00000000000091
 31
0.0
  0
LINE
  8
0
  6
CONTINUOUS
 62
               3
  5
4EE
 10
-588.49999999999977
 20
236.00000000000057
 30
0.0
 11
-574.99999999999955
 21
246.00000000000057
 31
0.0
  0
LINE
  8
0
  6
CONTINUOUS
 62
               3
  5
4EF
 10
-411.5
 20
236.00000000000057
 30
0.0
 11
-411.5
 21
229.00000000000091
 31
0.0
  0
LINE
  8
0
  6
CONTINUOUS
 62
               3
  5
4F0
 10
-411.5
 20
236.00000000000057
 30
0.0
 11
-425.00000000000023
 21
246.00000000000057
 31
0.0
  0
ARC
  8
0
  6
CONTINUOUS
 62
               3
  5
4F1
 10
-585.49999999999955
 20
224.00000000000091
 30
0.0
 40
5.0
 50
0.0000000000000079
 51
89.999999999999815
  0
LINE
  8
0
  6
CONTINUOUS
 62
               3
  5
4F2
 10
-588.49999999999977
 20
229.00000000000091
 30
0.0
 11
-585.49999999999955
 21
229.00000000000091
 31
0.0
  0
ARC
  8
0
  6
CONTINUOUS
 62
               3
  5
4F3
 10
-414.49999999999955
 20
224.00000000000091
 30
0.0
 40
5.0
 50
89.999999999999801
 51
179.9999999999996
  0
LINE
  8
0
  6
CONTINUOUS
 62
               3
  5
4F4
 10
-411.5
 20
229.00000000000091
 30
0.0
 11
-414.49999999999955
 21
229.00000000000091
 31
0.0
  0
LINE
  8
0
  6
CONTINUOUS
 62
               3
  5
4F5
 10
-580.49999999999955
 20
224.00000000000091
 30
0.0
 11
-580.49999999999977
 21
215.50000000000102
 31
0.0
  0
LINE
  8
0
  6
CONTINUOUS
 62
               3
  5
4F6
 10
-419.49999999999955
 20
224.00000000000091
 30
0.0
 11
-419.49999999999955
 21
215.50000000000102
 31
0.0
  0
LINE
  8
0
  6
CONTINUOUS
 62
               3
  5
4F7
 10
-75.0
 20
246.00000000000057
 30
0.0
 11
74.999999999999318
 21
246.00000000000057
 31
0.0
  0
LINE
  8
0
  6
CONTINUOUS
 62
               3
  5
4F8
 10
-88.500000000000227
 20
236.00000000000057
 30
0.0
 11
-88.500000000000227
 21
229.00000000000091
 31
0.0
  0
LINE
  8
0
  6
CONTINUOUS
 62
               3
  5
4F9
 10
-88.500000000000227
 20
236.00000000000057
 30
0.0
 11
-75.0
 21
246.00000000000057
 31
0.0
  0
LINE
  8
0
  6
CONTINUOUS
 62
               3
  5
4FA
 10
88.499999999999545
 20
236.00000000000057
 30
0.0
 11
88.499999999999545
 21
229.00000000000091
 31
0.0
  0
LINE
  8
0
  6
CONTINUOUS
 62
               3
  5
4FB
 10
88.499999999999545
 20
236.00000000000057
 30
0.0
 11
74.999999999999318
 21
246.00000000000057
 31
0.0
  0
ARC
  8
0
  6
CONTINUOUS
 62
               3
  5
4FC
 10
-85.5
 20
224.00000000000091
 30
0.0
 40
5.0
 50
0.0000000000000079
 51
89.999999999999815
  0
LINE
  8
0
  6
CONTINUOUS
 62
               3
  5
4FD
 10
-88.500000000000227
 20
229.00000000000091
 30
0.0
 11
-85.5
 21
229.00000000000091
 31
0.0
  0
ARC
  8
0
  6
CONTINUOUS
 62
               3
  5
4FE
 10
85.5
 20
224.00000000000091
 30
0.0
 40
5.0
 50
89.999999999999801
 51
179.9999999999996
  0
LINE
  8
0
  6
CONTINUOUS
 62
               3
  5
4FF
 10
88.499999999999545
 20
229.00000000000091
 30
0.0
 11
85.5
 21
229.00000000000091
 31
0.0
  0
LINE
  8
0
  6
CONTINUOUS
 62
               3
  5
500
 10
-80.5
 20
224.00000000000091
 30
0.0
 11
-80.500000000000227
 21
215.50000000000102
 31
0.0
  0
LINE
  8
0
  6
CONTINUOUS
 62
               3
  5
501
 10
80.5
 20
224.00000000000091
 30
0.0
 11
80.5
 21
215.50000000000102
 31
0.0
  0
LINE
  8
0
  6
CONTINUOUS
 62
               3
  5
502
 10
425.00000000000091
 20
246.00000000000057
 30
0.0
 11
575.00000000000023
 21
246.00000000000057
 31
0.0
  0
LINE
  8
0
  6
CONTINUOUS
 62
               3
  5
503
 10
411.50000000000068
 20
236.00000000000057
 30
0.0
 11
411.50000000000068
 21
229.00000000000091
 31
0.0
  0
LINE
  8
0
  6
CONTINUOUS
 62
               3
  5
504
 10
411.50000000000068
 20
236.00000000000057
 30
0.0
 11
425.00000000000091
 21
246.00000000000057
 31
0.0
  0
LINE
  8
0
  6
CONTINUOUS
 62
               3
  5
505
 10
588.50000000000045
 20
236.00000000000057
 30
0.0
 11
588.50000000000045
 21
229.00000000000091
 31
0.0
  0
LINE
  8
0
  6
CONTINUOUS
 62
               3
  5
506
 10
588.50000000000045
 20
236.00000000000057
 30
0.0
 11
575.00000000000023
 21
246.00000000000057
 31
0.0
  0
ARC
  8
0
  6
CONTINUOUS
 62
               3
  5
507
 10
414.50000000000091
 20
224.00000000000091
 30
0.0
 40
5.0
 50
0.0000000000000079
 51
89.999999999999815
  0
LINE
  8
0
  6
CONTINUOUS
 62
               3
  5
508
 10
411.50000000000068
 20
229.00000000000091
 30
0.0
 11
414.50000000000091
 21
229.00000000000091
 31
0.0
  0
ARC
  8
0
  6
CONTINUOUS
 62
               3
  5
509
 10
585.50000000000091
 20
224.00000000000091
 30
0.0
 40
5.0
 50
89.999999999999801
 51
179.9999999999996
  0
LINE
  8
0
  6
CONTINUOUS
 62
               3
  5
50A
 10
588.50000000000045
 20
229.00000000000091
 30
0.0
 11
585.50000000000091
 21
229.00000000000091
 31
0.0
  0
LINE
  8
0
  6
CONTINUOUS
 62
               3
  5
50B
 10
419.50000000000091
 20
224.00000000000091
 30
0.0
 11
419.50000000000068
 21
215.50000000000102
 31
0.0
  0
LINE
  8
0
  6
CONTINUOUS
 62
               3
  5
50C
 10
580.50000000000091
 20
224.00000000000091
 30
0.0
 11
580.50000000000091
 21
215.50000000000102
 31
0.0
  0
LINE
  8
0
  6
CONTINUOUS
 62
               3
  5
50D
 10
-74.270810292854549
 20
745.22822024331231
 30
0.0
 11
-12.239976031155262
 21
753.74351385116438
 31
0.0
  0
LINE
  8
0
  6
CONTINUOUS
 62
               3
  5
50E
 10
12.239976031154701
 20
753.74351385116438
 30
0.0
 11
74.270810292853582
 21
745.22822024331231
 31
0.0
  0
ARC
  8
0
  6
CONTINUOUS
 62
               3
  5
50F
 10
-0.0000000000002807
 20
664.57971521765649
 30
0.0
 40
90.0
 50
82.183566393529617
 51
97.816433606469985
  0
LINE
  8
0
  6
CONTINUOUS
 62
               3
  5
510
 10
97.743513851163584
 20
668.23997603115549
 30
0.0
 11
89.228220243311227
 21
730.27081029285478
 31
0.0
  0
ARC
  8
0
  6
CONTINUOUS
 62
               3
  5
511
 10
8.5797152176556359
 20
656.00000000000045
 30
0.0
 40
90.0
 50
352.18356639352902
 51
367.81643360646939
  0
LINE
  8
0
  6
CONTINUOUS
 62
               3
  5
512
 10
89.228220243311227
 20
581.72918970714613
 30
0.0
 11
97.743513851163584
 21
643.76002396884542
 31
0.0
  0
LINE
  8
0
  6
CONTINUOUS
 62
               3
  5
513
 10
-74.270810292854435
 20
566.77177975668837
 30
0.0
 11
-12.239976031155262
 21
558.2564861488363
 31
0.0
  0
ARC
  8
0
  6
CONTINUOUS
 62
               3
  5
514
 10
-0.0000000000002807
 20
647.42028478234442
 30
0.0
 40
90.0
 50
262.18356639352925
 51
277.81643360646956
  0
ARC
  8
0
  6
CONTINUOUS
 62
               3
  5
515
 10
-71.890814953463405
 20
727.89081495346363
 30
0.0
 40
17.5
 50
97.816433606469786
 51
172.18356639352822
  0
ARC
  8
0
  6
CONTINUOUS
 62
               3
  5
516
 10
71.890814953462439
 20
727.89081495346386
 30
0.0
 40
17.5
 50
7.8164336064694764
 51
82.183566393529688
  0
ARC
  8
0
  6
CONTINUOUS
 62
               3
  5
517
 10
71.890814953462495
 20
584.10918504653728
 30
0.0
 40
17.5
 50
277.8164336064695
 51
352.18356639352879
  0
ARC
  8
0
  6
CONTINUOUS
 62
               3
  5
518
 10
-71.890814953463291
 20
584.10918504653705
 30
0.0
 40
17.5
 50
187.81643360647089
 51
262.18356639352965
  0
LINE
  8
0
  6
CONTINUOUS
 62
               3
  5
519
 10
-97.743513851164337
 20
668.23997603115561
 30
0.0
 11
-89.228220243311924
 21
730.27081029285489
 31
0.0
  0
LINE
  8
0
  6
CONTINUOUS
 62
               3
  5
51A
 10
-89.228220243312052
 20
581.72918970714625
 30
0.0
 11
-97.743513851164366
 21
643.76002396884553
 31
0.0
  0
ARC
  8
0
  6
CONTINUOUS
 62
               3
  5
51B
 10
-8.5797152176563998
 20
656.00000000000045
 30
0.0
 40
90.0
 50
172.18356639352936
 51
187.81643360646973
  0
LINE
  8
0
  6
CONTINUOUS
 62
               3
  5
51C
 10
74.270810292853582
 20
566.77177975668826
 30
0.0
 11
12.239976031154395
 21
558.2564861488363
 31
0.0
  0
ARC
  8
0
  6
CONTINUOUS
 62
               3
  5
51D
 10
-47.60486395799127
 20
584.37753894523644
 30
0.0
 40
2.5
 50
56.38944847047263
 51
87.999999999999659
  0
ARC
  8
0
  6
CONTINUOUS
 62
               3
  5
51E
 10
-0.0000000000004405
 20
656.00000000000045
 30
0.0
 40
88.5
 50
76.938975885066696
 51
103.06102411465771
  0
ARC
  8
0
  6
CONTINUOUS
 62
               3
  5
51F
 10
-35.000000000000668
 20
738.91561975888533
 30
0.0
 40
15.0
 50
292.88538047615845
 51
359.9999999999992
  0
ARC
  8
0
  6
CONTINUOUS
 62
               3
  5
520
 10
34.999999999999616
 20
738.91561975888544
 30
0.0
 40
15.0
 50
179.9999999999996
 51
247.11461952384028
  0
LINE
  8
0
  6
CONTINUOUS
 62
               3
  5
521
 10
-20.000000000000441
 20
737.06941470123036
 30
0.0
 11
-20.000000000000441
 21
742.21049820062512
 31
0.0
  0
LINE
  8
0
  6
CONTINUOUS
 62
               3
  5
522
 10
19.999999999999559
 20
738.91561975888544
 30
0.0
 11
19.999999999999559
 21
742.21049820062512
 31
0.0
  0
CIRCLE
  8
0
  6
CONTINUOUS
 62
               3
  5
523
 10
-0.0000000000004405
 20
656.00000000000045
 30
0.0
 40
75.0
  0
ARC
  8
0
  6
CONTINUOUS
 62
               3
  5
524
 10
-0.0000000000004405
 20
656.00000000000045
 30
0.0
 40
80.500000000000043
 50
105.06541275409911
 51
165.61435521395379
  0
ARC
  8
0
  6
CONTINUOUS
 62
               3
  5
525
 10
-0.0000000000004405
 20
656.00000000000045
 30
0.0
 40
80.500000000000043
 50
195.06541275409879
 51
254.93458724590025
  0
ARC
  8
0
  6
CONTINUOUS
 62
               3
  5
526
 10
-0.0000000000004405
 20
656.00000000000045
 30
0.0
 40
88.5
 50
166.9389758851697
 51
193.06102411476073
  0
ARC
  8
0
  6
CONTINUOUS
 62
               3
  5
527
 10
-82.915619758885427
 20
691.00000000000045
 30
0.0
 40
15.0
 50
269.99999999999937
 51
337.11461952384042
  0
LINE
  8
0
  6
CONTINUOUS
 62
               3
  5
528
 10
-86.21049820062602
 20
636.00000000000045
 30
0.0
 11
-82.915619758885427
 21
636.00000000000045
 31
0.0
  0
LINE
  8
0
  6
CONTINUOUS
 62
               3
  5
529
 10
-86.21049820062602
 20
676.00000000000045
 30
0.0
 11
-81.069414701230343
 21
676.00000000000045
 31
0.0
  0
ARC
  8
0
  6
CONTINUOUS
 62
               3
  5
52A
 10
-82.915619758885427
 20
621.00000000000045
 30
0.0
 40
15.0
 50
22.885380476158275
 51
89.999999999999801
  0
ARC
  8
0
  6
CONTINUOUS
 62
               3
  5
52B
 10
-0.0000000000004405
 20
656.00000000000034
 30
0.0
 40
88.5
 50
256.93897588513505
 51
283.06102411472608
  0
ARC
  8
0
  6
CONTINUOUS
 62
               3
  5
52C
 10
34.999999999999503
 20
573.08438024111547
 30
0.0
 40
15.0
 50
112.88538047615847
 51
179.9999999999996
  0
ARC
  8
0
  6
CONTINUOUS
 62
               3
  5
52D
 10
-35.000000000000441
 20
573.08438024111547
 30
0.0
 40
15.0
 50
359.9999999999992
 51
427.11461952384082
  0
LINE
  8
0
  6
CONTINUOUS
 62
               3
  5
52E
 10
19.999999999999559
 20
569.7895017993751
 30
0.0
 11
19.999999999999559
 21
573.08438024111547
 31
0.0
  0
LINE
  8
0
  6
CONTINUOUS
 62
               3
  5
52F
 10
-20.000000000000441
 20
569.7895017993751
 30
0.0
 11
-20.000000000000441
 21
573.08438024111547
 31
0.0
  0
ARC
  8
0
  6
CONTINUOUS
 62
               3
  5
530
 10
-0.0000000000004405
 20
656.00000000000045
 30
0.0
 40
88.5
 50
346.93897588510055
 51
373.06102411469152
  0
LINE
  8
0
  6
CONTINUOUS
 62
               3
  5
531
 10
82.91561975888456
 20
636.00000000000045
 30
0.0
 11
86.210498200624471
 21
636.00000000000045
 31
0.0
  0
LINE
  8
0
  6
CONTINUOUS
 62
               3
  5
532
 10
82.91561975888456
 20
676.00000000000045
 30
0.0
 11
86.210498200624471
 21
676.00000000000045
 31
0.0
  0
ARC
  8
0
  6
CONTINUOUS
 62
               3
  5
533
 10
82.91561975888456
 20
691.00000000000045
 30
0.0
 40
15.0
 50
202.88538047615819
 51
269.99999999999937
  0
ARC
  8
0
  6
CONTINUOUS
 62
               3
  5
534
 10
82.91561975888456
 20
621.00000000000045
 30
0.0
 40
15.0
 50
89.999999999999801
 51
157.11461952384118
  0
ARC
  8
0
  6
CONTINUOUS
 62
               3
  5
535
 10
-0.0000000000004405
 20
656.00000000000045
 30
0.0
 40
80.500000000000043
 50
15.065412754099194
 51
74.934587245900573
  0
ARC
  8
0
  6
CONTINUOUS
 62
               3
  5
536
 10
-0.0000000000004405
 20
656.00000000000045
 30
0.0
 40
80.500000000000043
 50
285.06541275409853
 51
344.93458724589999
  0
ARC
  8
0
  6
CONTINUOUS
 62
               3
  5
537
 10
-0.0000000000003411
 20
656.00000000000045
 30
0.0
 40
83.499999999999901
 50
236.38944847047227
 51
256.14173134482377
  0
ARC
  8
0
  6
CONTINUOUS
 62
               3
  5
538
 10
-48.393892694184842
 20
730.09643142489256
 30
0.0
 40
5.0
 50
271.99999999999955
 51
303.14937354333676
  0
ARC
  8
0
  6
CONTINUOUS
 62
               3
  5
539
 10
-0.0000000000003411
 20
656.00000000000045
 30
0.0
 40
83.499999999999901
 50
103.85826865517538
 51
166.14173134482405
  0
ARC
  8
0
  6
CONTINUOUS
 62
               3
  5
53A
 10
-0.0000000000003411
 20
656.00000000000045
 30
0.0
 40
83.499999999999901
 50
103.06102411480029
 51
166.14173134482405
  0
ARC
  8
0
  6
CONTINUOUS
 62
               3
  5
53B
 10
-0.0000000000003411
 20
656.00000000000045
 30
0.0
 40
83.499999999999901
 50
193.85826865517515
 51
256.14173134482377
  0
ARC
  8
0
  6
CONTINUOUS
 62
               3
  5
53C
 10
-0.0000000000003411
 20
656.00000000000045
 30
0.0
 40
83.499999999999901
 50
193.85826865517515
 51
236.38944847047227
  0
ARC
  8
0
  6
CONTINUOUS
 62
               3
  5
53D
 10
-74.096431424892174
 20
607.60610730580538
 30
0.0
 40
5.0
 50
2.0000000000036473
 51
33.149373543343351
  0
ARC
  8
0
  6
CONTINUOUS
 62
               3
  5
53E
 10
74.096431424891648
 20
607.60610730581766
 30
0.0
 40
5.0
 50
146.85062645666321
 51
178.00000000000117
  0
ARC
  8
0
  6
CONTINUOUS
 62
               3
  5
53F
 10
-0.0000000000003411
 20
656.00000000000045
 30
0.0
 40
83.499999999999901
 50
13.85826865517557
 51
76.141731344824237
  0
ARC
  8
0
  6
CONTINUOUS
 62
               3
  5
540
 10
-0.0000000000003411
 20
656.00000000000045
 30
0.0
 40
83.499999999999901
 50
283.06102411479992
 51
346.1417313448236
  0
LINE
  8
0
  6
CONTINUOUS
 62
               3
  5
541
 10
372.00000000000045
 20
-144.58957901784467
 30
0.0
 11
431.56078712958288
 21
-147.04036603214007
 31
0.0
  0
LINE
  8
0
  6
CONTINUOUS
 62
               3
  5
542
 10
-128.0000000000004
 20
-144.58957901784476
 30
0.0
 11
-68.439212870416625
 21
-147.04036603214018
 31
0.0
  0
LINE
  8
0
  6
CONTINUOUS
 62
               3
  5
543
 10
127.99999999999949
 20
-144.58957901784473
 30
0.0
 11
68.439212870415759
 21
-147.04036603214018
 31
0.0
  0
LINE
  8
0
  6
CONTINUOUS
 62
               3
  5
544
 10
-372.0
 20
-144.58957901784464
 30
0.0
 11
-431.56078712958379
 21
-147.04036603214007
 31
0.0
  0
LINE
  8
0
  6
CONTINUOUS
 62
               3
  5
545
 10
-372.0
 20
-13.691703946503878
 30
0.0
 11
-372.0
 21
-144.58957901784464
 31
0.0
  0
LINE
  8
0
  6
CONTINUOUS
 62
               3
  5
546
 10
-562.00000000000068
 20
-628.99999999999818
 30
0.0
 11
-562.00000000000068
 21
-613.99999999999909
 31
0.0
  0
LINE
  8
0
  6
CONTINUOUS
 62
               3
  5
547
 10
-565.00000000000068
 20
-628.99999999999818
 30
0.0
 11
-435.00000000000063
 21
-628.99999999999818
 31
0.0
  0
LINE
  8
0
  6
CONTINUOUS
 62
               3
  5
548
 10
-516.0
 20
-614.99999999999807
 30
0.0
 11
-483.9999999999996
 21
-614.99999999999761
 31
0.0
  0
ARC
  8
0
  6
CONTINUOUS
 62
               3
  5
549
 10
-575.99999999999977
 20
-609.99999999999909
 30
0.0
 40
4.0
 50
179.99999999996601
 51
269.99999999994901
  0
LINE
  8
0
  6
CONTINUOUS
 62
               3
  5
54A
 10
-579.99999999999977
 20
-609.99999999999909
 30
0.0
 11
-579.99999999999955
 21
-591.49999999999886
 31
0.0
  0
LINE
  8
0
  6
CONTINUOUS
 62
               3
  5
54B
 10
-516.0
 20
-613.99999999999841
 30
0.0
 11
-576.00000000000318
 21
-613.99999999999909
 31
0.0
  0
LINE
  8
0
  6
CONTINUOUS
 62
               3
  5
54C
 10
-516.0
 20
-591.49999999999829
 30
0.0
 11
-579.99999999999977
 21
-591.49999999999886
 31
0.0
  0
LINE
  8
0
  6
CONTINUOUS
 62
               3
  5
54D
 10
-483.9999999999996
 20
-613.99999999999841
 30
0.0
 11
-424.00000000000165
 21
-613.99999999999909
 31
0.0
  0
LINE
  8
0
  6
CONTINUOUS
 62
               3
  5
54E
 10
-483.9999999999996
 20
-591.49999999999841
 30
0.0
 11
-420.00000000000142
 21
-591.49999999999886
 31
0.0
  0
LINE
  8
0
  6
CONTINUOUS
 62
               3
  5
54F
 10
-438.00000000000074
 20
-628.99999999999818
 30
0.0
 11
-438.00000000000074
 21
-613.99999999999909
 31
0.0
  0
ARC
  8
0
  6
CONTINUOUS
 62
               3
  5
550
 10
-424.00000000000153
 20
-609.99999999999909
 30
0.0
 40
4.0
 50
270.00000000004979
 51
360.0000000000328
  0
LINE
  8
0
  6
CONTINUOUS
 62
               3
  5
551
 10
-420.00000000000142
 20
-609.99999999999909
 30
0.0
 11
-420.00000000000165
 21
-591.49999999999886
 31
0.0
  0
LINE
  8
0
  6
CONTINUOUS
 62
               3
  5
552
 10
-516.0
 20
-483.0
 30
0.0
 11
-516.0
 21
-614.99999999999807
 31
0.0
  0
LINE
  8
0
  6
CONTINUOUS
 62
               3
  5
553
 10
-483.9999999999996
 20
-614.99999999999761
 30
0.0
 11
-484.00000000000006
 21
-483.0
 31
0.0
  0
LINE
  8
0
  6
CONTINUOUS
 62
               3
  5
554
 10
-516.00000000000068
 20
-483.0
 30
0.0
 11
-484.00000000000063
 21
-483.0
 31
0.0
  0
LINE
  8
0
  6
CONTINUOUS
 62
               3
  5
555
 10
-516.0
 20
-549.99999999999886
 30
0.0
 11
-483.9999999999996
 21
-549.99999999999886
 31
0.0
  0
LINE
  8
0
  6
CONTINUOUS
 62
               3
  5
556
 10
-516.0
 20
-548.99999999999909
 30
0.0
 11
-483.9999999999996
 21
-548.99999999999909
 31
0.0
  0
LINE
  8
0
  6
CONTINUOUS
 62
               3
  5
557
 10
-516.0
 20
-550.99999999999909
 30
0.0
 11
-483.9999999999996
 21
-550.99999999999909
 31
0.0
  0
LINE
  8
0
  6
CONTINUOUS
 62
               3
  5
558
 10
-556.50000000000023
 20
-483.99999999999932
 30
0.0
 11
-443.50000000000006
 21
-483.99999999999932
 31
0.0
  0
ARC
  8
0
  6
CONTINUOUS
 62
               3
  5
559
 10
-576.0
 20
-488.0
 30
0.0
 40
4.0
 50
89.999999999982236
 51
179.99999999996518
  0
LINE
  8
0
  6
CONTINUOUS
 62
               3
  5
55A
 10
-580.0
 20
-487.99999999999761
 30
0.0
 11
-580.00000000000023
 21
-507.0
 31
0.0
  0
LINE
  8
0
  6
CONTINUOUS
 62
               3
  5
55B
 10
-516.0
 20
-483.99999999999943
 30
0.0
 11
-576.0
 21
-484.0
 31
0.0
  0
LINE
  8
0
  6
CONTINUOUS
 62
               3
  5
55C
 10
-580.00000000000023
 20
-507.0
 30
0.0
 11
-516.0
 21
-507.0
 31
0.0
  0
LINE
  8
0
  6
CONTINUOUS
 62
               3
  5
55D
 10
-484.00000000000006
 20
-483.99999999999943
 30
0.0
 11
-421.00000000000028
 21
-484.0
 31
0.0
  0
LINE
  8
0
  6
CONTINUOUS
 62
               3
  5
55E
 10
-420.00000000000006
 20
-507.0
 30
0.0
 11
-484.00000000000006
 21
-507.0
 31
0.0
  0
ARC
  8
0
  6
CONTINUOUS
 62
               3
  5
55F
 10
-424.00000000000119
 20
-488.0
 30
0.0
 40
4.0
 50
0.0000000000344079
 51
90.000000000017366
  0
LINE
  8
0
  6
CONTINUOUS
 62
               3
  5
560
 10
-420.00000000000119
 20
-487.99999999999761
 30
0.0
 11
-420.00000000000097
 21
-507.0
 31
0.0
  0
LINE
  8
0
  6
CONTINUOUS
 62
               3
  5
561
 10
-577.00000000000023
 20
-507.0
 30
0.0
 11
-577.00000000000068
 21
-591.49999999999886
 31
0.0
  0
LINE
  8
0
  6
CONTINUOUS
 62
               3
  5
562
 10
-423.00000000000097
 20
-507.0
 30
0.0
 11
-423.00000000000051
 21
-591.49999999999886
 31
0.0
  0
LINE
  8
0
  6
CONTINUOUS
 62
               3
  5
563
 10
-562.99999999999886
 20
-473.99999999999932
 30
0.0
 11
-437.00000000000131
 21
-473.99999999999932
 31
0.0
  0
LINE
  8
0
  6
CONTINUOUS
 62
               3
  5
564
 10
-445.4987816540368
 20
-548.99999999999932
 30
0.0
 11
-443.50000000000006
 21
-547.06979899340422
 31
0.0
  0
LINE
  8
0
  6
CONTINUOUS
 62
               3
  5
565
 10
-554.50121834596348
 20
-548.99999999999932
 30
0.0
 11
-556.50000000000023
 21
-547.06979899340422
 31
0.0
  0
LINE
  8
0
  6
CONTINUOUS
 62
               3
  5
566
 10
-445.4987816540368
 20
-548.99999999999932
 30
0.0
 11
-554.50121834596348
 21
-548.99999999999932
 31
0.0
  0
LINE
  8
0
  6
CONTINUOUS
 62
               3
  5
567
 10
-562.99999999999886
 20
-458.99999999999932
 30
0.0
 11
-436.99999999999915
 21
-458.99999999999932
 31
0.0
  0
LINE
  8
0
  6
CONTINUOUS
 62
               3
  5
568
 10
-556.50000000000023
 20
-473.99999999999932
 30
0.0
 11
-556.50000000000023
 21
-547.06979899340422
 31
0.0
  0
LINE
  8
0
  6
CONTINUOUS
 62
               3
  5
569
 10
-443.50000000000006
 20
-473.99999999999932
 30
0.0
 11
-443.50000000000006
 21
-547.06979899340422
 31
0.0
  0
LINE
  8
0
  6
CONTINUOUS
 62
               3
  5
56A
 10
54.501218345962997
 20
-548.99999999999943
 30
0.0
 11
56.499999999999744
 21
-547.06979899340433
 31
0.0
  0
LINE
  8
0
  6
CONTINUOUS
 62
               3
  5
56B
 10
-54.501218345963622
 20
-548.99999999999943
 30
0.0
 11
-56.500000000000369
 21
-547.06979899340433
 31
0.0
  0
LINE
  8
0
  6
CONTINUOUS
 62
               3
  5
56C
 10
54.501218345962997
 20
-548.99999999999943
 30
0.0
 11
-54.501218345963622
 21
-548.99999999999943
 31
0.0
  0
LINE
  8
0
  6
CONTINUOUS
 62
               3
  5
56D
 10
-62.99999999999919
 20
-473.99999999999943
 30
0.0
 11
62.999999999998337
 21
-473.99999999999943
 31
0.0
  0
LINE
  8
0
  6
CONTINUOUS
 62
               3
  5
56E
 10
-56.500000000000554
 20
-483.99999999999943
 30
0.0
 11
56.499999999999559
 21
-483.99999999999943
 31
0.0
  0
LINE
  8
0
  6
CONTINUOUS
 62
               3
  5
56F
 10
-62.999999999999332
 20
-458.99999999999943
 30
0.0
 11
63.000000000000469
 21
-458.99999999999943
 31
0.0
  0
LINE
  8
0
  6
CONTINUOUS
 62
               3
  5
570
 10
-56.500000000000554
 20
-473.99999999999943
 30
0.0
 11
-56.500000000000554
 21
-547.06979899340433
 31
0.0
  0
LINE
  8
0
  6
CONTINUOUS
 62
               3
  5
571
 10
56.499999999999559
 20
-473.99999999999943
 30
0.0
 11
56.499999999999559
 21
-547.06979899340433
 31
0.0
  0
LINE
  8
0
  6
CONTINUOUS
 62
               3
  5
572
 10
-62.000000000001194
 20
-628.99999999999829
 30
0.0
 11
-62.000000000001194
 21
-613.9999999999992
 31
0.0
  0
LINE
  8
0
  6
CONTINUOUS
 62
               3
  5
573
 10
-65.000000000001023
 20
-628.99999999999829
 30
0.0
 11
64.999999999998948
 21
-628.99999999999829
 31
0.0
  0
ARC
  8
0
  6
CONTINUOUS
 62
               3
  5
574
 10
-76.000000000000398
 20
-488.00000000000011
 30
0.0
 40
4.0
 50
89.999999999982236
 51
179.99999999996518
  0
ARC
  8
0
  6
CONTINUOUS
 62
               3
  5
575
 10
-79.000000000000369
 20
-485.00000000000011
 30
0.0
 40
1.0000000000000004
 50
89.999999999981483
 51
179.99999999996524
  0
ARC
  8
0
  6
CONTINUOUS
 62
               3
  5
576
 10
-79.000000000000369
 20
-485.00000000000011
 30
0.0
 40
1.9999999999999996
 50
89.999999999983004
 51
179.99999999996524
  0
LINE
  8
0
  6
CONTINUOUS
 62
               3
  5
577
 10
-81.000000000000398
 20
-485.00000000000011
 30
0.0
 11
-81.000000000000966
 21
-547.99999999999898
 31
0.0
  0
LINE
  8
0
  6
CONTINUOUS
 62
               3
  5
578
 10
-80.000000000000597
 20
-485.00000000000011
 30
0.0
 11
-80.000000000001165
 21
-547.99999999999898
 31
0.0
  0
ARC
  8
0
  6
CONTINUOUS
 62
               3
  5
579
 10
-82.000000000000909
 20
-547.99999999999898
 30
0.0
 40
1.9999999999999996
 50
269.99999999994748
 51
359.99999999993048
  0
ARC
  8
0
  6
CONTINUOUS
 62
               3
  5
57A
 10
-82.000000000000909
 20
-547.99999999999898
 30
0.0
 40
1.0000000000000004
 50
269.99999999994748
 51
359.99999999993048
  0
LINE
  8
0
  6
CONTINUOUS
 62
               3
  5
57B
 10
-82.000000000000909
 20
-549.99999999999898
 30
0.0
 11
-145.00000000000102
 21
-549.99999999999943
 31
0.0
  0
LINE
  8
0
  6
CONTINUOUS
 62
               3
  5
57C
 10
-82.000000000000909
 20
-548.99999999999898
 30
0.0
 11
-145.00000000000102
 21
-548.99999999999943
 31
0.0
  0
LINE
  8
0
  6
CONTINUOUS
 62
               3
  5
57D
 10
-65.000000000000597
 20
-483.00000000000011
 30
0.0
 11
-79.000000000000369
 21
-483.00000000000011
 31
0.0
  0
LINE
  8
0
  6
CONTINUOUS
 62
               3
  5
57E
 10
-0.0000000000004565
 20
-483.99999999999943
 30
0.0
 11
-79.000000000000369
 21
-484.00000000000011
 31
0.0
  0
LINE
  8
0
  6
CONTINUOUS
 62
               3
  5
57F
 10
-65.000000000000597
 20
-483.00000000000011
 30
0.0
 11
-65.000000000000597
 21
-484.0
 31
0.0
  0
LINE
  8
0
  6
CONTINUOUS
 62
               3
  5
580
 10
-65.000000000000028
 20
-614.99999999999898
 30
0.0
 11
-78.999999999999943
 21
-614.9999999999992
 31
0.0
  0
ARC
  8
0
  6
CONTINUOUS
 62
               3
  5
581
 10
-78.999999999999943
 20
-612.9999999999992
 30
0.0
 40
1.0000000000000004
 50
179.99999999996601
 51
269.99999999994748
  0
ARC
  8
0
  6
CONTINUOUS
 62
               3
  5
582
 10
-78.999999999999943
 20
-612.9999999999992
 30
0.0
 40
1.9999999999999996
 50
179.99999999996601
 51
269.99999999994901
  0
ARC
  8
0
  6
CONTINUOUS
 62
               3
  5
583
 10
-76.000000000000114
 20
-609.9999999999992
 30
0.0
 40
4.0
 50
179.99999999996601
 51
269.99999999994901
  0
LINE
  8
0
  6
CONTINUOUS
 62
               3
  5
584
 10
-65.000000000000028
 20
-614.99999999999898
 30
0.0
 11
-65.000000000000028
 21
-613.9999999999992
 31
0.0
  0
LINE
  8
0
  6
CONTINUOUS
 62
               3
  5
585
 10
-81.000000000000114
 20
-612.9999999999992
 30
0.0
 11
-81.000000000000966
 21
-551.99999999999898
 31
0.0
  0
LINE
  8
0
  6
CONTINUOUS
 62
               3
  5
586
 10
-80.000000000000028
 20
-612.9999999999992
 30
0.0
 11
-80.000000000001023
 21
-551.99999999999898
 31
0.0
  0
LINE
  8
0
  6
CONTINUOUS
 62
               3
  5
587
 10
-0.000000000001025
 20
-613.99999999999829
 30
0.0
 11
-78.999999999999943
 21
-613.9999999999992
 31
0.0
  0
LINE
  8
0
  6
CONTINUOUS
 62
               3
  5
588
 10
-0.000000000001025
 20
-591.49999999999829
 30
0.0
 11
-80.000000000000171
 21
-591.49999999999898
 31
0.0
  0
ARC
  8
0
  6
CONTINUOUS
 62
               3
  5
589
 10
-82.000000000000909
 20
-551.99999999999898
 30
0.0
 40
1.9999999999999996
 50
0.000000000001145
 51
89.999999999983004
  0
ARC
  8
0
  6
CONTINUOUS
 62
               3
  5
58A
 10
-82.000000000000909
 20
-551.99999999999898
 30
0.0
 40
1.0000000000000004
 50
0.0000000000007633
 51
89.999999999984539
  0
LINE
  8
0
  6
CONTINUOUS
 62
               3
  5
58B
 10
-82.000000000000909
 20
-550.99999999999898
 30
0.0
 11
-145.00000000000102
 21
-550.99999999999943
 31
0.0
  0
LINE
  8
0
  6
CONTINUOUS
 62
               3
  5
58C
 10
-80.000000000000597
 20
-507.00000000000011
 30
0.0
 11
-0.0000000000004565
 21
-507.00000000000011
 31
0.0
  0
LINE
  8
0
  6
CONTINUOUS
 62
               3
  5
58D
 10
-77.000000000000625
 20
-507.00000000000011
 30
0.0
 11
-77.000000000001194
 21
-591.49999999999898
 31
0.0
  0
LINE
  8
0
  6
CONTINUOUS
 62
               3
  5
58E
 10
-145.00000000000102
 20
-548.99999999999943
 30
0.0
 11
-145.00000000000102
 21
-549.99999999999943
 31
0.0
  0
LINE
  8
0
  6
CONTINUOUS
 62
               3
  5
58F
 10
-145.00000000000102
 20
-550.99999999999943
 30
0.0
 11
-145.00000000000102
 21
-549.99999999999943
 31
0.0
  0
LINE
  8
0
  6
CONTINUOUS
 62
               3
  5
590
 10
-87.250000000000966
 20
-547.49999999999898
 30
0.0
 11
-94.750000000000966
 21
-547.49999999999898
 31
0.0
  0
LINE
  8
0
  6
CONTINUOUS
 62
               3
  5
591
 10
-87.250000000000966
 20
-552.49999999999898
 30
0.0
 11
-94.750000000000966
 21
-552.4999999999992
 31
0.0
  0
LINE
  8
0
  6
CONTINUOUS
 62
               3
  5
592
 10
-87.250000000000966
 20
-547.49999999999898
 30
0.0
 11
-87.250000000000966
 21
-548.99999999999898
 31
0.0
  0
LINE
  8
0
  6
CONTINUOUS
 62
               3
  5
593
 10
-87.250000000000966
 20
-550.99999999999898
 30
0.0
 11
-87.250000000000966
 21
-552.49999999999898
 31
0.0
  0
LINE
  8
0
  6
CONTINUOUS
 62
               3
  5
594
 10
-94.750000000000966
 20
-547.49999999999898
 30
0.0
 11
-94.750000000000966
 21
-548.99999999999898
 31
0.0
  0
LINE
  8
0
  6
CONTINUOUS
 62
               3
  5
595
 10
-94.750000000000966
 20
-550.9999999999992
 30
0.0
 11
-94.750000000000966
 21
-552.4999999999992
 31
0.0
  0
ARC
  8
0
  6
CONTINUOUS
 62
               3
  5
596
 10
75.999999999999346
 20
-488.00000000000011
 30
0.0
 40
4.0
 50
0.0000000000344079
 51
90.000000000017366
  0
ARC
  8
0
  6
CONTINUOUS
 62
               3
  5
597
 10
78.999999999999289
 20
-485.00000000000011
 30
0.0
 40
1.0000000000000004
 50
0.000000000034357
 51
90.000000000018133
  0
ARC
  8
0
  6
CONTINUOUS
 62
               3
  5
598
 10
78.999999999999289
 20
-485.00000000000011
 30
0.0
 40
1.9999999999999996
 50
0.000000000034357
 51
90.000000000016598
  0
LINE
  8
0
  6
CONTINUOUS
 62
               3
  5
599
 10
80.999999999999346
 20
-485.00000000000011
 30
0.0
 11
80.999999999998778
 21
-547.99999999999898
 31
0.0
  0
LINE
  8
0
  6
CONTINUOUS
 62
               3
  5
59A
 10
79.999999999999517
 20
-485.00000000000011
 30
0.0
 11
79.999999999998948
 21
-547.99999999999898
 31
0.0
  0
ARC
  8
0
  6
CONTINUOUS
 62
               3
  5
59B
 10
81.999999999998835
 20
-547.99999999999898
 30
0.0
 40
1.9999999999999996
 50
180.0000000000683
 51
270.00000000005133
  0
ARC
  8
0
  6
CONTINUOUS
 62
               3
  5
59C
 10
81.999999999998835
 20
-547.99999999999898
 30
0.0
 40
1.0000000000000004
 50
180.0000000000683
 51
270.00000000005133
  0
LINE
  8
0
  6
CONTINUOUS
 62
               3
  5
59D
 10
81.999999999998835
 20
-549.99999999999898
 30
0.0
 11
144.99999999999895
 21
-549.99999999999943
 31
0.0
  0
LINE
  8
0
  6
CONTINUOUS
 62
               3
  5
59E
 10
81.999999999998835
 20
-548.99999999999898
 30
0.0
 11
144.99999999999895
 21
-548.99999999999943
 31
0.0
  0
LINE
  8
0
  6
CONTINUOUS
 62
               3
  5
59F
 10
64.999999999999517
 20
-483.00000000000011
 30
0.0
 11
78.999999999999289
 21
-483.00000000000011
 31
0.0
  0
LINE
  8
0
  6
CONTINUOUS
 62
               3
  5
5A0
 10
-0.0000000000004565
 20
-483.99999999999943
 30
0.0
 11
78.999999999999289
 21
-484.00000000000011
 31
0.0
  0
LINE
  8
0
  6
CONTINUOUS
 62
               3
  5
5A1
 10
64.999999999999517
 20
-483.00000000000011
 30
0.0
 11
64.999999999999517
 21
-484.0
 31
0.0
  0
LINE
  8
0
  6
CONTINUOUS
 62
               3
  5
5A2
 10
64.999999999997812
 20
-614.99999999999898
 30
0.0
 11
78.999999999997868
 21
-614.9999999999992
 31
0.0
  0
ARC
  8
0
  6
CONTINUOUS
 62
               3
  5
5A3
 10
78.999999999997868
 20
-612.9999999999992
 30
0.0
 40
1.0000000000000004
 50
270.00000000005133
 51
360.0000000000328
  0
ARC
  8
0
  6
CONTINUOUS
 62
               3
  5
5A4
 10
78.999999999997868
 20
-612.9999999999992
 30
0.0
 40
1.9999999999999996
 50
270.00000000004979
 51
360.0000000000328
  0
ARC
  8
0
  6
CONTINUOUS
 62
               3
  5
5A5
 10
75.999999999997925
 20
-609.9999999999992
 30
0.0
 40
4.0
 50
270.00000000004979
 51
360.0000000000328
  0
LINE
  8
0
  6
CONTINUOUS
 62
               3
  5
5A6
 10
64.999999999997812
 20
-614.99999999999898
 30
0.0
 11
64.999999999997812
 21
-613.9999999999992
 31
0.0
  0
LINE
  8
0
  6
CONTINUOUS
 62
               3
  5
5A7
 10
80.999999999997755
 20
-612.9999999999992
 30
0.0
 11
80.999999999998778
 21
-551.99999999999898
 31
0.0
  0
LINE
  8
0
  6
CONTINUOUS
 62
               3
  5
5A8
 10
79.999999999997812
 20
-612.9999999999992
 30
0.0
 11
79.999999999998835
 21
-551.99999999999898
 31
0.0
  0
LINE
  8
0
  6
CONTINUOUS
 62
               3
  5
5A9
 10
-0.000000000001025
 20
-613.99999999999829
 30
0.0
 11
78.999999999997868
 21
-613.9999999999992
 31
0.0
  0
LINE
  8
0
  6
CONTINUOUS
 62
               3
  5
5AA
 10
-0.000000000001025
 20
-591.49999999999829
 30
0.0
 11
79.999999999998096
 21
-591.49999999999898
 31
0.0
  0
ARC
  8
0
  6
CONTINUOUS
 62
               3
  5
5AB
 10
81.999999999998835
 20
-551.99999999999898
 30
0.0
 40
1.9999999999999996
 50
90.000000000016598
 51
179.99999999999847
  0
ARC
  8
0
  6
CONTINUOUS
 62
               3
  5
5AC
 10
81.999999999998835
 20
-551.99999999999898
 30
0.0
 40
1.0000000000000004
 50
90.000000000015078
 51
179.99999999999883
  0
LINE
  8
0
  6
CONTINUOUS
 62
               3
  5
5AD
 10
81.999999999998835
 20
-550.99999999999898
 30
0.0
 11
144.99999999999895
 21
-550.99999999999943
 31
0.0
  0
LINE
  8
0
  6
CONTINUOUS
 62
               3
  5
5AE
 10
79.999999999999517
 20
-507.00000000000011
 30
0.0
 11
-0.0000000000004565
 21
-507.00000000000011
 31
0.0
  0
LINE
  8
0
  6
CONTINUOUS
 62
               3
  5
5AF
 10
76.999999999999403
 20
-507.00000000000011
 30
0.0
 11
76.999999999998835
 21
-591.49999999999898
 31
0.0
  0
LINE
  8
0
  6
CONTINUOUS
 62
               3
  5
5B0
 10
144.99999999999895
 20
-548.99999999999943
 30
0.0
 11
144.99999999999895
 21
-549.99999999999943
 31
0.0
  0
LINE
  8
0
  6
CONTINUOUS
 62
               3
  5
5B1
 10
144.99999999999895
 20
-550.99999999999943
 30
0.0
 11
144.99999999999895
 21
-549.99999999999943
 31
0.0
  0
LINE
  8
0
  6
CONTINUOUS
 62
               3
  5
5B2
 10
87.249999999998778
 20
-547.49999999999898
 30
0.0
 11
94.749999999998778
 21
-547.49999999999898
 31
0.0
  0
LINE
  8
0
  6
CONTINUOUS
 62
               3
  5
5B3
 10
87.249999999998778
 20
-552.49999999999898
 30
0.0
 11
94.749999999998778
 21
-552.4999999999992
 31
0.0
  0
LINE
  8
0
  6
CONTINUOUS
 62
               3
  5
5B4
 10
87.249999999998778
 20
-547.49999999999898
 30
0.0
 11
87.249999999998778
 21
-548.99999999999898
 31
0.0
  0
LINE
  8
0
  6
CONTINUOUS
 62
               3
  5
5B5
 10
87.249999999998778
 20
-550.99999999999898
 30
0.0
 11
87.249999999998778
 21
-552.49999999999898
 31
0.0
  0
LINE
  8
0
  6
CONTINUOUS
 62
               3
  5
5B6
 10
94.749999999998778
 20
-547.49999999999898
 30
0.0
 11
94.749999999998778
 21
-548.99999999999898
 31
0.0
  0
LINE
  8
0
  6
CONTINUOUS
 62
               3
  5
5B7
 10
94.749999999998778
 20
-550.9999999999992
 30
0.0
 11
94.749999999998778
 21
-552.4999999999992
 31
0.0
  0
LINE
  8
0
  6
CONTINUOUS
 62
               3
  5
5B8
 10
61.999999999998863
 20
-628.99999999999829
 30
0.0
 11
61.999999999998863
 21
-613.9999999999992
 31
0.0
  0
LINE
  8
0
  6
CONTINUOUS
 62
               3
  5
5B9
 10
437.00000000000171
 20
-473.99999999999932
 30
0.0
 11
562.99999999999909
 21
-473.99999999999932
 31
0.0
  0
LINE
  8
0
  6
CONTINUOUS
 62
               3
  5
5BA
 10
554.50121834596371
 20
-548.99999999999932
 30
0.0
 11
556.50000000000045
 21
-547.06979899340422
 31
0.0
  0
LINE
  8
0
  6
CONTINUOUS
 62
               3
  5
5BB
 10
445.49878165403709
 20
-548.99999999999932
 30
0.0
 11
443.50000000000034
 21
-547.06979899340422
 31
0.0
  0
LINE
  8
0
  6
CONTINUOUS
 62
               3
  5
5BC
 10
554.50121834596371
 20
-548.99999999999932
 30
0.0
 11
445.49878165403709
 21
-548.99999999999932
 31
0.0
  0
LINE
  8
0
  6
CONTINUOUS
 62
               3
  5
5BD
 10
443.50000000000034
 20
-483.99999999999932
 30
0.0
 11
556.50000000000045
 21
-483.99999999999932
 31
0.0
  0
LINE
  8
0
  6
CONTINUOUS
 62
               3
  5
5BE
 10
437.00000000000159
 20
-458.99999999999932
 30
0.0
 11
563.00000000000136
 21
-458.99999999999932
 31
0.0
  0
LINE
  8
0
  6
CONTINUOUS
 62
               3
  5
5BF
 10
443.50000000000034
 20
-473.99999999999932
 30
0.0
 11
443.50000000000034
 21
-547.06979899340422
 31
0.0
  0
LINE
  8
0
  6
CONTINUOUS
 62
               3
  5
5C0
 10
556.50000000000045
 20
-473.99999999999932
 30
0.0
 11
556.50000000000045
 21
-547.06979899340422
 31
0.0
  0
LINE
  8
0
  6
CONTINUOUS
 62
               3
  5
5C1
 10
438.00000000000102
 20
-628.99999999999841
 30
0.0
 11
438.00000000000102
 21
-613.99999999999932
 31
0.0
  0
LINE
  8
0
  6
CONTINUOUS
 62
               3
  5
5C2
 10
435.00000000000114
 20
-628.99999999999841
 30
0.0
 11
565.00000000000114
 21
-628.99999999999841
 31
0.0
  0
ARC
  8
0
  6
CONTINUOUS
 62
               3
  5
5C3
 10
424.00000000000182
 20
-488.00000000000023
 30
0.0
 40
4.0
 50
89.999999999982236
 51
179.99999999996518
  0
LINE
  8
0
  6
CONTINUOUS
 62
               3
  5
5C4
 10
420.00000000000182
 20
-487.99999999999784
 30
0.0
 11
420.00000000000159
 21
-507.00000000000023
 31
0.0
  0
LINE
  8
0
  6
CONTINUOUS
 62
               3
  5
5C5
 10
484.00000000000182
 20
-483.99999999999966
 30
0.0
 11
424.00000000000182
 21
-484.00000000000023
 31
0.0
  0
LINE
  8
0
  6
CONTINUOUS
 62
               3
  5
5C6
 10
484.00000000000182
 20
-614.99999999999829
 30
0.0
 11
516.00000000000227
 21
-614.99999999999784
 31
0.0
  0
ARC
  8
0
  6
CONTINUOUS
 62
               3
  5
5C7
 10
424.00000000000205
 20
-609.99999999999932
 30
0.0
 40
4.0
 50
179.99999999996601
 51
269.99999999994901
  0
LINE
  8
0
  6
CONTINUOUS
 62
               3
  5
5C8
 10
420.00000000000205
 20
-609.99999999999932
 30
0.0
 11
420.00000000000216
 21
-591.49999999999909
 31
0.0
  0
LINE
  8
0
  6
CONTINUOUS
 62
               3
  5
5C9
 10
484.00000000000182
 20
-613.99999999999864
 30
0.0
 11
423.99999999999864
 21
-613.99999999999932
 31
0.0
  0
LINE
  8
0
  6
CONTINUOUS
 62
               3
  5
5CA
 10
484.00000000000182
 20
-591.49999999999852
 30
0.0
 11
420.00000000000205
 21
-591.49999999999909
 31
0.0
  0
LINE
  8
0
  6
CONTINUOUS
 62
               3
  5
5CB
 10
420.00000000000159
 20
-507.00000000000023
 30
0.0
 11
484.00000000000182
 21
-507.00000000000023
 31
0.0
  0
LINE
  8
0
  6
CONTINUOUS
 62
               3
  5
5CC
 10
423.00000000000159
 20
-507.00000000000023
 30
0.0
 11
423.00000000000102
 21
-591.49999999999909
 31
0.0
  0
LINE
  8
0
  6
CONTINUOUS
 62
               3
  5
5CD
 10
516.00000000000182
 20
-483.99999999999966
 30
0.0
 11
579.00000000000159
 21
-484.00000000000023
 31
0.0
  0
LINE
  8
0
  6
CONTINUOUS
 62
               3
  5
5CE
 10
516.00000000000227
 20
-613.99999999999864
 30
0.0
 11
576.00000000000023
 21
-613.99999999999932
 31
0.0
  0
LINE
  8
0
  6
CONTINUOUS
 62
               3
  5
5CF
 10
516.00000000000227
 20
-591.49999999999864
 30
0.0
 11
580.00000000000034
 21
-591.49999999999909
 31
0.0
  0
LINE
  8
0
  6
CONTINUOUS
 62
               3
  5
5D0
 10
580.00000000000182
 20
-507.00000000000023
 30
0.0
 11
516.00000000000182
 21
-507.00000000000023
 31
0.0
  0
LINE
  8
0
  6
CONTINUOUS
 62
               3
  5
5D1
 10
562.00000000000114
 20
-628.99999999999841
 30
0.0
 11
562.00000000000114
 21
-613.99999999999932
 31
0.0
  0
LINE
  8
0
  6
CONTINUOUS
 62
               3
  5
5D2
 10
484.00000000000182
 20
-483.00000000000023
 30
0.0
 11
484.00000000000182
 21
-614.99999999999829
 31
0.0
  0
LINE
  8
0
  6
CONTINUOUS
 62
               3
  5
5D3
 10
516.00000000000227
 20
-614.99999999999784
 30
0.0
 11
516.00000000000182
 21
-483.00000000000023
 31
0.0
  0
LINE
  8
0
  6
CONTINUOUS
 62
               3
  5
5D4
 10
484.00000000000114
 20
-483.00000000000023
 30
0.0
 11
516.00000000000114
 21
-483.00000000000023
 31
0.0
  0
LINE
  8
0
  6
CONTINUOUS
 62
               3
  5
5D5
 10
484.00000000000182
 20
-549.99999999999909
 30
0.0
 11
516.00000000000227
 21
-549.99999999999909
 31
0.0
  0
LINE
  8
0
  6
CONTINUOUS
 62
               3
  5
5D6
 10
484.00000000000182
 20
-548.99999999999932
 30
0.0
 11
516.00000000000227
 21
-548.99999999999932
 31
0.0
  0
LINE
  8
0
  6
CONTINUOUS
 62
               3
  5
5D7
 10
484.00000000000182
 20
-550.99999999999932
 30
0.0
 11
516.00000000000227
 21
-550.99999999999932
 31
0.0
  0
ARC
  8
0
  6
CONTINUOUS
 62
               3
  5
5D8
 10
576.00000000000057
 20
-488.00000000000023
 30
0.0
 40
4.0
 50
0.0000000000344079
 51
90.000000000017366
  0
LINE
  8
0
  6
CONTINUOUS
 62
               3
  5
5D9
 10
580.00000000000057
 20
-487.99999999999784
 30
0.0
 11
580.0000000000008
 21
-507.00000000000023
 31
0.0
  0
ARC
  8
0
  6
CONTINUOUS
 62
               3
  5
5DA
 10
576.00000000000023
 20
-609.99999999999932
 30
0.0
 40
4.0
 50
270.00000000004979
 51
360.0000000000328
  0
LINE
  8
0
  6
CONTINUOUS
 62
               3
  5
5DB
 10
580.00000000000034
 20
-609.99999999999932
 30
0.0
 11
580.00000000000023
 21
-591.49999999999909
 31
0.0
  0
LINE
  8
0
  6
CONTINUOUS
 62
               3
  5
5DC
 10
577.0000000000008
 20
-507.00000000000023
 30
0.0
 11
577.00000000000136
 21
-591.49999999999909
 31
0.0
  0
CIRCLE
  8
0
  6
CONTINUOUS
 62
               3
  5
5DD
 10
609.28652321630761
 20
-1112.8568645130492
 30
0.0
 40
75.0
  0
CIRCLE
  8
0
  6
CONTINUOUS
 62
               3
  5
5DE
 10
609.28652321630761
 20
-1112.8568645130492
 30
0.0
 40
52.5
  0
LINE
  8
0
  6
CONTINUOUS
 62
               3
  5
5DF
 10
523.07602501568226
 20
-1092.8568645130492
 30
0.0
 11
537.00236174230213
 21
-1092.8568645130492
 31
0.0
  0
LINE
  8
0
  6
CONTINUOUS
 62
               3
  5
5E0
 10
537.00236174230213
 20
-1132.8568645130492
 30
0.0
 11
523.07602501568226
 21
-1132.8568645130492
 31
0.0
  0
ARC
  8
0
  6
CONTINUOUS
 62
               3
  5
5E1
 10
609.28652321630761
 20
-1112.8568645130492
 30
0.0
 40
88.5
 50
166.93897588507147
 51
193.06102411465253
  0
LINE
  8
0
  6
CONTINUOUS
 62
               3
  5
5E2
 10
589.28652321630761
 20
-1199.0673627136741
 30
0.0
 11
589.28652321630761
 21
-1185.1410259870543
 31
0.0
  0
LINE
  8
0
  6
CONTINUOUS
 62
               3
  5
5E3
 10
629.28652321630761
 20
-1185.1410259870543
 30
0.0
 11
629.28652321630761
 21
-1199.0673627136741
 31
0.0
  0
ARC
  8
0
  6
CONTINUOUS
 62
               3
  5
5E4
 10
609.28652321630761
 20
-1112.8568645130492
 30
0.0
 40
88.5
 50
256.93897588500261
 51
283.06102411458357
  0
LINE
  8
0
  6
CONTINUOUS
 62
               3
  5
5E5
 10
695.49702141693228
 20
-1132.8568645130492
 30
0.0
 11
681.57068469031174
 21
-1132.8568645130492
 31
0.0
  0
LINE
  8
0
  6
CONTINUOUS
 62
               3
  5
5E6
 10
681.57068469031174
 20
-1092.8568645130492
 30
0.0
 11
695.49702141693228
 21
-1092.8568645130492
 31
0.0
  0
ARC
  8
0
  6
CONTINUOUS
 62
               3
  5
5E7
 10
609.28652321630761
 20
-1112.8568645130492
 30
0.0
 40
88.5
 50
346.93897588493354
 51
373.06102411451457
  0
LINE
  8
0
  6
CONTINUOUS
 62
               3
  5
5E8
 10
629.28652321630761
 20
-1026.6463663124237
 30
0.0
 11
629.28652321630761
 21
-1040.5727030390442
 31
0.0
  0
LINE
  8
0
  6
CONTINUOUS
 62
               3
  5
5E9
 10
589.28652321630761
 20
-1040.5727030390442
 30
0.0
 11
589.28652321630761
 21
-1026.6463663124237
 31
0.0
  0
ARC
  8
0
  6
CONTINUOUS
 62
               3
  5
5EA
 10
609.28652321630761
 20
-1112.8568645130492
 30
0.0
 40
88.5
 50
76.938975885140493
 51
103.06102411472153
  0
LINE
  8
0
  6
CONTINUOUS
 62
               3
  5
5EB
 10
561.61839969544644
 20
-1134.8568645130497
 30
0.0
 11
656.95464673716742
 21
-1134.8568645130497
 31
0.0
  0
ARC
  8
0
  6
CONTINUOUS
 62
               3
  5
5EC
 10
621.79013486568874
 20
-1104.1504668854302
 30
0.0
 40
54.763804151667173
 50
141.3859176367296
 51
145.15009542084252
  0
ARC
  8
0
  6
CONTINUOUS
 62
               3
  5
5ED
 10
609.28652321630761
 20
-1112.8568645130492
 30
0.0
 40
51.5
 50
334.7109884732011
 51
410.95932736332554
  0
ARC
  8
0
  6
CONTINUOUS
 62
               3
  5
5EE
 10
609.28652321630761
 20
-1112.8568645130492
 30
0.0
 40
51.5
 50
129.04067263626098
 51
205.289011526385
  0
ARC
  8
0
  6
CONTINUOUS
 62
               3
  5
5EF
 10
609.28652321630761
 20
-1112.8568645130492
 30
0.0
 40
77.5
 50
104.95524831656299
 51
128.57288309093474
  0
ARC
  8
0
  6
CONTINUOUS
 62
               3
  5
5F0
 10
609.28652321630761
 20
-1112.8568645130492
 30
0.0
 40
77.5
 50
14.95524831663182
 51
75.044751683299182
  0
ARC
  8
0
  6
CONTINUOUS
 62
               3
  5
5F1
 10
609.28652321630761
 20
-1112.8568645130492
 30
0.0
 40
77.5
 50
321.42711690871977
 51
345.04475168309216
  0
LINE
  8
0
  6
CONTINUOUS
 62
               3
  5
5F2
 10
469.28652321630744
 20
-1167.8568645130492
 30
0.0
 11
469.95807934227167
 21
-1167.8568645130492
 31
0.0
  0
LINE
  8
0
  6
CONTINUOUS
 62
               3
  5
5F3
 10
472.45807934227213
 20
-1170.3568645130492
 30
0.0
 11
469.95807934227167
 21
-1167.8568645130492
 31
0.0
  0
LINE
  8
0
  6
CONTINUOUS
 62
               3
  5
5F4
 10
469.28652321630744
 20
-1057.8568645130492
 30
0.0
 11
469.95807934227167
 21
-1057.8568645130492
 31
0.0
  0
LINE
  8
0
  6
CONTINUOUS
 62
               3
  5
5F5
 10
472.45807934227167
 20
-1055.3568645130492
 30
0.0
 11
469.95807934227167
 21
-1057.8568645130492
 31
0.0
  0
LINE
  8
0
  6
CONTINUOUS
 62
               3
  5
5F6
 10
469.95807934227167
 20
-1057.8568645130492
 30
0.0
 11
469.95807934227167
 21
-1167.8568645130492
 31
0.0
  0
LINE
  8
0
  6
CONTINUOUS
 62
               3
  5
5F7
 10
563.79618742992966
 20
-1052.1672674947076
 30
0.0
 11
472.45807934227167
 21
-1055.3568645130492
 31
0.0
  0
LINE
  8
0
  6
CONTINUOUS
 62
               3
  5
5F8
 10
544.45005149975646
 20
-1172.8708795780169
 30
0.0
 11
472.45807934227224
 21
-1170.3568645130492
 31
0.0
  0
LINE
  8
0
  6
CONTINUOUS
 62
               3
  5
5F9
 10
464.28652321630744
 20
-1058.0284206390133
 30
0.0
 11
464.28652321630744
 21
-1167.9568645130491
 31
0.0
  0
LINE
  8
0
  6
CONTINUOUS
 62
               3
  5
5FA
 10
469.28652321630744
 20
-1170.4568645130491
 30
0.0
 11
469.28652321630744
 21
-1055.2568645130491
 31
0.0
  0
LINE
  8
0
  6
CONTINUOUS
 62
               3
  5
5FB
 10
469.28652321630744
 20
-1055.2568645130491
 30
0.0
 11
466.78652321630744
 21
-1055.2568645130491
 31
0.0
  0
LINE
  8
0
  6
CONTINUOUS
 62
               3
  5
5FC
 10
469.28652321630744
 20
-1170.4568645130491
 30
0.0
 11
466.78652321630744
 21
-1170.4568645130491
 31
0.0
  0
ARC
  8
0
  6
CONTINUOUS
 62
               3
  5
5FD
 10
466.78652321630744
 20
-1167.9568645130491
 30
0.0
 40
2.5
 50
179.9999999998615
 51
269.99999999979229
  0
ARC
  8
0
  6
CONTINUOUS
 62
               3
  5
5FE
 10
466.78652321630744
 20
-1057.7568645130491
 30
0.0
 40
2.5
 50
89.999999999932058
 51
179.9999999998615
  0
LINE
  8
0
  6
CONTINUOUS
 62
               3
  5
5FF
 10
576.8481200496899
 20
-1072.8568645130495
 30
0.0
 11
609.28652321630761
 21
-1072.8568645130495
 31
0.0
  0
LINE
  8
0
  6
CONTINUOUS
 62
               3
  5
600
 10
609.28652321630761
 20
-1072.8568645130495
 30
0.0
 11
643.2901994881463
 21
-1072.8568645130495
 31
0.0
  0
LINE
  8
0
  6
CONTINUOUS
 62
               3
  5
601
 10
472.45807934227213
 20
-1170.3568645130492
 30
0.0
 11
472.45807934227167
 21
-1055.3568645130492
 31
0.0
  0
ARC
  8
0
  6
CONTINUOUS
 62
               3
  5
602
 10
563.62168994641706
 20
-1047.170313359612
 30
0.0
 40
5.0
 50
271.9999999997919
 51
304.80675787019305
  0
LINE
  8
0
  6
CONTINUOUS
 62
               3
  5
603
 10
664.28652321630739
 20
-1252.8568645130492
 30
0.0
 11
664.28652321630739
 21
-1252.1853083870849
 31
0.0
  0
LINE
  8
0
  6
CONTINUOUS
 62
               3
  5
604
 10
666.78652321630739
 20
-1249.6853083870844
 30
0.0
 11
664.28652321630739
 21
-1252.1853083870849
 31
0.0
  0
LINE
  8
0
  6
CONTINUOUS
 62
               3
  5
605
 10
554.28652321630739
 20
-1252.8568645130492
 30
0.0
 11
554.28652321630739
 21
-1252.1853083870849
 31
0.0
  0
LINE
  8
0
  6
CONTINUOUS
 62
               3
  5
606
 10
551.78652321630739
 20
-1249.6853083870849
 30
0.0
 11
554.28652321630739
 21
-1252.1853083870849
 31
0.0
  0
LINE
  8
0
  6
CONTINUOUS
 62
               3
  5
607
 10
554.28652321630739
 20
-1252.1853083870849
 30
0.0
 11
664.28652321630739
 21
-1252.1853083870849
 31
0.0
  0
LINE
  8
0
  6
CONTINUOUS
 62
               3
  5
608
 10
554.4580793422715
 20
-1257.8568645130492
 30
0.0
 11
664.38652321630752
 21
-1257.8568645130492
 31
0.0
  0
LINE
  8
0
  6
CONTINUOUS
 62
               3
  5
609
 10
666.88652321630752
 20
-1252.8568645130492
 30
0.0
 11
551.68652321630748
 21
-1252.8568645130492
 31
0.0
  0
LINE
  8
0
  6
CONTINUOUS
 62
               3
  5
60A
 10
551.68652321630748
 20
-1252.8568645130492
 30
0.0
 11
551.68652321630748
 21
-1255.3568645130492
 31
0.0
  0
LINE
  8
0
  6
CONTINUOUS
 62
               3
  5
60B
 10
666.88652321630752
 20
-1252.8568645130492
 30
0.0
 11
666.88652321630752
 21
-1255.3568645130492
 31
0.0
  0
ARC
  8
0
  6
CONTINUOUS
 62
               3
  5
60C
 10
664.38652321630752
 20
-1255.3568645130492
 30
0.0
 40
2.5
 50
269.99999999979354
 51
359.999999999723
  0
ARC
  8
0
  6
CONTINUOUS
 62
               3
  5
60D
 10
554.18652321630748
 20
-1255.3568645130492
 30
0.0
 40
2.5
 50
179.99999999985891
 51
269.99999999979354
  0
LINE
  8
0
  6
CONTINUOUS
 62
               3
  5
60E
 10
666.78652321630739
 20
-1249.6853083870844
 30
0.0
 11
551.78652321630739
 21
-1249.6853083870849
 31
0.0
  0
LINE
  8
0
  6
CONTINUOUS
 62
               3
  5
60F
 10
669.97612023464853
 20
-1158.3472002994274
 30
0.0
 11
666.78652321630739
 21
-1249.6853083870844
 31
0.0
  0
ARC
  8
0
  6
CONTINUOUS
 62
               3
  5
610
 10
674.97307436974415
 20
-1158.5216977829402
 30
0.0
 40
5.0
 50
145.19324212946151
 51
177.99999999986429
  0
LINE
  8
0
  6
CONTINUOUS
 62
               3
  5
611
 10
549.27250815133948
 20
-1177.6933362296002
 30
0.0
 11
551.78652321630739
 21
-1249.6853083870849
 31
0.0
  0
ARC
  8
0
  6
CONTINUOUS
 62
               3
  5
612
 10
544.27555401624409
 20
-1177.8678337131121
 30
0.0
 40
5.0
 50
1.9999999999958187
 51
87.999999999932285
  0
LINE
  8
0
  6
CONTINUOUS
 62
               3
  5
613
 10
534.28652321630761
 20
-1421.3562982616334
 30
0.0
 11
684.28652321630761
 21
-1421.3562982616334
 31
0.0
  0
LINE
  8
0
  6
CONTINUOUS
 62
               3
  5
614
 10
520.78652321630739
 20
-1431.3562982616334
 30
0.0
 11
520.78652321630739
 21
-1438.3562982616329
 31
0.0
  0
LINE
  8
0
  6
CONTINUOUS
 62
               3
  5
615
 10
520.78652321630739
 20
-1431.3562982616334
 30
0.0
 11
534.28652321630761
 21
-1421.3562982616334
 31
0.0
  0
ARC
  8
0
  6
CONTINUOUS
 62
               3
  5
616
 10
532.28652321630761
 20
-1442.9388739565886
 30
0.0
 40
4.9999999999999991
 50
0.0
 51
66.421821521747205
  0
LINE
  8
0
  6
CONTINUOUS
 62
               3
  5
617
 10
520.78652321630739
 20
-1438.3562982616329
 30
0.0
 11
697.78652321630716
 21
-1438.3562982616329
 31
0.0
  0
ARC
  8
0
  6
CONTINUOUS
 62
               3
  5
618
 10
554.28652321630761
 20
-1528.3562982616334
 30
0.0
 40
19.999999999999996
 50
148.2116693828344
 51
167.26981986155914
  0
LINE
  8
0
  6
CONTINUOUS
 62
               3
  5
619
 10
537.28652321630761
 20
-1442.9388739565886
 30
0.0
 11
537.28652321630761
 21
-1517.8206445087806
 31
0.0
  0
LINE
  8
0
  6
CONTINUOUS
 62
               3
  5
61A
 10
681.28652321630739
 20
-1512.8206445087801
 30
0.0
 11
681.28652321630739
 21
-1442.9388739565886
 31
0.0
  0
LINE
  8
0
  6
CONTINUOUS
 62
               3
  5
61B
 10
537.28652321630761
 20
-1517.8206445087806
 30
0.0
 11
680.78652321630784
 21
-1517.8206445087806
 31
0.0
  0
LINE
  8
0
  6
CONTINUOUS
 62
               3
  5
61C
 10
589.28652321630761
 20
-1438.3562982616329
 30
0.0
 11
589.28652321630761
 21
-1421.3562982616334
 31
0.0
  0
LINE
  8
0
  6
CONTINUOUS
 62
               3
  5
61D
 10
629.28652321630761
 20
-1421.3562982616334
 30
0.0
 11
629.28652321630761
 21
-1438.3562982616329
 31
0.0
  0
LINE
  8
0
  6
CONTINUOUS
 62
               3
  5
61E
 10
589.28652321630761
 20
-1431.3562982616334
 30
0.0
 11
629.28652321630761
 21
-1431.3562982616334
 31
0.0
  0
LINE
  8
0
  6
CONTINUOUS
 62
               3
  5
61F
 10
537.00236174230213
 20
-1421.3562982616334
 30
0.0
 11
537.00236174230213
 21
-1438.3562982616329
 31
0.0
  0
LINE
  8
0
  6
CONTINUOUS
 62
               3
  5
620
 10
523.07602501568226
 20
-1431.3562982616334
 30
0.0
 11
523.07602501568226
 21
-1438.3562982616329
 31
0.0
  0
LINE
  8
0
  6
CONTINUOUS
 62
               3
  5
621
 10
520.78652321630739
 20
-1431.3562982616334
 30
0.0
 11
523.07602501568226
 21
-1431.3562982616334
 31
0.0
  0
LINE
  8
0
  6
CONTINUOUS
 62
               3
  5
622
 10
523.07602501568226
 20
-1431.3562982616334
 30
0.0
 11
537.00236174230213
 21
-1421.3562982616334
 31
0.0
  0
LINE
  8
0
  6
CONTINUOUS
 62
               3
  5
623
 10
697.78652321630716
 20
-1431.3562982616334
 30
0.0
 11
697.78652321630716
 21
-1438.3562982616329
 31
0.0
  0
LINE
  8
0
  6
CONTINUOUS
 62
               3
  5
624
 10
697.78652321630716
 20
-1431.3562982616334
 30
0.0
 11
684.28652321630761
 21
-1421.3562982616334
 31
0.0
  0
ARC
  8
0
  6
CONTINUOUS
 62
               3
  5
625
 10
686.28652321630739
 20
-1442.9388739565886
 30
0.0
 40
4.9999999999999991
 50
113.5781784781135
 51
179.9999999998615
  0
LINE
  8
0
  6
CONTINUOUS
 62
               3
  5
626
 10
681.57068469031174
 20
-1421.3562982616334
 30
0.0
 11
681.57068469031174
 21
-1438.3562982616329
 31
0.0
  0
LINE
  8
0
  6
CONTINUOUS
 62
               3
  5
627
 10
695.49702141693274
 20
-1431.3562982616334
 30
0.0
 11
695.49702141693274
 21
-1438.3562982616329
 31
0.0
  0
LINE
  8
0
  6
CONTINUOUS
 62
               3
  5
628
 10
697.78652321630716
 20
-1431.3562982616334
 30
0.0
 11
695.49702141693274
 21
-1431.3562982616334
 31
0.0
  0
LINE
  8
0
  6
CONTINUOUS
 62
               3
  5
629
 10
695.49702141693274
 20
-1431.3562982616334
 30
0.0
 11
681.57068469031174
 21
-1421.3562982616334
 31
0.0
  0
ARC
  8
0
  6
CONTINUOUS
 62
               3
  5
62A
 10
544.28652321630761
 20
-1649.8562982616334
 30
0.0
 40
2.4999999999999996
 50
89.999999999929457
 51
269.99999999979354
  0
ARC
  8
0
  6
CONTINUOUS
 62
               3
  5
62B
 10
684.28652321630761
 20
-1649.8562982616334
 30
0.0
 40
2.4999999999999996
 50
269.99999999979354
 51
449.99999999965507
  0
LINE
  8
0
  6
CONTINUOUS
 62
               3
  5
62C
 10
469.28652321630744
 20
-1642.3562982616334
 30
0.0
 11
469.95807934227179
 21
-1642.3562982616334
 31
0.0
  0
LINE
  8
0
  6
CONTINUOUS
 62
               3
  5
62D
 10
472.4580793422719
 20
-1644.8562982616329
 30
0.0
 11
469.95807934227179
 21
-1642.3562982616334
 31
0.0
  0
LINE
  8
0
  6
CONTINUOUS
 62
               3
  5
62E
 10
472.4580793422727
 20
-1644.8562982616334
 30
0.0
 11
514.6231895985502
 21
-1646.3287363574875
 31
0.0
  0
LINE
  8
0
  6
CONTINUOUS
 62
               3
  5
62F
 10
532.82205712224004
 20
-1662.6279876879196
 30
0.0
 11
517.98422602097025
 21
-1647.7901565866503
 31
0.0
  0
ARC
  8
0
  6
CONTINUOUS
 62
               3
  5
630
 10
529.28652321630761
 20
-1666.1635215938525
 30
0.0
 40
4.9999999999999991
 50
0.0
 51
44.999999999964892
  0
LINE
  8
0
  6
CONTINUOUS
 62
               3
  5
631
 10
469.28652321630744
 20
-1532.3562982616334
 30
0.0
 11
469.95807934227179
 21
-1532.3562982616334
 31
0.0
  0
LINE
  8
0
  6
CONTINUOUS
 62
               3
  5
632
 10
472.4580793422719
 20
-1529.8562982616334
 30
0.0
 11
469.95807934227179
 21
-1532.3562982616334
 31
0.0
  0
LINE
  8
0
  6
CONTINUOUS
 62
               3
  5
633
 10
472.45807934227179
 20
-1529.8562982616334
 30
0.0
 11
530.07555554444616
 21
-1527.8442516564812
 31
0.0
  0
LINE
  8
0
  6
CONTINUOUS
 62
               3
  5
634
 10
469.95807934227179
 20
-1532.3562982616334
 30
0.0
 11
469.95807934227179
 21
-1642.3562982616334
 31
0.0
  0
LINE
  8
0
  6
CONTINUOUS
 62
               3
  5
635
 10
469.28652321630744
 20
-1644.9562982616333
 30
0.0
 11
469.28652321630744
 21
-1529.7562982616334
 31
0.0
  0
LINE
  8
0
  6
CONTINUOUS
 62
               3
  5
636
 10
469.28652321630744
 20
-1529.7562982616334
 30
0.0
 11
466.78652321630744
 21
-1529.7562982616334
 31
0.0
  0
ARC
  8
0
  6
CONTINUOUS
 62
               3
  5
637
 10
466.78652321630744
 20
-1532.2562982616334
 30
0.0
 40
2.5
 50
89.999999999932058
 51
179.99999999985891
  0
LINE
  8
0
  6
CONTINUOUS
 62
               3
  5
638
 10
464.28652321630744
 20
-1532.2562982616334
 30
0.0
 11
464.28652321630744
 21
-1642.4562982616333
 31
0.0
  0
LINE
  8
0
  6
CONTINUOUS
 62
               3
  5
639
 10
469.28652321630744
 20
-1644.9562982616333
 30
0.0
 11
466.78652321630744
 21
-1644.9562982616333
 31
0.0
  0
ARC
  8
0
  6
CONTINUOUS
 62
               3
  5
63A
 10
466.78652321630744
 20
-1642.4562982616333
 30
0.0
 40
2.5
 50
179.99999999985891
 51
269.99999999979229
  0
LINE
  8
0
  6
CONTINUOUS
 62
               3
  5
63B
 10
472.4580793422719
 20
-1529.8562982616334
 30
0.0
 11
472.4580793422727
 21
-1644.8562982616334
 31
0.0
  0
ARC
  8
0
  6
CONTINUOUS
 62
               3
  5
63C
 10
514.4486921150376
 20
-1651.3256904925831
 30
0.0
 40
5.0
 50
44.999999999968587
 51
87.999999999932243
  0
ARC
  8
0
  6
CONTINUOUS
 62
               3
  5
63D
 10
529.90105806093379
 20
-1522.8472975213856
 30
0.0
 40
5.0
 50
271.9999999997919
 51
347.26981986141988
  0
CIRCLE
  8
0
  6
CONTINUOUS
 62
               3
  5
63E
 10
609.28652321630761
 20
-1587.3562982616334
 30
0.0
 40
48.5
  0
CIRCLE
  8
0
  6
CONTINUOUS
 62
               3
  5
63F
 10
609.28652321630761
 20
-1587.3562982616334
 30
0.0
 40
47.299999999999997
  0
LINE
  8
0
  6
CONTINUOUS
 62
               3
  5
640
 10
577.46671806291306
 20
-1619.1761034150279
 30
0.0
 11
575.84037246618391
 21
-1620.8024490117571
 31
0.0
  0
LINE
  8
0
  6
CONTINUOUS
 62
               3
  5
641
 10
641.10632836970217
 20
-1619.1761034150279
 30
0.0
 11
642.73267396643132
 21
-1620.8024490117571
 31
0.0
  0
ARC
  8
0
  6
CONTINUOUS
 62
               3
  5
642
 10
609.28652321630761
 20
-1587.3562982616334
 30
0.0
 40
45.0
 50
224.99999999982745
 51
314.99999999975864
  0
CIRCLE
  8
0
  6
CONTINUOUS
 62
               3
  5
643
 10
609.28652321630761
 20
-1587.3562982616334
 30
0.0
 40
57.600000000000001
  0
ARC
  8
0
  6
CONTINUOUS
 62
               3
  5
644
 10
586.78652321630807
 20
-1649.8562982616334
 30
0.0
 40
2.4999999999999996
 50
269.99999999979354
 51
449.99999999965507
  0
ARC
  8
0
  6
CONTINUOUS
 62
               3
  5
645
 10
631.78652321630807
 20
-1649.8562982616334
 30
0.0
 40
2.4999999999999996
 50
89.999999999929457
 51
269.99999999979354
  0
LINE
  8
0
  6
CONTINUOUS
 62
               3
  5
646
 10
544.28652321630761
 20
-1652.3562982616334
 30
0.0
 11
586.78652321630807
 21
-1652.3562982616334
 31
0.0
  0
LINE
  8
0
  6
CONTINUOUS
 62
               3
  5
647
 10
544.28652321630761
 20
-1647.3562982616334
 30
0.0
 11
586.78652321630807
 21
-1647.3562982616334
 31
0.0
  0
LINE
  8
0
  6
CONTINUOUS
 62
               3
  5
648
 10
631.78652321630807
 20
-1647.3562982616334
 30
0.0
 11
684.28652321630761
 21
-1647.3562982616334
 31
0.0
  0
LINE
  8
0
  6
CONTINUOUS
 62
               3
  5
649
 10
631.78652321630807
 20
-1652.3562982616334
 30
0.0
 11
684.28652321630761
 21
-1652.3562982616334
 31
0.0
  0
CIRCLE
  8
0
  6
CONTINUOUS
 62
               3
  5
64A
 10
609.28652321630761
 20
-1112.8568645130492
 30
0.0
 40
59.0
  0
INSERT
  8
0
  6
CONTINUOUS
  5
64B
  2
GROUP_1
 10
0.0
 20
0.0
 30
0.0
  0
INSERT
  8
0
  6
CONTINUOUS
  5
64C
  2
GROUP_2
 10
0.0
 20
0.0
 30
0.0
  0
INSERT
  8
0
  6
CONTINUOUS
  5
64D
  2
GROUP_3
 10
0.0
 20
0.0
 30
0.0
  0
INSERT
  8
0
  6
CONTINUOUS
  5
64E
  2
GROUP_4
 10
0.0
 20
0.0
 30
0.0
  0
INSERT
  8
0
  6
CONTINUOUS
  5
64F
  2
GROUP_5
 10
0.0
 20
0.0
 30
0.0
  0
INSERT
  8
0
  6
CONTINUOUS
  5
650
  2
GROUP_6
 10
0.0
 20
0.0
 30
0.0
  0
INSERT
  8
0
  6
CONTINUOUS
  5
651
  2
GROUP_7
 10
0.0
 20
0.0
 30
0.0
  0
INSERT
  8
0
  6
CONTINUOUS
  5
652
  2
GROUP_8
 10
0.0
 20
0.0
 30
0.0
  0
INSERT
  8
0
  6
CONTINUOUS
  5
653
  2
GROUP_9
 10
0.0
 20
0.0
 30
0.0
  0
INSERT
  8
0
  6
CONTINUOUS
  5
654
  2
GROUP_10
 10
0.0
 20
0.0
 30
0.0
  0
INSERT
  8
0
  6
CONTINUOUS
  5
655
  2
GROUP_11
 10
0.0
 20
0.0
 30
0.0
  0
INSERT
  8
0
  6
CONTINUOUS
  5
656
  2
GROUP_12
 10
0.0
 20
0.0
 30
0.0
  0
INSERT
  8
0
  6
CONTINUOUS
  5
657
  2
GROUP_13
 10
0.0
 20
0.0
 30
0.0
  0
POINT
  8
0
  6
CONTINUOUS
 62
               5
  5
658
 10
-22.517579717672049
 20
44.345860287647042
 30
0.0
  0
POINT
  8
0
  6
CONTINUOUS
 62
               5
  5
659
 10
-392.1377690504691
 20
-1170.54130008484
 30
0.0
  0
POINT
  8
0
  6
CONTINUOUS
 62
               5
  5
65A
 10
-218.90769754050876
 20
-1171.8320941597292
 30
0.0
  0
POINT
  8
0
  6
CONTINUOUS
 62
               5
  5
65B
 10
-565.36784056042916
 20
-1171.8320941597287
 30
0.0
  0
POINT
  8
0
  6
CONTINUOUS
 62
               5
  5
65C
 10
-395.37452052112468
 20
-989.84334450584493
 30
0.0
  0
POINT
  8
0
  6
CONTINUOUS
 62
               5
  5
65D
 10
493.01659472626778
 20
-1588.6470923365225
 30
0.0
  0
POINT
  8
0
  6
CONTINUOUS
 62
               5
  5
65E
 10
493.0165947262679
 20
-1111.5660704381601
 30
0.0
  0
CIRCLE
  8
0
  6
CONTINUOUS
 62
               7
  5
65F
 10
-392.1377690504691
 20
-1177.04130008484
 30
0.0
 40
38.0
  0
CIRCLE
  8
0
  6
CONTINUOUS
 62
               7
  5
660
 10
-392.1377690504691
 20
-1177.04130008484
 30
0.0
 40
33.5
  0
LINE
  8
0
  6
CONTINUOUS
 62
               7
  5
661
 10
-247.6377690504691
 20
-1126.04130008484
 30
0.0
 11
-247.6377690504691
 21
-1215.0360639641656
 31
0.0
  0
LINE
  8
0
  6
CONTINUOUS
 62
               7
  5
662
 10
-247.03776905046908
 20
-1126.04130008484
 30
0.0
 11
-247.6377690504691
 21
-1126.04130008484
 31
0.0
  0
LINE
  8
0
  6
CONTINUOUS
 62
               7
  5
663
 10
-282.6377690504691
 20
-1214.04130008484
 30
0.0
 11
-282.6377690504691
 21
-1140.04130008484
 31
0.0
  0
LINE
  8
0
  6
CONTINUOUS
 62
               7
  5
664
 10
-189.6377690504691
 20
-1214.04130008484
 30
0.0
 11
-189.6377690504691
 21
-1127.04130008484
 31
0.0
  0
LINE
  8
0
  6
CONTINUOUS
 62
               7
  5
665
 10
-247.6377690504691
 20
-1126.04130008484
 30
0.0
 11
-190.6377690504691
 21
-1126.04130008484
 31
0.0
  0
LINE
  8
0
  6
CONTINUOUS
 62
               7
  5
666
 10
-281.6377690504691
 20
-1215.04130008484
 30
0.0
 11
-190.6377690504691
 21
-1215.04130008484
 31
0.0
  0
LINE
  8
0
  6
CONTINUOUS
 62
               7
  5
667
 10
-190.6377690504691
 20
-1126.04130008484
 30
0.0
 11
-189.6377690504691
 21
-1127.04130008484
 31
0.0
  0
LINE
  8
0
  6
CONTINUOUS
 62
               7
  5
668
 10
-189.6377690504691
 20
-1214.04130008484
 30
0.0
 11
-190.6377690504691
 21
-1215.04130008484
 31
0.0
  0
LINE
  8
0
  6
CONTINUOUS
 62
               7
  5
669
 10
-281.6377690504691
 20
-1139.04130008484
 30
0.0
 11
-247.6377690504691
 21
-1139.04130008484
 31
0.0
  0
CIRCLE
  8
0
  6
CONTINUOUS
 62
               7
  5
66A
 10
-392.1377690504691
 20
-1170.54130008484
 30
0.0
 40
44.5
  0
LINE
  8
0
  6
CONTINUOUS
 62
               7
  5
66B
 10
-281.6377690504691
 20
-1139.04130008484
 30
0.0
 11
-282.6377690504691
 21
-1140.04130008484
 31
0.0
  0
LINE
  8
0
  6
CONTINUOUS
 62
               7
  5
66C
 10
-282.6377690504691
 20
-1214.04130008484
 30
0.0
 11
-281.6377690504691
 21
-1215.04130008484
 31
0.0
  0
LINE
  8
0
  6
CONTINUOUS
 62
               7
  5
66D
 10
-536.63776905046893
 20
-1126.04130008484
 30
0.0
 11
-536.63776905046893
 21
-1215.0360639641656
 31
0.0
  0
LINE
  8
0
  6
CONTINUOUS
 62
               7
  5
66E
 10
-537.23776905046884
 20
-1126.04130008484
 30
0.0
 11
-536.63776905046893
 21
-1126.04130008484
 31
0.0
  0
LINE
  8
0
  6
CONTINUOUS
 62
               7
  5
66F
 10
-501.63776905046899
 20
-1214.04130008484
 30
0.0
 11
-501.63776905046899
 21
-1140.04130008484
 31
0.0
  0
LINE
  8
0
  6
CONTINUOUS
 62
               7
  5
670
 10
-594.63776905046893
 20
-1214.04130008484
 30
0.0
 11
-594.63776905046893
 21
-1127.04130008484
 31
0.0
  0
LINE
  8
0
  6
CONTINUOUS
 62
               7
  5
671
 10
-536.63776905046893
 20
-1126.04130008484
 30
0.0
 11
-593.63776905046893
 21
-1126.04130008484
 31
0.0
  0
LINE
  8
0
  6
CONTINUOUS
 62
               7
  5
672
 10
-502.63776905046899
 20
-1215.04130008484
 30
0.0
 11
-593.63776905046893
 21
-1215.04130008484
 31
0.0
  0
LINE
  8
0
  6
CONTINUOUS
 62
               7
  5
673
 10
-593.63776905046893
 20
-1126.04130008484
 30
0.0
 11
-594.63776905046893
 21
-1127.04130008484
 31
0.0
  0
LINE
  8
0
  6
CONTINUOUS
 62
               7
  5
674
 10
-594.63776905046893
 20
-1214.04130008484
 30
0.0
 11
-593.63776905046893
 21
-1215.04130008484
 31
0.0
  0
LINE
  8
0
  6
CONTINUOUS
 62
               7
  5
675
 10
-502.63776905046899
 20
-1139.04130008484
 30
0.0
 11
-536.63776905046893
 21
-1139.04130008484
 31
0.0
  0
LINE
  8
0
  6
CONTINUOUS
 62
               7
  5
676
 10
-502.63776905046899
 20
-1139.04130008484
 30
0.0
 11
-501.63776905046899
 21
-1140.04130008484
 31
0.0
  0
LINE
  8
0
  6
CONTINUOUS
 62
               7
  5
677
 10
-501.63776905046899
 20
-1214.04130008484
 30
0.0
 11
-502.63776905046899
 21
-1215.04130008484
 31
0.0
  0
LINE
  8
0
  6
CONTINUOUS
 62
               7
  5
678
 10
-349.58372644623563
 20
-1018.5734160158054
 30
0.0
 11
-438.57849032556106
 21
-1018.5734160158052
 31
0.0
  0
LINE
  8
0
  6
CONTINUOUS
 62
               7
  5
679
 10
-349.58372644623563
 20
-1017.9734160158052
 30
0.0
 11
-349.58372644623563
 21
-1018.5734160158054
 31
0.0
  0
LINE
  8
0
  6
CONTINUOUS
 62
               7
  5
67A
 10
-431.08372644623552
 20
-1053.5734160158052
 30
0.0
 11
-357.08372644623563
 21
-1053.5734160158054
 31
0.0
  0
LINE
  8
0
  6
CONTINUOUS
 62
               7
  5
67B
 10
-437.58372644623552
 20
-960.57341601580515
 30
0.0
 11
-350.58372644623563
 21
-960.57341601580538
 31
0.0
  0
LINE
  8
0
  6
CONTINUOUS
 62
               7
  5
67C
 10
-349.58372644623563
 20
-1018.5734160158054
 30
0.0
 11
-349.58372644623563
 21
-961.57341601580538
 31
0.0
  0
LINE
  8
0
  6
CONTINUOUS
 62
               7
  5
67D
 10
-432.08372644623552
 20
-1052.5734160158052
 30
0.0
 11
-432.08372644623552
 21
-1018.5734160158052
 31
0.0
  0
LINE
  8
0
  6
CONTINUOUS
 62
               7
  5
67E
 10
-349.58372644623563
 20
-961.57341601580538
 30
0.0
 11
-350.58372644623563
 21
-960.57341601580538
 31
0.0
  0
LINE
  8
0
  6
CONTINUOUS
 62
               7
  5
67F
 10
-437.58372644623552
 20
-960.57341601580515
 30
0.0
 11
-438.58372644623552
 21
-961.57341601580515
 31
0.0
  0
LINE
  8
0
  6
CONTINUOUS
 62
               7
  5
680
 10
-356.08372644623563
 20
-1052.5734160158054
 30
0.0
 11
-356.08372644623563
 21
-1018.5734160158052
 31
0.0
  0
LINE
  8
0
  6
CONTINUOUS
 62
               7
  5
681
 10
-356.08372644623563
 20
-1052.5734160158054
 30
0.0
 11
-357.08372644623563
 21
-1053.5734160158054
 31
0.0
  0
LINE
  8
0
  6
CONTINUOUS
 62
               7
  5
682
 10
-431.08372644623552
 20
-1053.5734160158052
 30
0.0
 11
-432.08372644623552
 21
-1052.5734160158052
 31
0.0
  0
LINE
  8
0
  6
CONTINUOUS
 62
               7
  5
683
 10
-438.58372644623552
 20
-1018.5734160158052
 30
0.0
 11
-438.58372644623552
 21
-961.57341601580515
 31
0.0
  0
LINE
  8
0
  6
CONTINUOUS
 62
               7
  5
684
 10
216.63392368588057
 20
-1214.04130008484
 30
0.0
 11
216.63392368588057
 21
-1156.04130008484
 31
0.0
  0
LINE
  8
0
  6
CONTINUOUS
 62
               7
  5
685
 10
242.23392368588048
 20
-1126.04130008484
 30
0.0
 11
242.23392368588048
 21
-1215.04130008484
 31
0.0
  0
LINE
  8
0
  6
CONTINUOUS
 62
               7
  5
686
 10
242.83392368588062
 20
-1126.04130008484
 30
0.0
 11
242.23392368588048
 21
-1126.04130008484
 31
0.0
  0
LINE
  8
0
  6
CONTINUOUS
 62
               7
  5
687
 10
300.23392368588071
 20
-1214.04130008484
 30
0.0
 11
300.23392368588071
 21
-1127.04130008484
 31
0.0
  0
CIRCLE
  8
0
  6
CONTINUOUS
 62
               7
  5
688
 10
120.87790746063757
 20
-1185.04130008484
 30
0.0
 40
30.0
  0
CIRCLE
  8
0
  6
CONTINUOUS
 62
               7
  5
689
 10
120.87790746063757
 20
-1185.04130008484
 30
0.0
 40
25.5
  0
CIRCLE
  8
0
  6
CONTINUOUS
 62
               7
  5
68A
 10
120.87790746063757
 20
-1170.54130008484
 30
0.0
 40
44.5
  0
LINE
  8
0
  6
CONTINUOUS
 62
               7
  5
68B
 10
242.3683754313609
 20
-1126.04130008484
 30
0.0
 11
299.23392368588071
 21
-1126.04130008484
 31
0.0
  0
LINE
  8
0
  6
CONTINUOUS
 62
               7
  5
68C
 10
217.63392368588057
 20
-1215.04130008484
 30
0.0
 11
299.23392368588071
 21
-1215.04130008484
 31
0.0
  0
LINE
  8
0
  6
CONTINUOUS
 62
               7
  5
68D
 10
217.63392368588057
 20
-1155.04130008484
 30
0.0
 11
242.23392368588048
 21
-1155.04130008484
 31
0.0
  0
LINE
  8
0
  6
CONTINUOUS
 62
               7
  5
68E
 10
217.63392368588057
 20
-1155.04130008484
 30
0.0
 11
216.63392368588057
 21
-1156.04130008484
 31
0.0
  0
LINE
  8
0
  6
CONTINUOUS
 62
               7
  5
68F
 10
299.23392368588071
 20
-1126.04130008484
 30
0.0
 11
300.23392368588071
 21
-1127.04130008484
 31
0.0
  0
LINE
  8
0
  6
CONTINUOUS
 62
               7
  5
690
 10
216.63392368588057
 20
-1214.04130008484
 30
0.0
 11
217.63392368588057
 21
-1215.04130008484
 31
0.0
  0
LINE
  8
0
  6
CONTINUOUS
 62
               7
  5
691
 10
300.23392368588071
 20
-1214.04130008484
 30
0.0
 11
299.23392368588071
 21
-1215.04130008484
 31
0.0
  0
LINE
  8
0
  6
CONTINUOUS
 62
               7
  5
692
 10
25.121891235394799
 20
-1214.04130008484
 30
0.0
 11
25.121891235394799
 21
-1156.04130008484
 31
0.0
  0
LINE
  8
0
  6
CONTINUOUS
 62
               7
  5
693
 10
-0.4781087646052242
 20
-1126.04130008484
 30
0.0
 11
-0.4781087646052242
 21
-1215.04130008484
 31
0.0
  0
LINE
  8
0
  6
CONTINUOUS
 62
               7
  5
694
 10
-1.078108764605247
 20
-1126.04130008484
 30
0.0
 11
-0.4781087646052242
 21
-1126.04130008484
 31
0.0
  0
LINE
  8
0
  6
CONTINUOUS
 62
               7
  5
695
 10
-58.478108764605224
 20
-1214.04130008484
 30
0.0
 11
-58.478108764605224
 21
-1127.04130008484
 31
0.0
  0
LINE
  8
0
  6
CONTINUOUS
 62
               7
  5
696
 10
-0.6125605100855296
 20
-1126.04130008484
 30
0.0
 11
-57.478108764605224
 21
-1126.04130008484
 31
0.0
  0
LINE
  8
0
  6
CONTINUOUS
 62
               7
  5
697
 10
24.121891235394799
 20
-1215.04130008484
 30
0.0
 11
-57.478108764605224
 21
-1215.04130008484
 31
0.0
  0
LINE
  8
0
  6
CONTINUOUS
 62
               7
  5
698
 10
24.121891235394799
 20
-1155.04130008484
 30
0.0
 11
-0.4781087646052242
 21
-1155.04130008484
 31
0.0
  0
LINE
  8
0
  6
CONTINUOUS
 62
               7
  5
699
 10
24.121891235394799
 20
-1155.04130008484
 30
0.0
 11
25.121891235394799
 21
-1156.04130008484
 31
0.0
  0
LINE
  8
0
  6
CONTINUOUS
 62
               7
  5
69A
 10
-57.478108764605224
 20
-1126.04130008484
 30
0.0
 11
-58.478108764605224
 21
-1127.04130008484
 31
0.0
  0
LINE
  8
0
  6
CONTINUOUS
 62
               7
  5
69B
 10
25.121891235394799
 20
-1214.04130008484
 30
0.0
 11
24.121891235394799
 21
-1215.04130008484
 31
0.0
  0
LINE
  8
0
  6
CONTINUOUS
 62
               7
  5
69C
 10
-58.478108764605224
 20
-1214.04130008484
 30
0.0
 11
-57.478108764605224
 21
-1215.04130008484
 31
0.0
  0
LINE
  8
0
  6
CONTINUOUS
 62
               7
  5
69D
 10
91.8779074606378
 20
-1064.2852838595975
 30
0.0
 11
149.8779074606378
 21
-1064.2852838595975
 31
0.0
  0
LINE
  8
0
  6
CONTINUOUS
 62
               7
  5
69E
 10
165.3779074606378
 20
-1038.6852838595973
 30
0.0
 11
76.3779074606378
 21
-1038.6852838595973
 31
0.0
  0
LINE
  8
0
  6
CONTINUOUS
 62
               7
  5
69F
 10
165.3779074606378
 20
-1038.0852838595974
 30
0.0
 11
165.3779074606378
 21
-1038.6852838595973
 31
0.0
  0
LINE
  8
0
  6
CONTINUOUS
 62
               7
  5
6A0
 10
77.3779074606378
 20
-980.68528385959735
 30
0.0
 11
164.3779074606378
 21
-980.68528385959735
 31
0.0
  0
LINE
  8
0
  6
CONTINUOUS
 62
               7
  5
6A1
 10
165.3779074606378
 20
-1038.5508321141172
 30
0.0
 11
165.3779074606378
 21
-981.68528385959735
 31
0.0
  0
LINE
  8
0
  6
CONTINUOUS
 62
               7
  5
6A2
 10
90.8779074606378
 20
-1063.2852838595975
 30
0.0
 11
90.8779074606378
 21
-1038.6852838595973
 31
0.0
  0
LINE
  8
0
  6
CONTINUOUS
 62
               7
  5
6A3
 10
150.8779074606378
 20
-1063.2852838595975
 30
0.0
 11
150.8779074606378
 21
-1038.6852838595973
 31
0.0
  0
LINE
  8
0
  6
CONTINUOUS
 62
               7
  5
6A4
 10
150.8779074606378
 20
-1063.2852838595975
 30
0.0
 11
149.8779074606378
 21
-1064.2852838595975
 31
0.0
  0
LINE
  8
0
  6
CONTINUOUS
 62
               7
  5
6A5
 10
165.3779074606378
 20
-981.68528385959735
 30
0.0
 11
164.3779074606378
 21
-980.68528385959735
 31
0.0
  0
LINE
  8
0
  6
CONTINUOUS
 62
               7
  5
6A6
 10
91.8779074606378
 20
-1064.2852838595975
 30
0.0
 11
90.8779074606378
 21
-1063.2852838595975
 31
0.0
  0
LINE
  8
0
  6
CONTINUOUS
 62
               7
  5
6A7
 10
77.3779074606378
 20
-980.68528385959735
 30
0.0
 11
76.3779074606378
 21
-981.68528385959735
 31
0.0
  0
LINE
  8
0
  6
CONTINUOUS
 62
               7
  5
6A8
 10
76.3779074606378
 20
-1038.5508321141169
 30
0.0
 11
76.3779074606378
 21
-981.68528385959735
 31
0.0
  0
CIRCLE
  8
0
  6
CONTINUOUS
 62
               7
  5
6A9
 10
609.28652321630761
 20
-1601.8562982616334
 30
0.0
 40
25.5
  0
CIRCLE
  8
0
  6
CONTINUOUS
 62
               7
  5
6AA
 10
609.28652321630761
 20
-1587.3562982616334
 30
0.0
 40
44.5
  0
CIRCLE
  8
0
  6
CONTINUOUS
 62
               7
  5
6AB
 10
609.28652321630761
 20
-1601.8562982616334
 30
0.0
 40
30.0
  0
LINE
  8
0
  6
CONTINUOUS
 62
               7
  5
6AC
 10
580.28652321630761
 20
-1283.4568645130491
 30
0.0
 11
638.28652321630761
 21
-1283.4568645130491
 31
0.0
  0
LINE
  8
0
  6
CONTINUOUS
 62
               7
  5
6AD
 10
653.78652321630761
 20
-1257.8568645130492
 30
0.0
 11
564.78652321630761
 21
-1257.8568645130492
 31
0.0
  0
LINE
  8
0
  6
CONTINUOUS
 62
               7
  5
6AE
 10
653.78652321630761
 20
-1257.2568645130493
 30
0.0
 11
653.78652321630761
 21
-1257.8568645130492
 31
0.0
  0
LINE
  8
0
  6
CONTINUOUS
 62
               7
  5
6AF
 10
565.78652321630761
 20
-1199.8568645130488
 30
0.0
 11
652.78652321630761
 21
-1199.8568645130488
 31
0.0
  0
LINE
  8
0
  6
CONTINUOUS
 62
               7
  5
6B0
 10
653.78652321630761
 20
-1257.7224127675688
 30
0.0
 11
653.78652321630761
 21
-1200.8568645130488
 31
0.0
  0
LINE
  8
0
  6
CONTINUOUS
 62
               7
  5
6B1
 10
579.28652321630761
 20
-1282.4568645130491
 30
0.0
 11
579.28652321630761
 21
-1257.8568645130492
 31
0.0
  0
LINE
  8
0
  6
CONTINUOUS
 62
               7
  5
6B2
 10
639.28652321630761
 20
-1282.4568645130491
 30
0.0
 11
639.28652321630761
 21
-1257.8568645130492
 31
0.0
  0
LINE
  8
0
  6
CONTINUOUS
 62
               7
  5
6B3
 10
639.28652321630761
 20
-1282.4568645130491
 30
0.0
 11
638.28652321630761
 21
-1283.4568645130491
 31
0.0
  0
LINE
  8
0
  6
CONTINUOUS
 62
               7
  5
6B4
 10
653.78652321630761
 20
-1200.8568645130488
 30
0.0
 11
652.78652321630761
 21
-1199.8568645130488
 31
0.0
  0
LINE
  8
0
  6
CONTINUOUS
 62
               7
  5
6B5
 10
580.28652321630761
 20
-1283.4568645130491
 30
0.0
 11
579.28652321630761
 21
-1282.4568645130491
 31
0.0
  0
LINE
  8
0
  6
CONTINUOUS
 62
               7
  5
6B6
 10
565.78652321630761
 20
-1199.8568645130488
 30
0.0
 11
564.78652321630761
 21
-1200.8568645130488
 31
0.0
  0
LINE
  8
0
  6
CONTINUOUS
 62
               7
  5
6B7
 10
564.78652321630761
 20
-1257.7224127675688
 30
0.0
 11
564.78652321630761
 21
-1200.8568645130488
 31
0.0
  0
LINE
  8
0
  6
CONTINUOUS
 62
               7
  5
6B8
 10
464.28652321630744
 20
-1542.8562982616334
 30
0.0
 11
464.28652321630744
 21
-1631.8510621409589
 31
0.0
  0
LINE
  8
0
  6
CONTINUOUS
 62
               7
  5
6B9
 10
464.88652321630747
 20
-1542.8562982616334
 30
0.0
 11
464.28652321630744
 21
-1542.8562982616334
 31
0.0
  0
LINE
  8
0
  6
CONTINUOUS
 62
               7
  5
6BA
 10
429.28652321630744
 20
-1630.8562982616334
 30
0.0
 11
429.28652321630744
 21
-1556.8562982616334
 31
0.0
  0
LINE
  8
0
  6
CONTINUOUS
 62
               7
  5
6BB
 10
522.28652321630761
 20
-1630.8562982616334
 30
0.0
 11
522.28652321630761
 21
-1543.8562982616334
 31
0.0
  0
LINE
  8
0
  6
CONTINUOUS
 62
               7
  5
6BC
 10
464.28652321630744
 20
-1542.8562982616334
 30
0.0
 11
521.28652321630761
 21
-1542.8562982616334
 31
0.0
  0
LINE
  8
0
  6
CONTINUOUS
 62
               7
  5
6BD
 10
430.28652321630744
 20
-1631.8562982616334
 30
0.0
 11
521.28652321630761
 21
-1631.8562982616334
 31
0.0
  0
LINE
  8
0
  6
CONTINUOUS
 62
               7
  5
6BE
 10
521.28652321630761
 20
-1542.8562982616334
 30
0.0
 11
522.28652321630761
 21
-1543.8562982616334
 31
0.0
  0
LINE
  8
0
  6
CONTINUOUS
 62
               7
  5
6BF
 10
522.28652321630761
 20
-1630.8562982616334
 30
0.0
 11
521.28652321630761
 21
-1631.8562982616334
 31
0.0
  0
LINE
  8
0
  6
CONTINUOUS
 62
               7
  5
6C0
 10
430.28652321630744
 20
-1555.8562982616334
 30
0.0
 11
464.28652321630744
 21
-1555.8562982616334
 31
0.0
  0
LINE
  8
0
  6
CONTINUOUS
 62
               7
  5
6C1
 10
430.28652321630744
 20
-1555.8562982616334
 30
0.0
 11
429.28652321630744
 21
-1556.8562982616334
 31
0.0
  0
LINE
  8
0
  6
CONTINUOUS
 62
               7
  5
6C2
 10
429.28652321630744
 20
-1630.8562982616334
 30
0.0
 11
430.28652321630744
 21
-1631.8562982616334
 31
0.0
  0
LINE
  8
0
  6
CONTINUOUS
 62
               7
  5
6C3
 10
464.28652321630744
 20
-1157.3568645130488
 30
0.0
 11
464.28652321630767
 21
-1068.3621006337235
 31
0.0
  0
LINE
  8
0
  6
CONTINUOUS
 62
               7
  5
6C4
 10
464.88652321630758
 20
-1157.3568645130488
 30
0.0
 11
464.28652321630744
 21
-1157.3568645130488
 31
0.0
  0
LINE
  8
0
  6
CONTINUOUS
 62
               7
  5
6C5
 10
429.28652321630767
 20
-1075.856864513049
 30
0.0
 11
429.28652321630744
 21
-1149.8568645130488
 31
0.0
  0
LINE
  8
0
  6
CONTINUOUS
 62
               7
  5
6C6
 10
522.28652321630784
 20
-1069.3568645130492
 30
0.0
 11
522.28652321630761
 21
-1156.3568645130488
 31
0.0
  0
LINE
  8
0
  6
CONTINUOUS
 62
               7
  5
6C7
 10
464.28652321630744
 20
-1157.3568645130488
 30
0.0
 11
521.28652321630761
 21
-1157.3568645130488
 31
0.0
  0
LINE
  8
0
  6
CONTINUOUS
 62
               7
  5
6C8
 10
430.28652321630767
 20
-1074.856864513049
 30
0.0
 11
464.28652321630767
 21
-1074.856864513049
 31
0.0
  0
LINE
  8
0
  6
CONTINUOUS
 62
               7
  5
6C9
 10
521.28652321630761
 20
-1157.3568645130488
 30
0.0
 11
522.28652321630761
 21
-1156.3568645130488
 31
0.0
  0
LINE
  8
0
  6
CONTINUOUS
 62
               7
  5
6CA
 10
522.28652321630784
 20
-1069.3568645130492
 30
0.0
 11
521.28652321630784
 21
-1068.3568645130492
 31
0.0
  0
LINE
  8
0
  6
CONTINUOUS
 62
               7
  5
6CB
 10
430.28652321630744
 20
-1150.8568645130488
 30
0.0
 11
464.28652321630767
 21
-1150.8568645130488
 31
0.0
  0
LINE
  8
0
  6
CONTINUOUS
 62
               7
  5
6CC
 10
430.28652321630744
 20
-1150.8568645130488
 30
0.0
 11
429.28652321630744
 21
-1149.8568645130488
 31
0.0
  0
LINE
  8
0
  6
CONTINUOUS
 62
               7
  5
6CD
 10
429.28652321630767
 20
-1075.856864513049
 30
0.0
 11
430.28652321630767
 21
-1074.856864513049
 31
0.0
  0
LINE
  8
0
  6
CONTINUOUS
 62
               7
  5
6CE
 10
464.28652321630767
 20
-1068.356864513049
 30
0.0
 11
521.28652321630784
 21
-1068.356864513049
 31
0.0
  0
CIRCLE
  8
0
  6
DASHED
 62
               7
  5
6CF
 10
-392.1377690504691
 20
-1170.54130008484
 30
0.0
 40
40.0
  0
CIRCLE
  8
0
  6
DASHED
 62
               7
  5
6D0
 10
120.87790746063757
 20
-1170.54130008484
 30
0.0
 40
40.0
  0
CIRCLE
  8
0
  6
DASHED
 62
               7
  5
6D1
 10
609.28652321630761
 20
-1587.3562982616334
 30
0.0
 40
40.0
  0
TEXT
  8
0
 62
               3
  5
6D2
 10
-392.1377690504691
 20
-1255.04130008484
 30
0.0
 40
40.0
  1
EMB_80×65
 41
0.8
 72
               1
 11
-392.1377690504691
 21
-1255.04130008484
 31
0.0
 73
               3
  0
TEXT
  8
0
 62
               3
  5
6D3
 10
120.87790746063757
 20
-1255.04130008484
 30
0.0
 40
40.0
  1
EMB_80×50
 41
0.8
 72
               1
 11
120.87790746063757
 21
-1255.04130008484
 31
0.0
 73
               3
  0
TEXT
  8
0
 62
               3
  5
6D4
 10
605.58911923866731
 20
-933.41049600782981
 30
0.0
 40
40.0
  1
EMB使用例
 41
0.8
 72
               1
 11
605.58911923866731
 21
-933.41049600782981
 31
0.0
 73
               3
  0
TEXT
  8
0
 62
               3
  5
6D5
 10
-123.74270409089129
 20
-879.05036010749041
 30
0.0
 40
35.0
  1
横枝管に呼び６５、５０の管を接続するときは、EMBをご使用ください。
 41
0.8
 72
               1
 11
-123.74270409089129
 21
-879.05036010749041
 31
0.0
 73
               3
  0
ENDSEC
  0
EOF
