  0
SECTION
  2
HEADER
  9
$ACADVER
  1
AC1009
  9
$INSBASE
 10
0.0
 20
0.0
 30
0.0
  9
$EXTMIN
 10
-641.28625489580452
 20
-1713.4767920257295
 30
0.0
  9
$EXTMAX
 10
744.43500906164343
 20
746.8132704318773
 30
0.0
  9
$LIMMIN
 10
-684.59004439447472
 20
-1790.3608564775298
  9
$LIMMAX
 10
787.73879856031363
 20
823.69733488367751
  9
$ORTHOMODE
 70
               0
  9
$REGENMODE
 70
               1
  9
$FILLMODE
 70
               1
  9
$QTEXTMODE
 70
               0
  9
$MIRRTEXT
 70
               1
  9
$DRAGMODE
 70
               2
  9
$LTSCALE
 40
1.0
  9
$OSMODE
 70
               0
  9
$ATTMODE
 70
               1
  9
$TEXTSIZE
 40
0.2
  9
$TRACEWID
 40
0.05
  9
$TEXTSTYLE
  7
STANDARD
  9
$CLAYER
  8
0
  9
$CELTYPE
  6
CONTINUOUS
  9
$CECOLOR
 62
             256
  9
$DIMSCALE
 40
1.0
  9
$DIMASZ
 40
0.18
  9
$DIMEXO
 40
0.0625
  9
$DIMDLI
 40
0.38
  9
$DIMRND
 40
0.0
  9
$DIMDLE
 40
0.0
  9
$DIMEXE
 40
0.18
  9
$DIMTP
 40
0.0
  9
$DIMTM
 40
0.0
  9
$DIMTXT
 40
0.18
  9
$DIMCEN
 40
0.09
  9
$DIMTSZ
 40
0.0
  9
$DIMTOL
 70
               0
  9
$DIMLIM
 70
               0
  9
$DIMTIH
 70
               1
  9
$DIMTOH
 70
               1
  9
$DIMSE1
 70
               0
  9
$DIMSE2
 70
               0
  9
$DIMTAD
 70
               0
  9
$DIMZIN
 70
               0
  9
$DIMBLK
  1

  9
$DIMASO
 70
               1
  9
$DIMSHO
 70
               1
  9
$DIMPOST
  1

  9
$DIMAPOST
  1

  9
$DIMALT
 70
               0
  9
$DIMALTD
 70
               2
  9
$DIMALTF
 40
25.399999999999999
  9
$DIMLFAC
 40
1.0
  9
$DIMTOFL
 70
               0
  9
$DIMTVP
 40
0.0
  9
$DIMTIX
 70
               0
  9
$DIMSOXD
 70
               0
  9
$DIMSAH
 70
               0
  9
$DIMBLK1
  1

  9
$DIMBLK2
  1

  9
$DIMSTYLE
  2
STANDARD
  9
$DIMCLRD
 70
               0
  9
$DIMCLRE
 70
               0
  9
$DIMCLRT
 70
               0
  9
$DIMTFAC
 40
1.0
  9
$DIMGAP
 40
0.09
  9
$LUNITS
 70
               2
  9
$LUPREC
 70
               4
  9
$AXISMODE
 70
               0
  9
$AXISUNIT
 10
0.0
 20
0.0
  9
$SKETCHINC
 40
0.1
  9
$FILLETRAD
 40
0.0
  9
$AUNITS
 70
               0
  9
$AUPREC
 70
               0
  9
$MENU
  1
acad
  9
$ELEVATION
 40
0.0
  9
$PELEVATION
 40
0.0
  9
$THICKNESS
 40
0.0
  9
$LIMCHECK
 70
               0
  9
$BLIPMODE
 70
               1
  9
$CHAMFERA
 40
0.0
  9
$CHAMFERB
 40
0.0
  9
$SKPOLY
 70
               0
  9
$TDCREATE
 40
0.000000000
  9
$TDUPDATE
 40
0.000000000
  9
$TDINDWG
 40
0.0000000000
  9
$TDUSRTIMER
 40
0.0000000000
  9
$USRTIMER
 70
               1
  9
$ANGBASE
 50
0.0
  9
$ANGDIR
 70
               0
  9
$PDMODE
 70
               0
  9
$PDSIZE
 40
1.0
  9
$PLINEWID
 40
0.0
  9
$COORDS
 70
               1
  9
$SPLFRAME
 70
               0
  9
$SPLINETYPE
 70
               6
  9
$SPLINESEGS
 70
               8
  9
$ATTDIA
 70
               0
  9
$ATTREQ
 70
               1
  9
$HANDLING
 70
               1
  9
$HANDSEED
  5
7AD
  9
$SURFTAB1
 70
               6
  9
$SURFTAB2
 70
               6
  9
$SURFTYPE
 70
               6
  9
$SURFU
 70
               6
  9
$SURFV
 70
               6
  9
$UCSNAME
  2

  9
$UCSORG
 10
0.0
 20
0.0
 30
0.0
  9
$UCSXDIR
 10
1.0
 20
0.0
 30
0.0
  9
$UCSYDIR
 10
0.0
 20
1.0
 30
0.0
  9
$PUCSNAME
  2

  9
$PUCSORG
 10
0.0
 20
0.0
 30
0.0
  9
$PUCSXDIR
 10
1.0
 20
0.0
 30
0.0
  9
$PUCSYDIR
 10
0.0
 20
1.0
 30
0.0
  9
$USERI1
 70
               0
  9
$USERI2
 70
               0
  9
$USERI3
 70
               0
  9
$USERI4
 70
               0
  9
$USERI5
 70
               0
  9
$USERR1
 40
0.0
  9
$USERR2
 40
0.0
  9
$USERR3
 40
0.0
  9
$USERR4
 40
0.0
  9
$USERR5
 40
0.0
  9
$WORLDVIEW
 70
               1
  9
$SHADEDGE
 70
               3
  9
$SHADEDIF
 70
              70
  9
$TILEMODE
 70
               1
  9
$MAXACTVP
 70
              16
  9
$PINSBASE
 10
0.0
 20
0.0
 30
0.0
  9
$PLIMCHECK
 70
               0
  9
$PEXTMIN
 10
1.0000000000000000E+20
 20
1.0000000000000000E+20
 30
1.0000000000000000E+20
  9
$PEXTMAX
 10
-1.0000000000000000E+20
 20
-1.0000000000000000E+20
 30
-1.0000000000000000E+20
  9
$PLIMMIN
 10
0.0
 20
0.0
  9
$PLIMMAX
 10
12.0
 20
9.0
  9
$UNITMODE
 70
               0
  9
$VISRETAIN
 70
               0
  9
$PLINEGEN
 70
               1
  9
$PSLTSCALE
 70
               0
  9
$TREEDEPTH
 70
            3020
  9
$DWGCODEPAGE
  3
dos932
  0
ENDSEC
  0
SECTION
  2
TABLES
  0
TABLE
  2
VPORT
 70
               1
  0
VPORT
  2
*ACTIVE
 70
               0
 10
0.0
 20
0.0
 11
1.0
 21
1.0
 12
51.574377082919455
 22
-483.33176079692612
 13
0.0
 23
0.0
 14
1.0
 24
1.0
 15
0.0
 25
0.0
 16
0.0
 26
0.0
 36
1.0
 17
0.0
 27
0.0
 37
0.0
 40
2614.0581913612073
 41
0.5632349148999276
 42
50.0
 43
0.0
 44
0.0
 50
0.0
 51
0.0
 71
               0
 72
             100
 73
               1
 74
               1
 75
               0
 76
               0
 77
               0
 78
               0
  0
ENDTAB
  0
TABLE
  2
LTYPE
 70
              26
  0
LTYPE
  2
CONTINUOUS
 70
               0
  3
Solid line
 72
              65
 73
               0
 40
0.0
  0
LTYPE
  2
HIDDENX2
 70
               0
  3
CADPAC FUSION LINETYPE
 72
              65
 73
               2
 40
80.0
 49
60.0
 49
-20.0
  0
LTYPE
  2
HIDDEN
 70
               0
  3
CADPAC FUSION LINETYPE
 72
              65
 73
               2
 40
60.0
 49
40.0
 49
-20.0
  0
LTYPE
  2
HIDDEN2
 70
               0
  3
CADPAC FUSION LINETYPE
 72
              65
 73
               2
 40
50.0
 49
30.0
 49
-20.0
  0
LTYPE
  2
DASHED
 70
               0
  3
CADPAC FUSION LINETYPE
 72
              65
 73
               2
 40
60.0
 49
40.0
 49
-20.0
  0
LTYPE
  2
DASHED2
 70
               0
  3
CADPAC FUSION LINETYPE
 72
              65
 73
               2
 40
45.0
 49
30.0
 49
-15.0
  0
LTYPE
  2
DASHEDX2
 70
               0
  3
CADPAC FUSION LINETYPE
 72
              65
 73
               2
 40
90.0
 49
60.0
 49
-30.0
  0
LTYPE
  2
DOTX2
 70
               0
  3
CADPAC FUSION LINETYPE
 72
              65
 73
               2
 40
25.0
 49
0.0
 49
-25.0
  0
LTYPE
  2
DOT
 70
               0
  3
CADPAC FUSION LINETYPE
 72
              65
 73
               2
 40
20.0
 49
0.0
 49
-20.0
  0
LTYPE
  2
DOTS
 70
               0
  3
CADPAC FUSION LINETYPE
 72
              65
 73
               2
 40
20.0
 49
0.0
 49
-20.0
  0
LTYPE
  2
DOT2
 70
               0
  3
CADPAC FUSION LINETYPE
 72
              65
 73
               2
 40
15.0
 49
0.0
 49
-15.0
  0
LTYPE
  2
CENTERX2
 70
               0
  3
CADPAC FUSION LINETYPE
 72
              65
 73
               4
 40
120.0
 49
50.0
 49
-25.0
 49
20.0
 49
-25.0
  0
LTYPE
  2
CENTER
 70
               0
  3
CADPAC FUSION LINETYPE
 72
              65
 73
               4
 40
92.0
 49
40.0
 49
-20.0
 49
12.0
 49
-20.0
  0
LTYPE
  2
CENTER2
 70
               0
  3
CADPAC FUSION LINETYPE
 72
              65
 73
               4
 40
64.0
 49
30.0
 49
-15.0
 49
4.0
 49
-15.0
  0
LTYPE
  2
DASHDOTX2
 70
               0
  3
CADPAC FUSION LINETYPE
 72
              65
 73
               4
 40
100.0
 49
50.0
 49
-25.0
 49
0.0
 49
-25.0
  0
LTYPE
  2
DASHDOT
 70
               0
  3
CADPAC FUSION LINETYPE
 72
              65
 73
               4
 40
80.0
 49
40.0
 49
-20.0
 49
0.0
 49
-20.0
  0
LTYPE
  2
DASHDOT2
 70
               0
  3
CADPAC FUSION LINETYPE
 72
              65
 73
               4
 40
60.0
 49
30.0
 49
-15.0
 49
0.0
 49
-15.0
  0
LTYPE
  2
DIVIDEX2
 70
               0
  3
CADPAC FUSION LINETYPE
 72
              65
 73
               6
 40
125.0
 49
50.0
 49
-25.0
 49
0.0
 49
-25.0
 49
0.0
 49
-25.0
  0
LTYPE
  2
DIVIDE
 70
               0
  3
CADPAC FUSION LINETYPE
 72
              65
 73
               6
 40
100.0
 49
40.0
 49
-20.0
 49
0.0
 49
-20.0
 49
0.0
 49
-20.0
  0
LTYPE
  2
DIVIDE2
 70
               0
  3
CADPAC FUSION LINETYPE
 72
              65
 73
               6
 40
75.0
 49
30.0
 49
-15.0
 49
0.0
 49
-15.0
 49
0.0
 49
-15.0
  0
LTYPE
  2
BORDERX2
 70
               0
  3
CADPAC FUSION LINETYPE
 72
              65
 73
               6
 40
175.0
 49
50.0
 49
-25.0
 49
50.0
 49
-25.0
 49
0.0
 49
-25.0
  0
LTYPE
  2
BORDER
 70
               0
  3
CADPAC FUSION LINETYPE
 72
              65
 73
               6
 40
140.0
 49
40.0
 49
-20.0
 49
40.0
 49
-20.0
 49
0.0
 49
-20.0
  0
LTYPE
  2
BORDER2
 70
               0
  3
CADPAC FUSION LINETYPE
 72
              65
 73
               6
 40
105.0
 49
30.0
 49
-15.0
 49
30.0
 49
-15.0
 49
0.0
 49
-15.0
  0
LTYPE
  2
PHANTOMX2
 70
               0
  3
CADPAC FUSION LINETYPE
 72
              65
 73
               6
 40
150.0
 49
50.0
 49
-20.0
 49
20.0
 49
-20.0
 49
20.0
 49
-20.0
  0
LTYPE
  2
PHANTOM
 70
               0
  3
CADPAC FUSION LINETYPE
 72
              65
 73
               6
 40
124.0
 49
40.0
 49
-20.0
 49
12.0
 49
-20.0
 49
12.0
 49
-20.0
  0
LTYPE
  2
PHANTOM2
 70
               0
  3
CADPAC FUSION LINETYPE
 72
              65
 73
               6
 40
106.0
 49
30.0
 49
-20.0
 49
8.0
 49
-20.0
 49
8.0
 49
-20.0
  0
ENDTAB
  0
TABLE
  2
LAYER
 70
             256
  0
LAYER
  2
0
 70
               0
 62
               7
  6
CONTINUOUS
  0
LAYER
  2
LAYER001
 70
               0
 62
               7
  6
CONTINUOUS
  0
LAYER
  2
LAYER002
 70
               0
 62
               7
  6
CONTINUOUS
  0
LAYER
  2
LAYER003
 70
               0
 62
               7
  6
CONTINUOUS
  0
LAYER
  2
LAYER004
 70
               0
 62
               7
  6
CONTINUOUS
  0
LAYER
  2
LAYER005
 70
               0
 62
               7
  6
CONTINUOUS
  0
LAYER
  2
LAYER006
 70
               0
 62
               7
  6
CONTINUOUS
  0
LAYER
  2
LAYER007
 70
               0
 62
               7
  6
CONTINUOUS
  0
LAYER
  2
LAYER008
 70
               0
 62
               7
  6
CONTINUOUS
  0
LAYER
  2
LAYER009
 70
               0
 62
               7
  6
CONTINUOUS
  0
LAYER
  2
LAYER010
 70
               0
 62
               7
  6
CONTINUOUS
  0
LAYER
  2
LAYER011
 70
               0
 62
               7
  6
CONTINUOUS
  0
LAYER
  2
LAYER012
 70
               0
 62
               7
  6
CONTINUOUS
  0
LAYER
  2
LAYER013
 70
               0
 62
               7
  6
CONTINUOUS
  0
LAYER
  2
LAYER014
 70
               0
 62
               7
  6
CONTINUOUS
  0
LAYER
  2
LAYER015
 70
               0
 62
               7
  6
CONTINUOUS
  0
LAYER
  2
LAYER016
 70
               0
 62
               7
  6
CONTINUOUS
  0
LAYER
  2
LAYER017
 70
               0
 62
               7
  6
CONTINUOUS
  0
LAYER
  2
LAYER018
 70
               0
 62
               7
  6
CONTINUOUS
  0
LAYER
  2
LAYER019
 70
               0
 62
               7
  6
CONTINUOUS
  0
LAYER
  2
LAYER020
 70
               0
 62
               7
  6
CONTINUOUS
  0
LAYER
  2
LAYER021
 70
               0
 62
               7
  6
CONTINUOUS
  0
LAYER
  2
LAYER022
 70
               0
 62
               7
  6
CONTINUOUS
  0
LAYER
  2
LAYER023
 70
               0
 62
               7
  6
CONTINUOUS
  0
LAYER
  2
LAYER024
 70
               0
 62
               7
  6
CONTINUOUS
  0
LAYER
  2
LAYER025
 70
               0
 62
               7
  6
CONTINUOUS
  0
LAYER
  2
LAYER026
 70
               0
 62
               7
  6
CONTINUOUS
  0
LAYER
  2
LAYER027
 70
               0
 62
               7
  6
CONTINUOUS
  0
LAYER
  2
LAYER028
 70
               0
 62
               7
  6
CONTINUOUS
  0
LAYER
  2
LAYER029
 70
               0
 62
               7
  6
CONTINUOUS
  0
LAYER
  2
LAYER030
 70
               0
 62
               7
  6
CONTINUOUS
  0
LAYER
  2
LAYER031
 70
               0
 62
               7
  6
CONTINUOUS
  0
LAYER
  2
LAYER032
 70
               0
 62
               7
  6
CONTINUOUS
  0
LAYER
  2
LAYER033
 70
               0
 62
               7
  6
CONTINUOUS
  0
LAYER
  2
LAYER034
 70
               0
 62
               7
  6
CONTINUOUS
  0
LAYER
  2
LAYER035
 70
               0
 62
               7
  6
CONTINUOUS
  0
LAYER
  2
LAYER036
 70
               0
 62
               7
  6
CONTINUOUS
  0
LAYER
  2
LAYER037
 70
               0
 62
               7
  6
CONTINUOUS
  0
LAYER
  2
LAYER038
 70
               0
 62
               7
  6
CONTINUOUS
  0
LAYER
  2
LAYER039
 70
               0
 62
               7
  6
CONTINUOUS
  0
LAYER
  2
LAYER040
 70
               0
 62
               7
  6
CONTINUOUS
  0
LAYER
  2
LAYER041
 70
               0
 62
               7
  6
CONTINUOUS
  0
LAYER
  2
LAYER042
 70
               0
 62
               7
  6
CONTINUOUS
  0
LAYER
  2
LAYER043
 70
               0
 62
               7
  6
CONTINUOUS
  0
LAYER
  2
LAYER044
 70
               0
 62
               7
  6
CONTINUOUS
  0
LAYER
  2
LAYER045
 70
               0
 62
               7
  6
CONTINUOUS
  0
LAYER
  2
LAYER046
 70
               0
 62
               7
  6
CONTINUOUS
  0
LAYER
  2
LAYER047
 70
               0
 62
               7
  6
CONTINUOUS
  0
LAYER
  2
LAYER048
 70
               0
 62
               7
  6
CONTINUOUS
  0
LAYER
  2
LAYER049
 70
               0
 62
               7
  6
CONTINUOUS
  0
LAYER
  2
LAYER050
 70
               0
 62
               7
  6
CONTINUOUS
  0
LAYER
  2
LAYER051
 70
               0
 62
               7
  6
CONTINUOUS
  0
LAYER
  2
LAYER052
 70
               0
 62
               7
  6
CONTINUOUS
  0
LAYER
  2
LAYER053
 70
               0
 62
               7
  6
CONTINUOUS
  0
LAYER
  2
LAYER054
 70
               0
 62
               7
  6
CONTINUOUS
  0
LAYER
  2
LAYER055
 70
               0
 62
               7
  6
CONTINUOUS
  0
LAYER
  2
LAYER056
 70
               0
 62
               7
  6
CONTINUOUS
  0
LAYER
  2
LAYER057
 70
               0
 62
               7
  6
CONTINUOUS
  0
LAYER
  2
LAYER058
 70
               0
 62
               7
  6
CONTINUOUS
  0
LAYER
  2
LAYER059
 70
               0
 62
               7
  6
CONTINUOUS
  0
LAYER
  2
LAYER060
 70
               0
 62
               7
  6
CONTINUOUS
  0
LAYER
  2
LAYER061
 70
               0
 62
               7
  6
CONTINUOUS
  0
LAYER
  2
LAYER062
 70
               0
 62
               7
  6
CONTINUOUS
  0
LAYER
  2
LAYER063
 70
               0
 62
               7
  6
CONTINUOUS
  0
LAYER
  2
LAYER064
 70
               0
 62
               7
  6
CONTINUOUS
  0
LAYER
  2
LAYER065
 70
               0
 62
               7
  6
CONTINUOUS
  0
LAYER
  2
LAYER066
 70
               0
 62
               7
  6
CONTINUOUS
  0
LAYER
  2
LAYER067
 70
               0
 62
               7
  6
CONTINUOUS
  0
LAYER
  2
LAYER068
 70
               0
 62
               7
  6
CONTINUOUS
  0
LAYER
  2
LAYER069
 70
               0
 62
               7
  6
CONTINUOUS
  0
LAYER
  2
LAYER070
 70
               0
 62
               7
  6
CONTINUOUS
  0
LAYER
  2
LAYER071
 70
               0
 62
               7
  6
CONTINUOUS
  0
LAYER
  2
LAYER072
 70
               0
 62
               7
  6
CONTINUOUS
  0
LAYER
  2
LAYER073
 70
               0
 62
               7
  6
CONTINUOUS
  0
LAYER
  2
LAYER074
 70
               0
 62
               7
  6
CONTINUOUS
  0
LAYER
  2
LAYER075
 70
               0
 62
               7
  6
CONTINUOUS
  0
LAYER
  2
LAYER076
 70
               0
 62
               7
  6
CONTINUOUS
  0
LAYER
  2
LAYER077
 70
               0
 62
               7
  6
CONTINUOUS
  0
LAYER
  2
LAYER078
 70
               0
 62
               7
  6
CONTINUOUS
  0
LAYER
  2
LAYER079
 70
               0
 62
               7
  6
CONTINUOUS
  0
LAYER
  2
LAYER080
 70
               0
 62
               7
  6
CONTINUOUS
  0
LAYER
  2
LAYER081
 70
               0
 62
               7
  6
CONTINUOUS
  0
LAYER
  2
LAYER082
 70
               0
 62
               7
  6
CONTINUOUS
  0
LAYER
  2
LAYER083
 70
               0
 62
               7
  6
CONTINUOUS
  0
LAYER
  2
LAYER084
 70
               0
 62
               7
  6
CONTINUOUS
  0
LAYER
  2
LAYER085
 70
               0
 62
               7
  6
CONTINUOUS
  0
LAYER
  2
LAYER086
 70
               0
 62
               7
  6
CONTINUOUS
  0
LAYER
  2
LAYER087
 70
               0
 62
               7
  6
CONTINUOUS
  0
LAYER
  2
LAYER088
 70
               0
 62
               7
  6
CONTINUOUS
  0
LAYER
  2
LAYER089
 70
               0
 62
               7
  6
CONTINUOUS
  0
LAYER
  2
LAYER090
 70
               0
 62
               7
  6
CONTINUOUS
  0
LAYER
  2
LAYER091
 70
               0
 62
               7
  6
CONTINUOUS
  0
LAYER
  2
LAYER092
 70
               0
 62
               7
  6
CONTINUOUS
  0
LAYER
  2
LAYER093
 70
               0
 62
               7
  6
CONTINUOUS
  0
LAYER
  2
LAYER094
 70
               0
 62
               7
  6
CONTINUOUS
  0
LAYER
  2
LAYER095
 70
               0
 62
               7
  6
CONTINUOUS
  0
LAYER
  2
LAYER096
 70
               0
 62
               7
  6
CONTINUOUS
  0
LAYER
  2
LAYER097
 70
               0
 62
               7
  6
CONTINUOUS
  0
LAYER
  2
LAYER098
 70
               0
 62
               7
  6
CONTINUOUS
  0
LAYER
  2
LAYER099
 70
               0
 62
               7
  6
CONTINUOUS
  0
LAYER
  2
LAYER100
 70
               0
 62
               7
  6
CONTINUOUS
  0
LAYER
  2
LAYER101
 70
               0
 62
               7
  6
CONTINUOUS
  0
LAYER
  2
LAYER102
 70
               0
 62
               7
  6
CONTINUOUS
  0
LAYER
  2
LAYER103
 70
               0
 62
               7
  6
CONTINUOUS
  0
LAYER
  2
LAYER104
 70
               0
 62
               7
  6
CONTINUOUS
  0
LAYER
  2
LAYER105
 70
               0
 62
               7
  6
CONTINUOUS
  0
LAYER
  2
LAYER106
 70
               0
 62
               7
  6
CONTINUOUS
  0
LAYER
  2
LAYER107
 70
               0
 62
               7
  6
CONTINUOUS
  0
LAYER
  2
LAYER108
 70
               0
 62
               7
  6
CONTINUOUS
  0
LAYER
  2
LAYER109
 70
               0
 62
               7
  6
CONTINUOUS
  0
LAYER
  2
LAYER110
 70
               0
 62
               7
  6
CONTINUOUS
  0
LAYER
  2
LAYER111
 70
               0
 62
               7
  6
CONTINUOUS
  0
LAYER
  2
LAYER112
 70
               0
 62
               7
  6
CONTINUOUS
  0
LAYER
  2
LAYER113
 70
               0
 62
               7
  6
CONTINUOUS
  0
LAYER
  2
LAYER114
 70
               0
 62
               7
  6
CONTINUOUS
  0
LAYER
  2
LAYER115
 70
               0
 62
               7
  6
CONTINUOUS
  0
LAYER
  2
LAYER116
 70
               0
 62
               7
  6
CONTINUOUS
  0
LAYER
  2
LAYER117
 70
               0
 62
               7
  6
CONTINUOUS
  0
LAYER
  2
LAYER118
 70
               0
 62
               7
  6
CONTINUOUS
  0
LAYER
  2
LAYER119
 70
               0
 62
               7
  6
CONTINUOUS
  0
LAYER
  2
LAYER120
 70
               0
 62
               7
  6
CONTINUOUS
  0
LAYER
  2
LAYER121
 70
               0
 62
               7
  6
CONTINUOUS
  0
LAYER
  2
LAYER122
 70
               0
 62
               7
  6
CONTINUOUS
  0
LAYER
  2
LAYER123
 70
               0
 62
               7
  6
CONTINUOUS
  0
LAYER
  2
LAYER124
 70
               0
 62
               7
  6
CONTINUOUS
  0
LAYER
  2
LAYER125
 70
               0
 62
               7
  6
CONTINUOUS
  0
LAYER
  2
LAYER126
 70
               0
 62
               7
  6
CONTINUOUS
  0
LAYER
  2
LAYER127
 70
               0
 62
               7
  6
CONTINUOUS
  0
LAYER
  2
LAYER128
 70
               0
 62
               7
  6
CONTINUOUS
  0
LAYER
  2
LAYER129
 70
               0
 62
               7
  6
CONTINUOUS
  0
LAYER
  2
LAYER130
 70
               0
 62
               7
  6
CONTINUOUS
  0
LAYER
  2
LAYER131
 70
               0
 62
               7
  6
CONTINUOUS
  0
LAYER
  2
LAYER132
 70
               0
 62
               7
  6
CONTINUOUS
  0
LAYER
  2
LAYER133
 70
               0
 62
               7
  6
CONTINUOUS
  0
LAYER
  2
LAYER134
 70
               0
 62
               7
  6
CONTINUOUS
  0
LAYER
  2
LAYER135
 70
               0
 62
               7
  6
CONTINUOUS
  0
LAYER
  2
LAYER136
 70
               0
 62
               7
  6
CONTINUOUS
  0
LAYER
  2
LAYER137
 70
               0
 62
               7
  6
CONTINUOUS
  0
LAYER
  2
LAYER138
 70
               0
 62
               7
  6
CONTINUOUS
  0
LAYER
  2
LAYER139
 70
               0
 62
               7
  6
CONTINUOUS
  0
LAYER
  2
LAYER140
 70
               0
 62
               7
  6
CONTINUOUS
  0
LAYER
  2
LAYER141
 70
               0
 62
               7
  6
CONTINUOUS
  0
LAYER
  2
LAYER142
 70
               0
 62
               7
  6
CONTINUOUS
  0
LAYER
  2
LAYER143
 70
               0
 62
               7
  6
CONTINUOUS
  0
LAYER
  2
LAYER144
 70
               0
 62
               7
  6
CONTINUOUS
  0
LAYER
  2
LAYER145
 70
               0
 62
               7
  6
CONTINUOUS
  0
LAYER
  2
LAYER146
 70
               0
 62
               7
  6
CONTINUOUS
  0
LAYER
  2
LAYER147
 70
               0
 62
               7
  6
CONTINUOUS
  0
LAYER
  2
LAYER148
 70
               0
 62
               7
  6
CONTINUOUS
  0
LAYER
  2
LAYER149
 70
               0
 62
               7
  6
CONTINUOUS
  0
LAYER
  2
LAYER150
 70
               0
 62
               7
  6
CONTINUOUS
  0
LAYER
  2
LAYER151
 70
               0
 62
               7
  6
CONTINUOUS
  0
LAYER
  2
LAYER152
 70
               0
 62
               7
  6
CONTINUOUS
  0
LAYER
  2
LAYER153
 70
               0
 62
               7
  6
CONTINUOUS
  0
LAYER
  2
LAYER154
 70
               0
 62
               7
  6
CONTINUOUS
  0
LAYER
  2
LAYER155
 70
               0
 62
               7
  6
CONTINUOUS
  0
LAYER
  2
LAYER156
 70
               0
 62
               7
  6
CONTINUOUS
  0
LAYER
  2
LAYER157
 70
               0
 62
               7
  6
CONTINUOUS
  0
LAYER
  2
LAYER158
 70
               0
 62
               7
  6
CONTINUOUS
  0
LAYER
  2
LAYER159
 70
               0
 62
               7
  6
CONTINUOUS
  0
LAYER
  2
LAYER160
 70
               0
 62
               7
  6
CONTINUOUS
  0
LAYER
  2
LAYER161
 70
               0
 62
               7
  6
CONTINUOUS
  0
LAYER
  2
LAYER162
 70
               0
 62
               7
  6
CONTINUOUS
  0
LAYER
  2
LAYER163
 70
               0
 62
               7
  6
CONTINUOUS
  0
LAYER
  2
LAYER164
 70
               0
 62
               7
  6
CONTINUOUS
  0
LAYER
  2
LAYER165
 70
               0
 62
               7
  6
CONTINUOUS
  0
LAYER
  2
LAYER166
 70
               0
 62
               7
  6
CONTINUOUS
  0
LAYER
  2
LAYER167
 70
               0
 62
               7
  6
CONTINUOUS
  0
LAYER
  2
LAYER168
 70
               0
 62
               7
  6
CONTINUOUS
  0
LAYER
  2
LAYER169
 70
               0
 62
               7
  6
CONTINUOUS
  0
LAYER
  2
LAYER170
 70
               0
 62
               7
  6
CONTINUOUS
  0
LAYER
  2
LAYER171
 70
               0
 62
               7
  6
CONTINUOUS
  0
LAYER
  2
LAYER172
 70
               0
 62
               7
  6
CONTINUOUS
  0
LAYER
  2
LAYER173
 70
               0
 62
               7
  6
CONTINUOUS
  0
LAYER
  2
LAYER174
 70
               0
 62
               7
  6
CONTINUOUS
  0
LAYER
  2
LAYER175
 70
               0
 62
               7
  6
CONTINUOUS
  0
LAYER
  2
LAYER176
 70
               0
 62
               7
  6
CONTINUOUS
  0
LAYER
  2
LAYER177
 70
               0
 62
               7
  6
CONTINUOUS
  0
LAYER
  2
LAYER178
 70
               0
 62
               7
  6
CONTINUOUS
  0
LAYER
  2
LAYER179
 70
               0
 62
               7
  6
CONTINUOUS
  0
LAYER
  2
LAYER180
 70
               0
 62
               7
  6
CONTINUOUS
  0
LAYER
  2
LAYER181
 70
               0
 62
               7
  6
CONTINUOUS
  0
LAYER
  2
LAYER182
 70
               0
 62
               7
  6
CONTINUOUS
  0
LAYER
  2
LAYER183
 70
               0
 62
               7
  6
CONTINUOUS
  0
LAYER
  2
LAYER184
 70
               0
 62
               7
  6
CONTINUOUS
  0
LAYER
  2
LAYER185
 70
               0
 62
               7
  6
CONTINUOUS
  0
LAYER
  2
LAYER186
 70
               0
 62
               7
  6
CONTINUOUS
  0
LAYER
  2
LAYER187
 70
               0
 62
               7
  6
CONTINUOUS
  0
LAYER
  2
LAYER188
 70
               0
 62
               7
  6
CONTINUOUS
  0
LAYER
  2
LAYER189
 70
               0
 62
               7
  6
CONTINUOUS
  0
LAYER
  2
LAYER190
 70
               0
 62
               7
  6
CONTINUOUS
  0
LAYER
  2
LAYER191
 70
               0
 62
               7
  6
CONTINUOUS
  0
LAYER
  2
LAYER192
 70
               0
 62
               7
  6
CONTINUOUS
  0
LAYER
  2
LAYER193
 70
               0
 62
               7
  6
CONTINUOUS
  0
LAYER
  2
LAYER194
 70
               0
 62
               7
  6
CONTINUOUS
  0
LAYER
  2
LAYER195
 70
               0
 62
               7
  6
CONTINUOUS
  0
LAYER
  2
LAYER196
 70
               0
 62
               7
  6
CONTINUOUS
  0
LAYER
  2
LAYER197
 70
               0
 62
               7
  6
CONTINUOUS
  0
LAYER
  2
LAYER198
 70
               0
 62
               7
  6
CONTINUOUS
  0
LAYER
  2
LAYER199
 70
               0
 62
               7
  6
CONTINUOUS
  0
LAYER
  2
LAYER200
 70
               0
 62
               7
  6
CONTINUOUS
  0
LAYER
  2
LAYER201
 70
               0
 62
               7
  6
CONTINUOUS
  0
LAYER
  2
LAYER202
 70
               0
 62
               7
  6
CONTINUOUS
  0
LAYER
  2
LAYER203
 70
               0
 62
               7
  6
CONTINUOUS
  0
LAYER
  2
LAYER204
 70
               0
 62
               7
  6
CONTINUOUS
  0
LAYER
  2
LAYER205
 70
               0
 62
               7
  6
CONTINUOUS
  0
LAYER
  2
LAYER206
 70
               0
 62
               7
  6
CONTINUOUS
  0
LAYER
  2
LAYER207
 70
               0
 62
               7
  6
CONTINUOUS
  0
LAYER
  2
LAYER208
 70
               0
 62
               7
  6
CONTINUOUS
  0
LAYER
  2
LAYER209
 70
               0
 62
               7
  6
CONTINUOUS
  0
LAYER
  2
LAYER210
 70
               0
 62
               7
  6
CONTINUOUS
  0
LAYER
  2
LAYER211
 70
               0
 62
               7
  6
CONTINUOUS
  0
LAYER
  2
LAYER212
 70
               0
 62
               7
  6
CONTINUOUS
  0
LAYER
  2
LAYER213
 70
               0
 62
               7
  6
CONTINUOUS
  0
LAYER
  2
LAYER214
 70
               0
 62
               7
  6
CONTINUOUS
  0
LAYER
  2
LAYER215
 70
               0
 62
               7
  6
CONTINUOUS
  0
LAYER
  2
LAYER216
 70
               0
 62
               7
  6
CONTINUOUS
  0
LAYER
  2
LAYER217
 70
               0
 62
               7
  6
CONTINUOUS
  0
LAYER
  2
LAYER218
 70
               0
 62
               7
  6
CONTINUOUS
  0
LAYER
  2
LAYER219
 70
               0
 62
               7
  6
CONTINUOUS
  0
LAYER
  2
LAYER220
 70
               0
 62
               7
  6
CONTINUOUS
  0
LAYER
  2
LAYER221
 70
               0
 62
               7
  6
CONTINUOUS
  0
LAYER
  2
LAYER222
 70
               0
 62
               7
  6
CONTINUOUS
  0
LAYER
  2
LAYER223
 70
               0
 62
               7
  6
CONTINUOUS
  0
LAYER
  2
LAYER224
 70
               0
 62
               7
  6
CONTINUOUS
  0
LAYER
  2
LAYER225
 70
               0
 62
               7
  6
CONTINUOUS
  0
LAYER
  2
LAYER226
 70
               0
 62
               7
  6
CONTINUOUS
  0
LAYER
  2
LAYER227
 70
               0
 62
               7
  6
CONTINUOUS
  0
LAYER
  2
LAYER228
 70
               0
 62
               7
  6
CONTINUOUS
  0
LAYER
  2
LAYER229
 70
               0
 62
               7
  6
CONTINUOUS
  0
LAYER
  2
LAYER230
 70
               0
 62
               7
  6
CONTINUOUS
  0
LAYER
  2
LAYER231
 70
               0
 62
               7
  6
CONTINUOUS
  0
LAYER
  2
LAYER232
 70
               0
 62
               7
  6
CONTINUOUS
  0
LAYER
  2
LAYER233
 70
               0
 62
               7
  6
CONTINUOUS
  0
LAYER
  2
LAYER234
 70
               0
 62
               7
  6
CONTINUOUS
  0
LAYER
  2
LAYER235
 70
               0
 62
               7
  6
CONTINUOUS
  0
LAYER
  2
LAYER236
 70
               0
 62
               7
  6
CONTINUOUS
  0
LAYER
  2
LAYER237
 70
               0
 62
               7
  6
CONTINUOUS
  0
LAYER
  2
LAYER238
 70
               0
 62
               7
  6
CONTINUOUS
  0
LAYER
  2
LAYER239
 70
               0
 62
               7
  6
CONTINUOUS
  0
LAYER
  2
LAYER240
 70
               0
 62
               7
  6
CONTINUOUS
  0
LAYER
  2
LAYER241
 70
               0
 62
               7
  6
CONTINUOUS
  0
LAYER
  2
LAYER242
 70
               0
 62
               7
  6
CONTINUOUS
  0
LAYER
  2
LAYER243
 70
               0
 62
               7
  6
CONTINUOUS
  0
LAYER
  2
LAYER244
 70
               0
 62
               7
  6
CONTINUOUS
  0
LAYER
  2
LAYER245
 70
               0
 62
               7
  6
CONTINUOUS
  0
LAYER
  2
LAYER246
 70
               0
 62
               7
  6
CONTINUOUS
  0
LAYER
  2
LAYER247
 70
               0
 62
               7
  6
CONTINUOUS
  0
LAYER
  2
LAYER248
 70
               0
 62
               7
  6
CONTINUOUS
  0
LAYER
  2
LAYER249
 70
               0
 62
               7
  6
CONTINUOUS
  0
LAYER
  2
LAYER250
 70
               0
 62
               7
  6
CONTINUOUS
  0
LAYER
  2
LAYER251
 70
               0
 62
               7
  6
CONTINUOUS
  0
LAYER
  2
LAYER252
 70
               0
 62
               7
  6
CONTINUOUS
  0
LAYER
  2
LAYER253
 70
               0
 62
               7
  6
CONTINUOUS
  0
LAYER
  2
LAYER254
 70
               0
 62
               7
  6
CONTINUOUS
  0
LAYER
  2
LAYER255
 70
               0
 62
               7
  6
CONTINUOUS
  0
ENDTAB
  0
TABLE
  2
STYLE
 70
               1
  0
STYLE
  2
STANDARD
 70
               0
 40
0.0
 41
0.8
 50
0.0
 71
               0
 42
40.0
  3
MS PGothic.ttf
  4

  0
ENDTAB
  0
TABLE
  2
VIEW
 70
               0
  0
VIEW
  2
QQQQ
 70
               0
 40
2614.0581913612073
 10
51.574377082919455
 20
-483.33176079692612
 41
1472.3288429547883
 11
0.0
 21
0.0
 31
1.0
 12
100.0
 22
100.0
 32
0.0
 42
50.0
 43
0.0
 44
0.0
 50
0.0
 71
               0
  0
ENDTAB
  0
TABLE
  2
UCS
 70
               0
  0
ENDTAB
  0
TABLE
  2
APPID
 70
               1
  0
APPID
  2
ACAD
 70
               0
  0
ENDTAB
  0
TABLE
  2
DIMSTYLE
 70
               1
  0
DIMSTYLE
  2
STANDARD
 70
               0
  3

  4

  5

  6

  7

 40
1.0
 41
0.18
 42
0.0625
 43
0.38
 44
0.18
 45
0.0
 46
0.0
 47
0.0
 48
0.0
140
0.18
141
0.09
142
0.0
143
25.399999999999999
144
1.0
145
0.0
146
1.0
147
0.09
 71
               0
 72
               0
 73
               1
 74
               1
 75
               0
 76
               0
 77
               0
 78
               0
170
               0
171
               2
172
               0
173
               0
174
               0
175
               0
176
               0
177
               0
178
               0
  0
ENDTAB
  0
ENDSEC
  0
SECTION
  2
BLOCKS
  0
BLOCK
  8
0
  5
143
  2
GROUP_1
 70
               0
 10
0.0
 20
0.0
 30
0.0
  3
GROUP_1
  0
LINE
  8
0
  6
CONTINUOUS
 62
               4
  5
144
 10
-62.999999999999375
 20
-276.87458705902037
 30
0.0
 11
63.638466492967694
 21
-150.2361205660533
 31
0.0
  0
LINE
  8
0
  6
CONTINUOUS
 62
               4
  5
145
 10
-62.999999999999375
 20
-206.16390895843443
 30
0.0
 11
-4.5106948890226031
 21
-147.67460384745766
 31
0.0
  0
LINE
  8
0
  6
CONTINUOUS
 62
               4
  5
146
 10
-33.089338687850713
 20
-317.67460384745766
 30
0.0
 11
62.999999999998096
 21
-221.58526515960884
 31
0.0
  0
LINE
  8
0
  6
CONTINUOUS
 62
               4
  5
147
 10
37.621339412735196
 20
-317.67460384745766
 30
0.0
 11
62.999999999998096
 21
-292.2959432601948
 31
0.0
  0
ENDBLK
  8
0
  5
148
  0
BLOCK
  8
0
  5
149
  2
GROUP_2
 70
               0
 10
0.0
 20
0.0
 30
0.0
  3
GROUP_2
  0
CIRCLE
  8
0
  6
CONTINUOUS
 62
               7
  5
14A
 10
64.347442648690802
 20
655.71328675118411
 30
0.0
 40
9.5
  0
LINE
  8
0
  6
CONTINUOUS
 62
               7
  5
14B
 10
75.317097763293773
 20
655.71328675118411
 30
0.0
 11
69.832270205992145
 21
665.21328675118389
 31
0.0
  0
LINE
  8
0
  6
CONTINUOUS
 62
               7
  5
14C
 10
69.832270205992145
 20
665.21328675118389
 30
0.0
 11
58.862615091389173
 21
665.21328675118389
 31
0.0
  0
LINE
  8
0
  6
CONTINUOUS
 62
               7
  5
14D
 10
58.862615091389173
 20
665.21328675118389
 30
0.0
 11
53.37778753408783
 21
655.71328675118411
 31
0.0
  0
LINE
  8
0
  6
CONTINUOUS
 62
               7
  5
14E
 10
53.37778753408783
 20
655.71328675118411
 30
0.0
 11
58.862615091389173
 21
646.21328675118411
 31
0.0
  0
LINE
  8
0
  6
CONTINUOUS
 62
               7
  5
14F
 10
58.862615091389173
 20
646.21328675118411
 30
0.0
 11
69.832270205992145
 21
646.21328675118411
 31
0.0
  0
LINE
  8
0
  6
CONTINUOUS
 62
               7
  5
150
 10
69.832270205992145
 20
646.21328675118411
 30
0.0
 11
75.317097763293773
 21
655.71328675118411
 31
0.0
  0
CIRCLE
  8
0
  6
CONTINUOUS
 62
               7
  5
151
 10
64.347442648690802
 20
655.71328675118411
 30
0.0
 40
5.1250000000000009
  0
CIRCLE
  8
0
  6
CONTINUOUS
 62
               7
  5
152
 10
64.347442648690802
 20
655.71328675118411
 30
0.0
 40
6.0000000000000009
  0
ENDBLK
  8
0
  5
153
  0
BLOCK
  8
0
  5
154
  2
GROUP_3
 70
               0
 10
0.0
 20
0.0
 30
0.0
  3
GROUP_3
  0
CIRCLE
  8
0
  6
CONTINUOUS
 62
               7
  5
155
 10
-64.345991527261106
 20
655.71328675118457
 30
0.0
 40
9.5
  0
LINE
  8
0
  6
CONTINUOUS
 62
               7
  5
156
 10
-75.315646641864078
 20
655.71328675118457
 30
0.0
 11
-69.830819084562449
 21
646.2132867511848
 31
0.0
  0
LINE
  8
0
  6
CONTINUOUS
 62
               7
  5
157
 10
-69.830819084562449
 20
646.2132867511848
 30
0.0
 11
-58.861163969959478
 21
646.2132867511848
 31
0.0
  0
LINE
  8
0
  6
CONTINUOUS
 62
               7
  5
158
 10
-58.861163969959478
 20
646.2132867511848
 30
0.0
 11
-53.376336412658134
 21
655.71328675118457
 31
0.0
  0
LINE
  8
0
  6
CONTINUOUS
 62
               7
  5
159
 10
-53.376336412658134
 20
655.71328675118457
 30
0.0
 11
-58.861163969959478
 21
665.21328675118457
 31
0.0
  0
LINE
  8
0
  6
CONTINUOUS
 62
               7
  5
15A
 10
-58.861163969959478
 20
665.21328675118457
 30
0.0
 11
-69.830819084562449
 21
665.21328675118457
 31
0.0
  0
LINE
  8
0
  6
CONTINUOUS
 62
               7
  5
15B
 10
-69.830819084562449
 20
665.21328675118457
 30
0.0
 11
-75.315646641864078
 21
655.71328675118457
 31
0.0
  0
CIRCLE
  8
0
  6
CONTINUOUS
 62
               7
  5
15C
 10
-64.345991527261106
 20
655.71328675118457
 30
0.0
 40
5.1250000000000009
  0
CIRCLE
  8
0
  6
CONTINUOUS
 62
               7
  5
15D
 10
-64.345991527261106
 20
655.71328675118457
 30
0.0
 40
6.0000000000000009
  0
ENDBLK
  8
0
  5
15E
  0
BLOCK
  8
0
  5
15F
  2
GROUP_4
 70
               0
 10
0.0
 20
0.0
 30
0.0
  3
GROUP_4
  0
CIRCLE
  8
0
  6
CONTINUOUS
 62
               7
  5
160
 10
64.347442648691214
 20
527.01985257523188
 30
0.0
 40
9.5
  0
LINE
  8
0
  6
CONTINUOUS
 62
               7
  5
161
 10
75.317097763294186
 20
527.01985257523188
 30
0.0
 11
69.832270205992558
 21
536.51985257523188
 31
0.0
  0
LINE
  8
0
  6
CONTINUOUS
 62
               7
  5
162
 10
69.832270205992558
 20
536.51985257523188
 30
0.0
 11
58.862615091389586
 21
536.51985257523188
 31
0.0
  0
LINE
  8
0
  6
CONTINUOUS
 62
               7
  5
163
 10
58.862615091389586
 20
536.51985257523188
 30
0.0
 11
53.377787534088242
 21
527.01985257523188
 31
0.0
  0
LINE
  8
0
  6
CONTINUOUS
 62
               7
  5
164
 10
53.377787534088242
 20
527.01985257523188
 30
0.0
 11
58.862615091389586
 21
517.51985257523188
 31
0.0
  0
LINE
  8
0
  6
CONTINUOUS
 62
               7
  5
165
 10
58.862615091389586
 20
517.51985257523188
 30
0.0
 11
69.832270205992558
 21
517.51985257523188
 31
0.0
  0
LINE
  8
0
  6
CONTINUOUS
 62
               7
  5
166
 10
69.832270205992558
 20
517.51985257523188
 30
0.0
 11
75.317097763294186
 21
527.01985257523188
 31
0.0
  0
CIRCLE
  8
0
  6
CONTINUOUS
 62
               7
  5
167
 10
64.347442648691214
 20
527.01985257523188
 30
0.0
 40
5.1250000000000009
  0
CIRCLE
  8
0
  6
CONTINUOUS
 62
               7
  5
168
 10
64.347442648691214
 20
527.01985257523188
 30
0.0
 40
6.0000000000000009
  0
ENDBLK
  8
0
  5
169
  0
BLOCK
  8
0
  5
16A
  2
GROUP_5
 70
               0
 10
0.0
 20
0.0
 30
0.0
  3
GROUP_5
  0
CIRCLE
  8
0
  6
CONTINUOUS
 62
               7
  5
16B
 10
-64.34599152726166
 20
527.01985257523279
 30
0.0
 40
9.5
  0
LINE
  8
0
  6
CONTINUOUS
 62
               7
  5
16C
 10
-75.315646641864632
 20
527.01985257523279
 30
0.0
 11
-69.830819084563004
 21
517.51985257523279
 31
0.0
  0
LINE
  8
0
  6
CONTINUOUS
 62
               7
  5
16D
 10
-69.830819084563004
 20
517.51985257523279
 30
0.0
 11
-58.861163969960032
 21
517.51985257523279
 31
0.0
  0
LINE
  8
0
  6
CONTINUOUS
 62
               7
  5
16E
 10
-58.861163969960032
 20
517.51985257523279
 30
0.0
 11
-53.376336412658688
 21
527.01985257523279
 31
0.0
  0
LINE
  8
0
  6
CONTINUOUS
 62
               7
  5
16F
 10
-53.376336412658688
 20
527.01985257523279
 30
0.0
 11
-58.861163969960032
 21
536.51985257523256
 31
0.0
  0
LINE
  8
0
  6
CONTINUOUS
 62
               7
  5
170
 10
-58.861163969960032
 20
536.51985257523256
 30
0.0
 11
-69.830819084563004
 21
536.51985257523256
 31
0.0
  0
LINE
  8
0
  6
CONTINUOUS
 62
               7
  5
171
 10
-69.830819084563004
 20
536.51985257523256
 30
0.0
 11
-75.315646641864632
 21
527.01985257523279
 31
0.0
  0
CIRCLE
  8
0
  6
CONTINUOUS
 62
               7
  5
172
 10
-64.34599152726166
 20
527.01985257523279
 30
0.0
 40
5.1250000000000009
  0
CIRCLE
  8
0
  6
CONTINUOUS
 62
               7
  5
173
 10
-64.34599152726166
 20
527.01985257523279
 30
0.0
 40
6.0000000000000009
  0
ENDBLK
  8
0
  5
174
  0
BLOCK
  8
0
  5
175
  2
GROUP_6
 70
               0
 10
0.0
 20
0.0
 30
0.0
  3
GROUP_6
  0
LINE
  8
0
  6
CONTINUOUS
 62
               4
  5
176
 10
-562.99999999999886
 20
-276.87458705901975
 30
0.0
 11
-436.36153350703177
 21
-150.23612056605276
 31
0.0
  0
LINE
  8
0
  6
CONTINUOUS
 62
               4
  5
177
 10
-562.99999999999886
 20
-206.16390895843381
 30
0.0
 11
-504.51069488902255
 21
-147.67460384745755
 31
0.0
  0
LINE
  8
0
  6
CONTINUOUS
 62
               4
  5
178
 10
-533.08933868785061
 20
-317.67460384745743
 30
0.0
 11
-437.00000000000148
 21
-221.58526515960835
 31
0.0
  0
LINE
  8
0
  6
CONTINUOUS
 62
               4
  5
179
 10
-462.37866058726462
 20
-317.67460384745743
 30
0.0
 11
-437.00000000000148
 21
-292.29594326019429
 31
0.0
  0
ENDBLK
  8
0
  5
17A
  0
BLOCK
  8
0
  5
17B
  2
GROUP_7
 70
               0
 10
0.0
 20
0.0
 30
0.0
  3
GROUP_7
  0
LINE
  8
0
  6
CONTINUOUS
 62
               4
  5
17C
 10
437.0000000000029
 20
-276.8745880126923
 30
0.0
 11
563.63846649297147
 21
-150.23612056604952
 31
0.0
  0
LINE
  8
0
  6
CONTINUOUS
 62
               4
  5
17D
 10
466.91066226582365
 20
-317.67460384745749
 30
0.0
 11
563.00000000000034
 21
-221.5852661132808
 31
0.0
  0
LINE
  8
0
  6
CONTINUOUS
 62
               4
  5
17E
 10
537.62134036640953
 20
-317.67460384745755
 30
0.0
 11
563.00000000000034
 21
-292.29594421386673
 31
0.0
  0
LINE
  8
0
  6
CONTINUOUS
 62
               4
  5
17F
 10
437.0000000000029
 20
-206.16390991210636
 30
0.0
 11
495.48930606465171
 21
-147.67460384745755
 31
0.0
  0
ENDBLK
  8
0
  5
180
  0
BLOCK
  8
0
  5
181
  2
GROUP_8
 70
               0
 10
0.0
 20
0.0
 30
0.0
  3
GROUP_8
  0
LINE
  8
0
  6
CONTINUOUS
 62
               4
  5
182
 10
-75.2999999999995
 20
20.2999999999995
 30
0.0
 11
-75.2999999999995
 21
30.2999999999995
 31
0.0
  0
LINE
  8
0
  6
CONTINUOUS
 62
               4
  5
183
 10
-69.815172442698213
 20
20.2999999999995
 30
0.0
 11
-69.815172442698213
 21
30.2999999999995
 31
0.0
  0
LINE
  8
0
  6
CONTINUOUS
 62
               4
  5
184
 10
-75.2999999999995
 20
20.2999999999995
 30
0.0
 11
-53.399999999999864
 21
20.2999999999995
 31
0.0
  0
LINE
  8
0
  6
CONTINUOUS
 62
               4
  5
185
 10
-75.2999999999995
 20
30.2999999999995
 30
0.0
 11
-53.399999999999864
 21
30.2999999999995
 31
0.0
  0
LINE
  8
0
  6
CONTINUOUS
 62
               4
  5
186
 10
-53.399999999999864
 20
20.2999999999995
 30
0.0
 11
-53.399999999999864
 21
30.2999999999995
 31
0.0
  0
LINE
  8
0
  6
CONTINUOUS
 62
               4
  5
187
 10
-58.884827557301151
 20
20.2999999999995
 30
0.0
 11
-58.884827557301151
 21
30.2999999999995
 31
0.0
  0
ENDBLK
  8
0
  5
188
  0
BLOCK
  8
0
  5
189
  2
GROUP_9
 70
               0
 10
0.0
 20
0.0
 30
0.0
  3
GROUP_9
  0
LINE
  8
0
  6
CONTINUOUS
 62
               4
  5
18A
 10
75.299999999999955
 20
20.299999999999507
 30
0.0
 11
75.299999999999955
 21
30.299999999999507
 31
0.0
  0
LINE
  8
0
  6
CONTINUOUS
 62
               4
  5
18B
 10
69.815172442698668
 20
20.299999999999507
 30
0.0
 11
69.815172442698668
 21
30.299999999999507
 31
0.0
  0
LINE
  8
0
  6
CONTINUOUS
 62
               4
  5
18C
 10
75.299999999999955
 20
20.299999999999507
 30
0.0
 11
53.400000000000318
 21
20.2999999999995
 31
0.0
  0
LINE
  8
0
  6
CONTINUOUS
 62
               4
  5
18D
 10
75.299999999999955
 20
30.299999999999507
 30
0.0
 11
53.400000000000318
 21
30.2999999999995
 31
0.0
  0
LINE
  8
0
  6
CONTINUOUS
 62
               4
  5
18E
 10
53.400000000000318
 20
20.2999999999995
 30
0.0
 11
53.400000000000318
 21
30.2999999999995
 31
0.0
  0
LINE
  8
0
  6
CONTINUOUS
 62
               4
  5
18F
 10
58.884827557301605
 20
20.299999999999507
 30
0.0
 11
58.884827557301605
 21
30.299999999999507
 31
0.0
  0
ENDBLK
  8
0
  5
190
  0
BLOCK
  8
0
  5
191
  2
GROUP_10
 70
               0
 10
0.0
 20
0.0
 30
0.0
  3
GROUP_10
  0
LINE
  8
0
  6
CONTINUOUS
 62
               4
  5
192
 10
-424.7000000000005
 20
20.299999999999613
 30
0.0
 11
-424.7000000000005
 21
30.299999999999613
 31
0.0
  0
LINE
  8
0
  6
CONTINUOUS
 62
               4
  5
193
 10
-430.18482755730179
 20
20.299999999999613
 30
0.0
 11
-430.18482755730179
 21
30.299999999999613
 31
0.0
  0
LINE
  8
0
  6
CONTINUOUS
 62
               4
  5
194
 10
-424.7000000000005
 20
20.299999999999613
 30
0.0
 11
-446.60000000000014
 21
20.299999999999613
 31
0.0
  0
LINE
  8
0
  6
CONTINUOUS
 62
               4
  5
195
 10
-424.7000000000005
 20
30.299999999999613
 30
0.0
 11
-446.60000000000014
 21
30.299999999999613
 31
0.0
  0
LINE
  8
0
  6
CONTINUOUS
 62
               4
  5
196
 10
-446.60000000000014
 20
20.299999999999613
 30
0.0
 11
-446.60000000000014
 21
30.299999999999613
 31
0.0
  0
LINE
  8
0
  6
CONTINUOUS
 62
               4
  5
197
 10
-441.11517244269885
 20
20.299999999999613
 30
0.0
 11
-441.11517244269885
 21
30.299999999999613
 31
0.0
  0
ENDBLK
  8
0
  5
198
  0
BLOCK
  8
0
  5
199
  2
GROUP_11
 70
               0
 10
0.0
 20
0.0
 30
0.0
  3
GROUP_11
  0
LINE
  8
0
  6
CONTINUOUS
 62
               4
  5
19A
 10
-575.29999999999995
 20
20.299999999999621
 30
0.0
 11
-575.29999999999995
 21
30.299999999999621
 31
0.0
  0
LINE
  8
0
  6
CONTINUOUS
 62
               4
  5
19B
 10
-569.81517244269867
 20
20.299999999999621
 30
0.0
 11
-569.81517244269867
 21
30.299999999999621
 31
0.0
  0
LINE
  8
0
  6
CONTINUOUS
 62
               4
  5
19C
 10
-575.29999999999995
 20
20.299999999999621
 30
0.0
 11
-553.40000000000032
 21
20.299999999999613
 31
0.0
  0
LINE
  8
0
  6
CONTINUOUS
 62
               4
  5
19D
 10
-575.29999999999995
 20
30.299999999999621
 30
0.0
 11
-553.40000000000032
 21
30.299999999999613
 31
0.0
  0
LINE
  8
0
  6
CONTINUOUS
 62
               4
  5
19E
 10
-553.40000000000032
 20
20.299999999999613
 30
0.0
 11
-553.40000000000032
 21
30.299999999999613
 31
0.0
  0
LINE
  8
0
  6
CONTINUOUS
 62
               4
  5
19F
 10
-558.88482755730161
 20
20.299999999999621
 30
0.0
 11
-558.88482755730161
 21
30.299999999999621
 31
0.0
  0
ENDBLK
  8
0
  5
1A0
  0
BLOCK
  8
0
  5
1A1
  2
GROUP_12
 70
               0
 10
0.0
 20
0.0
 30
0.0
  3
GROUP_12
  0
LINE
  8
0
  6
CONTINUOUS
 62
               4
  5
1A2
 10
424.70000000000005
 20
20.299999999999613
 30
0.0
 11
424.70000000000005
 21
30.299999999999613
 31
0.0
  0
LINE
  8
0
  6
CONTINUOUS
 62
               4
  5
1A3
 10
430.18482755730133
 20
20.299999999999613
 30
0.0
 11
430.18482755730133
 21
30.299999999999613
 31
0.0
  0
LINE
  8
0
  6
CONTINUOUS
 62
               4
  5
1A4
 10
424.70000000000005
 20
20.299999999999613
 30
0.0
 11
446.59999999999968
 21
20.299999999999613
 31
0.0
  0
LINE
  8
0
  6
CONTINUOUS
 62
               4
  5
1A5
 10
424.70000000000005
 20
30.299999999999613
 30
0.0
 11
446.59999999999968
 21
30.299999999999613
 31
0.0
  0
LINE
  8
0
  6
CONTINUOUS
 62
               4
  5
1A6
 10
446.59999999999968
 20
20.299999999999613
 30
0.0
 11
446.59999999999968
 21
30.299999999999613
 31
0.0
  0
LINE
  8
0
  6
CONTINUOUS
 62
               4
  5
1A7
 10
441.11517244269839
 20
20.299999999999613
 30
0.0
 11
441.11517244269839
 21
30.299999999999613
 31
0.0
  0
ENDBLK
  8
0
  5
1A8
  0
BLOCK
  8
0
  5
1A9
  2
GROUP_13
 70
               0
 10
0.0
 20
0.0
 30
0.0
  3
GROUP_13
  0
LINE
  8
0
  6
CONTINUOUS
 62
               4
  5
1AA
 10
575.2999999999995
 20
20.299999999999621
 30
0.0
 11
575.2999999999995
 21
30.299999999999621
 31
0.0
  0
LINE
  8
0
  6
CONTINUOUS
 62
               4
  5
1AB
 10
569.81517244269821
 20
20.299999999999621
 30
0.0
 11
569.81517244269821
 21
30.299999999999621
 31
0.0
  0
LINE
  8
0
  6
CONTINUOUS
 62
               4
  5
1AC
 10
575.2999999999995
 20
20.299999999999621
 30
0.0
 11
553.39999999999986
 21
20.299999999999613
 31
0.0
  0
LINE
  8
0
  6
CONTINUOUS
 62
               4
  5
1AD
 10
575.2999999999995
 20
30.299999999999621
 30
0.0
 11
553.39999999999986
 21
30.299999999999613
 31
0.0
  0
LINE
  8
0
  6
CONTINUOUS
 62
               4
  5
1AE
 10
553.39999999999986
 20
20.299999999999613
 30
0.0
 11
553.39999999999986
 21
30.299999999999613
 31
0.0
  0
LINE
  8
0
  6
CONTINUOUS
 62
               4
  5
1AF
 10
558.88482755730115
 20
20.299999999999621
 30
0.0
 11
558.88482755730115
 21
30.299999999999621
 31
0.0
  0
ENDBLK
  8
0
  5
1B0
  0
ENDSEC
  0
SECTION
  2
ENTITIES
  0
LINE
  8
0
  6
CONTINUOUS
 62
               4
  5
1B1
 10
75.0
 20
-126.39694188029046
 30
0.0
 11
75.0
 21
-25.999999999999659
 31
0.0
  0
LINE
  8
0
  6
CONTINUOUS
 62
               4
  5
1B2
 10
-56.000000000000512
 20
-248.49999999999972
 30
0.0
 11
-56.000000000000753
 21
-151.61014531588728
 31
0.0
  0
LINE
  8
0
  6
CONTINUOUS
 62
               4
  5
1B3
 10
56.000000000000227
 20
-151.61014531588711
 30
0.0
 11
56.000000000000227
 21
-248.49999999999977
 31
0.0
  0
LINE
  8
0
  6
CONTINUOUS
 62
               4
  5
1B4
 10
56.500000000000057
 20
-248.99999999999957
 30
0.0
 11
-56.499999999999972
 21
-248.99999999999923
 31
0.0
  0
LINE
  8
0
  6
CONTINUOUS
 62
               4
  5
1B5
 10
56.500000000000057
 20
-248.99999999999957
 30
0.0
 11
56.500000000000057
 21
-483.99999999999943
 31
0.0
  0
LINE
  8
0
  6
CONTINUOUS
 62
               4
  5
1B6
 10
-56.499999999999972
 20
-248.99999999999923
 30
0.0
 11
-56.499999999999972
 21
-483.99999999999943
 31
0.0
  0
LINE
  8
0
  6
CONTINUOUS
 62
               4
  5
1B7
 10
-56.499999999999972
 20
-248.99999999999923
 30
0.0
 11
-56.00000000000027
 21
-248.49999999999949
 31
0.0
  0
LINE
  8
0
  6
CONTINUOUS
 62
               4
  5
1B8
 10
56.500000000000057
 20
-248.99999999999957
 30
0.0
 11
56.000000000000441
 21
-248.5
 31
0.0
  0
LINE
  8
0
  6
CONTINUOUS
 62
               4
  5
1B9
 10
56.000000000000227
 20
-248.49999999999977
 30
0.0
 11
-56.000000000000512
 21
-248.49999999999977
 31
0.0
  0
LINE
  8
0
  6
CONTINUOUS
 62
               4
  5
1BA
 10
54.501218345963366
 20
-548.99999999999943
 30
0.0
 11
56.500000000000114
 21
-547.06979899340433
 31
0.0
  0
LINE
  8
0
  6
CONTINUOUS
 62
               4
  5
1BB
 10
-54.501218345963252
 20
-548.99999999999943
 30
0.0
 11
-56.5
 21
-547.06979899340433
 31
0.0
  0
ARC
  8
0
  6
CONTINUOUS
 62
               4
  5
1BC
 10
-445.00000000000045
 20
139.00000000000063
 30
0.0
 40
19.999999999999996
 50
0.0
 51
31.788330617051724
  0
LINE
  8
0
  6
CONTINUOUS
 62
               4
  5
1BD
 10
-428.00000000000045
 20
224.41742430504519
 30
0.0
 11
-428.00000000000045
 21
149.53565375285336
 31
0.0
  0
ARC
  8
0
  6
CONTINUOUS
 62
               4
  5
1BE
 10
-555.0
 20
139.00000000000063
 30
0.0
 40
19.999999999999996
 50
148.21166938294789
 51
179.9999999999996
  0
LINE
  8
0
  6
CONTINUOUS
 62
               4
  5
1BF
 10
-572.00000000000045
 20
149.53565375285336
 30
0.0
 11
-572.00000000000045
 21
224.41742430504519
 31
0.0
  0
ARC
  8
0
  6
CONTINUOUS
 62
               4
  5
1C0
 10
-474.21603418803386
 20
139.00000000000063
 30
0.0
 40
17.566965811965957
 50
143.14855134076873
 51
179.9999999999996
  0
LINE
  8
0
  6
CONTINUOUS
 62
               4
  5
1C1
 10
-511.7270000000002
 20
154.53565375285336
 30
0.0
 11
-488.2729999999998
 21
154.53565375285336
 31
0.0
  0
ARC
  8
0
  6
CONTINUOUS
 62
               4
  5
1C2
 10
-525.78396581196557
 20
139.00000000000063
 30
0.0
 40
17.566965811965957
 50
0.0
 51
36.851448659230869
  0
LINE
  8
0
  6
CONTINUOUS
 62
               4
  5
1C3
 10
-488.2729999999998
 20
149.53565375285336
 30
0.0
 11
-488.2729999999998
 21
154.53565375285336
 31
0.0
  0
LINE
  8
0
  6
CONTINUOUS
 62
               4
  5
1C4
 10
-511.7270000000002
 20
149.53565375285336
 30
0.0
 11
-511.7270000000002
 21
154.53565375285336
 31
0.0
  0
LINE
  8
0
  6
CONTINUOUS
 62
               4
  5
1C5
 10
-488.2729999999998
 20
154.53565375285336
 30
0.0
 11
-493.99999999999977
 21
149.53565375285336
 31
0.0
  0
LINE
  8
0
  6
CONTINUOUS
 62
               4
  5
1C6
 10
-505.99999999999966
 20
149.53565375285336
 30
0.0
 11
-511.7270000000002
 21
154.53565375285336
 31
0.0
  0
LINE
  8
0
  6
CONTINUOUS
 62
               4
  5
1C7
 10
-493.99999999999977
 20
149.53565375285336
 30
0.0
 11
-505.99999999999966
 21
149.53565375285336
 31
0.0
  0
LINE
  8
0
  6
CONTINUOUS
 62
               4
  5
1C8
 10
-428.00000000000045
 20
149.53565375285336
 30
0.0
 11
-488.2729999999998
 21
149.53565375285342
 31
0.0
  0
LINE
  8
0
  6
CONTINUOUS
 62
               4
  5
1C9
 10
-511.72699999999952
 20
149.53565375285336
 30
0.0
 11
-572.00000000000045
 21
149.53565375285336
 31
0.0
  0
LINE
  8
0
  6
CONTINUOUS
 62
               4
  5
1CA
 10
-425.0
 20
246.00000000000063
 30
0.0
 11
-575.0
 21
246.00000000000063
 31
0.0
  0
LINE
  8
0
  6
CONTINUOUS
 62
               4
  5
1CB
 10
-411.49999999999955
 20
236.00000000000063
 30
0.0
 11
-411.49999999999955
 21
229.00000000000091
 31
0.0
  0
LINE
  8
0
  6
CONTINUOUS
 62
               4
  5
1CC
 10
-411.49999999999955
 20
236.00000000000063
 30
0.0
 11
-425.0
 21
246.00000000000063
 31
0.0
  0
ARC
  8
0
  6
CONTINUOUS
 62
               4
  5
1CD
 10
-423.0
 20
224.41742430504519
 30
0.0
 40
4.9999999999999991
 50
113.57817847820161
 51
179.9999999999996
  0
LINE
  8
0
  6
CONTINUOUS
 62
               4
  5
1CE
 10
-411.49999999999955
 20
229.00000000000091
 30
0.0
 11
-588.49999999999955
 21
229.00000000000091
 31
0.0
  0
LINE
  8
0
  6
CONTINUOUS
 62
               4
  5
1CF
 10
-480.0
 20
229.00000000000091
 30
0.0
 11
-480.0
 21
246.00000000000063
 31
0.0
  0
LINE
  8
0
  6
CONTINUOUS
 62
               4
  5
1D0
 10
-520.0
 20
246.00000000000063
 30
0.0
 11
-520.0
 21
229.00000000000091
 31
0.0
  0
LINE
  8
0
  6
CONTINUOUS
 62
               4
  5
1D1
 10
-480.0
 20
236.00000000000063
 30
0.0
 11
-520.0
 21
236.00000000000063
 31
0.0
  0
LINE
  8
0
  6
CONTINUOUS
 62
               4
  5
1D2
 10
-427.71583852599451
 20
246.00000000000063
 30
0.0
 11
-427.71583852599451
 21
229.00000000000091
 31
0.0
  0
LINE
  8
0
  6
CONTINUOUS
 62
               4
  5
1D3
 10
-588.49999999999955
 20
236.00000000000063
 30
0.0
 11
-588.49999999999955
 21
229.00000000000091
 31
0.0
  0
LINE
  8
0
  6
CONTINUOUS
 62
               4
  5
1D4
 10
-588.49999999999955
 20
236.00000000000063
 30
0.0
 11
-575.0
 21
246.00000000000063
 31
0.0
  0
ARC
  8
0
  6
CONTINUOUS
 62
               4
  5
1D5
 10
-577.0
 20
224.41742430504519
 30
0.0
 40
4.9999999999999991
 50
0.0
 51
66.421821521798009
  0
LINE
  8
0
  6
CONTINUOUS
 62
               4
  5
1D6
 10
-572.28416147400412
 20
246.00000000000063
 30
0.0
 11
-572.28416147400412
 21
229.00000000000091
 31
0.0
  0
LINE
  8
0
  6
CONTINUOUS
 62
               4
  5
1D7
 10
-575.0
 20
30.300000000000082
 30
0.0
 11
-575.0
 21
139.00000000000063
 31
0.0
  0
LINE
  8
0
  6
CONTINUOUS
 62
               4
  5
1D8
 10
-425.00000000000045
 20
139.00000000000063
 30
0.0
 11
-425.00000000000045
 21
30.30000000000009
 31
0.0
  0
LINE
  8
0
  6
CONTINUOUS
 62
               4
  5
1D9
 10
-505.99999999999966
 20
18.000000000000647
 30
0.0
 11
-505.99999999999966
 21
149.53565375285336
 31
0.0
  0
LINE
  8
0
  6
CONTINUOUS
 62
               4
  5
1DA
 10
-493.99999999999977
 20
149.53565375285336
 30
0.0
 11
-493.99999999999977
 21
18.000000000000718
 31
0.0
  0
LINE
  8
0
  6
CONTINUOUS
 62
               4
  5
1DB
 10
-491.78299999999979
 20
139.00000000000063
 30
0.0
 11
-491.78299999999979
 21
18.000000000000739
 31
0.0
  0
LINE
  8
0
  6
CONTINUOUS
 62
               4
  5
1DC
 10
-508.21699999999964
 20
139.00000000000063
 30
0.0
 11
-508.21699999999964
 21
18.000000000000625
 31
0.0
  0
LINE
  8
0
  6
CONTINUOUS
 62
               4
  5
1DD
 10
71.999999999999545
 20
224.41742430504507
 30
0.0
 11
71.999999999999545
 21
154.53565375285325
 31
0.0
  0
LINE
  8
0
  6
CONTINUOUS
 62
               4
  5
1DE
 10
-72.000000000000455
 20
154.53565375285393
 30
0.0
 11
-72.000000000000455
 21
224.41742430504507
 31
0.0
  0
LINE
  8
0
  6
CONTINUOUS
 62
               4
  5
1DF
 10
71.5
 20
149.53565375285325
 30
0.0
 11
-71.500000000000909
 21
149.53565375285325
 31
0.0
  0
LINE
  8
0
  6
CONTINUOUS
 62
               4
  5
1E0
 10
-77.000000000000455
 20
149.53565375285325
 30
0.0
 11
-72.000000000000455
 21
154.53565375285325
 31
0.0
  0
ARC
  8
0
  6
CONTINUOUS
 62
               4
  5
1E1
 10
-54.500000000000455
 20
139.00000000000051
 30
0.0
 40
19.999999999999996
 50
148.21166938294789
 51
179.9999999999996
  0
LINE
  8
0
  6
CONTINUOUS
 62
               4
  5
1E2
 10
-71.500000000000909
 20
149.53565375285325
 30
0.0
 11
-71.500000000000909
 21
154.53565375285393
 31
0.0
  0
LINE
  8
0
  6
CONTINUOUS
 62
               4
  5
1E3
 10
-72.000000000000455
 20
154.53565375285325
 30
0.0
 11
-71.500000000000909
 21
154.53565375285325
 31
0.0
  0
LINE
  8
0
  6
CONTINUOUS
 62
               4
  5
1E4
 10
76.999999999999545
 20
149.53565375285325
 30
0.0
 11
71.999999999999545
 21
154.53565375285325
 31
0.0
  0
ARC
  8
0
  6
CONTINUOUS
 62
               4
  5
1E5
 10
54.499999999999545
 20
139.00000000000051
 30
0.0
 40
19.999999999999996
 50
0.0
 51
31.788330617051724
  0
LINE
  8
0
  6
CONTINUOUS
 62
               4
  5
1E6
 10
71.5
 20
149.53565375285325
 30
0.0
 11
71.5
 21
154.53565375285393
 31
0.0
  0
LINE
  8
0
  6
CONTINUOUS
 62
               4
  5
1E7
 10
71.999999999999545
 20
154.53565375285325
 30
0.0
 11
71.5
 21
154.53565375285325
 31
0.0
  0
LINE
  8
0
  6
CONTINUOUS
 62
               4
  5
1E8
 10
74.999999999999545
 20
246.00000000000051
 30
0.0
 11
-75.000000000000455
 21
246.00000000000051
 31
0.0
  0
LINE
  8
0
  6
CONTINUOUS
 62
               4
  5
1E9
 10
88.5
 20
236.00000000000051
 30
0.0
 11
88.5
 21
229.0000000000008
 31
0.0
  0
LINE
  8
0
  6
CONTINUOUS
 62
               4
  5
1EA
 10
88.5
 20
236.00000000000051
 30
0.0
 11
74.999999999999545
 21
246.00000000000051
 31
0.0
  0
ARC
  8
0
  6
CONTINUOUS
 62
               4
  5
1EB
 10
76.999999999999545
 20
224.41742430504507
 30
0.0
 40
4.9999999999999991
 50
113.57817847820161
 51
179.9999999999996
  0
LINE
  8
0
  6
CONTINUOUS
 62
               4
  5
1EC
 10
88.5
 20
229.0000000000008
 30
0.0
 11
-88.5
 21
229.0000000000008
 31
0.0
  0
LINE
  8
0
  6
CONTINUOUS
 62
               4
  5
1ED
 10
19.999999999999545
 20
229.0000000000008
 30
0.0
 11
19.999999999999545
 21
246.00000000000051
 31
0.0
  0
LINE
  8
0
  6
CONTINUOUS
 62
               4
  5
1EE
 10
-20.000000000000455
 20
246.00000000000051
 30
0.0
 11
-20.000000000000455
 21
229.0000000000008
 31
0.0
  0
LINE
  8
0
  6
CONTINUOUS
 62
               4
  5
1EF
 10
19.999999999999545
 20
236.00000000000051
 30
0.0
 11
-20.000000000000455
 21
236.00000000000051
 31
0.0
  0
LINE
  8
0
  6
CONTINUOUS
 62
               4
  5
1F0
 10
72.284161474005032
 20
246.00000000000051
 30
0.0
 11
72.284161474005032
 21
229.0000000000008
 31
0.0
  0
LINE
  8
0
  6
CONTINUOUS
 62
               4
  5
1F1
 10
-88.5
 20
236.00000000000051
 30
0.0
 11
-88.5
 21
229.0000000000008
 31
0.0
  0
LINE
  8
0
  6
CONTINUOUS
 62
               4
  5
1F2
 10
-88.5
 20
236.00000000000051
 30
0.0
 11
-75.000000000000455
 21
246.00000000000051
 31
0.0
  0
ARC
  8
0
  6
CONTINUOUS
 62
               4
  5
1F3
 10
-77.000000000000455
 20
224.41742430504507
 30
0.0
 40
4.9999999999999991
 50
0.0
 51
66.421821521798009
  0
LINE
  8
0
  6
CONTINUOUS
 62
               4
  5
1F4
 10
-72.284161474004577
 20
246.00000000000051
 30
0.0
 11
-72.284161474004577
 21
229.0000000000008
 31
0.0
  0
LINE
  8
0
  6
CONTINUOUS
 62
               4
  5
1F5
 10
-74.500000000000455
 20
139.00000000000051
 30
0.0
 11
-74.500000000000455
 21
30.300000000000011
 31
0.0
  0
LINE
  8
0
  6
CONTINUOUS
 62
               4
  5
1F6
 10
-77.000000000000455
 20
149.53565375285325
 30
0.0
 11
-77.000000000000455
 21
20.300000000000011
 31
0.0
  0
LINE
  8
0
  6
CONTINUOUS
 62
               4
  5
1F7
 10
74.499999999999545
 20
139.00000000000051
 30
0.0
 11
74.499999999999545
 21
30.300000000000018
 31
0.0
  0
LINE
  8
0
  6
CONTINUOUS
 62
               4
  5
1F8
 10
76.999999999999545
 20
149.53565375285325
 30
0.0
 11
76.999999999999545
 21
20.300000000000018
 31
0.0
  0
LINE
  8
0
  6
CONTINUOUS
 62
               4
  5
1F9
 10
-443.99999999999994
 20
-248.49999999999972
 30
0.0
 11
-443.99999999999972
 21
-151.61014531588728
 31
0.0
  0
LINE
  8
0
  6
CONTINUOUS
 62
               4
  5
1FA
 10
-555.99999999999977
 20
-151.61014531588711
 30
0.0
 11
-556.00000000000068
 21
-248.49999999999977
 31
0.0
  0
LINE
  8
0
  6
CONTINUOUS
 62
               4
  5
1FB
 10
-556.50000000000045
 20
-248.99999999999957
 30
0.0
 11
-443.50000000000045
 21
-248.99999999999923
 31
0.0
  0
LINE
  8
0
  6
CONTINUOUS
 62
               4
  5
1FC
 10
-556.50000000000045
 20
-248.99999999999957
 30
0.0
 11
-556.50000000000045
 21
-483.99999999999932
 31
0.0
  0
LINE
  8
0
  6
CONTINUOUS
 62
               4
  5
1FD
 10
-443.50000000000045
 20
-248.99999999999923
 30
0.0
 11
-443.50000000000045
 21
-483.99999999999932
 31
0.0
  0
LINE
  8
0
  6
CONTINUOUS
 62
               4
  5
1FE
 10
-443.50000000000045
 20
-248.99999999999923
 30
0.0
 11
-444.00000000000017
 21
-248.49999999999949
 31
0.0
  0
LINE
  8
0
  6
CONTINUOUS
 62
               4
  5
1FF
 10
-556.50000000000045
 20
-248.99999999999957
 30
0.0
 11
-556.00000000000091
 21
-248.5
 31
0.0
  0
LINE
  8
0
  6
CONTINUOUS
 62
               4
  5
200
 10
-556.00000000000068
 20
-248.49999999999977
 30
0.0
 11
-443.99999999999994
 21
-248.49999999999977
 31
0.0
  0
LINE
  8
0
  6
CONTINUOUS
 62
               4
  5
201
 10
-554.50121834596382
 20
-548.99999999999943
 30
0.0
 11
-556.50000000000057
 21
-547.06979899340433
 31
0.0
  0
LINE
  8
0
  6
CONTINUOUS
 62
               4
  5
202
 10
-445.4987816540372
 20
-548.99999999999943
 30
0.0
 11
-443.50000000000045
 21
-547.06979899340433
 31
0.0
  0
LINE
  8
0
  6
CONTINUOUS
 62
               4
  5
203
 10
-31.819805153395279
 20
-111.81980515339467
 30
0.0
 11
-33.446150750124374
 21
-113.44615075012348
 31
0.0
  0
LINE
  8
0
  6
CONTINUOUS
 62
               4
  5
204
 10
31.819805153393943
 20
-111.81980515339467
 30
0.0
 11
33.446150750123039
 21
-113.44615075012348
 31
0.0
  0
ARC
  8
0
  6
CONTINUOUS
 62
               4
  5
205
 10
-0.0000000000006679
 20
-79.999999999999829
 30
0.0
 40
45.0
 50
224.99999999999949
 51
314.99999999999937
  0
CIRCLE
  8
0
  6
CONTINUOUS
 62
               4
  5
206
 10
-0.0000000000006679
 20
-79.999999999999829
 30
0.0
 40
43.0
  0
LINE
  8
0
  6
CONTINUOUS
 62
               4
  5
207
 10
-137.00000000000099
 20
-137.32844387403441
 30
0.0
 11
-67.689887356162288
 21
-139.74880634111781
 31
0.0
  0
CIRCLE
  8
0
  6
CONTINUOUS
 62
               4
  5
208
 10
-0.0000000000006679
 20
-79.999999999999829
 30
0.0
 40
38.75
  0
CIRCLE
  8
0
  6
CONTINUOUS
 62
               4
  5
209
 10
-0.0000000000006679
 20
-79.999999999999829
 30
0.0
 40
47.299999999999997
  0
LINE
  8
0
  6
CONTINUOUS
 62
               4
  5
20A
 10
-62.999999999999218
 20
-317.49999999999909
 30
0.0
 11
62.999999999998309
 21
-317.49999999999909
 31
0.0
  0
LINE
  8
0
  6
CONTINUOUS
 62
               4
  5
20B
 10
-66.199983809200049
 20
-147.6746038474576
 30
0.0
 11
64.935541468428866
 21
-147.6746038474576
 31
0.0
  0
CIRCLE
  8
0
  6
CONTINUOUS
 62
               4
  5
20C
 10
-0.0000000000004547
 20
591.0
 30
0.0
 40
75.0
  0
CIRCLE
  8
0
  6
CONTINUOUS
 62
               4
  5
20D
 10
-0.0000000000004547
 20
591.0
 30
0.0
 40
64.0
  0
CIRCLE
  8
0
  6
CONTINUOUS
 62
               4
  5
20E
 10
-0.0000000000004547
 20
591.0
 30
0.0
 40
52.5
  0
LINE
  8
0
  6
CONTINUOUS
 62
               4
  5
20F
 10
-86.210498200625707
 20
611.0
 30
0.0
 11
-72.284161474005828
 21
611.0
 31
0.0
  0
LINE
  8
0
  6
CONTINUOUS
 62
               4
  5
210
 10
-72.284161474005828
 20
571.00000000000023
 30
0.0
 11
-86.210498200625707
 21
571.00000000000023
 31
0.0
  0
ARC
  8
0
  6
CONTINUOUS
 62
               4
  5
211
 10
-0.0000000000004547
 20
591.0
 30
0.0
 40
88.5
 50
166.93897588519908
 51
193.06102411480012
  0
LINE
  8
0
  6
CONTINUOUS
 62
               4
  5
212
 10
-20.000000000000455
 20
504.78950179937539
 30
0.0
 11
-20.000000000000455
 21
518.7158385259952
 31
0.0
  0
LINE
  8
0
  6
CONTINUOUS
 62
               4
  5
213
 10
19.999999999999542
 20
518.7158385259952
 30
0.0
 11
19.999999999999542
 21
504.78950179937539
 31
0.0
  0
ARC
  8
0
  6
CONTINUOUS
 62
               4
  5
214
 10
-0.0000000000004547
 20
591.00000000000068
 30
0.0
 40
88.5
 50
256.93897588519889
 51
283.06102411479992
  0
LINE
  8
0
  6
CONTINUOUS
 62
               4
  5
215
 10
86.210498200624215
 20
571.00000000000023
 30
0.0
 11
72.284161474003781
 21
571.00000000000023
 31
0.0
  0
LINE
  8
0
  6
CONTINUOUS
 62
               4
  5
216
 10
72.284161474003781
 20
611.0
 30
0.0
 11
86.210498200624215
 21
611.0
 31
0.0
  0
ARC
  8
0
  6
CONTINUOUS
 62
               4
  5
217
 10
-0.0000000000004547
 20
591.0
 30
0.0
 40
88.5
 50
346.93897588519866
 51
373.06102411479969
  0
LINE
  8
0
  6
CONTINUOUS
 62
               4
  5
218
 10
19.999999999999542
 20
677.21049820062581
 30
0.0
 11
19.999999999999542
 21
663.28416147400549
 31
0.0
  0
LINE
  8
0
  6
CONTINUOUS
 62
               4
  5
219
 10
-20.000000000000455
 20
663.28416147400549
 30
0.0
 11
-20.000000000000455
 21
677.21049820062581
 31
0.0
  0
ARC
  8
0
  6
CONTINUOUS
 62
               4
  5
21A
 10
-0.0000000000004547
 20
591.0
 30
0.0
 40
88.5
 50
76.938975885199284
 51
103.06102411480033
  0
ARC
  8
0
  6
CONTINUOUS
 62
               4
  5
21B
 10
-0.0000000000004547
 20
591.0
 30
0.0
 40
77.5
 50
14.955248316643299
 51
75.044751683356509
  0
ARC
  8
0
  6
CONTINUOUS
 62
               4
  5
21C
 10
-0.0000000000004547
 20
591.0
 30
0.0
 40
77.5
 50
284.95524831664267
 51
345.04475168335591
  0
ARC
  8
0
  6
CONTINUOUS
 62
               4
  5
21D
 10
-0.0000000000004547
 20
591.0
 30
0.0
 40
77.5
 50
104.95524831664311
 51
165.04475168335631
  0
ARC
  8
0
  6
CONTINUOUS
 62
               4
  5
21E
 10
-0.0000000000004547
 20
591.0
 30
0.0
 40
77.5
 50
194.95524831664278
 51
255.04475168335611
  0
LINE
  8
0
  6
CONTINUOUS
 62
               4
  5
21F
 10
-91.335080126983271
 20
649.92309801478086
 30
0.0
 11
-137.00000000000034
 21
648.32844387403588
 31
0.0
  0
LINE
  8
0
  6
CONTINUOUS
 62
               4
  5
220
 10
-91.335080126983129
 20
532.07690198522027
 30
0.0
 11
-137.00000000000034
 21
533.6715561259648
 31
0.0
  0
LINE
  8
0
  6
CONTINUOUS
 62
               4
  5
221
 10
-66.725986866652406
 20
673.05069204103302
 30
0.0
 11
-12.239250470441775
 21
680.53036829671601
 31
0.0
  0
ARC
  8
0
  6
CONTINUOUS
 62
               4
  5
222
 10
0.0007255607145709
 20
591.36656966320834
 30
0.0
 40
90.0
 50
82.183566393528665
 51
97.816433606470952
  0
LINE
  8
0
  6
CONTINUOUS
 62
               4
  5
223
 10
66.727437988082116
 20
673.05069204103279
 30
0.0
 11
12.240701591871485
 21
680.53036829671601
 31
0.0
  0
ARC
  8
0
  6
CONTINUOUS
 62
               4
  5
224
 10
64.347442648690802
 20
655.71328675118411
 30
0.0
 40
17.5
 50
7.8164336064711222
 51
82.183566393528707
  0
LINE
  8
0
  6
CONTINUOUS
 62
               4
  5
225
 10
81.68484793853905
 20
658.09328209057571
 30
0.0
 11
89.164524194222835
 21
603.60654569436451
 31
0.0
  0
ARC
  8
0
  6
CONTINUOUS
 62
               4
  5
226
 10
0.0007255607145709
 20
591.36656966320834
 30
0.0
 40
90.0
 50
352.18356639352805
 51
367.81643360647035
  0
LINE
  8
0
  6
CONTINUOUS
 62
               4
  5
227
 10
81.68484793853905
 20
524.63985723584096
 30
0.0
 11
89.164524194222835
 21
579.12659363205171
 31
0.0
  0
ARC
  8
0
  6
CONTINUOUS
 62
               4
  5
228
 10
64.347442648690802
 20
527.01985257523256
 30
0.0
 40
17.5
 50
277.81643360647053
 51
352.18356639352811
  0
LINE
  8
0
  6
CONTINUOUS
 62
               4
  5
229
 10
66.727437988082116
 20
509.68244728538349
 30
0.0
 11
12.240701591871201
 21
502.20277102970095
 31
0.0
  0
ARC
  8
0
  6
CONTINUOUS
 62
               4
  5
22A
 10
0.0007255607145709
 20
591.36656966320834
 30
0.0
 40
90.0
 50
262.18356639352828
 51
277.81643360647053
  0
LINE
  8
0
  6
CONTINUOUS
 62
               4
  5
22B
 10
-66.725986866652406
 20
509.68244728538349
 30
0.0
 11
-12.239250470441775
 21
502.20277102970095
 31
0.0
  0
LINE
  8
0
  6
CONTINUOUS
 62
               4
  5
22C
 10
58.923098014779399
 20
499.66491987301725
 30
0.0
 11
57.328443874034733
 21
454.00000000000063
 31
0.0
  0
LINE
  8
0
  6
CONTINUOUS
 62
               4
  5
22D
 10
-58.923098014781331
 20
499.66491987301725
 30
0.0
 11
-57.328443874036466
 21
454.00000000000063
 31
0.0
  0
ARC
  8
0
  6
CONTINUOUS
 62
               4
  5
22E
 10
-64.347442648691711
 20
655.71328675118411
 30
0.0
 40
17.5
 50
97.816433606470895
 51
172.18356639352848
  0
LINE
  8
0
  6
CONTINUOUS
 62
               4
  5
22F
 10
-81.68484793853996
 20
658.09328209057571
 30
0.0
 11
-89.164524194223745
 21
603.60654569436451
 31
0.0
  0
ARC
  8
0
  6
CONTINUOUS
 62
               4
  5
230
 10
-0.0007255607154875
 20
591.36656966320834
 30
0.0
 40
90.0
 50
172.18356639352845
 51
187.81643360647072
  0
LINE
  8
0
  6
CONTINUOUS
 62
               4
  5
231
 10
-81.68484793853996
 20
524.63985723584096
 30
0.0
 11
-89.164524194223745
 21
579.12659363205171
 31
0.0
  0
ARC
  8
0
  6
CONTINUOUS
 62
               4
  5
232
 10
-64.347442648691711
 20
527.01985257523256
 30
0.0
 40
17.5
 50
187.8164336064707
 51
262.18356639352828
  0
LINE
  8
0
  6
CONTINUOUS
 62
               4
  5
233
 10
-0.0000000000001705
 20
631.0
 30
0.0
 11
29.330127018921928
 21
631.0
 31
0.0
  0
ARC
  8
0
  6
CONTINUOUS
 62
               4
  5
234
 10
19.787973106327112
 20
648.57698051061607
 30
0.0
 40
20.0
 50
298.6520261592741
 51
307.35556117864201
  0
LINE
  8
0
  6
CONTINUOUS
 62
               4
  5
235
 10
-0.0000000000001705
 20
631.0
 30
0.0
 11
-15.972157327522766
 21
641.01140060331136
 31
0.0
  0
LINE
  8
0
  6
CONTINUOUS
 62
               4
  5
236
 10
39.999999999999574
 20
590.99999999999977
 30
0.0
 11
50.01140060331079
 21
606.97215732752215
 31
0.0
  0
LINE
  8
0
  6
CONTINUOUS
 62
               4
  5
237
 10
0.0007255607145709
 20
569.36656966320879
 30
0.0
 11
47.668849081575345
 21
569.36656966320879
 31
0.0
  0
LINE
  8
0
  6
CONTINUOUS
 62
               4
  5
238
 10
-27.255264689689383
 20
546.496078296723
 30
0.0
 11
0.0007255607145709
 21
569.36656966320879
 31
0.0
  0
LINE
  8
0
  6
CONTINUOUS
 62
               4
  5
239
 10
40.000725560714606
 20
591.36656966320811
 30
0.0
 11
40.000725560714606
 21
569.36656966320879
 31
0.0
  0
LINE
  8
0
  6
CONTINUOUS
 62
               4
  5
23A
 10
-575.00000000000045
 20
-126.39694188029046
 30
0.0
 11
-575.00000000000045
 21
-31.466767657286198
 31
0.0
  0
LINE
  8
0
  6
CONTINUOUS
 62
               4
  5
23B
 10
-468.18019484660522
 20
-111.81980515339455
 30
0.0
 11
-466.55384924987607
 21
-113.44615075012337
 31
0.0
  0
LINE
  8
0
  6
CONTINUOUS
 62
               4
  5
23C
 10
-531.81980515339433
 20
-111.81980515339455
 30
0.0
 11
-533.44615075012348
 21
-113.44615075012337
 31
0.0
  0
ARC
  8
0
  6
CONTINUOUS
 62
               4
  5
23D
 10
-499.99999999999977
 20
-79.999999999999716
 30
0.0
 40
45.0
 50
224.99999999999943
 51
314.99999999999932
  0
CIRCLE
  8
0
  6
CONTINUOUS
 62
               4
  5
23E
 10
-499.99999999999977
 20
-79.999999999999716
 30
0.0
 40
43.0
  0
LINE
  8
0
  6
CONTINUOUS
 62
               4
  5
23F
 10
-440.53553390593254
 20
-146.07461140995483
 30
0.0
 11
-435.67114906625841
 21
-141.2102265702805
 31
0.0
  0
ARC
  8
0
  6
CONTINUOUS
 62
               4
  5
240
 10
-432.13561516032564
 20
-144.74576047621315
 30
0.0
 40
5.0
 50
92.000000000000583
 51
135.00000000000085
  0
LINE
  8
0
  6
CONTINUOUS
 62
               4
  5
241
 10
-362.99999999999943
 20
-137.32844387403429
 30
0.0
 11
-432.31011264383818
 21
-139.74880634111767
 31
0.0
  0
CIRCLE
  8
0
  6
CONTINUOUS
 62
               4
  5
242
 10
-499.99999999999977
 20
-79.999999999999716
 30
0.0
 40
38.75
  0
CIRCLE
  8
0
  6
CONTINUOUS
 62
               4
  5
243
 10
-499.99999999999977
 20
-79.999999999999716
 30
0.0
 40
47.299999999999997
  0
LINE
  8
0
  6
CONTINUOUS
 62
               4
  5
244
 10
-433.80001619080042
 20
-147.67460384745749
 30
0.0
 11
-564.93554146842939
 21
-147.67460384745749
 31
0.0
  0
LINE
  8
0
  6
CONTINUOUS
 62
               4
  5
245
 10
-562.99999999999875
 20
-317.49999999999898
 30
0.0
 11
-437.00000000000125
 21
-317.49999999999898
 31
0.0
  0
ARC
  8
0
  6
CONTINUOUS
 62
               4
  5
246
 10
444.99999999999955
 20
139.00000000000063
 30
0.0
 40
19.999999999999996
 50
148.21166938294789
 51
179.9999999999996
  0
LINE
  8
0
  6
CONTINUOUS
 62
               4
  5
247
 10
427.99999999999955
 20
224.41742430504519
 30
0.0
 11
427.99999999999955
 21
149.53565375285336
 31
0.0
  0
ARC
  8
0
  6
CONTINUOUS
 62
               4
  5
248
 10
554.99999999999909
 20
139.00000000000063
 30
0.0
 40
19.999999999999996
 50
0.0
 51
31.788330617051724
  0
LINE
  8
0
  6
CONTINUOUS
 62
               4
  5
249
 10
571.99999999999955
 20
149.53565375285336
 30
0.0
 11
571.99999999999955
 21
224.41742430504519
 31
0.0
  0
ARC
  8
0
  6
CONTINUOUS
 62
               4
  5
24A
 10
474.21603418803295
 20
139.00000000000063
 30
0.0
 40
17.566965811965957
 50
0.0
 51
36.851448659230869
  0
LINE
  8
0
  6
CONTINUOUS
 62
               4
  5
24B
 10
511.72699999999929
 20
154.53565375285336
 30
0.0
 11
488.27299999999889
 21
154.53565375285336
 31
0.0
  0
ARC
  8
0
  6
CONTINUOUS
 62
               4
  5
24C
 10
525.78396581196466
 20
139.00000000000063
 30
0.0
 40
17.566965811965957
 50
143.14855134076873
 51
179.9999999999996
  0
LINE
  8
0
  6
CONTINUOUS
 62
               4
  5
24D
 10
488.27299999999889
 20
149.53565375285336
 30
0.0
 11
488.27299999999889
 21
154.53565375285336
 31
0.0
  0
LINE
  8
0
  6
CONTINUOUS
 62
               4
  5
24E
 10
511.72699999999929
 20
149.53565375285336
 30
0.0
 11
511.72699999999929
 21
154.53565375285336
 31
0.0
  0
LINE
  8
0
  6
CONTINUOUS
 62
               4
  5
24F
 10
488.27299999999889
 20
154.53565375285336
 30
0.0
 11
493.99999999999886
 21
149.53565375285336
 31
0.0
  0
LINE
  8
0
  6
CONTINUOUS
 62
               4
  5
250
 10
505.99999999999875
 20
149.53565375285336
 30
0.0
 11
511.72699999999929
 21
154.53565375285336
 31
0.0
  0
LINE
  8
0
  6
CONTINUOUS
 62
               4
  5
251
 10
493.99999999999886
 20
149.53565375285336
 30
0.0
 11
505.99999999999875
 21
149.53565375285336
 31
0.0
  0
LINE
  8
0
  6
CONTINUOUS
 62
               4
  5
252
 10
427.99999999999955
 20
149.53565375285336
 30
0.0
 11
488.27299999999889
 21
149.53565375285342
 31
0.0
  0
LINE
  8
0
  6
CONTINUOUS
 62
               4
  5
253
 10
511.72699999999861
 20
149.53565375285336
 30
0.0
 11
571.99999999999955
 21
149.53565375285336
 31
0.0
  0
LINE
  8
0
  6
CONTINUOUS
 62
               4
  5
254
 10
424.99999999999909
 20
246.00000000000063
 30
0.0
 11
574.99999999999909
 21
246.00000000000063
 31
0.0
  0
LINE
  8
0
  6
CONTINUOUS
 62
               4
  5
255
 10
411.49999999999864
 20
236.00000000000063
 30
0.0
 11
411.49999999999864
 21
229.00000000000091
 31
0.0
  0
LINE
  8
0
  6
CONTINUOUS
 62
               4
  5
256
 10
411.49999999999864
 20
236.00000000000063
 30
0.0
 11
424.99999999999909
 21
246.00000000000063
 31
0.0
  0
ARC
  8
0
  6
CONTINUOUS
 62
               4
  5
257
 10
422.99999999999909
 20
224.41742430504519
 30
0.0
 40
4.9999999999999991
 50
0.0
 51
66.421821521798009
  0
LINE
  8
0
  6
CONTINUOUS
 62
               4
  5
258
 10
411.49999999999864
 20
229.00000000000091
 30
0.0
 11
588.49999999999864
 21
229.00000000000091
 31
0.0
  0
LINE
  8
0
  6
CONTINUOUS
 62
               4
  5
259
 10
479.99999999999909
 20
229.00000000000091
 30
0.0
 11
479.99999999999909
 21
246.00000000000063
 31
0.0
  0
LINE
  8
0
  6
CONTINUOUS
 62
               4
  5
25A
 10
519.99999999999909
 20
246.00000000000063
 30
0.0
 11
519.99999999999909
 21
229.00000000000091
 31
0.0
  0
LINE
  8
0
  6
CONTINUOUS
 62
               4
  5
25B
 10
479.99999999999909
 20
236.00000000000063
 30
0.0
 11
519.99999999999909
 21
236.00000000000063
 31
0.0
  0
LINE
  8
0
  6
CONTINUOUS
 62
               4
  5
25C
 10
427.7158385259936
 20
246.00000000000063
 30
0.0
 11
427.7158385259936
 21
229.00000000000091
 31
0.0
  0
LINE
  8
0
  6
CONTINUOUS
 62
               4
  5
25D
 10
588.49999999999864
 20
236.00000000000063
 30
0.0
 11
588.49999999999864
 21
229.00000000000091
 31
0.0
  0
LINE
  8
0
  6
CONTINUOUS
 62
               4
  5
25E
 10
588.49999999999864
 20
236.00000000000063
 30
0.0
 11
574.99999999999909
 21
246.00000000000063
 31
0.0
  0
ARC
  8
0
  6
CONTINUOUS
 62
               4
  5
25F
 10
576.99999999999909
 20
224.41742430504519
 30
0.0
 40
4.9999999999999991
 50
113.57817847820161
 51
179.9999999999996
  0
LINE
  8
0
  6
CONTINUOUS
 62
               4
  5
260
 10
572.28416147400321
 20
246.00000000000063
 30
0.0
 11
572.28416147400321
 21
229.00000000000091
 31
0.0
  0
LINE
  8
0
  6
CONTINUOUS
 62
               4
  5
261
 10
574.99999999999909
 20
30.300000000000082
 30
0.0
 11
574.99999999999909
 21
139.00000000000063
 31
0.0
  0
LINE
  8
0
  6
CONTINUOUS
 62
               4
  5
262
 10
424.99999999999955
 20
139.00000000000063
 30
0.0
 11
424.99999999999955
 21
30.30000000000009
 31
0.0
  0
LINE
  8
0
  6
CONTINUOUS
 62
               4
  5
263
 10
505.99999999999875
 20
18.000000000000647
 30
0.0
 11
505.99999999999875
 21
149.53565375285336
 31
0.0
  0
LINE
  8
0
  6
CONTINUOUS
 62
               4
  5
264
 10
493.99999999999886
 20
149.53565375285336
 30
0.0
 11
493.99999999999886
 21
18.000000000000718
 31
0.0
  0
LINE
  8
0
  6
CONTINUOUS
 62
               4
  5
265
 10
491.78299999999888
 20
139.00000000000063
 30
0.0
 11
491.78299999999888
 21
18.000000000000739
 31
0.0
  0
LINE
  8
0
  6
CONTINUOUS
 62
               4
  5
266
 10
508.21699999999873
 20
139.00000000000063
 30
0.0
 11
508.21699999999873
 21
18.000000000000625
 31
0.0
  0
LINE
  8
0
  6
CONTINUOUS
 62
               4
  5
267
 10
443.99999999999903
 20
-248.49999999999972
 30
0.0
 11
443.99999999999886
 21
-151.61014531588722
 31
0.0
  0
LINE
  8
0
  6
CONTINUOUS
 62
               4
  5
268
 10
555.99999999999886
 20
-151.61014531588705
 30
0.0
 11
555.99999999999977
 21
-248.49999999999977
 31
0.0
  0
LINE
  8
0
  6
CONTINUOUS
 62
               4
  5
269
 10
556.49999999999955
 20
-248.99999999999957
 30
0.0
 11
443.49999999999955
 21
-248.99999999999923
 31
0.0
  0
LINE
  8
0
  6
CONTINUOUS
 62
               4
  5
26A
 10
556.49999999999955
 20
-248.99999999999957
 30
0.0
 11
556.49999999999955
 21
-483.99999999999932
 31
0.0
  0
LINE
  8
0
  6
CONTINUOUS
 62
               4
  5
26B
 10
443.49999999999955
 20
-248.99999999999923
 30
0.0
 11
443.49999999999955
 21
-483.99999999999932
 31
0.0
  0
LINE
  8
0
  6
CONTINUOUS
 62
               4
  5
26C
 10
443.49999999999955
 20
-248.99999999999923
 30
0.0
 11
443.99999999999926
 21
-248.49999999999949
 31
0.0
  0
LINE
  8
0
  6
CONTINUOUS
 62
               4
  5
26D
 10
556.49999999999955
 20
-248.99999999999957
 30
0.0
 11
556.0
 21
-248.5
 31
0.0
  0
LINE
  8
0
  6
CONTINUOUS
 62
               4
  5
26E
 10
555.99999999999977
 20
-248.49999999999977
 30
0.0
 11
443.99999999999903
 21
-248.49999999999977
 31
0.0
  0
LINE
  8
0
  6
CONTINUOUS
 62
               4
  5
26F
 10
554.50121834596291
 20
-548.99999999999943
 30
0.0
 11
556.49999999999966
 21
-547.06979899340433
 31
0.0
  0
LINE
  8
0
  6
CONTINUOUS
 62
               4
  5
270
 10
445.49878165403629
 20
-548.99999999999943
 30
0.0
 11
443.49999999999955
 21
-547.06979899340433
 31
0.0
  0
LINE
  8
0
  6
CONTINUOUS
 62
               4
  5
271
 10
574.99999999999955
 20
-126.39694188029038
 30
0.0
 11
574.99999999999955
 21
-25.999999999999545
 31
0.0
  0
LINE
  8
0
  6
CONTINUOUS
 62
               4
  5
272
 10
362.99999999999852
 20
-137.32844387403429
 30
0.0
 11
432.31011264383721
 21
-139.7488063411177
 31
0.0
  0
LINE
  8
0
  6
CONTINUOUS
 62
               4
  5
273
 10
433.80001619079951
 20
-147.67460384745749
 30
0.0
 11
564.93554146842848
 21
-147.67460384745749
 31
0.0
  0
LINE
  8
0
  6
CONTINUOUS
 62
               4
  5
274
 10
562.99999999999784
 20
-317.49999999999898
 30
0.0
 11
437.00000000000034
 21
-317.49999999999898
 31
0.0
  0
LINE
  8
0
  6
CONTINUOUS
 62
               4
  5
275
 10
-91.000000000000966
 20
-554.74522178732184
 30
0.0
 11
-91.000000000000966
 21
-544.87093558026606
 31
0.0
  0
LINE
  8
0
  6
CONTINUOUS
 62
               4
  5
276
 10
90.999999999998778
 20
-554.74522178732184
 30
0.0
 11
90.999999999998778
 21
-544.87093558026606
 31
0.0
  0
LINE
  8
0
  6
CONTINUOUS
 62
               4
  5
277
 10
-65.50000000000199
 20
-653.99999999999818
 30
0.0
 11
65.499999999999915
 21
-653.99999999999818
 31
0.0
  0
LINE
  8
0
  6
CONTINUOUS
 62
               4
  5
278
 10
-565.50000000000159
 20
-653.99999999999818
 30
0.0
 11
-434.49999999999955
 21
-653.99999999999818
 31
0.0
  0
LINE
  8
0
  6
CONTINUOUS
 62
               4
  5
279
 10
434.4999999999975
 20
-653.99999999999818
 30
0.0
 11
565.49999999999955
 21
-653.99999999999818
 31
0.0
  0
ARC
  8
0
  6
CONTINUOUS
 62
               4
  5
27A
 10
-67.864384839674827
 20
-144.74576047621292
 30
0.0
 40
5.0
 50
44.999999999998749
 51
87.999999999999005
  0
LINE
  8
0
  6
CONTINUOUS
 62
               4
  5
27B
 10
-57.464466094067987
 20
-148.07461140995463
 30
0.0
 11
-64.328850933742061
 21
-141.21022657028027
 31
0.0
  0
ARC
  8
0
  6
CONTINUOUS
 62
               4
  5
27C
 10
-61.000000000000753
 20
-151.61014531588728
 30
0.0
 40
5.0
 50
0.0
 51
44.999999999998749
  0
ARC
  8
0
  6
CONTINUOUS
 62
               4
  5
27D
 10
60.999999999999275
 20
-151.61014531588711
 30
0.0
 40
5.0
 50
134.99999999999991
 51
179.9999999999996
  0
LINE
  8
0
  6
CONTINUOUS
 62
               4
  5
27E
 10
57.464466094066509
 20
-148.07461140995434
 30
0.0
 11
72.071067811864864
 21
-133.46800969215587
 31
0.0
  0
ARC
  8
0
  6
CONTINUOUS
 62
               4
  5
27F
 10
64.999999999999403
 20
-126.39694188029046
 30
0.0
 40
10.0
 50
314.99999999999926
 51
359.9999999999992
  0
ARC
  8
0
  6
CONTINUOUS
 62
               4
  5
280
 10
-432.13561516032564
 20
-144.74576047621292
 30
0.0
 40
5.0
 50
92.000000000000583
 51
135.00000000000085
  0
LINE
  8
0
  6
CONTINUOUS
 62
               4
  5
281
 10
-442.53553390593248
 20
-148.07461140995463
 30
0.0
 11
-435.67114906625841
 21
-141.21022657028027
 31
0.0
  0
ARC
  8
0
  6
CONTINUOUS
 62
               4
  5
282
 10
-438.99999999999972
 20
-151.61014531588728
 30
0.0
 40
5.0
 50
135.00000000000085
 51
179.9999999999996
  0
ARC
  8
0
  6
CONTINUOUS
 62
               4
  5
283
 10
-560.99999999999977
 20
-151.61014531588711
 30
0.0
 40
5.0
 50
359.9999999999992
 51
404.99999999999886
  0
LINE
  8
0
  6
CONTINUOUS
 62
               4
  5
284
 10
-557.46446609406701
 20
-148.07461140995434
 30
0.0
 11
-572.0710678118653
 21
-133.46800969215587
 31
0.0
  0
ARC
  8
0
  6
CONTINUOUS
 62
               4
  5
285
 10
-564.99999999999989
 20
-126.39694188029046
 30
0.0
 40
10.0
 50
179.9999999999996
 51
224.99999999999955
  0
ARC
  8
0
  6
CONTINUOUS
 62
               4
  5
286
 10
564.99999999999898
 20
-126.39694188029038
 30
0.0
 40
10.0
 50
314.99999999999926
 51
359.9999999999992
  0
LINE
  8
0
  6
CONTINUOUS
 62
               4
  5
287
 10
557.4644660940661
 20
-148.07461140995429
 30
0.0
 11
572.0710678118644
 21
-133.46800969215582
 31
0.0
  0
ARC
  8
0
  6
CONTINUOUS
 62
               4
  5
288
 10
560.99999999999886
 20
-151.61014531588705
 30
0.0
 40
5.0
 50
134.99999999999991
 51
179.9999999999996
  0
ARC
  8
0
  6
CONTINUOUS
 62
               4
  5
289
 10
432.13561516032479
 20
-144.74576047621309
 30
0.0
 40
5.0
 50
44.999999999998764
 51
87.999999999999019
  0
ARC
  8
0
  6
CONTINUOUS
 62
               4
  5
28A
 10
432.13561516032479
 20
-144.74576047621287
 30
0.0
 40
5.0
 50
44.999999999998764
 51
87.999999999999019
  0
LINE
  8
0
  6
CONTINUOUS
 62
               4
  5
28B
 10
442.53553390593163
 20
-148.07461140995457
 30
0.0
 11
435.67114906625756
 21
-141.21022657028021
 31
0.0
  0
ARC
  8
0
  6
CONTINUOUS
 62
               4
  5
28C
 10
438.99999999999886
 20
-151.61014531588722
 30
0.0
 40
5.0
 50
0.0000000000000133
 51
44.999999999998764
  0
ARC
  8
0
  6
CONTINUOUS
 62
               4
  5
28D
 10
-80.000000000000227
 20
22.999999999999531
 30
0.0
 40
5.0
 50
327.31636115374278
 51
340.05155641122002
  0
ARC
  8
0
  6
CONTINUOUS
 62
               4
  5
28E
 10
-80.000000000000227
 20
22.999999999999531
 30
0.0
 40
5.0
 50
269.99999999999937
 51
302.00545482776477
  0
LINE
  8
0
  6
CONTINUOUS
 62
               4
  5
28F
 10
86.000000000000682
 20
-0.0000000000005116
 30
0.0
 11
86.000000000000682
 21
-6.5000000000001705
 31
0.0
  0
LINE
  8
0
  6
CONTINUOUS
 62
               4
  5
290
 10
-70.349999999999682
 20
-6.5000000000001705
 30
0.0
 11
-70.349999999999682
 21
-0.0000000000005116
 31
0.0
  0
LINE
  8
0
  6
CONTINUOUS
 62
               4
  5
291
 10
-58.349999999999682
 20
-0.0000000000005116
 30
0.0
 11
-58.349999999999682
 21
-6.5000000000001705
 31
0.0
  0
LINE
  8
0
  6
CONTINUOUS
 62
               4
  5
292
 10
58.350000000000591
 20
-6.5000000000001705
 30
0.0
 11
58.350000000000591
 21
-0.0000000000005116
 31
0.0
  0
LINE
  8
0
  6
CONTINUOUS
 62
               4
  5
293
 10
70.350000000000591
 20
-0.0000000000005116
 30
0.0
 11
70.350000000000591
 21
-6.5000000000001705
 31
0.0
  0
LINE
  8
0
  6
CONTINUOUS
 62
               4
  5
294
 10
-86.000000000000227
 20
-0.0000000000005116
 30
0.0
 11
-86.000000000000227
 21
-6.5000000000001705
 31
0.0
  0
LINE
  8
0
  6
CONTINUOUS
 62
               4
  5
295
 10
-51.349999999999682
 20
20.2999999999995
 30
0.0
 11
-51.349999999999682
 21
17.999999999999602
 31
0.0
  0
LINE
  8
0
  6
CONTINUOUS
 62
               4
  5
296
 10
-77.349999999999682
 20
17.999999999999602
 30
0.0
 11
-77.349999999999682
 21
20.2999999999995
 31
0.0
  0
LINE
  8
0
  6
CONTINUOUS
 62
               4
  5
297
 10
-77.349999999999682
 20
20.2999999999995
 30
0.0
 11
-51.349999999999682
 21
20.2999999999995
 31
0.0
  0
LINE
  8
0
  6
CONTINUOUS
 62
               4
  5
298
 10
-58.349999999999909
 20
30.2999999999995
 30
0.0
 11
-58.349999999999909
 21
38.999999999999687
 31
0.0
  0
LINE
  8
0
  6
CONTINUOUS
 62
               4
  5
299
 10
-70.349999999999909
 20
38.999999999999687
 30
0.0
 11
-70.349999999999909
 21
30.2999999999995
 31
0.0
  0
LINE
  8
0
  6
CONTINUOUS
 62
               4
  5
29A
 10
-70.349999999999909
 20
38.999999999999687
 30
0.0
 11
-58.349999999999909
 21
38.999999999999687
 31
0.0
  0
ARC
  8
0
  6
CONTINUOUS
 62
               4
  5
29B
 10
80.000000000000568
 20
22.999999999999538
 30
0.0
 40
5.0
 50
199.94844358877876
 51
212.683638846256
  0
ARC
  8
0
  6
CONTINUOUS
 62
               4
  5
29C
 10
80.000000000000568
 20
22.999999999999538
 30
0.0
 40
5.0
 50
237.99454517223401
 51
269.99999999999937
  0
LINE
  8
0
  6
CONTINUOUS
 62
               4
  5
29D
 10
51.350000000000136
 20
20.2999999999995
 30
0.0
 11
51.350000000000136
 21
17.999999999999602
 31
0.0
  0
LINE
  8
0
  6
CONTINUOUS
 62
               4
  5
29E
 10
77.350000000000136
 20
17.999999999999609
 30
0.0
 11
77.350000000000136
 21
20.299999999999507
 31
0.0
  0
LINE
  8
0
  6
CONTINUOUS
 62
               4
  5
29F
 10
77.350000000000136
 20
20.299999999999507
 30
0.0
 11
51.350000000000136
 21
20.2999999999995
 31
0.0
  0
LINE
  8
0
  6
CONTINUOUS
 62
               4
  5
2A0
 10
58.350000000000364
 20
30.299999999999507
 30
0.0
 11
58.350000000000364
 21
38.999999999999687
 31
0.0
  0
LINE
  8
0
  6
CONTINUOUS
 62
               4
  5
2A1
 10
70.350000000000364
 20
38.999999999999687
 30
0.0
 11
70.350000000000364
 21
30.299999999999507
 31
0.0
  0
LINE
  8
0
  6
CONTINUOUS
 62
               4
  5
2A2
 10
70.350000000000364
 20
38.999999999999687
 30
0.0
 11
58.350000000000364
 21
38.999999999999687
 31
0.0
  0
LINE
  8
0
  6
CONTINUOUS
 62
               4
  5
2A3
 10
-78.226474001361581
 20
-29.600000000000136
 30
0.0
 11
-72.34999999999981
 21
-33.000000000000227
 31
0.0
  0
LINE
  8
0
  6
CONTINUOUS
 62
               4
  5
2A4
 10
-55.849999999999753
 20
-33.000000000000227
 30
0.0
 11
-55.849999999999753
 21
-26.000000000000171
 31
0.0
  0
LINE
  8
0
  6
CONTINUOUS
 62
               4
  5
2A5
 10
-55.849999999999753
 20
-33.000000000000227
 30
0.0
 11
-72.34999999999981
 21
-33.000000000000227
 31
0.0
  0
LINE
  8
0
  6
CONTINUOUS
 62
               4
  5
2A6
 10
-81.17706146647744
 20
-29.600000000000136
 30
0.0
 11
-78.226474001361581
 21
-29.600000000000136
 31
0.0
  0
LINE
  8
0
  6
CONTINUOUS
 62
               4
  5
2A7
 10
-81.17706146647744
 20
-26.000000000000171
 30
0.0
 11
-81.17706146647744
 21
-29.600000000000136
 31
0.0
  0
LINE
  8
0
  6
CONTINUOUS
 62
               4
  5
2A8
 10
47.522938533522975
 20
-26.000000000000171
 30
0.0
 11
47.522938533522975
 21
-29.600000000000136
 31
0.0
  0
LINE
  8
0
  6
CONTINUOUS
 62
               4
  5
2A9
 10
47.522938533522975
 20
-29.600000000000136
 30
0.0
 11
62.494341278810154
 21
-29.600000000000136
 31
0.0
  0
LINE
  8
0
  6
CONTINUOUS
 62
               4
  5
2AA
 10
50.473525998638834
 20
-29.600000000000136
 30
0.0
 11
56.350000000000605
 21
-33.000000000000227
 31
0.0
  0
LINE
  8
0
  6
CONTINUOUS
 62
               4
  5
2AB
 10
59.543753813694295
 20
-26.000000000000171
 30
0.0
 11
59.543753813694295
 21
-29.600000000000136
 31
0.0
  0
LINE
  8
0
  6
CONTINUOUS
 62
               4
  5
2AC
 10
70.006854249492946
 20
-33.000000000000227
 30
0.0
 11
62.494341278810154
 21
-29.600000000000136
 31
0.0
  0
LINE
  8
0
  6
CONTINUOUS
 62
               4
  5
2AD
 10
72.850000000000605
 20
-33.000000000000227
 30
0.0
 11
56.350000000000605
 21
-33.000000000000227
 31
0.0
  0
LINE
  8
0
  6
CONTINUOUS
 62
               4
  5
2AE
 10
72.850000000000605
 20
-33.000000000000227
 30
0.0
 11
72.850000000000605
 21
-26.000000000000171
 31
0.0
  0
LINE
  8
0
  6
CONTINUOUS
 62
               4
  5
2AF
 10
26.787357092479013
 20
-52.000000000000796
 30
0.0
 11
-26.787357092479894
 21
-52.000000000000796
 31
0.0
  0
ARC
  8
0
  6
CONTINUOUS
 62
               4
  5
2B0
 10
-93.000000000001563
 20
-18.133213635430877
 30
0.0
 40
3.0
 50
271.99999999999869
 51
359.9999999999992
  0
LINE
  8
0
  6
CONTINUOUS
 62
               4
  5
2B1
 10
-137.00000000000077
 20
-22.671556125964173
 30
0.0
 11
-92.895301509894097
 21
-21.131386116488159
 31
0.0
  0
LINE
  8
0
  6
CONTINUOUS
 62
               4
  5
2B2
 10
89.999999999999559
 20
18.000000000000739
 30
0.0
 11
-90.000000000000597
 21
17.999999999999602
 31
0.0
  0
LINE
  8
0
  6
CONTINUOUS
 62
               4
  5
2B3
 10
89.999999999999559
 20
-0.0000000000006253
 30
0.0
 11
89.999999999999559
 21
17.999999999999261
 31
0.0
  0
LINE
  8
0
  6
CONTINUOUS
 62
               4
  5
2B4
 10
-90.000000000000597
 20
-0.0000000000006253
 30
0.0
 11
89.999999999999559
 21
-0.0000000000006253
 31
0.0
  0
LINE
  8
0
  6
CONTINUOUS
 62
               4
  5
2B5
 10
-90.000000000000597
 20
-0.0000000000006253
 30
0.0
 11
-90.000000000000597
 21
17.999999999999261
 31
0.0
  0
LINE
  8
0
  6
CONTINUOUS
 62
               4
  5
2B6
 10
-90.000000000000597
 20
-6.5000000000001705
 30
0.0
 11
-90.000000000000597
 21
-26.000000000000171
 31
0.0
  0
LINE
  8
0
  6
CONTINUOUS
 62
               4
  5
2B7
 10
-56.499999999998806
 20
-6.5000000000001705
 30
0.0
 11
-89.999999999998892
 21
-6.5000000000001705
 31
0.0
  0
LINE
  8
0
  6
CONTINUOUS
 62
               4
  5
2B8
 10
-19.754746265138735
 20
-26.000000000000171
 30
0.0
 11
-89.999999999999744
 21
-26.000000000000171
 31
0.0
  0
LINE
  8
0
  6
CONTINUOUS
 62
               4
  5
2B9
 10
89.999999999999559
 20
-6.5000000000001705
 30
0.0
 11
89.999999999999559
 21
-26.000000000000171
 31
0.0
  0
LINE
  8
0
  6
CONTINUOUS
 62
               4
  5
2BA
 10
90.00000000000027
 20
-26.000000000000171
 30
0.0
 11
19.754746265137854
 21
-26.000000000000171
 31
0.0
  0
LINE
  8
0
  6
CONTINUOUS
 62
               4
  5
2BB
 10
-54.999999999998963
 20
-8.0000000000001705
 30
0.0
 11
55.000000000001052
 21
-8.0000000000001705
 31
0.0
  0
LINE
  8
0
  6
CONTINUOUS
 62
               4
  5
2BC
 10
-56.499999999998806
 20
-6.5000000000001705
 30
0.0
 11
-54.999999999998892
 21
-8.0000000000001705
 31
0.0
  0
LINE
  8
0
  6
CONTINUOUS
 62
               4
  5
2BD
 10
56.500000000000824
 20
-6.5000000000001705
 30
0.0
 11
90.000000000001052
 21
-6.5000000000001705
 31
0.0
  0
LINE
  8
0
  6
CONTINUOUS
 62
               4
  5
2BE
 10
56.500000000000824
 20
-6.5000000000001705
 30
0.0
 11
55.000000000000909
 21
-8.0000000000001705
 31
0.0
  0
ARC
  8
0
  6
CONTINUOUS
 62
               4
  5
2BF
 10
-419.99999999999977
 20
22.999999999999645
 30
0.0
 40
5.0
 50
199.94844358877876
 51
212.683638846256
  0
ARC
  8
0
  6
CONTINUOUS
 62
               4
  5
2C0
 10
-419.99999999999977
 20
22.999999999999645
 30
0.0
 40
5.0
 50
237.99454517223401
 51
269.99999999999937
  0
LINE
  8
0
  6
CONTINUOUS
 62
               4
  5
2C1
 10
-586.00000000000068
 20
-0.0000000000003979
 30
0.0
 11
-586.00000000000068
 21
-6.5000000000000568
 31
0.0
  0
LINE
  8
0
  6
CONTINUOUS
 62
               4
  5
2C2
 10
-429.65000000000032
 20
-6.5000000000000568
 30
0.0
 11
-429.65000000000032
 21
-0.0000000000003979
 31
0.0
  0
LINE
  8
0
  6
CONTINUOUS
 62
               4
  5
2C3
 10
-441.65000000000032
 20
-0.0000000000003979
 30
0.0
 11
-441.65000000000032
 21
-6.5000000000000568
 31
0.0
  0
LINE
  8
0
  6
CONTINUOUS
 62
               4
  5
2C4
 10
-558.35000000000059
 20
-6.5000000000000568
 30
0.0
 11
-558.35000000000059
 21
-0.0000000000003979
 31
0.0
  0
LINE
  8
0
  6
CONTINUOUS
 62
               4
  5
2C5
 10
-570.35000000000059
 20
-0.0000000000003979
 30
0.0
 11
-570.35000000000059
 21
-6.5000000000000568
 31
0.0
  0
LINE
  8
0
  6
CONTINUOUS
 62
               4
  5
2C6
 10
-413.99999999999977
 20
-0.0000000000003979
 30
0.0
 11
-413.99999999999977
 21
-6.5000000000000568
 31
0.0
  0
LINE
  8
0
  6
CONTINUOUS
 62
               4
  5
2C7
 10
-448.65000000000032
 20
20.299999999999613
 30
0.0
 11
-448.65000000000032
 21
17.999999999999716
 31
0.0
  0
LINE
  8
0
  6
CONTINUOUS
 62
               4
  5
2C8
 10
-422.65000000000032
 20
17.999999999999716
 30
0.0
 11
-422.65000000000032
 21
20.299999999999613
 31
0.0
  0
LINE
  8
0
  6
CONTINUOUS
 62
               4
  5
2C9
 10
-422.65000000000032
 20
20.299999999999613
 30
0.0
 11
-448.65000000000032
 21
20.299999999999613
 31
0.0
  0
LINE
  8
0
  6
CONTINUOUS
 62
               4
  5
2CA
 10
-441.65000000000009
 20
30.299999999999613
 30
0.0
 11
-441.65000000000009
 21
38.999999999999801
 31
0.0
  0
LINE
  8
0
  6
CONTINUOUS
 62
               4
  5
2CB
 10
-429.65000000000009
 20
38.999999999999801
 30
0.0
 11
-429.65000000000009
 21
30.299999999999613
 31
0.0
  0
LINE
  8
0
  6
CONTINUOUS
 62
               4
  5
2CC
 10
-429.65000000000009
 20
38.999999999999801
 30
0.0
 11
-441.65000000000009
 21
38.999999999999801
 31
0.0
  0
ARC
  8
0
  6
CONTINUOUS
 62
               4
  5
2CD
 10
-580.00000000000057
 20
22.999999999999652
 30
0.0
 40
5.0
 50
327.31636115374278
 51
340.05155641122002
  0
ARC
  8
0
  6
CONTINUOUS
 62
               4
  5
2CE
 10
-580.00000000000057
 20
22.999999999999652
 30
0.0
 40
5.0
 50
269.99999999999937
 51
302.00545482776477
  0
LINE
  8
0
  6
CONTINUOUS
 62
               4
  5
2CF
 10
-551.35000000000014
 20
20.299999999999613
 30
0.0
 11
-551.35000000000014
 21
17.999999999999716
 31
0.0
  0
LINE
  8
0
  6
CONTINUOUS
 62
               4
  5
2D0
 10
-577.35000000000014
 20
17.999999999999723
 30
0.0
 11
-577.35000000000014
 21
20.299999999999621
 31
0.0
  0
LINE
  8
0
  6
CONTINUOUS
 62
               4
  5
2D1
 10
-577.35000000000014
 20
20.299999999999621
 30
0.0
 11
-551.35000000000014
 21
20.299999999999613
 31
0.0
  0
LINE
  8
0
  6
CONTINUOUS
 62
               4
  5
2D2
 10
-558.35000000000036
 20
30.299999999999621
 30
0.0
 11
-558.35000000000036
 21
38.999999999999801
 31
0.0
  0
LINE
  8
0
  6
CONTINUOUS
 62
               4
  5
2D3
 10
-570.35000000000036
 20
38.999999999999801
 30
0.0
 11
-570.35000000000036
 21
30.299999999999621
 31
0.0
  0
LINE
  8
0
  6
CONTINUOUS
 62
               4
  5
2D4
 10
-570.35000000000036
 20
38.999999999999801
 30
0.0
 11
-558.35000000000036
 21
38.999999999999801
 31
0.0
  0
LINE
  8
0
  6
CONTINUOUS
 62
               4
  5
2D5
 10
-578.22647400136111
 20
-29.600000000000023
 30
0.0
 11
-572.34999999999934
 21
-33.000000000000114
 31
0.0
  0
LINE
  8
0
  6
CONTINUOUS
 62
               4
  5
2D6
 10
-555.84999999999934
 20
-33.000000000000114
 30
0.0
 11
-555.84999999999934
 21
-26.000000000000057
 31
0.0
  0
LINE
  8
0
  6
CONTINUOUS
 62
               4
  5
2D7
 10
-555.84999999999934
 20
-33.000000000000114
 30
0.0
 11
-572.34999999999934
 21
-33.000000000000114
 31
0.0
  0
LINE
  8
0
  6
CONTINUOUS
 62
               4
  5
2D8
 10
-581.17706146647697
 20
-29.600000000000023
 30
0.0
 11
-578.22647400136111
 21
-29.600000000000023
 31
0.0
  0
LINE
  8
0
  6
CONTINUOUS
 62
               4
  5
2D9
 10
-581.17706146647697
 20
-26.000000000000057
 30
0.0
 11
-581.17706146647697
 21
-29.600000000000023
 31
0.0
  0
LINE
  8
0
  6
CONTINUOUS
 62
               4
  5
2DA
 10
-452.47706146647658
 20
-26.000000000000057
 30
0.0
 11
-452.47706146647658
 21
-29.600000000000023
 31
0.0
  0
LINE
  8
0
  6
CONTINUOUS
 62
               4
  5
2DB
 10
-452.47706146647658
 20
-29.600000000000023
 30
0.0
 11
-437.50565872118932
 21
-29.600000000000023
 31
0.0
  0
LINE
  8
0
  6
CONTINUOUS
 62
               4
  5
2DC
 10
-449.52647400136073
 20
-29.600000000000023
 30
0.0
 11
-443.64999999999895
 21
-33.000000000000114
 31
0.0
  0
LINE
  8
0
  6
CONTINUOUS
 62
               4
  5
2DD
 10
-440.45624618630518
 20
-26.000000000000057
 30
0.0
 11
-440.45624618630518
 21
-29.600000000000023
 31
0.0
  0
LINE
  8
0
  6
CONTINUOUS
 62
               4
  5
2DE
 10
-429.99314575050653
 20
-33.000000000000114
 30
0.0
 11
-437.50565872118932
 21
-29.600000000000023
 31
0.0
  0
LINE
  8
0
  6
CONTINUOUS
 62
               4
  5
2DF
 10
-427.14999999999895
 20
-33.000000000000114
 30
0.0
 11
-443.64999999999895
 21
-33.000000000000114
 31
0.0
  0
LINE
  8
0
  6
CONTINUOUS
 62
               4
  5
2E0
 10
-427.14999999999895
 20
-33.000000000000114
 30
0.0
 11
-427.14999999999895
 21
-26.000000000000057
 31
0.0
  0
LINE
  8
0
  6
CONTINUOUS
 62
               4
  5
2E1
 10
-526.78735709247894
 20
-52.000000000000682
 30
0.0
 11
-473.21264290752015
 21
-52.000000000000682
 31
0.0
  0
ARC
  8
0
  6
CONTINUOUS
 62
               4
  5
2E2
 10
-406.99999999999841
 20
-18.133213635430764
 30
0.0
 40
3.0
 50
179.9999999999996
 51
268.00000000000006
  0
LINE
  8
0
  6
CONTINUOUS
 62
               4
  5
2E3
 10
-362.9999999999992
 20
-22.671556125964059
 30
0.0
 11
-407.10469849010587
 21
-21.131386116488045
 31
0.0
  0
LINE
  8
0
  6
CONTINUOUS
 62
               4
  5
2E4
 10
-589.99999999999955
 20
18.000000000000853
 30
0.0
 11
-409.99999999999943
 21
17.999999999999716
 31
0.0
  0
LINE
  8
0
  6
CONTINUOUS
 62
               4
  5
2E5
 10
-589.99999999999955
 20
-0.0000000000005116
 30
0.0
 11
-589.99999999999955
 21
17.999999999999375
 31
0.0
  0
LINE
  8
0
  6
CONTINUOUS
 62
               4
  5
2E6
 10
-409.99999999999943
 20
-0.0000000000005116
 30
0.0
 11
-589.99999999999955
 21
-0.0000000000005116
 31
0.0
  0
LINE
  8
0
  6
CONTINUOUS
 62
               4
  5
2E7
 10
-409.99999999999943
 20
-0.0000000000005116
 30
0.0
 11
-409.99999999999943
 21
17.999999999999375
 31
0.0
  0
LINE
  8
0
  6
CONTINUOUS
 62
               4
  5
2E8
 10
-409.99999999999943
 20
-6.5000000000000568
 30
0.0
 11
-409.99999999999943
 21
-26.000000000000057
 31
0.0
  0
LINE
  8
0
  6
CONTINUOUS
 62
               4
  5
2E9
 10
-443.50000000000114
 20
-6.5000000000000568
 30
0.0
 11
-410.00000000000114
 21
-6.5000000000000568
 31
0.0
  0
LINE
  8
0
  6
CONTINUOUS
 62
               4
  5
2EA
 10
-480.24525373486131
 20
-26.000000000000057
 30
0.0
 11
-410.00000000000023
 21
-26.000000000000057
 31
0.0
  0
LINE
  8
0
  6
CONTINUOUS
 62
               4
  5
2EB
 10
-589.99999999999955
 20
-6.5000000000000568
 30
0.0
 11
-589.99999999999955
 21
-26.000000000000057
 31
0.0
  0
LINE
  8
0
  6
CONTINUOUS
 62
               4
  5
2EC
 10
-590.00000000000023
 20
-26.000000000000057
 30
0.0
 11
-519.75474626513778
 21
-26.000000000000057
 31
0.0
  0
LINE
  8
0
  6
CONTINUOUS
 62
               4
  5
2ED
 10
-445.00000000000102
 20
-8.0000000000000568
 30
0.0
 11
-555.00000000000102
 21
-8.0000000000000568
 31
0.0
  0
LINE
  8
0
  6
CONTINUOUS
 62
               4
  5
2EE
 10
-443.50000000000114
 20
-6.5000000000000568
 30
0.0
 11
-445.00000000000114
 21
-8.0000000000000568
 31
0.0
  0
LINE
  8
0
  6
CONTINUOUS
 62
               4
  5
2EF
 10
-556.5000000000008
 20
-6.5000000000000568
 30
0.0
 11
-590.00000000000102
 21
-6.5000000000000568
 31
0.0
  0
LINE
  8
0
  6
CONTINUOUS
 62
               4
  5
2F0
 10
-556.5000000000008
 20
-6.5000000000000568
 30
0.0
 11
-555.00000000000091
 21
-8.0000000000000568
 31
0.0
  0
ARC
  8
0
  6
CONTINUOUS
 62
               4
  5
2F1
 10
419.99999999999932
 20
22.999999999999645
 30
0.0
 40
5.0
 50
327.31636115374278
 51
340.05155641122002
  0
ARC
  8
0
  6
CONTINUOUS
 62
               4
  5
2F2
 10
419.99999999999932
 20
22.999999999999645
 30
0.0
 40
5.0
 50
269.99999999999937
 51
302.00545482776477
  0
LINE
  8
0
  6
CONTINUOUS
 62
               4
  5
2F3
 10
586.00000000000023
 20
-0.0000000000003979
 30
0.0
 11
586.00000000000023
 21
-6.5000000000000568
 31
0.0
  0
LINE
  8
0
  6
CONTINUOUS
 62
               4
  5
2F4
 10
429.64999999999986
 20
-6.5000000000000568
 30
0.0
 11
429.64999999999986
 21
-0.0000000000003979
 31
0.0
  0
LINE
  8
0
  6
CONTINUOUS
 62
               4
  5
2F5
 10
441.64999999999986
 20
-0.0000000000003979
 30
0.0
 11
441.64999999999986
 21
-6.5000000000000568
 31
0.0
  0
LINE
  8
0
  6
CONTINUOUS
 62
               4
  5
2F6
 10
558.35000000000014
 20
-6.5000000000000568
 30
0.0
 11
558.35000000000014
 21
-0.0000000000003979
 31
0.0
  0
LINE
  8
0
  6
CONTINUOUS
 62
               4
  5
2F7
 10
570.35000000000014
 20
-0.0000000000003979
 30
0.0
 11
570.35000000000014
 21
-6.5000000000000568
 31
0.0
  0
LINE
  8
0
  6
CONTINUOUS
 62
               4
  5
2F8
 10
413.99999999999932
 20
-0.0000000000003979
 30
0.0
 11
413.99999999999932
 21
-6.5000000000000568
 31
0.0
  0
LINE
  8
0
  6
CONTINUOUS
 62
               4
  5
2F9
 10
448.64999999999986
 20
20.299999999999613
 30
0.0
 11
448.64999999999986
 21
17.999999999999716
 31
0.0
  0
LINE
  8
0
  6
CONTINUOUS
 62
               4
  5
2FA
 10
422.64999999999986
 20
17.999999999999716
 30
0.0
 11
422.64999999999986
 21
20.299999999999613
 31
0.0
  0
LINE
  8
0
  6
CONTINUOUS
 62
               4
  5
2FB
 10
422.64999999999986
 20
20.299999999999613
 30
0.0
 11
448.64999999999986
 21
20.299999999999613
 31
0.0
  0
LINE
  8
0
  6
CONTINUOUS
 62
               4
  5
2FC
 10
441.64999999999964
 20
30.299999999999613
 30
0.0
 11
441.64999999999964
 21
38.999999999999801
 31
0.0
  0
LINE
  8
0
  6
CONTINUOUS
 62
               4
  5
2FD
 10
429.64999999999964
 20
38.999999999999801
 30
0.0
 11
429.64999999999964
 21
30.299999999999613
 31
0.0
  0
LINE
  8
0
  6
CONTINUOUS
 62
               4
  5
2FE
 10
429.64999999999964
 20
38.999999999999801
 30
0.0
 11
441.64999999999964
 21
38.999999999999801
 31
0.0
  0
ARC
  8
0
  6
CONTINUOUS
 62
               4
  5
2FF
 10
580.00000000000011
 20
22.999999999999652
 30
0.0
 40
5.0
 50
199.94844358877876
 51
212.683638846256
  0
ARC
  8
0
  6
CONTINUOUS
 62
               4
  5
300
 10
580.00000000000011
 20
22.999999999999652
 30
0.0
 40
5.0
 50
237.99454517223401
 51
269.99999999999937
  0
LINE
  8
0
  6
CONTINUOUS
 62
               4
  5
301
 10
551.34999999999968
 20
20.299999999999613
 30
0.0
 11
551.34999999999968
 21
17.999999999999716
 31
0.0
  0
LINE
  8
0
  6
CONTINUOUS
 62
               4
  5
302
 10
577.34999999999968
 20
17.999999999999723
 30
0.0
 11
577.34999999999968
 21
20.299999999999621
 31
0.0
  0
LINE
  8
0
  6
CONTINUOUS
 62
               4
  5
303
 10
577.34999999999968
 20
20.299999999999621
 30
0.0
 11
551.34999999999968
 21
20.299999999999613
 31
0.0
  0
LINE
  8
0
  6
CONTINUOUS
 62
               4
  5
304
 10
558.34999999999991
 20
30.299999999999621
 30
0.0
 11
558.34999999999991
 21
38.999999999999801
 31
0.0
  0
LINE
  8
0
  6
CONTINUOUS
 62
               4
  5
305
 10
570.34999999999991
 20
38.999999999999801
 30
0.0
 11
570.34999999999991
 21
30.299999999999621
 31
0.0
  0
LINE
  8
0
  6
CONTINUOUS
 62
               4
  5
306
 10
570.34999999999991
 20
38.999999999999801
 30
0.0
 11
558.34999999999991
 21
38.999999999999801
 31
0.0
  0
LINE
  8
0
  6
CONTINUOUS
 62
               4
  5
307
 10
421.77352599863798
 20
-29.600000000000023
 30
0.0
 11
427.64999999999975
 21
-33.000000000000114
 31
0.0
  0
LINE
  8
0
  6
CONTINUOUS
 62
               4
  5
308
 10
444.14999999999975
 20
-33.000000000000114
 30
0.0
 11
444.14999999999975
 21
-26.000000000000057
 31
0.0
  0
LINE
  8
0
  6
CONTINUOUS
 62
               4
  5
309
 10
444.14999999999975
 20
-33.000000000000114
 30
0.0
 11
427.64999999999975
 21
-33.000000000000114
 31
0.0
  0
LINE
  8
0
  6
CONTINUOUS
 62
               4
  5
30A
 10
418.82293853352212
 20
-29.600000000000023
 30
0.0
 11
421.77352599863798
 21
-29.600000000000023
 31
0.0
  0
LINE
  8
0
  6
CONTINUOUS
 62
               4
  5
30B
 10
418.82293853352212
 20
-26.000000000000057
 30
0.0
 11
418.82293853352212
 21
-29.600000000000023
 31
0.0
  0
LINE
  8
0
  6
CONTINUOUS
 62
               4
  5
30C
 10
547.52293853352251
 20
-26.000000000000057
 30
0.0
 11
547.52293853352251
 21
-29.600000000000023
 31
0.0
  0
LINE
  8
0
  6
CONTINUOUS
 62
               4
  5
30D
 10
547.52293853352251
 20
-29.600000000000023
 30
0.0
 11
562.49434127880977
 21
-29.600000000000023
 31
0.0
  0
LINE
  8
0
  6
CONTINUOUS
 62
               4
  5
30E
 10
550.47352599863837
 20
-29.600000000000023
 30
0.0
 11
556.35000000000014
 21
-33.000000000000114
 31
0.0
  0
LINE
  8
0
  6
CONTINUOUS
 62
               4
  5
30F
 10
559.54375381369391
 20
-26.000000000000057
 30
0.0
 11
559.54375381369391
 21
-29.600000000000023
 31
0.0
  0
LINE
  8
0
  6
CONTINUOUS
 62
               4
  5
310
 10
570.00685424949256
 20
-33.000000000000114
 30
0.0
 11
562.49434127880977
 21
-29.600000000000023
 31
0.0
  0
LINE
  8
0
  6
CONTINUOUS
 62
               4
  5
311
 10
572.85000000000014
 20
-33.000000000000114
 30
0.0
 11
556.35000000000014
 21
-33.000000000000114
 31
0.0
  0
LINE
  8
0
  6
CONTINUOUS
 62
               4
  5
312
 10
572.85000000000014
 20
-33.000000000000114
 30
0.0
 11
572.85000000000014
 21
-26.000000000000057
 31
0.0
  0
ARC
  8
0
  6
CONTINUOUS
 62
               4
  5
313
 10
406.99999999999795
 20
-18.133213635430764
 30
0.0
 40
3.0
 50
271.99999999999869
 51
359.9999999999992
  0
LINE
  8
0
  6
CONTINUOUS
 62
               4
  5
314
 10
362.99999999999875
 20
-22.671556125964059
 30
0.0
 11
407.10469849010542
 21
-21.131386116488045
 31
0.0
  0
LINE
  8
0
  6
CONTINUOUS
 62
               4
  5
315
 10
589.99999999999909
 20
18.000000000000853
 30
0.0
 11
409.99999999999898
 21
17.999999999999716
 31
0.0
  0
LINE
  8
0
  6
CONTINUOUS
 62
               4
  5
316
 10
589.99999999999909
 20
-0.0000000000005116
 30
0.0
 11
589.99999999999909
 21
17.999999999999375
 31
0.0
  0
LINE
  8
0
  6
CONTINUOUS
 62
               4
  5
317
 10
409.99999999999898
 20
-0.0000000000005116
 30
0.0
 11
589.99999999999909
 21
-0.0000000000005116
 31
0.0
  0
LINE
  8
0
  6
CONTINUOUS
 62
               4
  5
318
 10
409.99999999999898
 20
-0.0000000000005116
 30
0.0
 11
409.99999999999898
 21
17.999999999999375
 31
0.0
  0
LINE
  8
0
  6
CONTINUOUS
 62
               4
  5
319
 10
409.99999999999898
 20
-6.5000000000000568
 30
0.0
 11
409.99999999999898
 21
-26.000000000000057
 31
0.0
  0
LINE
  8
0
  6
CONTINUOUS
 62
               4
  5
31A
 10
443.50000000000068
 20
-6.5000000000000568
 30
0.0
 11
410.00000000000068
 21
-6.5000000000000568
 31
0.0
  0
LINE
  8
0
  6
CONTINUOUS
 62
               4
  5
31B
 10
589.99999999999932
 20
-25.999999999999829
 30
0.0
 11
409.99999999999977
 21
-26.000000000000057
 31
0.0
  0
LINE
  8
0
  6
CONTINUOUS
 62
               4
  5
31C
 10
589.99999999999909
 20
-6.5000000000000568
 30
0.0
 11
589.99999999999909
 21
-26.000000000000057
 31
0.0
  0
LINE
  8
0
  6
CONTINUOUS
 62
               4
  5
31D
 10
445.00000000000057
 20
-8.0000000000000568
 30
0.0
 11
555.00000000000057
 21
-8.0000000000000568
 31
0.0
  0
LINE
  8
0
  6
CONTINUOUS
 62
               4
  5
31E
 10
443.50000000000068
 20
-6.5000000000000568
 30
0.0
 11
445.00000000000068
 21
-8.0000000000000568
 31
0.0
  0
LINE
  8
0
  6
CONTINUOUS
 62
               4
  5
31F
 10
556.50000000000034
 20
-6.5000000000000568
 30
0.0
 11
590.00000000000057
 21
-6.5000000000000568
 31
0.0
  0
LINE
  8
0
  6
CONTINUOUS
 62
               4
  5
320
 10
556.50000000000034
 20
-6.5000000000000568
 30
0.0
 11
555.00000000000045
 21
-8.0000000000000568
 31
0.0
  0
POINT
  8
0
  6
CONTINUOUS
 62
               4
  5
321
 10
-247.03776905046908
 20
-1126.04130008484
 30
0.0
  0
POINT
  8
0
  6
CONTINUOUS
 62
               4
  5
322
 10
-537.23776905046884
 20
-1126.04130008484
 30
0.0
  0
POINT
  8
0
  6
CONTINUOUS
 62
               4
  5
323
 10
-349.58372644623563
 20
-1017.9734160158052
 30
0.0
  0
POINT
  8
0
  6
CONTINUOUS
 62
               4
  5
324
 10
242.83392368588062
 20
-1126.04130008484
 30
0.0
  0
POINT
  8
0
  6
CONTINUOUS
 62
               4
  5
325
 10
-1.078108764605247
 20
-1126.04130008484
 30
0.0
  0
POINT
  8
0
  6
CONTINUOUS
 62
               4
  5
326
 10
165.3779074606378
 20
-1038.0852838595974
 30
0.0
  0
LINE
  8
0
  6
CONTINUOUS
 62
               4
  5
327
 10
686.28652321630739
 20
-1517.8206445087806
 30
0.0
 11
681.28652321630739
 21
-1512.8206445087806
 31
0.0
  0
ARC
  8
0
  6
CONTINUOUS
 62
               4
  5
328
 10
663.78652321630739
 20
-1528.3562982616334
 30
0.0
 40
19.999999999999996
 50
0.0
 51
31.788330617027277
  0
LINE
  8
0
  6
CONTINUOUS
 62
               4
  5
329
 10
680.78652321630784
 20
-1517.8206445087806
 30
0.0
 11
680.78652321630784
 21
-1512.8206445087801
 31
0.0
  0
LINE
  8
0
  6
CONTINUOUS
 62
               4
  5
32A
 10
681.28652321630739
 20
-1512.8206445087806
 30
0.0
 11
680.78652321630784
 21
-1512.8206445087806
 31
0.0
  0
LINE
  8
0
  6
CONTINUOUS
 62
               4
  5
32B
 10
686.03652321630761
 20
-1518.0706445087806
 30
0.0
 11
680.78652321630784
 21
-1512.8206445087806
 31
0.0
  0
LINE
  8
0
  6
CONTINUOUS
 62
               4
  5
32C
 10
686.03652321630761
 20
-1518.0706445087806
 30
0.0
 11
686.28652321630739
 21
-1517.8206445087806
 31
0.0
  0
LINE
  8
0
  6
CONTINUOUS
 62
               4
  5
32D
 10
686.28652321630739
 20
-1517.8206445087806
 30
0.0
 11
686.28652321630739
 21
-1648.5093218587506
 31
0.0
  0
LINE
  8
0
  6
CONTINUOUS
 62
               4
  5
32E
 10
686.03652321630761
 20
-1518.0706445087806
 30
0.0
 11
686.03652321630761
 21
-1648.2239647516151
 31
0.0
  0
LINE
  8
0
  6
CONTINUOUS
 62
               4
  5
32F
 10
683.78652321630739
 20
-1528.2032746645161
 30
0.0
 11
683.78652321630739
 21
-1647.3562982616334
 31
0.0
  0
POINT
  8
0
  6
CONTINUOUS
 62
               4
  5
330
 10
653.78652321630761
 20
-1257.2568645130493
 30
0.0
  0
POINT
  8
0
  6
CONTINUOUS
 62
               4
  5
331
 10
464.88652321630747
 20
-1542.8562982616334
 30
0.0
  0
POINT
  8
0
  6
CONTINUOUS
 62
               4
  5
332
 10
464.88652321630758
 20
-1157.3568645130488
 30
0.0
  0
LINE
  8
0
  6
DASHED2
 62
               4
  5
333
 10
-557.0
 20
181.00000000000063
 30
0.0
 11
-443.0
 21
181.00000000000063
 31
0.0
  0
LINE
  8
0
  6
DASHED2
 62
               4
  5
334
 10
-57.000000000000455
 20
181.00000000000051
 30
0.0
 11
56.999999999999545
 21
181.00000000000051
 31
0.0
  0
LINE
  8
0
  6
DASHED2
 62
               4
  5
335
 10
51.499999999999531
 20
-548.99999999999943
 30
0.0
 11
51.499999999999531
 21
-157.08604066087003
 31
0.0
  0
LINE
  8
0
  6
DASHED2
 62
               4
  5
336
 10
-51.500000000000583
 20
-548.99999999999943
 30
0.0
 11
-51.500000000000583
 21
-157.08604066087003
 31
0.0
  0
LINE
  8
0
  6
DASHED2
 62
               4
  5
337
 10
-87.00000000000027
 20
635.50000000000023
 30
0.0
 11
-145.00000000000028
 21
635.50000000000045
 31
0.0
  0
LINE
  8
0
  6
DASHED2
 62
               4
  5
338
 10
-87.00000000000027
 20
635.50000000000023
 30
0.0
 11
-87.00000000000027
 21
546.50000000000023
 31
0.0
  0
LINE
  8
0
  6
DASHED2
 62
               4
  5
339
 10
-87.00000000000027
 20
546.50000000000023
 30
0.0
 11
-145.00000000000028
 21
546.49999999999977
 31
0.0
  0
LINE
  8
0
  6
DASHED2
 62
               4
  5
33A
 10
44.499999999999446
 20
504.00000000000074
 30
0.0
 11
44.49999999999973
 21
446.00000000000085
 31
0.0
  0
LINE
  8
0
  6
DASHED2
 62
               4
  5
33B
 10
-44.500000000000611
 20
504.00000000000074
 30
0.0
 11
44.499999999999446
 21
504.00000000000074
 31
0.0
  0
LINE
  8
0
  6
DASHED2
 62
               4
  5
33C
 10
-44.500000000000611
 20
504.00000000000074
 30
0.0
 11
-44.500000000000895
 21
446.00000000000085
 31
0.0
  0
ARC
  8
0
  6
DASHED2
 62
               4
  5
33D
 10
57.577706071330553
 20
571.57859655688094
 30
0.0
 40
20.0
 50
208.65202615927427
 51
217.35556117864218
  0
LINE
  8
0
  6
DASHED2
 62
               4
  5
33E
 10
40.000725560714606
 20
569.36656966320879
 30
0.0
 11
40.000725560714606
 21
562.0364426442859
 31
0.0
  0
LINE
  8
0
  6
DASHED2
 62
               4
  5
33F
 10
-551.50000000000011
 20
-548.99999999999932
 30
0.0
 11
-551.50000000000011
 21
-157.08604066086991
 31
0.0
  0
LINE
  8
0
  6
DASHED2
 62
               4
  5
340
 10
-448.5
 20
-548.99999999999932
 30
0.0
 11
-448.5
 21
-157.08604066086991
 31
0.0
  0
LINE
  8
0
  6
DASHED2
 62
               4
  5
341
 10
556.99999999999909
 20
181.00000000000063
 30
0.0
 11
442.99999999999909
 21
181.00000000000063
 31
0.0
  0
LINE
  8
0
  6
DASHED2
 62
               4
  5
342
 10
551.4999999999992
 20
-548.99999999999932
 30
0.0
 11
551.4999999999992
 21
-157.08604066086991
 31
0.0
  0
LINE
  8
0
  6
DASHED2
 62
               4
  5
343
 10
448.49999999999909
 20
-548.99999999999932
 30
0.0
 11
448.49999999999909
 21
-157.08604066086991
 31
0.0
  0
LINE
  8
0
  6
DASHED2
 62
               4
  5
344
 10
-57.500000000003439
 20
-564.00000000000057
 30
0.0
 11
-57.500000000003439
 21
-628.99999999999829
 31
0.0
  0
LINE
  8
0
  6
DASHED2
 62
               4
  5
345
 10
-57.500000000003439
 20
-564.00000000000057
 30
0.0
 11
-0.0000000000015934
 21
-563.99999999999943
 31
0.0
  0
LINE
  8
0
  6
DASHED2
 62
               4
  5
346
 10
57.500000000001251
 20
-564.00000000000057
 30
0.0
 11
-0.0000000000004565
 21
-563.99999999999943
 31
0.0
  0
LINE
  8
0
  6
DASHED2
 62
               4
  5
347
 10
57.500000000001251
 20
-564.00000000000057
 30
0.0
 11
57.500000000001251
 21
-628.99999999999829
 31
0.0
  0
LINE
  8
0
  6
DASHED2
 62
               4
  5
348
 10
-136.76000000000118
 20
-548.99999999999898
 30
0.0
 11
-136.76000000000118
 21
-540.47387150069176
 31
0.0
  0
LINE
  8
0
  6
DASHED2
 62
               4
  5
349
 10
-130.87102725426678
 20
-540.47387150069176
 30
0.0
 11
-130.87102725426678
 21
-548.99999999999898
 31
0.0
  0
LINE
  8
0
  6
DASHED2
 62
               4
  5
34A
 10
-133.81551362713384
 20
-539.39999999999884
 30
0.0
 11
-116.18448637286792
 21
-539.39999999999884
 31
0.0
  0
LINE
  8
0
  6
DASHED2
 62
               4
  5
34B
 10
-113.24000000000086
 20
-548.99999999999898
 30
0.0
 11
-113.24000000000086
 21
-540.47387150069176
 31
0.0
  0
LINE
  8
0
  6
DASHED2
 62
               4
  5
34C
 10
-119.12897274573555
 20
-548.99999999999898
 30
0.0
 11
-119.12897274573555
 21
-540.47387150069176
 31
0.0
  0
ARC
  8
0
  6
DASHED2
 62
               4
  5
34D
 10
-133.81551362713384
 20
-543.97373158411483
 30
0.0
 40
4.5737315841157447
 50
49.925579661612304
 51
130.07442033835341
  0
ARC
  8
0
  6
DASHED2
 62
               4
  5
34E
 10
-116.18448637286792
 20
-543.97373158411483
 30
0.0
 40
4.5737315841157686
 50
49.925579661612304
 51
130.07442033835341
  0
ARC
  8
0
  6
DASHED2
 62
               4
  5
34F
 10
-125.00000000000102
 20
-555.98585826951933
 30
0.0
 40
16.58585826952007
 50
69.269184858547646
 51
110.73081514141818
  0
LINE
  8
0
  6
DASHED2
 62
               4
  5
350
 10
-136.76000000000261
 20
-550.99999999999932
 30
0.0
 11
-136.76000000000261
 21
-559.52612849930654
 31
0.0
  0
LINE
  8
0
  6
DASHED2
 62
               4
  5
351
 10
-130.8710272542682
 20
-559.52612849930654
 30
0.0
 11
-130.8710272542682
 21
-550.99999999999932
 31
0.0
  0
LINE
  8
0
  6
DASHED2
 62
               4
  5
352
 10
-133.81551362713526
 20
-560.59999999999911
 30
0.0
 11
-116.18448637286963
 21
-560.59999999999911
 31
0.0
  0
LINE
  8
0
  6
DASHED2
 62
               4
  5
353
 10
-113.24000000000228
 20
-550.99999999999932
 30
0.0
 11
-113.24000000000228
 21
-559.52612849930654
 31
0.0
  0
LINE
  8
0
  6
DASHED2
 62
               4
  5
354
 10
-119.12897274573669
 20
-550.99999999999932
 30
0.0
 11
-119.12897274573669
 21
-559.52612849930654
 31
0.0
  0
ARC
  8
0
  6
DASHED2
 62
               4
  5
355
 10
-133.81551362713526
 20
-556.02626841588369
 30
0.0
 40
4.5737315841157447
 50
229.92557966157796
 51
310.07442033831961
  0
ARC
  8
0
  6
DASHED2
 62
               4
  5
356
 10
-116.18448637286963
 20
-556.02626841588369
 30
0.0
 40
4.5737315841157686
 50
229.92557966157852
 51
310.07442033831961
  0
ARC
  8
0
  6
DASHED2
 62
               4
  5
357
 10
-125.00000000000244
 20
-544.0141417304792
 30
0.0
 40
16.58585826952007
 50
249.26918485851303
 51
290.73081514138352
  0
LINE
  8
0
  6
DASHED2
 62
               4
  5
358
 10
-131.00000000000097
 20
-560.59999999999911
 30
0.0
 11
-131.00000000000097
 21
-571.11936624232374
 31
0.0
  0
LINE
  8
0
  6
DASHED2
 62
               4
  5
359
 10
-119.00000000000108
 20
-560.59999999999911
 30
0.0
 11
-119.00000000000108
 21
-571.11936624232374
 31
0.0
  0
LINE
  8
0
  6
DASHED2
 62
               4
  5
35A
 10
-129.80000000000121
 20
-572.31936624232412
 30
0.0
 11
-120.20000000000113
 21
-572.31936624232412
 31
0.0
  0
LINE
  8
0
  6
DASHED2
 62
               4
  5
35B
 10
-131.00000000000097
 20
-571.11936624232374
 30
0.0
 11
-129.80000000000121
 21
-572.31936624232412
 31
0.0
  0
LINE
  8
0
  6
DASHED2
 62
               4
  5
35C
 10
-119.00000000000108
 20
-571.11936624232374
 30
0.0
 11
-120.20000000000113
 21
-572.31936624232412
 31
0.0
  0
LINE
  8
0
  6
DASHED2
 62
               4
  5
35D
 10
-136.76000000000118
 20
-548.99999999999898
 30
0.0
 11
-113.24000000000086
 21
-548.99999999999898
 31
0.0
  0
LINE
  8
0
  6
DASHED2
 62
               4
  5
35E
 10
-113.24000000000228
 20
-550.99999999999932
 30
0.0
 11
-136.76000000000261
 21
-550.99999999999932
 31
0.0
  0
LINE
  8
0
  6
DASHED2
 62
               4
  5
35F
 10
136.75999999999911
 20
-548.99999999999898
 30
0.0
 11
136.75999999999911
 21
-540.47387150069176
 31
0.0
  0
LINE
  8
0
  6
DASHED2
 62
               4
  5
360
 10
130.8710272542647
 20
-540.47387150069176
 30
0.0
 11
130.8710272542647
 21
-548.99999999999898
 31
0.0
  0
LINE
  8
0
  6
DASHED2
 62
               4
  5
361
 10
133.81551362713176
 20
-539.39999999999884
 30
0.0
 11
116.18448637286585
 21
-539.39999999999884
 31
0.0
  0
LINE
  8
0
  6
DASHED2
 62
               4
  5
362
 10
113.23999999999879
 20
-548.99999999999898
 30
0.0
 11
113.23999999999879
 21
-540.47387150069176
 31
0.0
  0
LINE
  8
0
  6
DASHED2
 62
               4
  5
363
 10
119.12897274573348
 20
-548.99999999999898
 30
0.0
 11
119.12897274573348
 21
-540.47387150069176
 31
0.0
  0
ARC
  8
0
  6
DASHED2
 62
               4
  5
364
 10
133.81551362713176
 20
-543.97373158411483
 30
0.0
 40
4.5737315841157447
 50
49.925579661646204
 51
130.07442033838728
  0
ARC
  8
0
  6
DASHED2
 62
               4
  5
365
 10
116.18448637286585
 20
-543.97373158411483
 30
0.0
 40
4.5737315841157686
 50
49.925579661646204
 51
130.07442033838728
  0
ARC
  8
0
  6
DASHED2
 62
               4
  5
366
 10
124.99999999999895
 20
-555.98585826951933
 30
0.0
 40
16.58585826952007
 50
69.269184858581426
 51
110.73081514145197
  0
LINE
  8
0
  6
DASHED2
 62
               4
  5
367
 10
136.76000000000053
 20
-550.99999999999932
 30
0.0
 11
136.76000000000053
 21
-559.52612849930654
 31
0.0
  0
LINE
  8
0
  6
DASHED2
 62
               4
  5
368
 10
130.87102725426612
 20
-559.52612849930654
 30
0.0
 11
130.87102725426612
 21
-550.99999999999932
 31
0.0
  0
LINE
  8
0
  6
DASHED2
 62
               4
  5
369
 10
133.81551362713319
 20
-560.59999999999911
 30
0.0
 11
116.18448637286755
 21
-560.59999999999911
 31
0.0
  0
LINE
  8
0
  6
DASHED2
 62
               4
  5
36A
 10
113.24000000000021
 20
-550.99999999999932
 30
0.0
 11
113.24000000000021
 21
-559.52612849930654
 31
0.0
  0
LINE
  8
0
  6
DASHED2
 62
               4
  5
36B
 10
119.12897274573461
 20
-550.99999999999932
 30
0.0
 11
119.12897274573461
 21
-559.52612849930654
 31
0.0
  0
ARC
  8
0
  6
DASHED2
 62
               4
  5
36C
 10
133.81551362713319
 20
-556.02626841588369
 30
0.0
 40
4.5737315841157447
 50
229.92557966167917
 51
310.07442033842085
  0
ARC
  8
0
  6
DASHED2
 62
               4
  5
36D
 10
116.18448637286755
 20
-556.02626841588369
 30
0.0
 40
4.5737315841157686
 50
229.92557966167917
 51
310.07442033842028
  0
ARC
  8
0
  6
DASHED2
 62
               4
  5
36E
 10
125.00000000000037
 20
-544.0141417304792
 30
0.0
 40
16.58585826952007
 50
249.26918485861526
 51
290.73081514148578
  0
LINE
  8
0
  6
DASHED2
 62
               4
  5
36F
 10
130.99999999999889
 20
-560.59999999999911
 30
0.0
 11
130.99999999999889
 21
-571.11936624232374
 31
0.0
  0
LINE
  8
0
  6
DASHED2
 62
               4
  5
370
 10
118.99999999999901
 20
-560.59999999999911
 30
0.0
 11
118.99999999999901
 21
-571.11936624232374
 31
0.0
  0
LINE
  8
0
  6
DASHED2
 62
               4
  5
371
 10
129.79999999999913
 20
-572.31936624232412
 30
0.0
 11
120.19999999999905
 21
-572.31936624232412
 31
0.0
  0
LINE
  8
0
  6
DASHED2
 62
               4
  5
372
 10
130.99999999999889
 20
-571.11936624232374
 30
0.0
 11
129.79999999999913
 21
-572.31936624232412
 31
0.0
  0
LINE
  8
0
  6
DASHED2
 62
               4
  5
373
 10
118.99999999999901
 20
-571.11936624232374
 30
0.0
 11
120.19999999999905
 21
-572.31936624232412
 31
0.0
  0
LINE
  8
0
  6
DASHED2
 62
               4
  5
374
 10
136.75999999999911
 20
-548.99999999999898
 30
0.0
 11
113.23999999999879
 21
-548.99999999999898
 31
0.0
  0
LINE
  8
0
  6
DASHED2
 62
               4
  5
375
 10
113.24000000000021
 20
-550.99999999999932
 30
0.0
 11
136.76000000000053
 21
-550.99999999999932
 31
0.0
  0
LINE
  8
0
  6
DASHED2
 62
               4
  5
376
 10
-131.00000000000097
 20
-433.93642052407017
 30
0.0
 11
-131.00000000000097
 21
-539.39999999999884
 31
0.0
  0
LINE
  8
0
  6
DASHED2
 62
               4
  5
377
 10
-119.00000000000108
 20
-433.93642052407017
 30
0.0
 11
-119.00000000000108
 21
-539.39999999999884
 31
0.0
  0
LINE
  8
0
  6
DASHED2
 62
               4
  5
378
 10
-119.00000000000108
 20
-433.93642052407017
 30
0.0
 11
-131.00000000000097
 21
-433.93642052407017
 31
0.0
  0
LINE
  8
0
  6
DASHED2
 62
               4
  5
379
 10
130.99999999999889
 20
-433.93642052407017
 30
0.0
 11
130.99999999999889
 21
-539.39999999999884
 31
0.0
  0
LINE
  8
0
  6
DASHED2
 62
               4
  5
37A
 10
118.99999999999901
 20
-433.93642052407017
 30
0.0
 11
118.99999999999901
 21
-539.39999999999884
 31
0.0
  0
LINE
  8
0
  6
DASHED2
 62
               4
  5
37B
 10
118.99999999999901
 20
-433.93642052407017
 30
0.0
 11
130.99999999999889
 21
-433.93642052407017
 31
0.0
  0
LINE
  8
0
  6
DASHED2
 62
               4
  5
37C
 10
-557.50000000000296
 20
-564.00000000000045
 30
0.0
 11
-557.50000000000296
 21
-628.99999999999818
 31
0.0
  0
LINE
  8
0
  6
DASHED2
 62
               4
  5
37D
 10
-557.50000000000296
 20
-564.00000000000045
 30
0.0
 11
-500.00000000000114
 21
-563.99999999999932
 31
0.0
  0
LINE
  8
0
  6
DASHED2
 62
               4
  5
37E
 10
-442.49999999999829
 20
-564.00000000000045
 30
0.0
 11
-500.0
 21
-563.99999999999932
 31
0.0
  0
LINE
  8
0
  6
DASHED2
 62
               4
  5
37F
 10
-442.49999999999829
 20
-564.00000000000045
 30
0.0
 11
-442.49999999999829
 21
-628.99999999999818
 31
0.0
  0
LINE
  8
0
  6
DASHED2
 62
               4
  5
380
 10
-511.76000000000079
 20
-548.99999999999932
 30
0.0
 11
-511.76000000000079
 21
-540.4738715006921
 31
0.0
  0
LINE
  8
0
  6
DASHED2
 62
               4
  5
381
 10
-505.87102725426632
 20
-540.4738715006921
 30
0.0
 11
-505.87102725426632
 21
-548.99999999999932
 31
0.0
  0
LINE
  8
0
  6
DASHED2
 62
               4
  5
382
 10
-508.81551362713344
 20
-539.39999999999918
 30
0.0
 11
-491.18448637286747
 21
-539.39999999999918
 31
0.0
  0
LINE
  8
0
  6
DASHED2
 62
               4
  5
383
 10
-488.24000000000046
 20
-548.99999999999932
 30
0.0
 11
-488.24000000000046
 21
-540.4738715006921
 31
0.0
  0
LINE
  8
0
  6
DASHED2
 62
               4
  5
384
 10
-494.12897274573515
 20
-548.99999999999932
 30
0.0
 11
-494.12897274573515
 21
-540.4738715006921
 31
0.0
  0
ARC
  8
0
  6
DASHED2
 62
               4
  5
385
 10
-508.81551362713344
 20
-543.97373158411517
 30
0.0
 40
4.5737315841157447
 50
49.925579661612304
 51
130.07442033835341
  0
ARC
  8
0
  6
DASHED2
 62
               4
  5
386
 10
-491.18448637286747
 20
-543.97373158411517
 30
0.0
 40
4.5737315841157686
 50
49.925579661612304
 51
130.07442033835341
  0
ARC
  8
0
  6
DASHED2
 62
               4
  5
387
 10
-500.00000000000057
 20
-555.98585826951967
 30
0.0
 40
16.58585826952007
 50
69.269184858547646
 51
110.73081514141818
  0
LINE
  8
0
  6
DASHED2
 62
               4
  5
388
 10
-511.76000000000215
 20
-550.99999999999966
 30
0.0
 11
-511.76000000000215
 21
-559.52612849930688
 31
0.0
  0
LINE
  8
0
  6
DASHED2
 62
               4
  5
389
 10
-505.8710272542678
 20
-559.52612849930688
 30
0.0
 11
-505.8710272542678
 21
-550.99999999999966
 31
0.0
  0
LINE
  8
0
  6
DASHED2
 62
               4
  5
38A
 10
-508.81551362713481
 20
-560.59999999999945
 30
0.0
 11
-491.18448637286917
 21
-560.59999999999945
 31
0.0
  0
LINE
  8
0
  6
DASHED2
 62
               4
  5
38B
 10
-488.24000000000183
 20
-550.99999999999966
 30
0.0
 11
-488.24000000000183
 21
-559.52612849930688
 31
0.0
  0
LINE
  8
0
  6
DASHED2
 62
               4
  5
38C
 10
-494.12897274573629
 20
-550.99999999999966
 30
0.0
 11
-494.12897274573629
 21
-559.52612849930688
 31
0.0
  0
ARC
  8
0
  6
DASHED2
 62
               4
  5
38D
 10
-508.81551362713481
 20
-556.02626841588403
 30
0.0
 40
4.5737315841157447
 50
229.92557966157796
 51
310.07442033831961
  0
ARC
  8
0
  6
DASHED2
 62
               4
  5
38E
 10
-491.18448637286917
 20
-556.02626841588403
 30
0.0
 40
4.5737315841157686
 50
229.92557966157852
 51
310.07442033831961
  0
ARC
  8
0
  6
DASHED2
 62
               4
  5
38F
 10
-500.00000000000205
 20
-544.01414173047954
 30
0.0
 40
16.58585826952007
 50
249.26918485851303
 51
290.73081514138352
  0
LINE
  8
0
  6
DASHED2
 62
               4
  5
390
 10
-506.00000000000057
 20
-560.59999999999945
 30
0.0
 11
-506.00000000000057
 21
-571.11936624232408
 31
0.0
  0
LINE
  8
0
  6
DASHED2
 62
               4
  5
391
 10
-494.00000000000068
 20
-560.59999999999945
 30
0.0
 11
-494.00000000000068
 21
-571.11936624232408
 31
0.0
  0
LINE
  8
0
  6
DASHED2
 62
               4
  5
392
 10
-504.80000000000075
 20
-572.31936624232446
 30
0.0
 11
-495.20000000000073
 21
-572.31936624232446
 31
0.0
  0
LINE
  8
0
  6
DASHED2
 62
               4
  5
393
 10
-506.00000000000057
 20
-571.11936624232408
 30
0.0
 11
-504.80000000000075
 21
-572.31936624232446
 31
0.0
  0
LINE
  8
0
  6
DASHED2
 62
               4
  5
394
 10
-494.00000000000068
 20
-571.11936624232408
 30
0.0
 11
-495.20000000000073
 21
-572.31936624232446
 31
0.0
  0
LINE
  8
0
  6
DASHED2
 62
               4
  5
395
 10
-511.76000000000079
 20
-548.99999999999932
 30
0.0
 11
-488.24000000000046
 21
-548.99999999999932
 31
0.0
  0
LINE
  8
0
  6
DASHED2
 62
               4
  5
396
 10
-488.24000000000183
 20
-550.99999999999966
 30
0.0
 11
-511.76000000000215
 21
-550.99999999999966
 31
0.0
  0
LINE
  8
0
  6
DASHED2
 62
               4
  5
397
 10
-506.00000000000057
 20
-433.93642052407051
 30
0.0
 11
-506.00000000000057
 21
-539.39999999999918
 31
0.0
  0
LINE
  8
0
  6
DASHED2
 62
               4
  5
398
 10
-494.00000000000068
 20
-433.93642052407051
 30
0.0
 11
-494.00000000000068
 21
-539.39999999999918
 31
0.0
  0
LINE
  8
0
  6
DASHED2
 62
               4
  5
399
 10
-494.00000000000068
 20
-433.93642052407051
 30
0.0
 11
-506.00000000000057
 21
-433.93642052407051
 31
0.0
  0
LINE
  8
0
  6
DASHED2
 62
               4
  5
39A
 10
442.49999999999613
 20
-564.00000000000045
 30
0.0
 11
442.49999999999613
 21
-628.99999999999818
 31
0.0
  0
LINE
  8
0
  6
DASHED2
 62
               4
  5
39B
 10
442.49999999999613
 20
-564.00000000000045
 30
0.0
 11
499.99999999999795
 21
-563.99999999999932
 31
0.0
  0
LINE
  8
0
  6
DASHED2
 62
               4
  5
39C
 10
557.5000000000008
 20
-564.00000000000045
 30
0.0
 11
499.99999999999909
 21
-563.99999999999932
 31
0.0
  0
LINE
  8
0
  6
DASHED2
 62
               4
  5
39D
 10
557.5000000000008
 20
-564.00000000000045
 30
0.0
 11
557.5000000000008
 21
-628.99999999999818
 31
0.0
  0
LINE
  8
0
  6
DASHED2
 62
               4
  5
39E
 10
488.2399999999983
 20
-548.99999999999932
 30
0.0
 11
488.2399999999983
 21
-540.4738715006921
 31
0.0
  0
LINE
  8
0
  6
DASHED2
 62
               4
  5
39F
 10
494.12897274573277
 20
-540.4738715006921
 30
0.0
 11
494.12897274573277
 21
-548.99999999999932
 31
0.0
  0
LINE
  8
0
  6
DASHED2
 62
               4
  5
3A0
 10
491.18448637286565
 20
-539.39999999999918
 30
0.0
 11
508.81551362713162
 21
-539.39999999999918
 31
0.0
  0
LINE
  8
0
  6
DASHED2
 62
               4
  5
3A1
 10
511.75999999999863
 20
-548.99999999999932
 30
0.0
 11
511.75999999999863
 21
-540.4738715006921
 31
0.0
  0
LINE
  8
0
  6
DASHED2
 62
               4
  5
3A2
 10
505.87102725426394
 20
-548.99999999999932
 30
0.0
 11
505.87102725426394
 21
-540.4738715006921
 31
0.0
  0
ARC
  8
0
  6
DASHED2
 62
               4
  5
3A3
 10
491.18448637286565
 20
-543.97373158411517
 30
0.0
 40
4.5737315841157447
 50
49.925579661612304
 51
130.07442033835341
  0
ARC
  8
0
  6
DASHED2
 62
               4
  5
3A4
 10
508.81551362713162
 20
-543.97373158411517
 30
0.0
 40
4.5737315841157686
 50
49.925579661612304
 51
130.07442033835341
  0
ARC
  8
0
  6
DASHED2
 62
               4
  5
3A5
 10
499.99999999999852
 20
-555.98585826951967
 30
0.0
 40
16.58585826952007
 50
69.269184858547646
 51
110.73081514141818
  0
LINE
  8
0
  6
DASHED2
 62
               4
  5
3A6
 10
488.23999999999694
 20
-550.99999999999966
 30
0.0
 11
488.23999999999694
 21
-559.52612849930688
 31
0.0
  0
LINE
  8
0
  6
DASHED2
 62
               4
  5
3A7
 10
494.12897274573129
 20
-559.52612849930688
 30
0.0
 11
494.12897274573129
 21
-550.99999999999966
 31
0.0
  0
LINE
  8
0
  6
DASHED2
 62
               4
  5
3A8
 10
491.18448637286428
 20
-560.59999999999945
 30
0.0
 11
508.81551362712992
 21
-560.59999999999945
 31
0.0
  0
LINE
  8
0
  6
DASHED2
 62
               4
  5
3A9
 10
511.75999999999726
 20
-550.99999999999966
 30
0.0
 11
511.75999999999726
 21
-559.52612849930688
 31
0.0
  0
LINE
  8
0
  6
DASHED2
 62
               4
  5
3AA
 10
505.8710272542628
 20
-550.99999999999966
 30
0.0
 11
505.8710272542628
 21
-559.52612849930688
 31
0.0
  0
ARC
  8
0
  6
DASHED2
 62
               4
  5
3AB
 10
491.18448637286428
 20
-556.02626841588403
 30
0.0
 40
4.5737315841157447
 50
229.92557966157796
 51
310.07442033831961
  0
ARC
  8
0
  6
DASHED2
 62
               4
  5
3AC
 10
508.81551362712992
 20
-556.02626841588403
 30
0.0
 40
4.5737315841157686
 50
229.92557966157852
 51
310.07442033831961
  0
ARC
  8
0
  6
DASHED2
 62
               4
  5
3AD
 10
499.99999999999704
 20
-544.01414173047954
 30
0.0
 40
16.58585826952007
 50
249.26918485851303
 51
290.73081514138352
  0
LINE
  8
0
  6
DASHED2
 62
               4
  5
3AE
 10
493.99999999999852
 20
-560.59999999999945
 30
0.0
 11
493.99999999999852
 21
-571.11936624232408
 31
0.0
  0
LINE
  8
0
  6
DASHED2
 62
               4
  5
3AF
 10
505.99999999999841
 20
-560.59999999999945
 30
0.0
 11
505.99999999999841
 21
-571.11936624232408
 31
0.0
  0
LINE
  8
0
  6
DASHED2
 62
               4
  5
3B0
 10
495.19999999999834
 20
-572.31936624232446
 30
0.0
 11
504.79999999999836
 21
-572.31936624232446
 31
0.0
  0
LINE
  8
0
  6
DASHED2
 62
               4
  5
3B1
 10
493.99999999999852
 20
-571.11936624232408
 30
0.0
 11
495.19999999999834
 21
-572.31936624232446
 31
0.0
  0
LINE
  8
0
  6
DASHED2
 62
               4
  5
3B2
 10
505.99999999999841
 20
-571.11936624232408
 30
0.0
 11
504.79999999999836
 21
-572.31936624232446
 31
0.0
  0
LINE
  8
0
  6
DASHED2
 62
               4
  5
3B3
 10
488.2399999999983
 20
-548.99999999999932
 30
0.0
 11
511.75999999999863
 21
-548.99999999999932
 31
0.0
  0
LINE
  8
0
  6
DASHED2
 62
               4
  5
3B4
 10
511.75999999999726
 20
-550.99999999999966
 30
0.0
 11
488.23999999999694
 21
-550.99999999999966
 31
0.0
  0
LINE
  8
0
  6
DASHED2
 62
               4
  5
3B5
 10
493.99999999999852
 20
-433.93642052407051
 30
0.0
 11
493.99999999999852
 21
-539.39999999999918
 31
0.0
  0
LINE
  8
0
  6
DASHED2
 62
               4
  5
3B6
 10
505.99999999999841
 20
-433.93642052407051
 30
0.0
 11
505.99999999999841
 21
-539.39999999999918
 31
0.0
  0
LINE
  8
0
  6
DASHED2
 62
               4
  5
3B7
 10
505.99999999999841
 20
-433.93642052407051
 30
0.0
 11
493.99999999999852
 21
-433.93642052407051
 31
0.0
  0
LINE
  8
0
  6
DASHED2
 62
               4
  5
3B8
 10
552.28652321630761
 20
-1486.3562982616334
 30
0.0
 11
666.28652321630739
 21
-1486.3562982616334
 31
0.0
  0
LINE
  8
0
  6
DASHDOT
 62
               4
  5
3B9
 10
-500.0
 20
266.00000000000057
 30
0.0
 11
-500.00000000000063
 21
-768.89310460364914
 31
0.0
  0
LINE
  8
0
  6
DASHDOT
 62
               4
  5
3BA
 10
-0.0000000000004547
 20
266.00000000000051
 30
0.0
 11
-0.0000000000003914
 21
-768.89310460364914
 31
0.0
  0
LINE
  8
0
  6
DASHDOT
 62
               4
  5
3BB
 10
500.00000000000045
 20
266.00000000000057
 30
0.0
 11
500.00000000000051
 21
-768.89310460364902
 31
0.0
  0
LINE
  8
0
  6
DASHDOT
 62
               4
  5
3BC
 10
67.421685799007392
 20
-79.999999999999318
 30
0.0
 11
-175.00000000000111
 21
-79.999999999999318
 31
0.0
  0
LINE
  8
0
  6
DASHDOT
 62
               4
  5
3BD
 10
-0.0000000000004547
 20
699.50000000000023
 30
0.0
 11
-0.0000000000004547
 21
426.00000000000051
 31
0.0
  0
LINE
  8
0
  6
DASHDOT
 62
               4
  5
3BE
 10
-159.38409854423332
 20
591.0
 30
0.0
 11
108.49999999999979
 21
591.0
 31
0.0
  0
LINE
  8
0
  6
DASHDOT
 62
               4
  5
3BF
 10
-567.42168579900783
 20
-79.999999999999204
 30
0.0
 11
-324.99999999999932
 21
-79.999999999999204
 31
0.0
  0
LINE
  8
0
  6
DASHDOT
 62
               4
  5
3C0
 10
439.68285579149125
 20
-79.99999999999919
 30
0.0
 11
324.99999999999841
 21
-79.999999999999204
 31
0.0
  0
LINE
  8
0
  6
DASHDOT
 62
               4
  5
3C1
 10
-125.00000000000102
 20
-428.00989800199409
 30
0.0
 11
-125.00000000000102
 21
-592.38825962148451
 31
0.0
  0
LINE
  8
0
  6
DASHDOT
 62
               4
  5
3C2
 10
124.99999999999895
 20
-428.00989800199409
 30
0.0
 11
124.99999999999895
 21
-592.38825962148451
 31
0.0
  0
LINE
  8
0
  6
DASHDOT
 62
               4
  5
3C3
 10
-392.1377690504691
 20
-1235.04130008484
 30
0.0
 11
-392.13776905046899
 21
-1106.0413000848403
 31
0.0
  0
LINE
  8
0
  6
DASHDOT
 62
               4
  5
3C4
 10
-450.13776905046899
 20
-1177.04130008484
 30
0.0
 11
-334.1377690504691
 21
-1177.04130008484
 31
0.0
  0
LINE
  8
0
  6
DASHDOT
 62
               4
  5
3C5
 10
-461.94094753457654
 20
-1170.54130008484
 30
0.0
 11
-327.6377690504691
 21
-1170.54130008484
 31
0.0
  0
LINE
  8
0
  6
DASHDOT
 62
               4
  5
3C6
 10
-268.23776905046901
 20
-1170.54130008484
 30
0.0
 11
-169.6377690504691
 21
-1170.54130008484
 31
0.0
  0
LINE
  8
0
  6
DASHDOT
 62
               4
  5
3C7
 10
-302.6377690504691
 20
-1177.04130008484
 30
0.0
 11
-228.23776905046913
 21
-1177.04130008484
 31
0.0
  0
LINE
  8
0
  6
DASHDOT
 62
               4
  5
3C8
 10
-516.0377690504688
 20
-1170.54130008484
 30
0.0
 11
-614.63776905046893
 21
-1170.5413000848396
 31
0.0
  0
LINE
  8
0
  6
DASHDOT
 62
               4
  5
3C9
 10
-481.63776905046899
 20
-1177.04130008484
 30
0.0
 11
-556.0377690504688
 21
-1177.04130008484
 31
0.0
  0
LINE
  8
0
  6
DASHDOT
 62
               4
  5
3CA
 10
-394.08372644623563
 20
-1073.5734160158052
 30
0.0
 11
-394.08372644623563
 21
-940.57341601580515
 31
0.0
  0
LINE
  8
0
  6
DASHDOT
 62
               4
  5
3CB
 10
221.63392368588057
 20
-1170.54130008484
 30
0.0
 11
320.23392368588071
 21
-1170.54130008484
 31
0.0
  0
LINE
  8
0
  6
DASHDOT
 62
               4
  5
3CC
 10
196.63392368588057
 20
-1185.04130008484
 30
0.0
 11
261.63392368588057
 21
-1185.04130008484
 31
0.0
  0
LINE
  8
0
  6
DASHDOT
 62
               4
  5
3CD
 10
70.877907460637573
 20
-1185.04130008484
 30
0.0
 11
170.8779074606378
 21
-1185.04130008484
 31
0.0
  0
LINE
  8
0
  6
DASHDOT
 62
               4
  5
3CE
 10
120.87790746063757
 20
-1235.04130008484
 30
0.0
 11
120.8779074606378
 21
-1106.0413000848403
 31
0.0
  0
LINE
  8
0
  6
DASHDOT
 62
               4
  5
3CF
 10
56.377907460637573
 20
-1170.54130008484
 30
0.0
 11
190.92191724058881
 21
-1170.54130008484
 31
0.0
  0
LINE
  8
0
  6
DASHDOT
 62
               4
  5
3D0
 10
20.121891235394799
 20
-1170.54130008484
 30
0.0
 11
-78.478108764605224
 21
-1170.54130008484
 31
0.0
  0
LINE
  8
0
  6
DASHDOT
 62
               4
  5
3D1
 10
45.121891235394799
 20
-1185.04130008484
 30
0.0
 11
-19.878108764605201
 21
-1185.04130008484
 31
0.0
  0
LINE
  8
0
  6
DASHDOT
 62
               4
  5
3D2
 10
120.8779074606378
 20
-1084.2852838595975
 30
0.0
 11
120.8779074606378
 21
-960.68528385959735
 31
0.0
  0
LINE
  8
0
  6
DASHDOT
 62
               4
  5
3D3
 10
609.28652321630761
 20
-1004.3568645130492
 30
0.0
 11
609.28652321630761
 21
-1274.9036513128756
 31
0.0
  0
LINE
  8
0
  6
DASHDOT
 62
               4
  5
3D4
 10
447.28652321630756
 20
-1112.8568645130492
 30
0.0
 11
717.78652321630784
 21
-1112.8568645130492
 31
0.0
  0
LINE
  8
0
  6
DASHDOT
 62
               4
  5
3D5
 10
677.81174799153223
 20
-1587.3562982616334
 30
0.0
 11
447.55790992287922
 21
-1587.3562982616334
 31
0.0
  0
LINE
  8
0
  6
DASHDOT
 62
               4
  5
3D6
 10
609.28652321630761
 20
-1401.3562982616334
 30
0.0
 11
609.28652321630761
 21
-1652.3562982616334
 31
0.0
  0
LINE
  8
0
  6
DASHDOT
 62
               4
  5
3D7
 10
559.28652321630761
 20
-1601.8562982616334
 30
0.0
 11
659.28652321630784
 21
-1601.8562982616334
 31
0.0
  0
LINE
  8
0
  6
DASHDOT
 62
               4
  5
3D8
 10
609.28652321630761
 20
-1303.4568645130491
 30
0.0
 11
609.28652321630761
 21
-1179.8568645130488
 31
0.0
  0
LINE
  8
0
  6
DASHDOT
 62
               4
  5
3D9
 10
409.28652321630744
 20
-1593.8562982616334
 30
0.0
 11
483.68652321630742
 21
-1593.8562982616334
 31
0.0
  0
LINE
  8
0
  6
DASHDOT
 62
               4
  5
3DA
 10
409.28652321630767
 20
-1112.856864513049
 30
0.0
 11
542.28652321630784
 21
-1112.856864513049
 31
0.0
  0
ARC
  8
0
  6
DIVIDE
 62
               4
  5
3DB
 10
-28.500000000000966
 20
-795.93298130416792
 30
0.0
 40
55.0
 50
58.789629707489617
 51
121.21037029250985
  0
ARC
  8
0
  6
DIVIDE
 62
               4
  5
3DC
 10
-28.500000000000966
 20
-701.85322790313035
 30
0.0
 40
55.0
 50
238.78962970748935
 51
301.21037029250937
  0
ARC
  8
0
  6
DIVIDE
 62
               4
  5
3DD
 10
-32.500000000001023
 20
-771.39560203944575
 30
0.0
 40
65.0
 50
59.999999999999723
 51
119.99999999999987
  0
ARC
  8
0
  6
DIVIDE
 62
               4
  5
3DE
 10
28.499999999999062
 20
-701.85322790313057
 30
0.0
 40
55.0
 50
238.78962970748941
 51
301.21037029250959
  0
ARC
  8
0
  6
DIVIDE
 62
               4
  5
3DF
 10
32.499999999998977
 20
-658.81229954746868
 30
0.0
 40
65.0
 50
239.99999999999966
 51
299.99999999999932
  0
LINE
  8
0
  6
DIVIDE
 62
               4
  5
3E0
 10
-57.000000000000909
 20
-711.18970531827722
 30
0.0
 11
-57.000000000000909
 21
-748.89310460364914
 31
0.0
  0
LINE
  8
0
  6
DIVIDE
 62
               4
  5
3E1
 10
56.999999999999147
 20
-719.01819626863721
 30
0.0
 11
56.999999999999147
 21
-748.89310460364914
 31
0.0
  0
ARC
  8
0
  6
DIVIDE
 62
               4
  5
3E2
 10
-32.500000000001023
 20
-658.81229954746891
 30
0.0
 40
65.0
 50
239.99999999999929
 51
247.85677929855132
  0
LINE
  8
0
  6
DIVIDE
 62
               4
  5
3E3
 10
64.999999999998948
 20
-628.99999999999829
 30
0.0
 11
64.999999999998948
 21
-715.10395079345722
 31
0.0
  0
LINE
  8
0
  6
DIVIDE
 62
               4
  5
3E4
 10
-65.000000000001023
 20
-628.99999999999829
 30
0.0
 11
-65.000000000001023
 21
-715.10395079345722
 31
0.0
  0
ARC
  8
0
  6
DIVIDE
 62
               4
  5
3E5
 10
-528.50000000000045
 20
-795.93298130416792
 30
0.0
 40
55.0
 50
58.789629707489617
 51
121.21037029250985
  0
ARC
  8
0
  6
DIVIDE
 62
               4
  5
3E6
 10
-528.50000000000045
 20
-701.85322790313035
 30
0.0
 40
55.0
 50
238.78962970748935
 51
301.21037029250937
  0
ARC
  8
0
  6
DIVIDE
 62
               4
  5
3E7
 10
-532.50000000000057
 20
-771.39560203944575
 30
0.0
 40
65.0
 50
59.999999999999723
 51
119.99999999999987
  0
ARC
  8
0
  6
DIVIDE
 62
               4
  5
3E8
 10
-471.50000000000045
 20
-701.85322790313057
 30
0.0
 40
55.0
 50
238.78962970748941
 51
301.21037029250959
  0
ARC
  8
0
  6
DIVIDE
 62
               4
  5
3E9
 10
-467.50000000000057
 20
-658.81229954746868
 30
0.0
 40
65.0
 50
239.99999999999966
 51
299.99999999999932
  0
LINE
  8
0
  6
DIVIDE
 62
               4
  5
3EA
 10
-557.00000000000045
 20
-711.18970531827722
 30
0.0
 11
-557.00000000000045
 21
-748.89310460364914
 31
0.0
  0
LINE
  8
0
  6
DIVIDE
 62
               4
  5
3EB
 10
-443.00000000000045
 20
-719.01819626863721
 30
0.0
 11
-443.00000000000045
 21
-748.89310460364914
 31
0.0
  0
ARC
  8
0
  6
DIVIDE
 62
               4
  5
3EC
 10
-532.50000000000057
 20
-658.81229954746891
 30
0.0
 40
65.0
 50
239.99999999999929
 51
247.85677929855132
  0
LINE
  8
0
  6
DIVIDE
 62
               4
  5
3ED
 10
-435.00000000000057
 20
-628.99999999999818
 30
0.0
 11
-435.00000000000057
 21
-715.10395079345722
 31
0.0
  0
LINE
  8
0
  6
DIVIDE
 62
               4
  5
3EE
 10
-565.00000000000057
 20
-628.99999999999818
 30
0.0
 11
-565.00000000000057
 21
-715.10395079345722
 31
0.0
  0
ARC
  8
0
  6
DIVIDE
 62
               4
  5
3EF
 10
471.49999999999864
 20
-795.93298130416792
 30
0.0
 40
55.0
 50
58.789629707489617
 51
121.21037029250985
  0
ARC
  8
0
  6
DIVIDE
 62
               4
  5
3F0
 10
471.49999999999864
 20
-701.85322790313035
 30
0.0
 40
55.0
 50
238.78962970748935
 51
301.21037029250937
  0
ARC
  8
0
  6
DIVIDE
 62
               4
  5
3F1
 10
467.49999999999852
 20
-771.39560203944575
 30
0.0
 40
65.0
 50
59.999999999999723
 51
119.99999999999987
  0
ARC
  8
0
  6
DIVIDE
 62
               4
  5
3F2
 10
528.49999999999864
 20
-701.85322790313057
 30
0.0
 40
55.0
 50
238.78962970748941
 51
301.21037029250959
  0
ARC
  8
0
  6
DIVIDE
 62
               4
  5
3F3
 10
532.49999999999852
 20
-658.81229954746868
 30
0.0
 40
65.0
 50
239.99999999999966
 51
299.99999999999932
  0
LINE
  8
0
  6
DIVIDE
 62
               4
  5
3F4
 10
442.99999999999864
 20
-711.18970531827722
 30
0.0
 11
442.99999999999864
 21
-748.89310460364914
 31
0.0
  0
LINE
  8
0
  6
DIVIDE
 62
               4
  5
3F5
 10
556.99999999999864
 20
-719.01819626863721
 30
0.0
 11
556.99999999999864
 21
-748.89310460364914
 31
0.0
  0
ARC
  8
0
  6
DIVIDE
 62
               4
  5
3F6
 10
467.49999999999852
 20
-658.81229954746891
 30
0.0
 40
65.0
 50
239.99999999999929
 51
247.85677929855132
  0
LINE
  8
0
  6
DIVIDE
 62
               4
  5
3F7
 10
564.99999999999852
 20
-628.99999999999818
 30
0.0
 11
564.99999999999852
 21
-715.10395079345722
 31
0.0
  0
LINE
  8
0
  6
DIVIDE
 62
               4
  5
3F8
 10
434.99999999999852
 20
-628.99999999999818
 30
0.0
 11
434.99999999999852
 21
-715.10395079345722
 31
0.0
  0
LINE
  8
0
  6
CONTINUOUS
 62
               3
  5
3F9
 10
79.999999999998337
 20
-130.53907750402237
 30
0.0
 11
79.999999999998337
 21
-35.999999999999432
 31
0.0
  0
ARC
  8
0
  6
CONTINUOUS
 62
               3
  5
3FA
 10
74.999999999998337
 20
-130.53907750402237
 30
0.0
 40
5.0
 50
314.99999999999972
 51
359.9999999999992
  0
ARC
  8
0
  6
CONTINUOUS
 62
               3
  5
3FB
 10
67.999999999998309
 20
-151.68121312775355
 30
0.0
 40
5.0
 50
135.00000000000028
 51
179.9999999999996
  0
LINE
  8
0
  6
CONTINUOUS
 62
               3
  5
3FC
 10
64.464466094065543
 20
-148.14567922182084
 30
0.0
 11
78.535533905931104
 21
-134.07461140995508
 31
0.0
  0
LINE
  8
0
  6
CONTINUOUS
 62
               3
  5
3FD
 10
-80.00000000000054
 20
147.52786327981744
 30
0.0
 11
-80.000000000000256
 21
28.000000000001251
 31
0.0
  0
LINE
  8
0
  6
CONTINUOUS
 62
               3
  5
3FE
 10
-80.00000000000054
 20
147.52786327981744
 30
0.0
 11
-77.000000000000696
 21
153.03565375285325
 31
0.0
  0
LINE
  8
0
  6
CONTINUOUS
 62
               3
  5
3FF
 10
-77.000000000000696
 20
224.00000000000085
 30
0.0
 11
-77.000000000000696
 21
153.03565375285325
 31
0.0
  0
LINE
  8
0
  6
CONTINUOUS
 62
               3
  5
400
 10
79.99999999999919
 20
147.52786327981744
 30
0.0
 11
79.999999999998906
 21
28.000000000001251
 31
0.0
  0
LINE
  8
0
  6
CONTINUOUS
 62
               3
  5
401
 10
79.99999999999919
 20
147.52786327981744
 30
0.0
 11
76.999999999999218
 21
153.03565375285325
 31
0.0
  0
LINE
  8
0
  6
CONTINUOUS
 62
               3
  5
402
 10
76.999999999999218
 20
224.00000000000085
 30
0.0
 11
76.999999999999218
 21
153.03565375285325
 31
0.0
  0
LINE
  8
0
  6
CONTINUOUS
 62
               3
  5
403
 10
-131.01924324213965
 20
-144.46534422365482
 30
0.0
 11
-68.439212870416625
 21
-147.04036603214018
 31
0.0
  0
LINE
  8
0
  6
CONTINUOUS
 62
               3
  5
404
 10
-64.464466094066452
 20
-149.14538188899928
 30
0.0
 11
-65.10924331418461
 21
-148.50060466888124
 31
0.0
  0
ARC
  8
0
  6
CONTINUOUS
 62
               3
  5
405
 10
-67.999999999999218
 20
-152.68091579493193
 30
0.0
 40
5.0
 50
0.0
 51
44.999999999998749
  0
ARC
  8
0
  6
CONTINUOUS
 62
               3
  5
406
 10
-68.644777220117376
 20
-152.03613857481383
 30
0.0
 40
5.0
 50
44.999999999998174
 51
87.643741965968047
  0
LINE
  8
0
  6
CONTINUOUS
 62
               3
  5
407
 10
62.999999999998309
 20
-483.99999999999943
 30
0.0
 11
62.999999999998309
 21
-151.68121312775355
 31
0.0
  0
LINE
  8
0
  6
CONTINUOUS
 62
               3
  5
408
 10
-62.999999999999218
 20
-483.99999999999943
 30
0.0
 11
62.999999999998309
 21
-483.99999999999943
 31
0.0
  0
LINE
  8
0
  6
CONTINUOUS
 62
               3
  5
409
 10
54.501218345962783
 20
-548.99999999999943
 30
0.0
 11
56.499999999999531
 21
-547.06979899340433
 31
0.0
  0
LINE
  8
0
  6
CONTINUOUS
 62
               3
  5
40A
 10
-54.501218345963835
 20
-548.99999999999943
 30
0.0
 11
-56.500000000000583
 21
-547.06979899340433
 31
0.0
  0
LINE
  8
0
  6
CONTINUOUS
 62
               3
  5
40B
 10
54.501218345962783
 20
-548.99999999999943
 30
0.0
 11
-54.501218345963835
 21
-548.99999999999943
 31
0.0
  0
LINE
  8
0
  6
CONTINUOUS
 62
               3
  5
40C
 10
-62.999999999999218
 20
-152.68091579493193
 30
0.0
 11
-62.999999999999218
 21
-483.99999999999943
 31
0.0
  0
LINE
  8
0
  6
CONTINUOUS
 62
               3
  5
40D
 10
-131.01924324213965
 20
-137.53729650216167
 30
0.0
 11
-131.01924324213965
 21
-144.46534422365482
 31
0.0
  0
LINE
  8
0
  6
CONTINUOUS
 62
               3
  5
40E
 10
-56.500000000000725
 20
-483.99999999999943
 30
0.0
 11
-56.500000000000725
 21
-547.06979899340433
 31
0.0
  0
LINE
  8
0
  6
CONTINUOUS
 62
               3
  5
40F
 10
56.499999999999389
 20
-483.99999999999943
 30
0.0
 11
56.499999999999389
 21
-547.06979899340433
 31
0.0
  0
LINE
  8
0
  6
CONTINUOUS
 62
               3
  5
410
 10
56.499999999999389
 20
-498.99999999999943
 30
0.0
 11
-56.500000000000725
 21
-498.99999999999943
 31
0.0
  0
LINE
  8
0
  6
CONTINUOUS
 62
               3
  5
411
 10
-140.00000000000111
 20
-134.99999999999943
 30
0.0
 11
-139.32844387403688
 21
-134.99999999999943
 31
0.0
  0
LINE
  8
0
  6
CONTINUOUS
 62
               3
  5
412
 10
-137.00000000000099
 20
-137.32844387403441
 30
0.0
 11
-139.32844387403688
 21
-134.99999999999943
 31
0.0
  0
LINE
  8
0
  6
CONTINUOUS
 62
               3
  5
413
 10
-139.32844387403688
 20
-24.999999999999545
 30
0.0
 11
-139.32844387403688
 21
-134.99999999999943
 31
0.0
  0
LINE
  8
0
  6
CONTINUOUS
 62
               3
  5
414
 10
-137.00000000000099
 20
-137.32844387403441
 30
0.0
 11
-137.00000000000099
 21
-22.671556125963662
 31
0.0
  0
LINE
  8
0
  6
CONTINUOUS
 62
               3
  5
415
 10
-140.00000000000111
 20
-137.32844387403486
 30
0.0
 11
-140.00000000000111
 21
-22.671556125963775
 31
0.0
  0
LINE
  8
0
  6
CONTINUOUS
 62
               3
  5
416
 10
-145.00000000000111
 20
-25.171556125963775
 30
0.0
 11
-145.00000000000111
 21
-134.82844387403486
 31
0.0
  0
LINE
  8
0
  6
CONTINUOUS
 62
               3
  5
417
 10
-140.00000000000111
 20
-137.32844387403486
 30
0.0
 11
-142.50000000000111
 21
-137.32844387403486
 31
0.0
  0
ARC
  8
0
  6
CONTINUOUS
 62
               3
  5
418
 10
-142.50000000000111
 20
-134.82844387403486
 30
0.0
 40
2.5
 50
179.9999999999996
 51
269.99999999999937
  0
CIRCLE
  8
0
  6
CONTINUOUS
 62
               3
  5
419
 10
-0.0000000000006679
 20
-79.999999999999829
 30
0.0
 40
57.5
  0
LINE
  8
0
  6
CONTINUOUS
 62
               3
  5
41A
 10
-140.00000000000045
 20
536.00000000000023
 30
0.0
 11
-139.32844387403622
 21
536.00000000000023
 31
0.0
  0
LINE
  8
0
  6
CONTINUOUS
 62
               3
  5
41B
 10
-137.00000000000034
 20
533.6715561259648
 30
0.0
 11
-139.32844387403622
 21
536.00000000000023
 31
0.0
  0
LINE
  8
0
  6
CONTINUOUS
 62
               3
  5
41C
 10
-140.00000000000045
 20
646.0
 30
0.0
 11
-139.32844387403622
 21
646.0
 31
0.0
  0
LINE
  8
0
  6
CONTINUOUS
 62
               3
  5
41D
 10
-137.00000000000034
 20
648.32844387403588
 30
0.0
 11
-139.32844387403622
 21
646.0
 31
0.0
  0
LINE
  8
0
  6
CONTINUOUS
 62
               3
  5
41E
 10
-139.32844387403622
 20
646.0
 30
0.0
 11
-139.32844387403622
 21
536.00000000000023
 31
0.0
  0
LINE
  8
0
  6
CONTINUOUS
 62
               3
  5
41F
 10
-137.00000000000034
 20
533.6715561259648
 30
0.0
 11
-137.00000000000034
 21
648.32844387403588
 31
0.0
  0
LINE
  8
0
  6
CONTINUOUS
 62
               3
  5
420
 10
-145.00000000000045
 20
645.82844387403588
 30
0.0
 11
-145.00000000000045
 21
536.1715561259648
 31
0.0
  0
LINE
  8
0
  6
CONTINUOUS
 62
               3
  5
421
 10
-140.00000000000045
 20
533.6715561259648
 30
0.0
 11
-140.00000000000045
 21
648.32844387403588
 31
0.0
  0
LINE
  8
0
  6
CONTINUOUS
 62
               3
  5
422
 10
-140.00000000000045
 20
648.32844387403588
 30
0.0
 11
-142.50000000000045
 21
648.32844387403588
 31
0.0
  0
LINE
  8
0
  6
CONTINUOUS
 62
               3
  5
423
 10
-140.00000000000045
 20
533.6715561259648
 30
0.0
 11
-142.50000000000045
 21
533.6715561259648
 31
0.0
  0
ARC
  8
0
  6
CONTINUOUS
 62
               3
  5
424
 10
-142.50000000000045
 20
536.1715561259648
 30
0.0
 40
2.5
 50
179.9999999999996
 51
269.99999999999937
  0
ARC
  8
0
  6
CONTINUOUS
 62
               3
  5
425
 10
-142.50000000000045
 20
645.82844387403588
 30
0.0
 40
2.5
 50
89.999999999999801
 51
179.9999999999996
  0
LINE
  8
0
  6
CONTINUOUS
 62
               3
  5
426
 10
-128.00000000000045
 20
525.45092228189833
 30
0.0
 11
-90.20626689031856
 21
523.85390580674471
 31
0.0
  0
LINE
  8
0
  6
CONTINUOUS
 62
               3
  5
427
 10
-128.00000000000045
 20
656.54907771810213
 30
0.0
 11
-90.206266890318616
 21
658.14609419325575
 31
0.0
  0
LINE
  8
0
  6
CONTINUOUS
 62
               3
  5
428
 10
-128.00000000000045
 20
648.64273079946179
 30
0.0
 11
-128.00000000000045
 21
656.54907771810213
 31
0.0
  0
LINE
  8
0
  6
CONTINUOUS
 62
               3
  5
429
 10
-128.00000000000045
 20
533.35726920053912
 30
0.0
 11
-128.00000000000045
 21
525.45092228189833
 31
0.0
  0
LINE
  8
0
  6
CONTINUOUS
 62
               3
  5
42A
 10
54.999999999999417
 20
451.00000000000051
 30
0.0
 11
54.999999999999417
 21
451.67155612596474
 31
0.0
  0
LINE
  8
0
  6
CONTINUOUS
 62
               3
  5
42B
 10
57.328443874034733
 20
454.00000000000063
 30
0.0
 11
54.999999999999417
 21
451.67155612596474
 31
0.0
  0
LINE
  8
0
  6
CONTINUOUS
 62
               3
  5
42C
 10
-55.000000000000583
 20
451.00000000000051
 30
0.0
 11
-55.000000000000583
 21
451.67155612596474
 31
0.0
  0
LINE
  8
0
  6
CONTINUOUS
 62
               3
  5
42D
 10
-57.328443874036466
 20
454.00000000000063
 30
0.0
 11
-55.000000000000583
 21
451.67155612596474
 31
0.0
  0
LINE
  8
0
  6
CONTINUOUS
 62
               3
  5
42E
 10
-55.000000000000583
 20
451.67155612596474
 30
0.0
 11
54.999999999999417
 21
451.67155612596474
 31
0.0
  0
LINE
  8
0
  6
CONTINUOUS
 62
               3
  5
42F
 10
57.328443874034733
 20
454.00000000000063
 30
0.0
 11
-57.328443874036466
 21
454.00000000000063
 31
0.0
  0
LINE
  8
0
  6
CONTINUOUS
 62
               3
  5
430
 10
-54.828443874036466
 20
446.00000000000051
 30
0.0
 11
54.828443874034733
 21
446.00000000000051
 31
0.0
  0
LINE
  8
0
  6
CONTINUOUS
 62
               3
  5
431
 10
57.328443874034733
 20
451.00000000000051
 30
0.0
 11
-57.328443874036466
 21
451.00000000000051
 31
0.0
  0
LINE
  8
0
  6
CONTINUOUS
 62
               3
  5
432
 10
-57.328443874036466
 20
451.00000000000051
 30
0.0
 11
-57.328443874036466
 21
448.50000000000051
 31
0.0
  0
LINE
  8
0
  6
CONTINUOUS
 62
               3
  5
433
 10
57.328443874034733
 20
451.00000000000051
 30
0.0
 11
57.328443874034733
 21
448.50000000000051
 31
0.0
  0
ARC
  8
0
  6
CONTINUOUS
 62
               3
  5
434
 10
54.828443874034733
 20
448.50000000000051
 30
0.0
 40
2.5
 50
269.99999999999937
 51
359.9999999999992
  0
ARC
  8
0
  6
CONTINUOUS
 62
               3
  5
435
 10
-54.828443874036466
 20
448.50000000000051
 30
0.0
 40
2.5
 50
179.9999999999996
 51
269.99999999999937
  0
LINE
  8
0
  6
CONTINUOUS
 62
               3
  5
436
 10
-57.642730799462228
 20
463.00000000000051
 30
0.0
 11
-65.549077718102509
 21
463.00000000000051
 31
0.0
  0
LINE
  8
0
  6
CONTINUOUS
 62
               3
  5
437
 10
57.642730799460494
 20
463.00000000000051
 30
0.0
 11
65.549077718101344
 21
463.00000000000051
 31
0.0
  0
LINE
  8
0
  6
CONTINUOUS
 62
               3
  5
438
 10
65.549077718101344
 20
463.00000000000051
 30
0.0
 11
67.146094193254953
 21
500.79373310968214
 31
0.0
  0
LINE
  8
0
  6
CONTINUOUS
 62
               3
  5
439
 10
-65.549077718102509
 20
463.00000000000051
 30
0.0
 11
-67.146094193256104
 21
500.79373310968191
 31
0.0
  0
LINE
  8
0
  6
CONTINUOUS
 62
               3
  5
43A
 10
-579.99999999999886
 20
-130.53907750402226
 30
0.0
 11
-579.99999999999886
 21
-35.999999999999318
 31
0.0
  0
ARC
  8
0
  6
CONTINUOUS
 62
               3
  5
43B
 10
-574.99999999999886
 20
-130.53907750402226
 30
0.0
 40
5.0
 50
179.9999999999996
 51
224.99999999999909
  0
ARC
  8
0
  6
CONTINUOUS
 62
               3
  5
43C
 10
-567.99999999999875
 20
-151.68121312775344
 30
0.0
 40
5.0
 50
0.0
 51
44.999999999999318
  0
LINE
  8
0
  6
CONTINUOUS
 62
               3
  5
43D
 10
-564.46446609406598
 20
-148.14567922182073
 30
0.0
 11
-578.53553390593152
 21
-134.07461140995497
 31
0.0
  0
LINE
  8
0
  6
CONTINUOUS
 62
               3
  5
43E
 10
-368.98075675786083
 20
-144.46534422365471
 30
0.0
 11
-431.56078712958379
 21
-147.04036603214007
 31
0.0
  0
LINE
  8
0
  6
CONTINUOUS
 62
               3
  5
43F
 10
-435.53553390593402
 20
-149.14538188899917
 30
0.0
 11
-434.89075668581586
 21
-148.50060466888112
 31
0.0
  0
ARC
  8
0
  6
CONTINUOUS
 62
               3
  5
440
 10
-432.00000000000125
 20
-152.68091579493182
 30
0.0
 40
5.0
 50
135.00000000000085
 51
179.9999999999996
  0
ARC
  8
0
  6
CONTINUOUS
 62
               3
  5
441
 10
-431.35522277988309
 20
-152.03613857481372
 30
0.0
 40
5.0
 50
92.356258034031569
 51
135.00000000000142
  0
LINE
  8
0
  6
CONTINUOUS
 62
               3
  5
442
 10
-368.98075675786083
 20
-137.53729650216155
 30
0.0
 11
-368.98075675786083
 21
-144.46534422365471
 31
0.0
  0
LINE
  8
0
  6
CONTINUOUS
 62
               3
  5
443
 10
-359.99999999999932
 20
-134.99999999999932
 30
0.0
 11
-360.67155612596355
 21
-134.99999999999932
 31
0.0
  0
LINE
  8
0
  6
CONTINUOUS
 62
               3
  5
444
 10
-362.99999999999943
 20
-137.32844387403429
 30
0.0
 11
-360.67155612596355
 21
-134.99999999999932
 31
0.0
  0
LINE
  8
0
  6
CONTINUOUS
 62
               3
  5
445
 10
-360.67155612596355
 20
-24.999999999999432
 30
0.0
 11
-360.67155612596355
 21
-134.99999999999932
 31
0.0
  0
LINE
  8
0
  6
CONTINUOUS
 62
               3
  5
446
 10
-362.99999999999943
 20
-137.32844387403429
 30
0.0
 11
-362.99999999999943
 21
-22.671556125963548
 31
0.0
  0
LINE
  8
0
  6
CONTINUOUS
 62
               3
  5
447
 10
-359.99999999999932
 20
-137.32844387403475
 30
0.0
 11
-359.99999999999932
 21
-22.671556125963662
 31
0.0
  0
LINE
  8
0
  6
CONTINUOUS
 62
               3
  5
448
 10
-354.99999999999932
 20
-25.171556125963662
 30
0.0
 11
-354.99999999999932
 21
-134.82844387403475
 31
0.0
  0
LINE
  8
0
  6
CONTINUOUS
 62
               3
  5
449
 10
-359.99999999999932
 20
-137.32844387403475
 30
0.0
 11
-357.49999999999932
 21
-137.32844387403475
 31
0.0
  0
ARC
  8
0
  6
CONTINUOUS
 62
               3
  5
44A
 10
-357.49999999999932
 20
-134.82844387403475
 30
0.0
 40
2.5
 50
269.99999999999937
 51
359.9999999999992
  0
CIRCLE
  8
0
  6
CONTINUOUS
 62
               3
  5
44B
 10
-499.99999999999977
 20
-79.999999999999716
 30
0.0
 40
57.5
  0
LINE
  8
0
  6
CONTINUOUS
 62
               3
  5
44C
 10
-562.99999999999875
 20
-151.68121312775344
 30
0.0
 11
-562.99999999999875
 21
-483.99999999999932
 31
0.0
  0
LINE
  8
0
  6
CONTINUOUS
 62
               3
  5
44D
 10
-437.00000000000125
 20
-483.99999999999932
 30
0.0
 11
-437.00000000000125
 21
-152.68091579493182
 31
0.0
  0
LINE
  8
0
  6
CONTINUOUS
 62
               3
  5
44E
 10
-562.99999999999875
 20
-483.99999999999932
 30
0.0
 11
-437.00000000000125
 21
-483.99999999999932
 31
0.0
  0
LINE
  8
0
  6
CONTINUOUS
 62
               3
  5
44F
 10
-445.49878165403675
 20
-548.99999999999932
 30
0.0
 11
-443.5
 21
-547.06979899340422
 31
0.0
  0
LINE
  8
0
  6
CONTINUOUS
 62
               3
  5
450
 10
-554.50121834596337
 20
-548.99999999999932
 30
0.0
 11
-556.50000000000011
 21
-547.06979899340422
 31
0.0
  0
LINE
  8
0
  6
CONTINUOUS
 62
               3
  5
451
 10
-445.49878165403675
 20
-548.99999999999932
 30
0.0
 11
-554.50121834596337
 21
-548.99999999999932
 31
0.0
  0
LINE
  8
0
  6
CONTINUOUS
 62
               3
  5
452
 10
-556.50000000000023
 20
-483.99999999999932
 30
0.0
 11
-556.50000000000023
 21
-547.06979899340422
 31
0.0
  0
LINE
  8
0
  6
CONTINUOUS
 62
               3
  5
453
 10
-443.50000000000017
 20
-483.99999999999932
 30
0.0
 11
-443.50000000000017
 21
-547.06979899340422
 31
0.0
  0
LINE
  8
0
  6
CONTINUOUS
 62
               3
  5
454
 10
-443.50000000000017
 20
-498.99999999999932
 30
0.0
 11
-556.50000000000023
 21
-498.99999999999932
 31
0.0
  0
LINE
  8
0
  6
CONTINUOUS
 62
               3
  5
455
 10
-580.00000000000011
 20
147.52786327981755
 30
0.0
 11
-579.99999999999977
 21
28.000000000001364
 31
0.0
  0
LINE
  8
0
  6
CONTINUOUS
 62
               3
  5
456
 10
-580.00000000000011
 20
147.52786327981755
 30
0.0
 11
-577.00000000000023
 21
153.03565375285336
 31
0.0
  0
LINE
  8
0
  6
CONTINUOUS
 62
               3
  5
457
 10
-577.00000000000023
 20
224.00000000000085
 30
0.0
 11
-577.00000000000023
 21
153.03565375285336
 31
0.0
  0
LINE
  8
0
  6
CONTINUOUS
 62
               3
  5
458
 10
-420.00000000000034
 20
147.52786327981755
 30
0.0
 11
-420.00000000000063
 21
28.000000000001364
 31
0.0
  0
LINE
  8
0
  6
CONTINUOUS
 62
               3
  5
459
 10
-420.00000000000034
 20
147.52786327981755
 30
0.0
 11
-423.00000000000034
 21
153.03565375285336
 31
0.0
  0
LINE
  8
0
  6
CONTINUOUS
 62
               3
  5
45A
 10
-423.00000000000034
 20
224.00000000000085
 30
0.0
 11
-423.00000000000034
 21
153.03565375285336
 31
0.0
  0
LINE
  8
0
  6
CONTINUOUS
 62
               3
  5
45B
 10
579.99999999999795
 20
-130.53907750402226
 30
0.0
 11
579.99999999999795
 21
-35.999999999999318
 31
0.0
  0
ARC
  8
0
  6
CONTINUOUS
 62
               3
  5
45C
 10
574.99999999999795
 20
-130.53907750402226
 30
0.0
 40
5.0
 50
314.99999999999972
 51
359.9999999999992
  0
ARC
  8
0
  6
CONTINUOUS
 62
               3
  5
45D
 10
567.99999999999784
 20
-151.68121312775344
 30
0.0
 40
5.0
 50
135.00000000000028
 51
179.9999999999996
  0
LINE
  8
0
  6
CONTINUOUS
 62
               3
  5
45E
 10
564.46446609406507
 20
-148.14567922182073
 30
0.0
 11
578.53553390593061
 21
-134.07461140995497
 31
0.0
  0
LINE
  8
0
  6
CONTINUOUS
 62
               3
  5
45F
 10
368.98075675785992
 20
-144.46534422365471
 30
0.0
 11
431.56078712958288
 21
-147.04036603214007
 31
0.0
  0
LINE
  8
0
  6
CONTINUOUS
 62
               3
  5
460
 10
435.53553390593311
 20
-149.14538188899917
 30
0.0
 11
434.89075668581495
 21
-148.50060466888112
 31
0.0
  0
ARC
  8
0
  6
CONTINUOUS
 62
               3
  5
461
 10
432.00000000000034
 20
-152.68091579493182
 30
0.0
 40
5.0
 50
0.0
 51
44.999999999998749
  0
ARC
  8
0
  6
CONTINUOUS
 62
               3
  5
462
 10
431.35522277988218
 20
-152.03613857481372
 30
0.0
 40
5.0
 50
44.999999999998174
 51
87.643741965968047
  0
LINE
  8
0
  6
CONTINUOUS
 62
               3
  5
463
 10
368.98075675785992
 20
-137.53729650216155
 30
0.0
 11
368.98075675785992
 21
-144.46534422365471
 31
0.0
  0
LINE
  8
0
  6
CONTINUOUS
 62
               3
  5
464
 10
359.99999999999841
 20
-134.99999999999932
 30
0.0
 11
360.67155612596264
 21
-134.99999999999932
 31
0.0
  0
LINE
  8
0
  6
CONTINUOUS
 62
               3
  5
465
 10
362.99999999999852
 20
-137.32844387403429
 30
0.0
 11
360.67155612596264
 21
-134.99999999999932
 31
0.0
  0
LINE
  8
0
  6
CONTINUOUS
 62
               3
  5
466
 10
360.67155612596264
 20
-24.999999999999432
 30
0.0
 11
360.67155612596264
 21
-134.99999999999932
 31
0.0
  0
LINE
  8
0
  6
CONTINUOUS
 62
               3
  5
467
 10
362.99999999999852
 20
-137.32844387403429
 30
0.0
 11
362.99999999999852
 21
-22.671556125963548
 31
0.0
  0
LINE
  8
0
  6
CONTINUOUS
 62
               3
  5
468
 10
359.99999999999841
 20
-137.32844387403475
 30
0.0
 11
359.99999999999841
 21
-22.671556125963662
 31
0.0
  0
LINE
  8
0
  6
CONTINUOUS
 62
               3
  5
469
 10
354.99999999999841
 20
-25.171556125963662
 30
0.0
 11
354.99999999999841
 21
-134.82844387403475
 31
0.0
  0
LINE
  8
0
  6
CONTINUOUS
 62
               3
  5
46A
 10
359.99999999999841
 20
-137.32844387403475
 30
0.0
 11
357.49999999999841
 21
-137.32844387403475
 31
0.0
  0
ARC
  8
0
  6
CONTINUOUS
 62
               3
  5
46B
 10
357.49999999999841
 20
-134.82844387403475
 30
0.0
 40
2.5
 50
179.9999999999996
 51
269.99999999999937
  0
LINE
  8
0
  6
CONTINUOUS
 62
               3
  5
46C
 10
562.99999999999784
 20
-151.68121312775344
 30
0.0
 11
562.99999999999784
 21
-483.99999999999932
 31
0.0
  0
LINE
  8
0
  6
CONTINUOUS
 62
               3
  5
46D
 10
437.00000000000034
 20
-483.99999999999932
 30
0.0
 11
437.00000000000034
 21
-151.68121312775344
 31
0.0
  0
LINE
  8
0
  6
CONTINUOUS
 62
               3
  5
46E
 10
562.99999999999784
 20
-483.99999999999932
 30
0.0
 11
437.00000000000034
 21
-483.99999999999932
 31
0.0
  0
LINE
  8
0
  6
CONTINUOUS
 62
               3
  5
46F
 10
445.49878165403584
 20
-548.99999999999932
 30
0.0
 11
443.49999999999909
 21
-547.06979899340422
 31
0.0
  0
LINE
  8
0
  6
CONTINUOUS
 62
               3
  5
470
 10
554.50121834596246
 20
-548.99999999999932
 30
0.0
 11
556.4999999999992
 21
-547.06979899340422
 31
0.0
  0
LINE
  8
0
  6
CONTINUOUS
 62
               3
  5
471
 10
445.49878165403584
 20
-548.99999999999932
 30
0.0
 11
554.50121834596246
 21
-548.99999999999932
 31
0.0
  0
LINE
  8
0
  6
CONTINUOUS
 62
               3
  5
472
 10
556.49999999999932
 20
-483.99999999999932
 30
0.0
 11
556.49999999999932
 21
-547.06979899340422
 31
0.0
  0
LINE
  8
0
  6
CONTINUOUS
 62
               3
  5
473
 10
443.49999999999926
 20
-483.99999999999932
 30
0.0
 11
443.49999999999926
 21
-547.06979899340422
 31
0.0
  0
LINE
  8
0
  6
CONTINUOUS
 62
               3
  5
474
 10
443.49999999999926
 20
-498.99999999999932
 30
0.0
 11
556.49999999999932
 21
-498.99999999999932
 31
0.0
  0
LINE
  8
0
  6
CONTINUOUS
 62
               3
  5
475
 10
579.9999999999992
 20
147.52786327981755
 30
0.0
 11
579.99999999999886
 21
28.000000000001364
 31
0.0
  0
LINE
  8
0
  6
CONTINUOUS
 62
               3
  5
476
 10
579.9999999999992
 20
147.52786327981755
 30
0.0
 11
576.99999999999932
 21
153.03565375285336
 31
0.0
  0
LINE
  8
0
  6
CONTINUOUS
 62
               3
  5
477
 10
576.99999999999932
 20
224.00000000000085
 30
0.0
 11
576.99999999999932
 21
153.03565375285336
 31
0.0
  0
LINE
  8
0
  6
CONTINUOUS
 62
               3
  5
478
 10
419.99999999999943
 20
147.52786327981755
 30
0.0
 11
419.99999999999972
 21
28.000000000001364
 31
0.0
  0
LINE
  8
0
  6
CONTINUOUS
 62
               3
  5
479
 10
419.99999999999943
 20
147.52786327981755
 30
0.0
 11
422.99999999999943
 21
153.03565375285336
 31
0.0
  0
LINE
  8
0
  6
CONTINUOUS
 62
               3
  5
47A
 10
422.99999999999943
 20
224.00000000000085
 30
0.0
 11
422.99999999999943
 21
153.03565375285336
 31
0.0
  0
LINE
  8
0
  6
CONTINUOUS
 62
               3
  5
47B
 10
-62.000000000001194
 20
-628.99999999999829
 30
0.0
 11
-62.000000000001194
 21
-613.9999999999992
 31
0.0
  0
LINE
  8
0
  6
CONTINUOUS
 62
               3
  5
47C
 10
-65.000000000001023
 20
-628.99999999999829
 30
0.0
 11
64.999999999998948
 21
-628.99999999999829
 31
0.0
  0
ARC
  8
0
  6
CONTINUOUS
 62
               3
  5
47D
 10
-76.000000000000398
 20
-488.00000000000011
 30
0.0
 40
4.0
 50
89.999999999982236
 51
179.99999999996518
  0
ARC
  8
0
  6
CONTINUOUS
 62
               3
  5
47E
 10
-79.000000000000369
 20
-485.00000000000011
 30
0.0
 40
1.0000000000000004
 50
89.999999999981483
 51
179.99999999996524
  0
ARC
  8
0
  6
CONTINUOUS
 62
               3
  5
47F
 10
-79.000000000000369
 20
-485.00000000000011
 30
0.0
 40
1.9999999999999996
 50
89.999999999983004
 51
179.99999999996524
  0
LINE
  8
0
  6
CONTINUOUS
 62
               3
  5
480
 10
-81.000000000000398
 20
-485.00000000000011
 30
0.0
 11
-81.000000000000966
 21
-547.99999999999898
 31
0.0
  0
LINE
  8
0
  6
CONTINUOUS
 62
               3
  5
481
 10
-80.000000000000597
 20
-485.00000000000011
 30
0.0
 11
-80.000000000001165
 21
-547.99999999999898
 31
0.0
  0
ARC
  8
0
  6
CONTINUOUS
 62
               3
  5
482
 10
-82.000000000000909
 20
-547.99999999999898
 30
0.0
 40
1.9999999999999996
 50
269.99999999994748
 51
359.99999999993048
  0
ARC
  8
0
  6
CONTINUOUS
 62
               3
  5
483
 10
-82.000000000000909
 20
-547.99999999999898
 30
0.0
 40
1.0000000000000004
 50
269.99999999994748
 51
359.99999999993048
  0
LINE
  8
0
  6
CONTINUOUS
 62
               3
  5
484
 10
-82.000000000000909
 20
-549.99999999999898
 30
0.0
 11
-145.00000000000102
 21
-549.99999999999943
 31
0.0
  0
LINE
  8
0
  6
CONTINUOUS
 62
               3
  5
485
 10
-82.000000000000909
 20
-548.99999999999898
 30
0.0
 11
-145.00000000000102
 21
-548.99999999999943
 31
0.0
  0
LINE
  8
0
  6
CONTINUOUS
 62
               3
  5
486
 10
-65.000000000000597
 20
-483.00000000000011
 30
0.0
 11
-79.000000000000369
 21
-483.00000000000011
 31
0.0
  0
LINE
  8
0
  6
CONTINUOUS
 62
               3
  5
487
 10
-0.0000000000004565
 20
-483.99999999999943
 30
0.0
 11
-79.000000000000369
 21
-484.00000000000011
 31
0.0
  0
LINE
  8
0
  6
CONTINUOUS
 62
               3
  5
488
 10
-65.000000000000597
 20
-483.00000000000011
 30
0.0
 11
-65.000000000000597
 21
-484.0
 31
0.0
  0
LINE
  8
0
  6
CONTINUOUS
 62
               3
  5
489
 10
-65.000000000000028
 20
-614.99999999999898
 30
0.0
 11
-78.999999999999943
 21
-614.9999999999992
 31
0.0
  0
ARC
  8
0
  6
CONTINUOUS
 62
               3
  5
48A
 10
-78.999999999999943
 20
-612.9999999999992
 30
0.0
 40
1.0000000000000004
 50
179.99999999996601
 51
269.99999999994748
  0
ARC
  8
0
  6
CONTINUOUS
 62
               3
  5
48B
 10
-78.999999999999943
 20
-612.9999999999992
 30
0.0
 40
1.9999999999999996
 50
179.99999999996601
 51
269.99999999994901
  0
ARC
  8
0
  6
CONTINUOUS
 62
               3
  5
48C
 10
-76.000000000000114
 20
-609.9999999999992
 30
0.0
 40
4.0
 50
179.99999999996601
 51
269.99999999994901
  0
LINE
  8
0
  6
CONTINUOUS
 62
               3
  5
48D
 10
-65.000000000000028
 20
-614.99999999999898
 30
0.0
 11
-65.000000000000028
 21
-613.9999999999992
 31
0.0
  0
LINE
  8
0
  6
CONTINUOUS
 62
               3
  5
48E
 10
-81.000000000000114
 20
-612.9999999999992
 30
0.0
 11
-81.000000000000966
 21
-551.99999999999898
 31
0.0
  0
LINE
  8
0
  6
CONTINUOUS
 62
               3
  5
48F
 10
-80.000000000000028
 20
-612.9999999999992
 30
0.0
 11
-80.000000000001023
 21
-551.99999999999898
 31
0.0
  0
LINE
  8
0
  6
CONTINUOUS
 62
               3
  5
490
 10
-0.000000000001025
 20
-613.99999999999829
 30
0.0
 11
-78.999999999999943
 21
-613.9999999999992
 31
0.0
  0
LINE
  8
0
  6
CONTINUOUS
 62
               3
  5
491
 10
-0.000000000001025
 20
-591.49999999999829
 30
0.0
 11
-80.000000000000171
 21
-591.49999999999898
 31
0.0
  0
ARC
  8
0
  6
CONTINUOUS
 62
               3
  5
492
 10
-82.000000000000909
 20
-551.99999999999898
 30
0.0
 40
1.9999999999999996
 50
0.000000000001145
 51
89.999999999983004
  0
ARC
  8
0
  6
CONTINUOUS
 62
               3
  5
493
 10
-82.000000000000909
 20
-551.99999999999898
 30
0.0
 40
1.0000000000000004
 50
0.0000000000007633
 51
89.999999999984539
  0
LINE
  8
0
  6
CONTINUOUS
 62
               3
  5
494
 10
-82.000000000000909
 20
-550.99999999999898
 30
0.0
 11
-145.00000000000102
 21
-550.99999999999943
 31
0.0
  0
LINE
  8
0
  6
CONTINUOUS
 62
               3
  5
495
 10
-80.000000000000597
 20
-507.00000000000011
 30
0.0
 11
-0.0000000000004565
 21
-507.00000000000011
 31
0.0
  0
LINE
  8
0
  6
CONTINUOUS
 62
               3
  5
496
 10
-77.000000000000625
 20
-507.00000000000011
 30
0.0
 11
-77.000000000001194
 21
-591.49999999999898
 31
0.0
  0
LINE
  8
0
  6
CONTINUOUS
 62
               3
  5
497
 10
-145.00000000000102
 20
-548.99999999999943
 30
0.0
 11
-145.00000000000102
 21
-549.99999999999943
 31
0.0
  0
LINE
  8
0
  6
CONTINUOUS
 62
               3
  5
498
 10
-145.00000000000102
 20
-550.99999999999943
 30
0.0
 11
-145.00000000000102
 21
-549.99999999999943
 31
0.0
  0
LINE
  8
0
  6
CONTINUOUS
 62
               3
  5
499
 10
-87.250000000000966
 20
-547.49999999999898
 30
0.0
 11
-94.750000000000966
 21
-547.49999999999898
 31
0.0
  0
LINE
  8
0
  6
CONTINUOUS
 62
               3
  5
49A
 10
-87.250000000000966
 20
-552.49999999999898
 30
0.0
 11
-94.750000000000966
 21
-552.4999999999992
 31
0.0
  0
LINE
  8
0
  6
CONTINUOUS
 62
               3
  5
49B
 10
-87.250000000000966
 20
-547.49999999999898
 30
0.0
 11
-87.250000000000966
 21
-548.99999999999898
 31
0.0
  0
LINE
  8
0
  6
CONTINUOUS
 62
               3
  5
49C
 10
-87.250000000000966
 20
-550.99999999999898
 30
0.0
 11
-87.250000000000966
 21
-552.49999999999898
 31
0.0
  0
LINE
  8
0
  6
CONTINUOUS
 62
               3
  5
49D
 10
-94.750000000000966
 20
-547.49999999999898
 30
0.0
 11
-94.750000000000966
 21
-548.99999999999898
 31
0.0
  0
LINE
  8
0
  6
CONTINUOUS
 62
               3
  5
49E
 10
-94.750000000000966
 20
-550.9999999999992
 30
0.0
 11
-94.750000000000966
 21
-552.4999999999992
 31
0.0
  0
ARC
  8
0
  6
CONTINUOUS
 62
               3
  5
49F
 10
75.999999999999346
 20
-488.00000000000011
 30
0.0
 40
4.0
 50
0.0000000000344079
 51
90.000000000017366
  0
ARC
  8
0
  6
CONTINUOUS
 62
               3
  5
4A0
 10
78.999999999999289
 20
-485.00000000000011
 30
0.0
 40
1.0000000000000004
 50
0.000000000034357
 51
90.000000000018133
  0
ARC
  8
0
  6
CONTINUOUS
 62
               3
  5
4A1
 10
78.999999999999289
 20
-485.00000000000011
 30
0.0
 40
1.9999999999999996
 50
0.000000000034357
 51
90.000000000016598
  0
LINE
  8
0
  6
CONTINUOUS
 62
               3
  5
4A2
 10
80.999999999999346
 20
-485.00000000000011
 30
0.0
 11
80.999999999998778
 21
-547.99999999999898
 31
0.0
  0
LINE
  8
0
  6
CONTINUOUS
 62
               3
  5
4A3
 10
79.999999999999517
 20
-485.00000000000011
 30
0.0
 11
79.999999999998948
 21
-547.99999999999898
 31
0.0
  0
ARC
  8
0
  6
CONTINUOUS
 62
               3
  5
4A4
 10
81.999999999998835
 20
-547.99999999999898
 30
0.0
 40
1.9999999999999996
 50
180.0000000000683
 51
270.00000000005133
  0
ARC
  8
0
  6
CONTINUOUS
 62
               3
  5
4A5
 10
81.999999999998835
 20
-547.99999999999898
 30
0.0
 40
1.0000000000000004
 50
180.0000000000683
 51
270.00000000005133
  0
LINE
  8
0
  6
CONTINUOUS
 62
               3
  5
4A6
 10
81.999999999998835
 20
-549.99999999999898
 30
0.0
 11
144.99999999999895
 21
-549.99999999999943
 31
0.0
  0
LINE
  8
0
  6
CONTINUOUS
 62
               3
  5
4A7
 10
81.999999999998835
 20
-548.99999999999898
 30
0.0
 11
144.99999999999895
 21
-548.99999999999943
 31
0.0
  0
LINE
  8
0
  6
CONTINUOUS
 62
               3
  5
4A8
 10
64.999999999999517
 20
-483.00000000000011
 30
0.0
 11
78.999999999999289
 21
-483.00000000000011
 31
0.0
  0
LINE
  8
0
  6
CONTINUOUS
 62
               3
  5
4A9
 10
-0.0000000000004565
 20
-483.99999999999943
 30
0.0
 11
78.999999999999289
 21
-484.00000000000011
 31
0.0
  0
LINE
  8
0
  6
CONTINUOUS
 62
               3
  5
4AA
 10
64.999999999999517
 20
-483.00000000000011
 30
0.0
 11
64.999999999999517
 21
-484.0
 31
0.0
  0
LINE
  8
0
  6
CONTINUOUS
 62
               3
  5
4AB
 10
64.999999999997812
 20
-614.99999999999898
 30
0.0
 11
78.999999999997868
 21
-614.9999999999992
 31
0.0
  0
ARC
  8
0
  6
CONTINUOUS
 62
               3
  5
4AC
 10
78.999999999997868
 20
-612.9999999999992
 30
0.0
 40
1.0000000000000004
 50
270.00000000005133
 51
360.0000000000328
  0
ARC
  8
0
  6
CONTINUOUS
 62
               3
  5
4AD
 10
78.999999999997868
 20
-612.9999999999992
 30
0.0
 40
1.9999999999999996
 50
270.00000000004979
 51
360.0000000000328
  0
ARC
  8
0
  6
CONTINUOUS
 62
               3
  5
4AE
 10
75.999999999997925
 20
-609.9999999999992
 30
0.0
 40
4.0
 50
270.00000000004979
 51
360.0000000000328
  0
LINE
  8
0
  6
CONTINUOUS
 62
               3
  5
4AF
 10
64.999999999997812
 20
-614.99999999999898
 30
0.0
 11
64.999999999997812
 21
-613.9999999999992
 31
0.0
  0
LINE
  8
0
  6
CONTINUOUS
 62
               3
  5
4B0
 10
80.999999999997755
 20
-612.9999999999992
 30
0.0
 11
80.999999999998778
 21
-551.99999999999898
 31
0.0
  0
LINE
  8
0
  6
CONTINUOUS
 62
               3
  5
4B1
 10
79.999999999997812
 20
-612.9999999999992
 30
0.0
 11
79.999999999998835
 21
-551.99999999999898
 31
0.0
  0
LINE
  8
0
  6
CONTINUOUS
 62
               3
  5
4B2
 10
-0.000000000001025
 20
-613.99999999999829
 30
0.0
 11
78.999999999997868
 21
-613.9999999999992
 31
0.0
  0
LINE
  8
0
  6
CONTINUOUS
 62
               3
  5
4B3
 10
-0.000000000001025
 20
-591.49999999999829
 30
0.0
 11
79.999999999998096
 21
-591.49999999999898
 31
0.0
  0
ARC
  8
0
  6
CONTINUOUS
 62
               3
  5
4B4
 10
81.999999999998835
 20
-551.99999999999898
 30
0.0
 40
1.9999999999999996
 50
90.000000000016598
 51
179.99999999999847
  0
ARC
  8
0
  6
CONTINUOUS
 62
               3
  5
4B5
 10
81.999999999998835
 20
-551.99999999999898
 30
0.0
 40
1.0000000000000004
 50
90.000000000015078
 51
179.99999999999883
  0
LINE
  8
0
  6
CONTINUOUS
 62
               3
  5
4B6
 10
81.999999999998835
 20
-550.99999999999898
 30
0.0
 11
144.99999999999895
 21
-550.99999999999943
 31
0.0
  0
LINE
  8
0
  6
CONTINUOUS
 62
               3
  5
4B7
 10
79.999999999999517
 20
-507.00000000000011
 30
0.0
 11
-0.0000000000004565
 21
-507.00000000000011
 31
0.0
  0
LINE
  8
0
  6
CONTINUOUS
 62
               3
  5
4B8
 10
76.999999999999403
 20
-507.00000000000011
 30
0.0
 11
76.999999999998835
 21
-591.49999999999898
 31
0.0
  0
LINE
  8
0
  6
CONTINUOUS
 62
               3
  5
4B9
 10
144.99999999999895
 20
-548.99999999999943
 30
0.0
 11
144.99999999999895
 21
-549.99999999999943
 31
0.0
  0
LINE
  8
0
  6
CONTINUOUS
 62
               3
  5
4BA
 10
144.99999999999895
 20
-550.99999999999943
 30
0.0
 11
144.99999999999895
 21
-549.99999999999943
 31
0.0
  0
LINE
  8
0
  6
CONTINUOUS
 62
               3
  5
4BB
 10
87.249999999998778
 20
-547.49999999999898
 30
0.0
 11
94.749999999998778
 21
-547.49999999999898
 31
0.0
  0
LINE
  8
0
  6
CONTINUOUS
 62
               3
  5
4BC
 10
87.249999999998778
 20
-552.49999999999898
 30
0.0
 11
94.749999999998778
 21
-552.4999999999992
 31
0.0
  0
LINE
  8
0
  6
CONTINUOUS
 62
               3
  5
4BD
 10
87.249999999998778
 20
-547.49999999999898
 30
0.0
 11
87.249999999998778
 21
-548.99999999999898
 31
0.0
  0
LINE
  8
0
  6
CONTINUOUS
 62
               3
  5
4BE
 10
87.249999999998778
 20
-550.99999999999898
 30
0.0
 11
87.249999999998778
 21
-552.49999999999898
 31
0.0
  0
LINE
  8
0
  6
CONTINUOUS
 62
               3
  5
4BF
 10
94.749999999998778
 20
-547.49999999999898
 30
0.0
 11
94.749999999998778
 21
-548.99999999999898
 31
0.0
  0
LINE
  8
0
  6
CONTINUOUS
 62
               3
  5
4C0
 10
94.749999999998778
 20
-550.9999999999992
 30
0.0
 11
94.749999999998778
 21
-552.4999999999992
 31
0.0
  0
LINE
  8
0
  6
CONTINUOUS
 62
               3
  5
4C1
 10
61.999999999998863
 20
-628.99999999999829
 30
0.0
 11
61.999999999998863
 21
-613.9999999999992
 31
0.0
  0
LINE
  8
0
  6
CONTINUOUS
 62
               3
  5
4C2
 10
-562.00000000000068
 20
-628.99999999999818
 30
0.0
 11
-562.00000000000068
 21
-613.99999999999909
 31
0.0
  0
LINE
  8
0
  6
CONTINUOUS
 62
               3
  5
4C3
 10
-565.00000000000057
 20
-628.99999999999818
 30
0.0
 11
-435.00000000000057
 21
-628.99999999999818
 31
0.0
  0
ARC
  8
0
  6
CONTINUOUS
 62
               3
  5
4C4
 10
-576.0
 20
-488.0
 30
0.0
 40
4.0
 50
89.999999999982236
 51
179.99999999996518
  0
LINE
  8
0
  6
CONTINUOUS
 62
               3
  5
4C5
 10
-580.0
 20
-487.99999999999761
 30
0.0
 11
-580.00000000000023
 21
-507.0
 31
0.0
  0
LINE
  8
0
  6
CONTINUOUS
 62
               3
  5
4C6
 10
-516.0
 20
-483.99999999999943
 30
0.0
 11
-576.0
 21
-484.0
 31
0.0
  0
LINE
  8
0
  6
CONTINUOUS
 62
               3
  5
4C7
 10
-516.0
 20
-614.99999999999807
 30
0.0
 11
-483.99999999999955
 21
-614.99999999999761
 31
0.0
  0
ARC
  8
0
  6
CONTINUOUS
 62
               3
  5
4C8
 10
-575.99999999999966
 20
-609.99999999999909
 30
0.0
 40
4.0
 50
179.99999999996601
 51
269.99999999994901
  0
LINE
  8
0
  6
CONTINUOUS
 62
               3
  5
4C9
 10
-579.99999999999977
 20
-609.99999999999909
 30
0.0
 11
-579.99999999999955
 21
-591.49999999999886
 31
0.0
  0
LINE
  8
0
  6
CONTINUOUS
 62
               3
  5
4CA
 10
-516.0
 20
-613.99999999999841
 30
0.0
 11
-576.00000000000318
 21
-613.99999999999909
 31
0.0
  0
LINE
  8
0
  6
CONTINUOUS
 62
               3
  5
4CB
 10
-516.0
 20
-591.49999999999829
 30
0.0
 11
-579.99999999999977
 21
-591.49999999999886
 31
0.0
  0
LINE
  8
0
  6
CONTINUOUS
 62
               3
  5
4CC
 10
-580.00000000000023
 20
-507.0
 30
0.0
 11
-516.0
 21
-507.0
 31
0.0
  0
LINE
  8
0
  6
CONTINUOUS
 62
               3
  5
4CD
 10
-577.00000000000023
 20
-507.0
 30
0.0
 11
-577.00000000000068
 21
-591.49999999999886
 31
0.0
  0
LINE
  8
0
  6
CONTINUOUS
 62
               3
  5
4CE
 10
-484.0
 20
-483.99999999999943
 30
0.0
 11
-421.00000000000023
 21
-484.0
 31
0.0
  0
LINE
  8
0
  6
CONTINUOUS
 62
               3
  5
4CF
 10
-483.99999999999955
 20
-613.99999999999841
 30
0.0
 11
-424.00000000000159
 21
-613.99999999999909
 31
0.0
  0
LINE
  8
0
  6
CONTINUOUS
 62
               3
  5
4D0
 10
-483.99999999999955
 20
-591.49999999999841
 30
0.0
 11
-420.00000000000136
 21
-591.49999999999886
 31
0.0
  0
LINE
  8
0
  6
CONTINUOUS
 62
               3
  5
4D1
 10
-420.0
 20
-507.0
 30
0.0
 11
-484.0
 21
-507.0
 31
0.0
  0
LINE
  8
0
  6
CONTINUOUS
 62
               3
  5
4D2
 10
-438.00000000000068
 20
-628.99999999999818
 30
0.0
 11
-438.00000000000068
 21
-613.99999999999909
 31
0.0
  0
LINE
  8
0
  6
CONTINUOUS
 62
               3
  5
4D3
 10
-516.0
 20
-483.0
 30
0.0
 11
-516.0
 21
-614.99999999999807
 31
0.0
  0
LINE
  8
0
  6
CONTINUOUS
 62
               3
  5
4D4
 10
-483.99999999999955
 20
-614.99999999999761
 30
0.0
 11
-484.0
 21
-483.0
 31
0.0
  0
LINE
  8
0
  6
CONTINUOUS
 62
               3
  5
4D5
 10
-516.00000000000057
 20
-483.0
 30
0.0
 11
-484.00000000000057
 21
-483.0
 31
0.0
  0
LINE
  8
0
  6
CONTINUOUS
 62
               3
  5
4D6
 10
-516.0
 20
-549.99999999999886
 30
0.0
 11
-483.99999999999955
 21
-549.99999999999886
 31
0.0
  0
LINE
  8
0
  6
CONTINUOUS
 62
               3
  5
4D7
 10
-516.0
 20
-550.99999999999909
 30
0.0
 11
-483.99999999999955
 21
-550.99999999999909
 31
0.0
  0
ARC
  8
0
  6
CONTINUOUS
 62
               3
  5
4D8
 10
-424.00000000000114
 20
-488.0
 30
0.0
 40
4.0
 50
0.0000000000344079
 51
90.000000000017366
  0
LINE
  8
0
  6
CONTINUOUS
 62
               3
  5
4D9
 10
-420.00000000000114
 20
-487.99999999999761
 30
0.0
 11
-420.00000000000091
 21
-507.0
 31
0.0
  0
ARC
  8
0
  6
CONTINUOUS
 62
               3
  5
4DA
 10
-424.00000000000148
 20
-609.99999999999909
 30
0.0
 40
4.0
 50
270.00000000004979
 51
360.0000000000328
  0
LINE
  8
0
  6
CONTINUOUS
 62
               3
  5
4DB
 10
-420.00000000000136
 20
-609.99999999999909
 30
0.0
 11
-420.00000000000159
 21
-591.49999999999886
 31
0.0
  0
LINE
  8
0
  6
CONTINUOUS
 62
               3
  5
4DC
 10
-423.00000000000091
 20
-507.0
 30
0.0
 11
-423.00000000000045
 21
-591.49999999999886
 31
0.0
  0
LINE
  8
0
  6
CONTINUOUS
 62
               3
  5
4DD
 10
437.99999999999841
 20
-628.99999999999818
 30
0.0
 11
437.99999999999841
 21
-613.99999999999909
 31
0.0
  0
LINE
  8
0
  6
CONTINUOUS
 62
               3
  5
4DE
 10
434.99999999999852
 20
-628.99999999999818
 30
0.0
 11
564.99999999999852
 21
-628.99999999999818
 31
0.0
  0
ARC
  8
0
  6
CONTINUOUS
 62
               3
  5
4DF
 10
423.99999999999909
 20
-488.0
 30
0.0
 40
4.0
 50
89.999999999982236
 51
179.99999999996518
  0
LINE
  8
0
  6
CONTINUOUS
 62
               3
  5
4E0
 10
419.99999999999909
 20
-487.99999999999761
 30
0.0
 11
419.99999999999886
 21
-507.0
 31
0.0
  0
LINE
  8
0
  6
CONTINUOUS
 62
               3
  5
4E1
 10
483.99999999999909
 20
-483.99999999999943
 30
0.0
 11
423.99999999999909
 21
-484.0
 31
0.0
  0
LINE
  8
0
  6
CONTINUOUS
 62
               3
  5
4E2
 10
483.99999999999909
 20
-614.99999999999807
 30
0.0
 11
515.99999999999955
 21
-614.99999999999761
 31
0.0
  0
ARC
  8
0
  6
CONTINUOUS
 62
               3
  5
4E3
 10
423.99999999999943
 20
-609.99999999999909
 30
0.0
 40
4.0
 50
179.99999999996601
 51
269.99999999994901
  0
LINE
  8
0
  6
CONTINUOUS
 62
               3
  5
4E4
 10
419.99999999999932
 20
-609.99999999999909
 30
0.0
 11
419.99999999999955
 21
-591.49999999999886
 31
0.0
  0
LINE
  8
0
  6
CONTINUOUS
 62
               3
  5
4E5
 10
483.99999999999909
 20
-613.99999999999841
 30
0.0
 11
423.99999999999591
 21
-613.99999999999909
 31
0.0
  0
LINE
  8
0
  6
CONTINUOUS
 62
               3
  5
4E6
 10
483.99999999999909
 20
-591.49999999999829
 30
0.0
 11
419.99999999999932
 21
-591.49999999999886
 31
0.0
  0
LINE
  8
0
  6
CONTINUOUS
 62
               3
  5
4E7
 10
419.99999999999886
 20
-507.0
 30
0.0
 11
483.99999999999909
 21
-507.0
 31
0.0
  0
LINE
  8
0
  6
CONTINUOUS
 62
               3
  5
4E8
 10
422.99999999999886
 20
-507.0
 30
0.0
 11
422.99999999999841
 21
-591.49999999999886
 31
0.0
  0
LINE
  8
0
  6
CONTINUOUS
 62
               3
  5
4E9
 10
515.99999999999909
 20
-483.99999999999943
 30
0.0
 11
578.99999999999886
 21
-484.0
 31
0.0
  0
LINE
  8
0
  6
CONTINUOUS
 62
               3
  5
4EA
 10
515.99999999999955
 20
-613.99999999999841
 30
0.0
 11
575.9999999999975
 21
-613.99999999999909
 31
0.0
  0
LINE
  8
0
  6
CONTINUOUS
 62
               3
  5
4EB
 10
515.99999999999955
 20
-591.49999999999841
 30
0.0
 11
579.99999999999773
 21
-591.49999999999886
 31
0.0
  0
LINE
  8
0
  6
CONTINUOUS
 62
               3
  5
4EC
 10
579.99999999999909
 20
-507.0
 30
0.0
 11
515.99999999999909
 21
-507.0
 31
0.0
  0
LINE
  8
0
  6
CONTINUOUS
 62
               3
  5
4ED
 10
561.99999999999841
 20
-628.99999999999818
 30
0.0
 11
561.99999999999841
 21
-613.99999999999909
 31
0.0
  0
LINE
  8
0
  6
CONTINUOUS
 62
               3
  5
4EE
 10
483.99999999999909
 20
-483.0
 30
0.0
 11
483.99999999999909
 21
-614.99999999999807
 31
0.0
  0
LINE
  8
0
  6
CONTINUOUS
 62
               3
  5
4EF
 10
515.99999999999955
 20
-614.99999999999761
 30
0.0
 11
515.99999999999909
 21
-483.0
 31
0.0
  0
LINE
  8
0
  6
CONTINUOUS
 62
               3
  5
4F0
 10
483.99999999999852
 20
-483.0
 30
0.0
 11
515.99999999999852
 21
-483.0
 31
0.0
  0
LINE
  8
0
  6
CONTINUOUS
 62
               3
  5
4F1
 10
483.99999999999909
 20
-549.99999999999886
 30
0.0
 11
515.99999999999955
 21
-549.99999999999886
 31
0.0
  0
LINE
  8
0
  6
CONTINUOUS
 62
               3
  5
4F2
 10
483.99999999999909
 20
-550.99999999999909
 30
0.0
 11
515.99999999999955
 21
-550.99999999999909
 31
0.0
  0
ARC
  8
0
  6
CONTINUOUS
 62
               3
  5
4F3
 10
575.99999999999795
 20
-488.0
 30
0.0
 40
4.0
 50
0.0000000000344079
 51
90.000000000017366
  0
LINE
  8
0
  6
CONTINUOUS
 62
               3
  5
4F4
 10
579.99999999999795
 20
-487.99999999999761
 30
0.0
 11
579.99999999999818
 21
-507.0
 31
0.0
  0
ARC
  8
0
  6
CONTINUOUS
 62
               3
  5
4F5
 10
575.99999999999761
 20
-609.99999999999909
 30
0.0
 40
4.0
 50
270.00000000004979
 51
360.0000000000328
  0
LINE
  8
0
  6
CONTINUOUS
 62
               3
  5
4F6
 10
579.99999999999773
 20
-609.99999999999909
 30
0.0
 11
579.9999999999975
 21
-591.49999999999886
 31
0.0
  0
LINE
  8
0
  6
CONTINUOUS
 62
               3
  5
4F7
 10
576.99999999999818
 20
-507.0
 30
0.0
 11
576.99999999999864
 21
-591.49999999999886
 31
0.0
  0
LINE
  8
0
  6
CONTINUOUS
 62
               3
  5
4F8
 10
-131.01924324213942
 20
-17.462703497836287
 30
0.0
 11
-99.747295633948767
 21
-15.880169469825717
 31
0.0
  0
LINE
  8
0
  6
CONTINUOUS
 62
               3
  5
4F9
 10
-95.000000000000313
 20
-10.886559502739999
 30
0.0
 11
-95.000000000000313
 21
17.999999999999943
 31
0.0
  0
LINE
  8
0
  6
CONTINUOUS
 62
               3
  5
4FA
 10
-85.000000000000028
 20
23.000000000000739
 30
0.0
 11
-90.000000000000313
 21
22.999999999999943
 31
0.0
  0
LINE
  8
0
  6
CONTINUOUS
 62
               3
  5
4FB
 10
84.999999999998565
 20
-30.999999999999943
 30
0.0
 11
89.999999999999559
 21
-30.999999999999943
 31
0.0
  0
ARC
  8
0
  6
CONTINUOUS
 62
               3
  5
4FC
 10
84.999999999998565
 20
-35.999999999999943
 30
0.0
 40
5.0
 50
89.999999999999801
 51
179.9999999999996
  0
ARC
  8
0
  6
CONTINUOUS
 62
               3
  5
4FD
 10
-100.00000000000031
 20
-10.886559502739999
 30
0.0
 40
5.0
 50
272.89701296691783
 51
359.9999999999992
  0
ARC
  8
0
  6
CONTINUOUS
 62
               3
  5
4FE
 10
-90.000000000000313
 20
17.999999999999943
 30
0.0
 40
5.0
 50
89.999999999999801
 51
179.9999999999996
  0
ARC
  8
0
  6
CONTINUOUS
 62
               3
  5
4FF
 10
-85.000000000000028
 20
28.000000000000739
 30
0.0
 40
5.0
 50
269.99999999999937
 51
359.9999999999992
  0
LINE
  8
0
  6
CONTINUOUS
 62
               3
  5
500
 10
84.999999999999133
 20
23.000000000000739
 30
0.0
 11
89.999999999999417
 21
22.999999999999943
 31
0.0
  0
ARC
  8
0
  6
CONTINUOUS
 62
               3
  5
501
 10
84.999999999999133
 20
28.000000000000739
 30
0.0
 40
5.0
 50
179.9999999999996
 51
269.99999999999937
  0
LINE
  8
0
  6
CONTINUOUS
 62
               3
  5
502
 10
-131.01924324213942
 20
-17.459655776341549
 30
0.0
 11
-131.01924324213942
 21
-22.462703497836287
 31
0.0
  0
ARC
  8
0
  6
CONTINUOUS
 62
               3
  5
503
 10
89.999999999999801
 20
17.999999999999943
 30
0.0
 40
5.0
 50
0.0000000000000276
 51
89.999999999999829
  0
LINE
  8
0
  6
CONTINUOUS
 62
               3
  5
504
 10
94.999999999999844
 20
-25.999999999999943
 30
0.0
 11
94.999999999999801
 21
17.999999999999943
 31
0.0
  0
ARC
  8
0
  6
CONTINUOUS
 62
               3
  5
505
 10
89.999999999999844
 20
-25.999999999999943
 30
0.0
 40
5.0
 50
269.99999999999937
 51
359.99999999999915
  0
LINE
  8
0
  6
CONTINUOUS
 62
               3
  5
506
 10
-140.00000000000088
 20
-25.000000000000057
 30
0.0
 11
-139.32844387403665
 21
-25.000000000000057
 31
0.0
  0
LINE
  8
0
  6
CONTINUOUS
 62
               3
  5
507
 10
-137.00000000000077
 20
-22.671556125964173
 30
0.0
 11
-139.32844387403665
 21
-25.000000000000057
 31
0.0
  0
LINE
  8
0
  6
CONTINUOUS
 62
               3
  5
508
 10
-140.00000000000088
 20
-22.671556125964287
 30
0.0
 11
-142.50000000000088
 21
-22.671556125964287
 31
0.0
  0
ARC
  8
0
  6
CONTINUOUS
 62
               3
  5
509
 10
-142.50000000000088
 20
-25.171556125964287
 30
0.0
 40
2.5
 50
89.999999999999801
 51
179.9999999999996
  0
LINE
  8
0
  6
CONTINUOUS
 62
               3
  5
50A
 10
-368.9807567578606
 20
-17.462703497836173
 30
0.0
 11
-400.25270436605126
 21
-15.880169469825603
 31
0.0
  0
LINE
  8
0
  6
CONTINUOUS
 62
               3
  5
50B
 10
-404.99999999999966
 20
-11.886559502739885
 30
0.0
 11
-404.99999999999966
 21
18.000000000000057
 31
0.0
  0
LINE
  8
0
  6
CONTINUOUS
 62
               3
  5
50C
 10
-415.0
 20
23.000000000000853
 30
0.0
 11
-409.99999999999966
 21
23.000000000000057
 31
0.0
  0
LINE
  8
0
  6
CONTINUOUS
 62
               3
  5
50D
 10
-584.99999999999864
 20
-30.999999999999829
 30
0.0
 11
-589.99999999999955
 21
-30.999999999999829
 31
0.0
  0
ARC
  8
0
  6
CONTINUOUS
 62
               3
  5
50E
 10
-584.99999999999864
 20
-35.999999999999829
 30
0.0
 40
5.0
 50
0.0
 51
89.999999999999801
  0
ARC
  8
0
  6
CONTINUOUS
 62
               3
  5
50F
 10
-409.99999999999966
 20
18.000000000000057
 30
0.0
 40
5.0
 50
0.0
 51
89.999999999999801
  0
ARC
  8
0
  6
CONTINUOUS
 62
               3
  5
510
 10
-415.0
 20
28.000000000000853
 30
0.0
 40
5.0
 50
179.9999999999996
 51
269.99999999999937
  0
LINE
  8
0
  6
CONTINUOUS
 62
               3
  5
511
 10
-584.99999999999909
 20
23.000000000000853
 30
0.0
 11
-589.99999999999943
 21
23.000000000000057
 31
0.0
  0
ARC
  8
0
  6
CONTINUOUS
 62
               3
  5
512
 10
-584.99999999999909
 20
28.000000000000853
 30
0.0
 40
5.0
 50
269.99999999999937
 51
359.9999999999992
  0
LINE
  8
0
  6
CONTINUOUS
 62
               3
  5
513
 10
-368.9807567578606
 20
-17.459655776341435
 30
0.0
 11
-368.9807567578606
 21
-22.462703497836173
 31
0.0
  0
ARC
  8
0
  6
CONTINUOUS
 62
               3
  5
514
 10
-589.99999999999977
 20
18.000000000000057
 30
0.0
 40
5.0
 50
89.999999999999773
 51
179.99999999999957
  0
LINE
  8
0
  6
CONTINUOUS
 62
               3
  5
515
 10
-594.99999999999977
 20
-25.999999999999829
 30
0.0
 11
-594.99999999999977
 21
18.000000000000057
 31
0.0
  0
ARC
  8
0
  6
CONTINUOUS
 62
               3
  5
516
 10
-589.99999999999977
 20
-25.999999999999829
 30
0.0
 40
5.0
 50
179.99999999999963
 51
269.99999999999937
  0
LINE
  8
0
  6
CONTINUOUS
 62
               3
  5
517
 10
-359.99999999999909
 20
-24.999999999999943
 30
0.0
 11
-360.67155612596332
 21
-24.999999999999943
 31
0.0
  0
LINE
  8
0
  6
CONTINUOUS
 62
               3
  5
518
 10
-362.9999999999992
 20
-22.671556125964059
 30
0.0
 11
-360.67155612596332
 21
-24.999999999999943
 31
0.0
  0
LINE
  8
0
  6
CONTINUOUS
 62
               3
  5
519
 10
-359.99999999999909
 20
-22.671556125964173
 30
0.0
 11
-357.49999999999909
 21
-22.671556125964173
 31
0.0
  0
ARC
  8
0
  6
CONTINUOUS
 62
               3
  5
51A
 10
-357.49999999999909
 20
-25.171556125964173
 30
0.0
 40
2.5
 50
0.0
 51
89.999999999999801
  0
LINE
  8
0
  6
CONTINUOUS
 62
               3
  5
51B
 10
368.98075675786015
 20
-17.462703497836173
 30
0.0
 11
400.25270436605081
 21
-15.880169469825603
 31
0.0
  0
LINE
  8
0
  6
CONTINUOUS
 62
               3
  5
51C
 10
404.9999999999992
 20
-11.886559502739885
 30
0.0
 11
404.9999999999992
 21
18.000000000000057
 31
0.0
  0
LINE
  8
0
  6
CONTINUOUS
 62
               3
  5
51D
 10
414.99999999999955
 20
23.000000000000853
 30
0.0
 11
409.9999999999992
 21
23.000000000000057
 31
0.0
  0
LINE
  8
0
  6
CONTINUOUS
 62
               3
  5
51E
 10
584.99999999999818
 20
-30.999999999999829
 30
0.0
 11
589.99999999999909
 21
-30.999999999999829
 31
0.0
  0
ARC
  8
0
  6
CONTINUOUS
 62
               3
  5
51F
 10
584.99999999999818
 20
-35.999999999999829
 30
0.0
 40
5.0
 50
89.999999999999801
 51
179.9999999999996
  0
ARC
  8
0
  6
CONTINUOUS
 62
               3
  5
520
 10
409.9999999999992
 20
18.000000000000057
 30
0.0
 40
5.0
 50
89.999999999999801
 51
179.9999999999996
  0
ARC
  8
0
  6
CONTINUOUS
 62
               3
  5
521
 10
414.99999999999955
 20
28.000000000000853
 30
0.0
 40
5.0
 50
269.99999999999937
 51
359.9999999999992
  0
LINE
  8
0
  6
CONTINUOUS
 62
               3
  5
522
 10
584.99999999999864
 20
23.000000000000853
 30
0.0
 11
589.99999999999898
 21
23.000000000000057
 31
0.0
  0
ARC
  8
0
  6
CONTINUOUS
 62
               3
  5
523
 10
584.99999999999864
 20
28.000000000000853
 30
0.0
 40
5.0
 50
179.9999999999996
 51
269.99999999999937
  0
LINE
  8
0
  6
CONTINUOUS
 62
               3
  5
524
 10
368.98075675786015
 20
-17.459655776341435
 30
0.0
 11
368.98075675786015
 21
-22.462703497836173
 31
0.0
  0
ARC
  8
0
  6
CONTINUOUS
 62
               3
  5
525
 10
589.99999999999932
 20
18.000000000000057
 30
0.0
 40
5.0
 50
0.0000000000000276
 51
89.999999999999829
  0
LINE
  8
0
  6
CONTINUOUS
 62
               3
  5
526
 10
594.99999999999932
 20
-25.999999999999829
 30
0.0
 11
594.99999999999932
 21
18.000000000000057
 31
0.0
  0
ARC
  8
0
  6
CONTINUOUS
 62
               3
  5
527
 10
589.99999999999932
 20
-25.999999999999829
 30
0.0
 40
5.0
 50
269.99999999999937
 51
359.99999999999915
  0
LINE
  8
0
  6
CONTINUOUS
 62
               3
  5
528
 10
359.99999999999864
 20
-24.999999999999943
 30
0.0
 11
360.67155612596287
 21
-24.999999999999943
 31
0.0
  0
LINE
  8
0
  6
CONTINUOUS
 62
               3
  5
529
 10
362.99999999999875
 20
-22.671556125964059
 30
0.0
 11
360.67155612596287
 21
-24.999999999999943
 31
0.0
  0
LINE
  8
0
  6
CONTINUOUS
 62
               3
  5
52A
 10
359.99999999999864
 20
-22.671556125964173
 30
0.0
 11
357.49999999999864
 21
-22.671556125964173
 31
0.0
  0
ARC
  8
0
  6
CONTINUOUS
 62
               3
  5
52B
 10
357.49999999999864
 20
-25.171556125964173
 30
0.0
 40
2.5
 50
89.999999999999801
 51
179.9999999999996
  0
POLYLINE
  8
0
  6
CONTINUOUS
 62
               3
  5
52C
 66
               1
 10
0.0
 20
0.0
 30
0.0
 70
             128
  0
VERTEX
  8
0
  6
CONTINUOUS
 62
               3
  5
67C
 10
-404.96944437371627
 20
-11.883503940111542
 30
0.0
  0
VERTEX
  8
0
  6
CONTINUOUS
 62
               3
  5
67D
 10
-404.96403841232251
 20
-11.925528627138885
 30
0.0
  0
VERTEX
  8
0
  6
CONTINUOUS
 62
               3
  5
67E
 10
-404.9581940838795
 20
-11.967505718582732
 30
0.0
  0
VERTEX
  8
0
  6
CONTINUOUS
 62
               3
  5
67F
 10
-404.95191190449134
 20
-12.009431507506875
 30
0.0
  0
VERTEX
  8
0
  6
CONTINUOUS
 62
               3
  5
680
 10
-404.94519242892824
 20
-12.051302291505564
 30
0.0
  0
VERTEX
  8
0
  6
CONTINUOUS
 62
               3
  5
681
 10
-404.93803625057734
 20
-12.093114373030447
 30
0.0
  0
VERTEX
  8
0
  6
CONTINUOUS
 62
               3
  5
682
 10
-404.93044400139036
 20
-12.134864059717108
 30
0.0
  0
VERTEX
  8
0
  6
CONTINUOUS
 62
               3
  5
683
 10
-404.92241635182796
 20
-12.176547664711126
 30
0.0
  0
VERTEX
  8
0
  6
CONTINUOUS
 62
               3
  5
684
 10
-404.91395401080013
 20
-12.218161506993658
 30
0.0
  0
VERTEX
  8
0
  6
CONTINUOUS
 62
               3
  5
685
 10
-404.90505772560402
 20
-12.259701911706509
 30
0.0
  0
VERTEX
  8
0
  6
CONTINUOUS
 62
               3
  5
686
 10
-404.89572828185771
 20
-12.301165210476647
 30
0.0
  0
VERTEX
  8
0
  6
CONTINUOUS
 62
               3
  5
687
 10
-404.88596650343084
 20
-12.342547741740152
 30
0.0
  0
VERTEX
  8
0
  6
CONTINUOUS
 62
               3
  5
688
 10
-404.87577325237197
 20
-12.383845851065571
 30
0.0
  0
VERTEX
  8
0
  6
CONTINUOUS
 62
               3
  5
689
 10
-404.86514942883235
 20
-12.425055891476623
 30
0.0
  0
VERTEX
  8
0
  6
CONTINUOUS
 62
               3
  5
68A
 10
-404.85409597098646
 20
-12.466174223774273
 30
0.0
  0
VERTEX
  8
0
  6
CONTINUOUS
 62
               3
  5
68B
 10
-404.84261385494915
 20
-12.507197216858092
 30
0.0
  0
VERTEX
  8
0
  6
CONTINUOUS
 62
               3
  5
68C
 10
-404.83070409468951
 20
-12.548121248046922
 30
0.0
  0
VERTEX
  8
0
  6
CONTINUOUS
 62
               3
  5
68D
 10
-404.81836774194119
 20
-12.58894270339878
 30
0.0
  0
VERTEX
  8
0
  6
CONTINUOUS
 62
               3
  5
68E
 10
-404.80560588610967
 20
-12.629657978030018
 30
0.0
  0
VERTEX
  8
0
  6
CONTINUOUS
 62
               3
  5
68F
 10
-404.792419654176
 20
-12.670263476433645
 30
0.0
  0
VERTEX
  8
0
  6
CONTINUOUS
 62
               3
  5
690
 10
-404.77881021059716
 20
-12.710755612796852
 30
0.0
  0
VERTEX
  8
0
  6
CONTINUOUS
 62
               3
  5
691
 10
-404.76477875720354
 20
-12.751130811317669
 30
0.0
  0
VERTEX
  8
0
  6
CONTINUOUS
 62
               3
  5
692
 10
-404.75032653309239
 20
-12.791385506520735
 30
0.0
  0
VERTEX
  8
0
  6
CONTINUOUS
 62
               3
  5
693
 10
-404.73545481451879
 20
-12.831516143572166
 30
0.0
  0
VERTEX
  8
0
  6
CONTINUOUS
 62
               3
  5
694
 10
-404.72016491478257
 20
-12.871519178593473
 30
0.0
  0
VERTEX
  8
0
  6
CONTINUOUS
 62
               3
  5
695
 10
-404.70445818411275
 20
-12.911391078974518
 30
0.0
  0
VERTEX
  8
0
  6
CONTINUOUS
 62
               3
  5
696
 10
-404.68833600954798
 20
-12.951128323685468
 30
0.0
  0
VERTEX
  8
0
  6
CONTINUOUS
 62
               3
  5
697
 10
-404.67179981481416
 20
-12.990727403587744
 30
0.0
  0
VERTEX
  8
0
  6
CONTINUOUS
 62
               3
  5
698
 10
-404.65485106019867
 20
-13.030184821743902
 30
0.0
  0
VERTEX
  8
0
  6
CONTINUOUS
 62
               3
  5
699
 10
-404.63749124242156
 20
-13.069497093726433
 30
0.0
  0
VERTEX
  8
0
  6
CONTINUOUS
 62
               3
  5
69A
 10
-404.61972189450319
 20
-13.108660747925486
 30
0.0
  0
VERTEX
  8
0
  6
CONTINUOUS
 62
               3
  5
69B
 10
-404.60154458562897
 20
-13.147672325855428
 30
0.0
  0
VERTEX
  8
0
  6
CONTINUOUS
 62
               3
  5
69C
 10
-404.58296092101079
 20
-13.18652838246026
 30
0.0
  0
VERTEX
  8
0
  6
CONTINUOUS
 62
               3
  5
69D
 10
-404.5639725417451
 20
-13.225225486417846
 30
0.0
  0
VERTEX
  8
0
  6
CONTINUOUS
 62
               3
  5
69E
 10
-404.54458112466824
 20
-13.263760220442933
 30
0.0
  0
VERTEX
  8
0
  6
CONTINUOUS
 62
               3
  5
69F
 10
-404.52478838220821
 20
-13.302129181588917
 30
0.0
  0
VERTEX
  8
0
  6
CONTINUOUS
 62
               3
  5
6A0
 10
-404.50459606223342
 20
-13.340328981548357
 30
0.0
  0
VERTEX
  8
0
  6
CONTINUOUS
 62
               3
  5
6A1
 10
-404.48400594789842
 20
-13.378356246952192
 30
0.0
  0
VERTEX
  8
0
  6
CONTINUOUS
 62
               3
  5
6A2
 10
-404.46301985748647
 20
-13.416207619667643
 30
0.0
  0
VERTEX
  8
0
  6
CONTINUOUS
 62
               3
  5
6A3
 10
-404.44163964424882
 20
-13.453879757094754
 30
0.0
  0
VERTEX
  8
0
  6
CONTINUOUS
 62
               3
  5
6A4
 10
-404.41986719624117
 20
-13.491369332461577
 30
0.0
  0
VERTEX
  8
0
  6
CONTINUOUS
 62
               3
  5
6A5
 10
-404.39770443615686
 20
-13.528673035117961
 30
0.0
  0
VERTEX
  8
0
  6
CONTINUOUS
 62
               3
  5
6A6
 10
-404.3751533211572
 20
-13.565787570827904
 30
0.0
  0
VERTEX
  8
0
  6
CONTINUOUS
 62
               3
  5
6A7
 10
-404.35221584269857
 20
-13.602709662060457
 30
0.0
  0
VERTEX
  8
0
  6
CONTINUOUS
 62
               3
  5
6A8
 10
-404.32889402635641
 20
-13.639436048279173
 30
0.0
  0
VERTEX
  8
0
  6
CONTINUOUS
 62
               3
  5
6A9
 10
-404.30518993164662
 20
-13.675963486230023
 30
0.0
  0
VERTEX
  8
0
  6
CONTINUOUS
 62
               3
  5
6AA
 10
-404.28110565184352
 20
-13.71228875022782
 30
0.0
  0
VERTEX
  8
0
  6
CONTINUOUS
 62
               3
  5
6AB
 10
-404.25664331379494
 20
-13.748408632441063
 30
0.0
  0
VERTEX
  8
0
  6
CONTINUOUS
 62
               3
  5
6AC
 10
-404.23180507773463
 20
-13.784319943175214
 30
0.0
  0
VERTEX
  8
0
  6
CONTINUOUS
 62
               3
  5
6AD
 10
-404.20659313709126
 20
-13.820019511154388
 30
0.0
  0
VERTEX
  8
0
  6
CONTINUOUS
 62
               3
  5
6AE
 10
-404.18100971829483
 20
-13.855504183801393
 30
0.0
  0
VERTEX
  8
0
  6
CONTINUOUS
 62
               3
  5
6AF
 10
-404.15505708058004
 20
-13.890770827516135
 30
0.0
  0
VERTEX
  8
0
  6
CONTINUOUS
 62
               3
  5
6B0
 10
-404.12873751578672
 20
-13.925816327952337
 30
0.0
  0
VERTEX
  8
0
  6
CONTINUOUS
 62
               3
  5
6B1
 10
-404.10205334815765
 20
-13.960637590292563
 30
0.0
  0
VERTEX
  8
0
  6
CONTINUOUS
 62
               3
  5
6B2
 10
-404.07500693413294
 20
-13.995231539521523
 30
0.0
  0
VERTEX
  8
0
  6
CONTINUOUS
 62
               3
  5
6B3
 10
-404.04760066214237
 20
-14.029595120697619
 30
0.0
  0
VERTEX
  8
0
  6
CONTINUOUS
 62
               3
  5
6B4
 10
-404.01983695239414
 20
-14.063725299222719
 30
0.0
  0
VERTEX
  8
0
  6
CONTINUOUS
 62
               3
  5
6B5
 10
-403.99171825666127
 20
-14.097619061110144
 30
0.0
  0
VERTEX
  8
0
  6
CONTINUOUS
 62
               3
  5
6B6
 10
-403.96324705806506
 20
-14.131273413250828
 30
0.0
  0
VERTEX
  8
0
  6
CONTINUOUS
 62
               3
  5
6B7
 10
-403.93442587085599
 20
-14.164685383677625
 30
0.0
  0
VERTEX
  8
0
  6
CONTINUOUS
 62
               3
  5
6B8
 10
-403.90525724019125
 20
-14.197852021827776
 30
0.0
  0
VERTEX
  8
0
  6
CONTINUOUS
 62
               3
  5
6B9
 10
-403.87574374191047
 20
-14.230770398803459
 30
0.0
  0
VERTEX
  8
0
  6
CONTINUOUS
 62
               3
  5
6BA
 10
-403.845887982308
 20
-14.263437607630433
 30
0.0
  0
VERTEX
  8
0
  6
CONTINUOUS
 62
               3
  5
6BB
 10
-403.81569259790274
 20
-14.295850763514759
 30
0.0
  0
VERTEX
  8
0
  6
CONTINUOUS
 62
               3
  5
6BC
 10
-403.78516025520537
 20
-14.328007004097538
 30
0.0
  0
VERTEX
  8
0
  6
CONTINUOUS
 62
               3
  5
6BD
 10
-403.75429365048296
 20
-14.359903489707696
 30
0.0
  0
VERTEX
  8
0
  6
CONTINUOUS
 62
               3
  5
6BE
 10
-403.72309550952065
 20
-14.391537403612741
 30
0.0
  0
VERTEX
  8
0
  6
CONTINUOUS
 62
               3
  5
6BF
 10
-403.69156858738114
 20
-14.422905952267511
 30
0.0
  0
VERTEX
  8
0
  6
CONTINUOUS
 62
               3
  5
6C0
 10
-403.65971566816131
 20
-14.454006365560865
 30
0.0
  0
VERTEX
  8
0
  6
CONTINUOUS
 62
               3
  5
6C1
 10
-403.62753956474643
 20
-14.484835897060304
 30
0.0
  0
VERTEX
  8
0
  6
CONTINUOUS
 62
               3
  5
6C2
 10
-403.59504311856153
 20
-14.515391824254513
 30
0.0
  0
VERTEX
  8
0
  6
CONTINUOUS
 62
               3
  5
6C3
 10
-403.56222919932077
 20
-14.545671448793776
 30
0.0
  0
VERTEX
  8
0
  6
CONTINUOUS
 62
               3
  5
6C4
 10
-403.52910070477395
 20
-14.575672096728262
 30
0.0
  0
VERTEX
  8
0
  6
CONTINUOUS
 62
               3
  5
6C5
 10
-403.4956605604504
 20
-14.605391118744162
 30
0.0
  0
VERTEX
  8
0
  6
CONTINUOUS
 62
               3
  5
6C6
 10
-403.46191171940097
 20
-14.634825890397648
 30
0.0
  0
VERTEX
  8
0
  6
CONTINUOUS
 62
               3
  5
6C7
 10
-403.42785716193686
 20
-14.663973812346624
 30
0.0
  0
VERTEX
  8
0
  6
CONTINUOUS
 62
               3
  5
6C8
 10
-403.39349989536686
 20
-14.692832310580281
 30
0.0
  0
VERTEX
  8
0
  6
CONTINUOUS
 62
               3
  5
6C9
 10
-403.35884295373143
 20
-14.721398836646395
 30
0.0
  0
VERTEX
  8
0
  6
CONTINUOUS
 62
               3
  5
6CA
 10
-403.32388939753497
 20
-14.749670867876388
 30
0.0
  0
VERTEX
  8
0
  6
CONTINUOUS
 62
               3
  5
6CB
 10
-403.28864231347541
 20
-14.777645907608088
 30
0.0
  0
VERTEX
  8
0
  6
CONTINUOUS
 62
               3
  5
6CC
 10
-403.25310481417171
 20
-14.805321485406218
 30
0.0
  0
VERTEX
  8
0
  6
CONTINUOUS
 62
               3
  5
6CD
 10
-403.21728003788911
 20
-14.832695157280547
 30
0.0
  0
VERTEX
  8
0
  6
CONTINUOUS
 62
               3
  5
6CE
 10
-403.18117114826168
 20
-14.859764505901721
 30
0.0
  0
VERTEX
  8
0
  6
CONTINUOUS
 62
               3
  5
6CF
 10
-403.14478133401332
 20
-14.886527140814733
 30
0.0
  0
VERTEX
  8
0
  6
CONTINUOUS
 62
               3
  5
6D0
 10
-403.10811380867574
 20
-14.912980698650019
 30
0.0
  0
VERTEX
  8
0
  6
CONTINUOUS
 62
               3
  5
6D1
 10
-403.07117181030509
 20
-14.939122843332164
 30
0.0
  0
VERTEX
  8
0
  6
CONTINUOUS
 62
               3
  5
6D2
 10
-403.03395860119582
 20
-14.964951266286199
 30
0.0
  0
VERTEX
  8
0
  6
CONTINUOUS
 62
               3
  5
6D3
 10
-402.99647746759257
 20
-14.990463686641467
 30
0.0
  0
VERTEX
  8
0
  6
CONTINUOUS
 62
               3
  5
6D4
 10
-402.95873171939996
 20
-15.015657851433041
 30
0.0
  0
VERTEX
  8
0
  6
CONTINUOUS
 62
               3
  5
6D5
 10
-402.92072468989051
 20
-15.040531535800682
 30
0.0
  0
VERTEX
  8
0
  6
CONTINUOUS
 62
               3
  5
6D6
 10
-402.8824597354099
 20
-15.065082543185319
 30
0.0
  0
VERTEX
  8
0
  6
CONTINUOUS
 62
               3
  5
6D7
 10
-402.84394023508094
 20
-15.089308705523013
 30
0.0
  0
VERTEX
  8
0
  6
CONTINUOUS
 62
               3
  5
6D8
 10
-402.80516959050493
 20
-15.113207883436424
 30
0.0
  0
VERTEX
  8
0
  6
CONTINUOUS
 62
               3
  5
6D9
 10
-402.76615122546144
 20
-15.136777966423729
 30
0.0
  0
VERTEX
  8
0
  6
CONTINUOUS
 62
               3
  5
6DA
 10
-402.72688858560576
 20
-15.160016873045008
 30
0.0
  0
VERTEX
  8
0
  6
CONTINUOUS
 62
               3
  5
6DB
 10
-402.68738513816487
 20
-15.182922551106042
 30
0.0
  0
VERTEX
  8
0
  6
CONTINUOUS
 62
               3
  5
6DC
 10
-402.64764437163103
 20
-15.205492977839546
 30
0.0
  0
VERTEX
  8
0
  6
CONTINUOUS
 62
               3
  5
6DD
 10
-402.60766979545383
 20
-15.227726160083794
 30
0.0
  0
VERTEX
  8
0
  6
CONTINUOUS
 62
               3
  5
6DE
 10
-402.56746493973026
 20
-15.249620134458635
 30
0.0
  0
VERTEX
  8
0
  6
CONTINUOUS
 62
               3
  5
6DF
 10
-402.52703335489292
 20
-15.271172967538869
 30
0.0
  0
VERTEX
  8
0
  6
CONTINUOUS
 62
               3
  5
6E0
 10
-402.48637861139662
 20
-15.292382756024995
 30
0.0
  0
VERTEX
  8
0
  6
CONTINUOUS
 62
               3
  5
6E1
 10
-402.44550429940284
 20
-15.313247626911282
 30
0.0
  0
VERTEX
  8
0
  6
CONTINUOUS
 62
               3
  5
6E2
 10
-402.40441402846301
 20
-15.333765737651174
 30
0.0
  0
VERTEX
  8
0
  6
CONTINUOUS
 62
               3
  5
6E3
 10
-402.36311142719944
 20
-15.353935276319998
 30
0.0
  0
VERTEX
  8
0
  6
CONTINUOUS
 62
               3
  5
6E4
 10
-402.32160014298518
 20
-15.373754461774981
 30
0.0
  0
VERTEX
  8
0
  6
CONTINUOUS
 62
               3
  5
6E5
 10
-402.27988384162154
 20
-15.393221543812533
 30
0.0
  0
VERTEX
  8
0
  6
CONTINUOUS
 62
               3
  5
6E6
 10
-402.23796620701484
 20
-15.412334803322809
 30
0.0
  0
VERTEX
  8
0
  6
CONTINUOUS
 62
               3
  5
6E7
 10
-402.19585094085068
 20
-15.431092552441516
 30
0.0
  0
VERTEX
  8
0
  6
CONTINUOUS
 62
               3
  5
6E8
 10
-402.15354176226731
 20
-15.449493134698976
 30
0.0
  0
VERTEX
  8
0
  6
CONTINUOUS
 62
               3
  5
6E9
 10
-402.11104240752701
 20
-15.467534925166389
 30
0.0
  0
VERTEX
  8
0
  6
CONTINUOUS
 62
               3
  5
6EA
 10
-402.06835662968638
 20
-15.485216330599348
 30
0.0
  0
VERTEX
  8
0
  6
CONTINUOUS
 62
               3
  5
6EB
 10
-402.02548819826467
 20
-15.502535789578525
 30
0.0
  0
VERTEX
  8
0
  6
CONTINUOUS
 62
               3
  5
6EC
 10
-401.98244089891097
 20
-15.519491772647559
 30
0.0
  0
VERTEX
  8
0
  6
CONTINUOUS
 62
               3
  5
6ED
 10
-401.93921853307006
 20
-15.536082782448116
 30
0.0
  0
VERTEX
  8
0
  6
CONTINUOUS
 62
               3
  5
6EE
 10
-401.89582491764651
 20
-15.552307353852129
 30
0.0
  0
VERTEX
  8
0
  6
CONTINUOUS
 62
               3
  5
6EF
 10
-401.85226388466776
 20
-15.568164054091177
 30
0.0
  0
VERTEX
  8
0
  6
CONTINUOUS
 62
               3
  5
6F0
 10
-401.80853928094547
 20
-15.583651482883004
 30
0.0
  0
VERTEX
  8
0
  6
CONTINUOUS
 62
               3
  5
6F1
 10
-401.76465496773625
 20
-15.598768272555184
 30
0.0
  0
VERTEX
  8
0
  6
CONTINUOUS
 62
               3
  5
6F2
 10
-401.72061482040027
 20
-15.613513088165893
 30
0.0
  0
VERTEX
  8
0
  6
CONTINUOUS
 62
               3
  5
6F3
 10
-401.67642272805915
 20
-15.627884627621803
 30
0.0
  0
VERTEX
  8
0
  6
CONTINUOUS
 62
               3
  5
6F4
 10
-401.63208259325273
 20
-15.641881621793058
 30
0.0
  0
VERTEX
  8
0
  6
CONTINUOUS
 62
               3
  5
6F5
 10
-401.58759833159405
 20
-15.655502834625356
 30
0.0
  0
VERTEX
  8
0
  6
CONTINUOUS
 62
               3
  5
6F6
 10
-401.54297387142395
 20
-15.668747063249102
 30
0.0
  0
VERTEX
  8
0
  6
CONTINUOUS
 62
               3
  5
6F7
 10
-401.49821315346389
 20
-15.681613138085631
 30
0.0
  0
VERTEX
  8
0
  6
CONTINUOUS
 62
               3
  5
6F8
 10
-401.45332013046817
 20
-15.694099922950489
 30
0.0
  0
VERTEX
  8
0
  6
CONTINUOUS
 62
               3
  5
6F9
 10
-401.40829876687468
 20
-15.706206315153775
 30
0.0
  0
VERTEX
  8
0
  6
CONTINUOUS
 62
               3
  5
6FA
 10
-401.36315303845481
 20
-15.71793124559751
 30
0.0
  0
VERTEX
  8
0
  6
CONTINUOUS
 62
               3
  5
6FB
 10
-401.31788693196262
 20
-15.729273678870054
 30
0.0
  0
VERTEX
  8
0
  6
CONTINUOUS
 62
               3
  5
6FC
 10
-401.27250444478238
 20
-15.740232613337536
 30
0.0
  0
VERTEX
  8
0
  6
CONTINUOUS
 62
               3
  5
6FD
 10
-401.22700958457597
 20
-15.75080708123231
 30
0.0
  0
VERTEX
  8
0
  6
CONTINUOUS
 62
               3
  5
6FE
 10
-401.18140636892855
 20
-15.760996148738418
 30
0.0
  0
VERTEX
  8
0
  6
CONTINUOUS
 62
               3
  5
6FF
 10
-401.13569882499422
 20
-15.77079891607405
 30
0.0
  0
VERTEX
  8
0
  6
CONTINUOUS
 62
               3
  5
700
 10
-401.08989098913997
 20
-15.780214517571009
 30
0.0
  0
VERTEX
  8
0
  6
CONTINUOUS
 62
               3
  5
701
 10
-401.04398690658951
 20
-15.789242121751151
 30
0.0
  0
VERTEX
  8
0
  6
CONTINUOUS
 62
               3
  5
702
 10
-400.99799063106599
 20
-15.797880931399813
 30
0.0
  0
VERTEX
  8
0
  6
CONTINUOUS
 62
               3
  5
703
 10
-400.95190622443386
 20
-15.806130183636217
 30
0.0
  0
VERTEX
  8
0
  6
CONTINUOUS
 62
               3
  5
704
 10
-400.9057377563405
 20
-15.813989149980831
 30
0.0
  0
VERTEX
  8
0
  6
CONTINUOUS
 62
               3
  5
705
 10
-400.85948930385644
 20
-15.821457136419713
 30
0.0
  0
VERTEX
  8
0
  6
CONTINUOUS
 62
               3
  5
706
 10
-400.8131649511156
 20
-15.828533483465783
 30
0.0
  0
VERTEX
  8
0
  6
CONTINUOUS
 62
               3
  5
707
 10
-400.76676878895461
 20
-15.835217566217073
 30
0.0
  0
VERTEX
  8
0
  6
CONTINUOUS
 62
               3
  5
708
 10
-400.72030491455132
 20
-15.84150879441191
 30
0.0
  0
VERTEX
  8
0
  6
CONTINUOUS
 62
               3
  5
709
 10
-400.67377743106334
 20
-15.847406612481034
 30
0.0
  0
VERTEX
  8
0
  6
CONTINUOUS
 62
               3
  5
70A
 10
-400.62719044726532
 20
-15.852910499596664
 30
0.0
  0
VERTEX
  8
0
  6
CONTINUOUS
 62
               3
  5
70B
 10
-400.58054807718651
 20
-15.858019969718493
 30
0.0
  0
VERTEX
  8
0
  6
CONTINUOUS
 62
               3
  5
70C
 10
-400.53385443974696
 20
-15.86273457163661
 30
0.0
  0
VERTEX
  8
0
  6
CONTINUOUS
 62
               3
  5
70D
 10
-400.48711365839438
 20
-15.867053889011338
 30
0.0
  0
VERTEX
  8
0
  6
CONTINUOUS
 62
               3
  5
70E
 10
-400.44032986073944
 20
-15.870977540410014
 30
0.0
  0
VERTEX
  8
0
  6
CONTINUOUS
 62
               3
  5
70F
 10
-400.39350717819161
 20
-15.874505179340659
 30
0.0
  0
VERTEX
  8
0
  6
CONTINUOUS
 62
               3
  5
710
 10
-400.34664974559433
 20
-15.87763649428258
 30
0.0
  0
VERTEX
  8
0
  6
CONTINUOUS
 62
               3
  5
711
 10
-400.29976170085962
 20
-15.880371208713889
 30
0.0
  0
VERTEX
  8
0
  6
CONTINUOUS
 62
               3
  5
712
 10
-400.25284718460284
 20
-15.882709081135912
 30
0.0
  0
SEQEND
  8
0
  6
CONTINUOUS
 62
               3
  5
713
  0
POLYLINE
  8
0
  6
CONTINUOUS
 62
               3
  5
52D
 66
               1
 10
0.0
 20
0.0
 30
0.0
 70
             128
  0
VERTEX
  8
0
  6
CONTINUOUS
 62
               3
  5
714
 10
400.25284718460222
 20
-15.882709081135918
 30
0.0
  0
VERTEX
  8
0
  6
CONTINUOUS
 62
               3
  5
715
 10
400.29976170085899
 20
-15.880371208713896
 30
0.0
  0
VERTEX
  8
0
  6
CONTINUOUS
 62
               3
  5
716
 10
400.34664974559377
 20
-15.877636494282589
 30
0.0
  0
VERTEX
  8
0
  6
CONTINUOUS
 62
               3
  5
717
 10
400.39350717819104
 20
-15.874505179340668
 30
0.0
  0
VERTEX
  8
0
  6
CONTINUOUS
 62
               3
  5
718
 10
400.44032986073881
 20
-15.870977540410024
 30
0.0
  0
VERTEX
  8
0
  6
CONTINUOUS
 62
               3
  5
719
 10
400.48711365839375
 20
-15.867053889011352
 30
0.0
  0
VERTEX
  8
0
  6
CONTINUOUS
 62
               3
  5
71A
 10
400.53385443974639
 20
-15.862734571636622
 30
0.0
  0
VERTEX
  8
0
  6
CONTINUOUS
 62
               3
  5
71B
 10
400.58054807718588
 20
-15.858019969718507
 30
0.0
  0
VERTEX
  8
0
  6
CONTINUOUS
 62
               3
  5
71C
 10
400.62719044726475
 20
-15.852910499596678
 30
0.0
  0
VERTEX
  8
0
  6
CONTINUOUS
 62
               3
  5
71D
 10
400.67377743106272
 20
-15.847406612481048
 30
0.0
  0
VERTEX
  8
0
  6
CONTINUOUS
 62
               3
  5
71E
 10
400.72030491455075
 20
-15.841508794411927
 30
0.0
  0
VERTEX
  8
0
  6
CONTINUOUS
 62
               3
  5
71F
 10
400.76676878895404
 20
-15.835217566217093
 30
0.0
  0
VERTEX
  8
0
  6
CONTINUOUS
 62
               3
  5
720
 10
400.81316495111503
 20
-15.828533483465801
 30
0.0
  0
VERTEX
  8
0
  6
CONTINUOUS
 62
               3
  5
721
 10
400.85948930385587
 20
-15.821457136419733
 30
0.0
  0
VERTEX
  8
0
  6
CONTINUOUS
 62
               3
  5
722
 10
400.90573775633993
 20
-15.813989149980854
 30
0.0
  0
VERTEX
  8
0
  6
CONTINUOUS
 62
               3
  5
723
 10
400.95190622443329
 20
-15.80613018363624
 30
0.0
  0
VERTEX
  8
0
  6
CONTINUOUS
 62
               3
  5
724
 10
400.99799063106536
 20
-15.797880931399838
 30
0.0
  0
VERTEX
  8
0
  6
CONTINUOUS
 62
               3
  5
725
 10
401.04398690658894
 20
-15.789242121751176
 30
0.0
  0
VERTEX
  8
0
  6
CONTINUOUS
 62
               3
  5
726
 10
401.08989098913935
 20
-15.780214517571036
 30
0.0
  0
VERTEX
  8
0
  6
CONTINUOUS
 62
               3
  5
727
 10
401.13569882499365
 20
-15.770798916074078
 30
0.0
  0
VERTEX
  8
0
  6
CONTINUOUS
 62
               3
  5
728
 10
401.18140636892798
 20
-15.760996148738446
 30
0.0
  0
VERTEX
  8
0
  6
CONTINUOUS
 62
               3
  5
729
 10
401.2270095845754
 20
-15.750807081232338
 30
0.0
  0
VERTEX
  8
0
  6
CONTINUOUS
 62
               3
  5
72A
 10
401.27250444478182
 20
-15.740232613337566
 30
0.0
  0
VERTEX
  8
0
  6
CONTINUOUS
 62
               3
  5
72B
 10
401.31788693196199
 20
-15.729273678870086
 30
0.0
  0
VERTEX
  8
0
  6
CONTINUOUS
 62
               3
  5
72C
 10
401.36315303845424
 20
-15.717931245597544
 30
0.0
  0
VERTEX
  8
0
  6
CONTINUOUS
 62
               3
  5
72D
 10
401.40829876687405
 20
-15.70620631515381
 30
0.0
  0
VERTEX
  8
0
  6
CONTINUOUS
 62
               3
  5
72E
 10
401.4533201304676
 20
-15.694099922950524
 30
0.0
  0
VERTEX
  8
0
  6
CONTINUOUS
 62
               3
  5
72F
 10
401.49821315346333
 20
-15.681613138085666
 30
0.0
  0
VERTEX
  8
0
  6
CONTINUOUS
 62
               3
  5
730
 10
401.54297387142333
 20
-15.668747063249139
 30
0.0
  0
VERTEX
  8
0
  6
CONTINUOUS
 62
               3
  5
731
 10
401.58759833159348
 20
-15.655502834625395
 30
0.0
  0
VERTEX
  8
0
  6
CONTINUOUS
 62
               3
  5
732
 10
401.63208259325211
 20
-15.641881621793097
 30
0.0
  0
VERTEX
  8
0
  6
CONTINUOUS
 62
               3
  5
733
 10
401.67642272805858
 20
-15.627884627621842
 30
0.0
  0
VERTEX
  8
0
  6
CONTINUOUS
 62
               3
  5
734
 10
401.7206148203997
 20
-15.613513088165934
 30
0.0
  0
VERTEX
  8
0
  6
CONTINUOUS
 62
               3
  5
735
 10
401.76465496773568
 20
-15.598768272555226
 30
0.0
  0
VERTEX
  8
0
  6
CONTINUOUS
 62
               3
  5
736
 10
401.8085392809449
 20
-15.583651482883049
 30
0.0
  0
VERTEX
  8
0
  6
CONTINUOUS
 62
               3
  5
737
 10
401.85226388466714
 20
-15.568164054091223
 30
0.0
  0
VERTEX
  8
0
  6
CONTINUOUS
 62
               3
  5
738
 10
401.89582491764594
 20
-15.552307353852175
 30
0.0
  0
VERTEX
  8
0
  6
CONTINUOUS
 62
               3
  5
739
 10
401.93921853306949
 20
-15.536082782448162
 30
0.0
  0
VERTEX
  8
0
  6
CONTINUOUS
 62
               3
  5
73A
 10
401.9824408989104
 20
-15.519491772647605
 30
0.0
  0
VERTEX
  8
0
  6
CONTINUOUS
 62
               3
  5
73B
 10
402.02548819826404
 20
-15.502535789578575
 30
0.0
  0
VERTEX
  8
0
  6
CONTINUOUS
 62
               3
  5
73C
 10
402.06835662968581
 20
-15.4852163305994
 30
0.0
  0
VERTEX
  8
0
  6
CONTINUOUS
 62
               3
  5
73D
 10
402.11104240752644
 20
-15.46753492516644
 30
0.0
  0
VERTEX
  8
0
  6
CONTINUOUS
 62
               3
  5
73E
 10
402.15354176226674
 20
-15.449493134699027
 30
0.0
  0
VERTEX
  8
0
  6
CONTINUOUS
 62
               3
  5
73F
 10
402.19585094085011
 20
-15.431092552441569
 30
0.0
  0
VERTEX
  8
0
  6
CONTINUOUS
 62
               3
  5
740
 10
402.23796620701427
 20
-15.412334803322864
 30
0.0
  0
VERTEX
  8
0
  6
CONTINUOUS
 62
               3
  5
741
 10
402.27988384162097
 20
-15.393221543812588
 30
0.0
  0
VERTEX
  8
0
  6
CONTINUOUS
 62
               3
  5
742
 10
402.32160014298461
 20
-15.373754461775036
 30
0.0
  0
VERTEX
  8
0
  6
CONTINUOUS
 62
               3
  5
743
 10
402.36311142719887
 20
-15.353935276320055
 30
0.0
  0
VERTEX
  8
0
  6
CONTINUOUS
 62
               3
  5
744
 10
402.40441402846244
 20
-15.33376573765123
 30
0.0
  0
VERTEX
  8
0
  6
CONTINUOUS
 62
               3
  5
745
 10
402.44550429940227
 20
-15.313247626911341
 30
0.0
  0
VERTEX
  8
0
  6
CONTINUOUS
 62
               3
  5
746
 10
402.48637861139605
 20
-15.292382756025056
 30
0.0
  0
VERTEX
  8
0
  6
CONTINUOUS
 62
               3
  5
747
 10
402.52703335489235
 20
-15.271172967538931
 30
0.0
  0
VERTEX
  8
0
  6
CONTINUOUS
 62
               3
  5
748
 10
402.56746493972969
 20
-15.249620134458697
 30
0.0
  0
VERTEX
  8
0
  6
CONTINUOUS
 62
               3
  5
749
 10
402.60766979545326
 20
-15.227726160083858
 30
0.0
  0
VERTEX
  8
0
  6
CONTINUOUS
 62
               3
  5
74A
 10
402.64764437163046
 20
-15.205492977839612
 30
0.0
  0
VERTEX
  8
0
  6
CONTINUOUS
 62
               3
  5
74B
 10
402.6873851381643
 20
-15.182922551106106
 30
0.0
  0
VERTEX
  8
0
  6
CONTINUOUS
 62
               3
  5
74C
 10
402.7268885856052
 20
-15.160016873045073
 30
0.0
  0
VERTEX
  8
0
  6
CONTINUOUS
 62
               3
  5
74D
 10
402.76615122546087
 20
-15.136777966423796
 30
0.0
  0
VERTEX
  8
0
  6
CONTINUOUS
 62
               3
  5
74E
 10
402.80516959050436
 20
-15.113207883436491
 30
0.0
  0
VERTEX
  8
0
  6
CONTINUOUS
 62
               3
  5
74F
 10
402.84394023508037
 20
-15.089308705523083
 30
0.0
  0
VERTEX
  8
0
  6
CONTINUOUS
 62
               3
  5
750
 10
402.88245973540933
 20
-15.06508254318539
 30
0.0
  0
VERTEX
  8
0
  6
CONTINUOUS
 62
               3
  5
751
 10
402.92072468988994
 20
-15.040531535800753
 30
0.0
  0
VERTEX
  8
0
  6
CONTINUOUS
 62
               3
  5
752
 10
402.9587317193994
 20
-15.015657851433112
 30
0.0
  0
VERTEX
  8
0
  6
CONTINUOUS
 62
               3
  5
753
 10
402.996477467592
 20
-14.99046368664154
 30
0.0
  0
VERTEX
  8
0
  6
CONTINUOUS
 62
               3
  5
754
 10
403.03395860119525
 20
-14.964951266286274
 30
0.0
  0
VERTEX
  8
0
  6
CONTINUOUS
 62
               3
  5
755
 10
403.07117181030452
 20
-14.939122843332239
 30
0.0
  0
VERTEX
  8
0
  6
CONTINUOUS
 62
               3
  5
756
 10
403.10811380867517
 20
-14.912980698650095
 30
0.0
  0
VERTEX
  8
0
  6
CONTINUOUS
 62
               3
  5
757
 10
403.14478133401275
 20
-14.88652714081481
 30
0.0
  0
VERTEX
  8
0
  6
CONTINUOUS
 62
               3
  5
758
 10
403.18117114826117
 20
-14.859764505901799
 30
0.0
  0
VERTEX
  8
0
  6
CONTINUOUS
 62
               3
  5
759
 10
403.21728003788854
 20
-14.832695157280625
 30
0.0
  0
VERTEX
  8
0
  6
CONTINUOUS
 62
               3
  5
75A
 10
403.25310481417119
 20
-14.805321485406298
 30
0.0
  0
VERTEX
  8
0
  6
CONTINUOUS
 62
               3
  5
75B
 10
403.28864231347484
 20
-14.77764590760817
 30
0.0
  0
VERTEX
  8
0
  6
CONTINUOUS
 62
               3
  5
75C
 10
403.3238893975344
 20
-14.749670867876471
 30
0.0
  0
VERTEX
  8
0
  6
CONTINUOUS
 62
               3
  5
75D
 10
403.35884295373091
 20
-14.721398836646481
 30
0.0
  0
VERTEX
  8
0
  6
CONTINUOUS
 62
               3
  5
75E
 10
403.39349989536629
 20
-14.692832310580368
 30
0.0
  0
VERTEX
  8
0
  6
CONTINUOUS
 62
               3
  5
75F
 10
403.42785716193629
 20
-14.663973812346715
 30
0.0
  0
VERTEX
  8
0
  6
CONTINUOUS
 62
               3
  5
760
 10
403.4619117194004
 20
-14.634825890397741
 30
0.0
  0
VERTEX
  8
0
  6
CONTINUOUS
 62
               3
  5
761
 10
403.49566056044983
 20
-14.605391118744258
 30
0.0
  0
VERTEX
  8
0
  6
CONTINUOUS
 62
               3
  5
762
 10
403.52910070477338
 20
-14.575672096728358
 30
0.0
  0
VERTEX
  8
0
  6
CONTINUOUS
 62
               3
  5
763
 10
403.5622291993202
 20
-14.545671448793875
 30
0.0
  0
VERTEX
  8
0
  6
CONTINUOUS
 62
               3
  5
764
 10
403.59504311856097
 20
-14.515391824254614
 30
0.0
  0
VERTEX
  8
0
  6
CONTINUOUS
 62
               3
  5
765
 10
403.62753956474586
 20
-14.484835897060409
 30
0.0
  0
VERTEX
  8
0
  6
CONTINUOUS
 62
               3
  5
766
 10
403.65971566816074
 20
-14.454006365560971
 30
0.0
  0
VERTEX
  8
0
  6
CONTINUOUS
 62
               3
  5
767
 10
403.69156858738057
 20
-14.42290595226762
 30
0.0
  0
VERTEX
  8
0
  6
CONTINUOUS
 62
               3
  5
768
 10
403.72309550952008
 20
-14.391537403612853
 30
0.0
  0
VERTEX
  8
0
  6
CONTINUOUS
 62
               3
  5
769
 10
403.7542936504824
 20
-14.359903489707809
 30
0.0
  0
VERTEX
  8
0
  6
CONTINUOUS
 62
               3
  5
76A
 10
403.7851602552048
 20
-14.328007004097653
 30
0.0
  0
VERTEX
  8
0
  6
CONTINUOUS
 62
               3
  5
76B
 10
403.81569259790217
 20
-14.295850763514878
 30
0.0
  0
VERTEX
  8
0
  6
CONTINUOUS
 62
               3
  5
76C
 10
403.84588798230743
 20
-14.263437607630555
 30
0.0
  0
VERTEX
  8
0
  6
CONTINUOUS
 62
               3
  5
76D
 10
403.8757437419099
 20
-14.230770398803582
 30
0.0
  0
VERTEX
  8
0
  6
CONTINUOUS
 62
               3
  5
76E
 10
403.90525724019068
 20
-14.197852021827902
 30
0.0
  0
VERTEX
  8
0
  6
CONTINUOUS
 62
               3
  5
76F
 10
403.93442587085542
 20
-14.164685383677753
 30
0.0
  0
VERTEX
  8
0
  6
CONTINUOUS
 62
               3
  5
770
 10
403.9632470580645
 20
-14.131273413250959
 30
0.0
  0
VERTEX
  8
0
  6
CONTINUOUS
 62
               3
  5
771
 10
403.9917182566607
 20
-14.097619061110279
 30
0.0
  0
VERTEX
  8
0
  6
CONTINUOUS
 62
               3
  5
772
 10
404.01983695239358
 20
-14.063725299222856
 30
0.0
  0
VERTEX
  8
0
  6
CONTINUOUS
 62
               3
  5
773
 10
404.0476006621418
 20
-14.029595120697758
 30
0.0
  0
VERTEX
  8
0
  6
CONTINUOUS
 62
               3
  5
774
 10
404.07500693413238
 20
-13.995231539521665
 30
0.0
  0
VERTEX
  8
0
  6
CONTINUOUS
 62
               3
  5
775
 10
404.10205334815709
 20
-13.960637590292706
 30
0.0
  0
VERTEX
  8
0
  6
CONTINUOUS
 62
               3
  5
776
 10
404.12873751578616
 20
-13.925816327952482
 30
0.0
  0
VERTEX
  8
0
  6
CONTINUOUS
 62
               3
  5
777
 10
404.15505708057947
 20
-13.890770827516285
 30
0.0
  0
VERTEX
  8
0
  6
CONTINUOUS
 62
               3
  5
778
 10
404.18100971829426
 20
-13.855504183801546
 30
0.0
  0
VERTEX
  8
0
  6
CONTINUOUS
 62
               3
  5
779
 10
404.20659313709069
 20
-13.820019511154543
 30
0.0
  0
VERTEX
  8
0
  6
CONTINUOUS
 62
               3
  5
77A
 10
404.23180507773407
 20
-13.784319943175371
 30
0.0
  0
VERTEX
  8
0
  6
CONTINUOUS
 62
               3
  5
77B
 10
404.25664331379437
 20
-13.748408632441222
 30
0.0
  0
VERTEX
  8
0
  6
CONTINUOUS
 62
               3
  5
77C
 10
404.28110565184295
 20
-13.712288750227984
 30
0.0
  0
VERTEX
  8
0
  6
CONTINUOUS
 62
               3
  5
77D
 10
404.30518993164605
 20
-13.675963486230188
 30
0.0
  0
VERTEX
  8
0
  6
CONTINUOUS
 62
               3
  5
77E
 10
404.32889402635584
 20
-13.63943604827934
 30
0.0
  0
VERTEX
  8
0
  6
CONTINUOUS
 62
               3
  5
77F
 10
404.352215842698
 20
-13.602709662060628
 30
0.0
  0
VERTEX
  8
0
  6
CONTINUOUS
 62
               3
  5
780
 10
404.37515332115669
 20
-13.565787570828077
 30
0.0
  0
VERTEX
  8
0
  6
CONTINUOUS
 62
               3
  5
781
 10
404.39770443615629
 20
-13.528673035118137
 30
0.0
  0
VERTEX
  8
0
  6
CONTINUOUS
 62
               3
  5
782
 10
404.4198671962406
 20
-13.491369332461755
 30
0.0
  0
VERTEX
  8
0
  6
CONTINUOUS
 62
               3
  5
783
 10
404.44163964424826
 20
-13.453879757094933
 30
0.0
  0
VERTEX
  8
0
  6
CONTINUOUS
 62
               3
  5
784
 10
404.4630198574859
 20
-13.416207619667826
 30
0.0
  0
VERTEX
  8
0
  6
CONTINUOUS
 62
               3
  5
785
 10
404.48400594789786
 20
-13.378356246952379
 30
0.0
  0
VERTEX
  8
0
  6
CONTINUOUS
 62
               3
  5
786
 10
404.50459606223285
 20
-13.340328981548545
 30
0.0
  0
VERTEX
  8
0
  6
CONTINUOUS
 62
               3
  5
787
 10
404.52478838220765
 20
-13.302129181589107
 30
0.0
  0
VERTEX
  8
0
  6
CONTINUOUS
 62
               3
  5
788
 10
404.54458112466767
 20
-13.263760220443128
 30
0.0
  0
VERTEX
  8
0
  6
CONTINUOUS
 62
               3
  5
789
 10
404.56397254174453
 20
-13.225225486418044
 30
0.0
  0
VERTEX
  8
0
  6
CONTINUOUS
 62
               3
  5
78A
 10
404.58296092101023
 20
-13.186528382460459
 30
0.0
  0
VERTEX
  8
0
  6
CONTINUOUS
 62
               3
  5
78B
 10
404.60154458562846
 20
-13.147672325855631
 30
0.0
  0
VERTEX
  8
0
  6
CONTINUOUS
 62
               3
  5
78C
 10
404.61972189450267
 20
-13.108660747925692
 30
0.0
  0
VERTEX
  8
0
  6
CONTINUOUS
 62
               3
  5
78D
 10
404.63749124242099
 20
-13.069497093726641
 30
0.0
  0
VERTEX
  8
0
  6
CONTINUOUS
 62
               3
  5
78E
 10
404.65485106019815
 20
-13.030184821744111
 30
0.0
  0
VERTEX
  8
0
  6
CONTINUOUS
 62
               3
  5
78F
 10
404.6717998148136
 20
-12.990727403587957
 30
0.0
  0
VERTEX
  8
0
  6
CONTINUOUS
 62
               3
  5
790
 10
404.68833600954747
 20
-12.951128323685683
 30
0.0
  0
VERTEX
  8
0
  6
CONTINUOUS
 62
               3
  5
791
 10
404.70445818411224
 20
-12.911391078974734
 30
0.0
  0
VERTEX
  8
0
  6
CONTINUOUS
 62
               3
  5
792
 10
404.72016491478206
 20
-12.871519178593694
 30
0.0
  0
VERTEX
  8
0
  6
CONTINUOUS
 62
               3
  5
793
 10
404.73545481451822
 20
-12.83151614357239
 30
0.0
  0
VERTEX
  8
0
  6
CONTINUOUS
 62
               3
  5
794
 10
404.75032653309188
 20
-12.79138550652096
 30
0.0
  0
VERTEX
  8
0
  6
CONTINUOUS
 62
               3
  5
795
 10
404.76477875720303
 20
-12.751130811317896
 30
0.0
  0
VERTEX
  8
0
  6
CONTINUOUS
 62
               3
  5
796
 10
404.77881021059665
 20
-12.710755612797083
 30
0.0
  0
VERTEX
  8
0
  6
CONTINUOUS
 62
               3
  5
797
 10
404.79241965417543
 20
-12.670263476433878
 30
0.0
  0
VERTEX
  8
0
  6
CONTINUOUS
 62
               3
  5
798
 10
404.80560588610911
 20
-12.629657978030254
 30
0.0
  0
VERTEX
  8
0
  6
CONTINUOUS
 62
               3
  5
799
 10
404.81836774194062
 20
-12.58894270339902
 30
0.0
  0
VERTEX
  8
0
  6
CONTINUOUS
 62
               3
  5
79A
 10
404.83070409468894
 20
-12.548121248047162
 30
0.0
  0
VERTEX
  8
0
  6
CONTINUOUS
 62
               3
  5
79B
 10
404.84261385494864
 20
-12.507197216858335
 30
0.0
  0
VERTEX
  8
0
  6
CONTINUOUS
 62
               3
  5
79C
 10
404.85409597098595
 20
-12.466174223774519
 30
0.0
  0
VERTEX
  8
0
  6
CONTINUOUS
 62
               3
  5
79D
 10
404.86514942883184
 20
-12.425055891476871
 30
0.0
  0
VERTEX
  8
0
  6
CONTINUOUS
 62
               3
  5
79E
 10
404.87577325237146
 20
-12.383845851065821
 30
0.0
  0
VERTEX
  8
0
  6
CONTINUOUS
 62
               3
  5
79F
 10
404.88596650343032
 20
-12.342547741740406
 30
0.0
  0
VERTEX
  8
0
  6
CONTINUOUS
 62
               3
  5
7A0
 10
404.8957282818572
 20
-12.301165210476903
 30
0.0
  0
VERTEX
  8
0
  6
CONTINUOUS
 62
               3
  5
7A1
 10
404.90505772560351
 20
-12.259701911706768
 30
0.0
  0
VERTEX
  8
0
  6
CONTINUOUS
 62
               3
  5
7A2
 10
404.91395401079961
 20
-12.218161506993919
 30
0.0
  0
VERTEX
  8
0
  6
CONTINUOUS
 62
               3
  5
7A3
 10
404.92241635182745
 20
-12.176547664711389
 30
0.0
  0
VERTEX
  8
0
  6
CONTINUOUS
 62
               3
  5
7A4
 10
404.93044400138984
 20
-12.134864059717374
 30
0.0
  0
VERTEX
  8
0
  6
CONTINUOUS
 62
               3
  5
7A5
 10
404.93803625057683
 20
-12.093114373030716
 30
0.0
  0
VERTEX
  8
0
  6
CONTINUOUS
 62
               3
  5
7A6
 10
404.94519242892773
 20
-12.051302291505834
 30
0.0
  0
VERTEX
  8
0
  6
CONTINUOUS
 62
               3
  5
7A7
 10
404.95191190449083
 20
-12.009431507507148
 30
0.0
  0
VERTEX
  8
0
  6
CONTINUOUS
 62
               3
  5
7A8
 10
404.95819408387899
 20
-11.967505718583007
 30
0.0
  0
VERTEX
  8
0
  6
CONTINUOUS
 62
               3
  5
7A9
 10
404.96403841232205
 20
-11.925528627139164
 30
0.0
  0
VERTEX
  8
0
  6
CONTINUOUS
 62
               3
  5
7AA
 10
404.96944437371576
 20
-11.883503940111822
 30
0.0
  0
SEQEND
  8
0
  6
CONTINUOUS
 62
               3
  5
7AB
  0
LINE
  8
0
  6
CONTINUOUS
 62
               3
  5
52E
 10
-574.99999999999955
 20
246.00000000000051
 30
0.0
 11
-425.00000000000023
 21
246.00000000000051
 31
0.0
  0
LINE
  8
0
  6
CONTINUOUS
 62
               3
  5
52F
 10
-588.49999999999977
 20
236.00000000000051
 30
0.0
 11
-588.49999999999977
 21
229.00000000000085
 31
0.0
  0
LINE
  8
0
  6
CONTINUOUS
 62
               3
  5
530
 10
-588.49999999999977
 20
236.00000000000051
 30
0.0
 11
-574.99999999999955
 21
246.00000000000051
 31
0.0
  0
LINE
  8
0
  6
CONTINUOUS
 62
               3
  5
531
 10
-411.5
 20
236.00000000000051
 30
0.0
 11
-411.5
 21
229.00000000000085
 31
0.0
  0
LINE
  8
0
  6
CONTINUOUS
 62
               3
  5
532
 10
-411.5
 20
236.00000000000051
 30
0.0
 11
-425.00000000000023
 21
246.00000000000051
 31
0.0
  0
LINE
  8
0
  6
CONTINUOUS
 62
               3
  5
533
 10
-588.49999999999977
 20
229.00000000000085
 30
0.0
 11
-582.00000000000023
 21
229.00000000000085
 31
0.0
  0
LINE
  8
0
  6
CONTINUOUS
 62
               3
  5
534
 10
-411.5
 20
229.00000000000085
 30
0.0
 11
-418.00000000000034
 21
229.00000000000085
 31
0.0
  0
LINE
  8
0
  6
CONTINUOUS
 62
               3
  5
535
 10
-75.0
 20
246.00000000000051
 30
0.0
 11
74.999999999999318
 21
246.00000000000051
 31
0.0
  0
LINE
  8
0
  6
CONTINUOUS
 62
               3
  5
536
 10
-88.500000000000227
 20
236.00000000000051
 30
0.0
 11
-88.500000000000227
 21
229.00000000000085
 31
0.0
  0
LINE
  8
0
  6
CONTINUOUS
 62
               3
  5
537
 10
-88.500000000000227
 20
236.00000000000051
 30
0.0
 11
-75.0
 21
246.00000000000051
 31
0.0
  0
LINE
  8
0
  6
CONTINUOUS
 62
               3
  5
538
 10
88.499999999999545
 20
236.00000000000051
 30
0.0
 11
88.499999999999545
 21
229.00000000000085
 31
0.0
  0
LINE
  8
0
  6
CONTINUOUS
 62
               3
  5
539
 10
88.499999999999545
 20
236.00000000000051
 30
0.0
 11
74.999999999999318
 21
246.00000000000051
 31
0.0
  0
LINE
  8
0
  6
CONTINUOUS
 62
               3
  5
53A
 10
-88.500000000000227
 20
229.00000000000085
 30
0.0
 11
-82.000000000000696
 21
229.00000000000085
 31
0.0
  0
LINE
  8
0
  6
CONTINUOUS
 62
               3
  5
53B
 10
88.499999999999545
 20
229.00000000000085
 30
0.0
 11
81.999999999999218
 21
229.00000000000085
 31
0.0
  0
LINE
  8
0
  6
CONTINUOUS
 62
               3
  5
53C
 10
425.00000000000091
 20
246.00000000000051
 30
0.0
 11
575.00000000000023
 21
246.00000000000051
 31
0.0
  0
LINE
  8
0
  6
CONTINUOUS
 62
               3
  5
53D
 10
411.50000000000068
 20
236.00000000000051
 30
0.0
 11
411.50000000000068
 21
229.00000000000085
 31
0.0
  0
LINE
  8
0
  6
CONTINUOUS
 62
               3
  5
53E
 10
411.50000000000068
 20
236.00000000000051
 30
0.0
 11
425.00000000000091
 21
246.00000000000051
 31
0.0
  0
LINE
  8
0
  6
CONTINUOUS
 62
               3
  5
53F
 10
588.50000000000045
 20
236.00000000000051
 30
0.0
 11
588.50000000000045
 21
229.00000000000085
 31
0.0
  0
LINE
  8
0
  6
CONTINUOUS
 62
               3
  5
540
 10
588.50000000000045
 20
236.00000000000051
 30
0.0
 11
575.00000000000023
 21
246.00000000000051
 31
0.0
  0
LINE
  8
0
  6
CONTINUOUS
 62
               3
  5
541
 10
411.50000000000068
 20
229.00000000000085
 30
0.0
 11
417.99999999999943
 21
229.00000000000085
 31
0.0
  0
LINE
  8
0
  6
CONTINUOUS
 62
               3
  5
542
 10
588.50000000000045
 20
229.00000000000085
 30
0.0
 11
581.99999999999932
 21
229.00000000000085
 31
0.0
  0
ARC
  8
0
  6
CONTINUOUS
 62
               3
  5
543
 10
-582.00000000000023
 20
224.00000000000085
 30
0.0
 40
5.0
 50
0.0
 51
89.999999999999801
  0
ARC
  8
0
  6
CONTINUOUS
 62
               3
  5
544
 10
-418.00000000000034
 20
224.00000000000085
 30
0.0
 40
5.0
 50
89.999999999999801
 51
179.9999999999996
  0
ARC
  8
0
  6
CONTINUOUS
 62
               3
  5
545
 10
-82.000000000000696
 20
224.00000000000085
 30
0.0
 40
5.0
 50
0.0
 51
89.999999999999801
  0
ARC
  8
0
  6
CONTINUOUS
 62
               3
  5
546
 10
81.999999999999218
 20
224.00000000000085
 30
0.0
 40
5.0
 50
89.999999999999801
 51
179.9999999999996
  0
ARC
  8
0
  6
CONTINUOUS
 62
               3
  5
547
 10
417.99999999999943
 20
224.00000000000085
 30
0.0
 40
5.0
 50
0.0
 51
89.999999999999801
  0
ARC
  8
0
  6
CONTINUOUS
 62
               3
  5
548
 10
581.99999999999932
 20
224.00000000000085
 30
0.0
 40
5.0
 50
89.999999999999801
 51
179.9999999999996
  0
LINE
  8
0
  6
CONTINUOUS
 62
               3
  5
549
 10
-88.895147757919688
 20
619.49999999999977
 30
0.0
 11
-85.20032190245206
 21
619.49999999999977
 31
0.0
  0
LINE
  8
0
  6
CONTINUOUS
 62
               3
  5
54A
 10
-74.270810292854549
 20
680.22822024331185
 30
0.0
 11
-12.239976031155265
 21
688.74351385116393
 31
0.0
  0
LINE
  8
0
  6
CONTINUOUS
 62
               3
  5
54B
 10
12.239976031154697
 20
688.74351385116393
 30
0.0
 11
74.270810292853582
 21
680.22822024331185
 31
0.0
  0
ARC
  8
0
  6
CONTINUOUS
 62
               3
  5
54C
 10
-0.0000000000002842
 20
599.57971521765603
 30
0.0
 40
90.0
 50
82.183566393529617
 51
97.816433606469985
  0
LINE
  8
0
  6
CONTINUOUS
 62
               3
  5
54D
 10
97.743513851163584
 20
603.23997603115504
 30
0.0
 11
89.228220243311227
 21
665.27081029285432
 31
0.0
  0
ARC
  8
0
  6
CONTINUOUS
 62
               3
  5
54E
 10
8.5797152176556324
 20
591.0
 30
0.0
 40
90.0
 50
352.18356639352902
 51
367.81643360646939
  0
LINE
  8
0
  6
CONTINUOUS
 62
               3
  5
54F
 10
89.228220243311227
 20
516.72918970714568
 30
0.0
 11
97.743513851163584
 21
578.76002396884496
 31
0.0
  0
LINE
  8
0
  6
CONTINUOUS
 62
               3
  5
550
 10
-74.270810292854435
 20
501.77177975668792
 30
0.0
 11
-12.239976031155265
 21
493.25648614883585
 31
0.0
  0
ARC
  8
0
  6
CONTINUOUS
 62
               3
  5
551
 10
-0.0000000000002842
 20
582.42028478234397
 30
0.0
 40
90.0
 50
262.18356639352925
 51
277.81643360646956
  0
ARC
  8
0
  6
CONTINUOUS
 62
               3
  5
552
 10
-71.890814953463405
 20
662.89081495346318
 30
0.0
 40
17.5
 50
97.816433606469786
 51
172.18356639352822
  0
ARC
  8
0
  6
CONTINUOUS
 62
               3
  5
553
 10
71.890814953462439
 20
662.8908149534634
 30
0.0
 40
17.5
 50
7.8164336064694764
 51
82.183566393529688
  0
ARC
  8
0
  6
CONTINUOUS
 62
               3
  5
554
 10
71.890814953462495
 20
519.10918504653682
 30
0.0
 40
17.5
 50
277.8164336064695
 51
352.18356639352879
  0
ARC
  8
0
  6
CONTINUOUS
 62
               3
  5
555
 10
-71.890814953463291
 20
519.1091850465366
 30
0.0
 40
17.5
 50
187.81643360647089
 51
262.18356639352965
  0
LINE
  8
0
  6
CONTINUOUS
 62
               3
  5
556
 10
-97.743513851164337
 20
603.23997603115515
 30
0.0
 11
-89.228220243311924
 21
665.27081029285443
 31
0.0
  0
LINE
  8
0
  6
CONTINUOUS
 62
               3
  5
557
 10
-89.228220243312052
 20
516.72918970714579
 30
0.0
 11
-97.743513851164366
 21
578.76002396884508
 31
0.0
  0
ARC
  8
0
  6
CONTINUOUS
 62
               3
  5
558
 10
-8.5797152176564033
 20
591.0
 30
0.0
 40
90.0
 50
172.18356639352936
 51
187.81643360646973
  0
LINE
  8
0
  6
CONTINUOUS
 62
               3
  5
559
 10
74.270810292853582
 20
501.77177975668781
 30
0.0
 11
12.239976031154391
 21
493.25648614883585
 31
0.0
  0
ARC
  8
0
  6
CONTINUOUS
 62
               3
  5
55A
 10
-47.60486395799127
 20
519.37753894523598
 30
0.0
 40
2.5
 50
56.38944847047263
 51
87.999999999999659
  0
ARC
  8
0
  6
CONTINUOUS
 62
               3
  5
55B
 10
-0.0000000000004441
 20
591.0
 30
0.0
 40
88.5
 50
76.938975885066696
 51
103.06102411465771
  0
ARC
  8
0
  6
CONTINUOUS
 62
               3
  5
55C
 10
-35.000000000000668
 20
673.91561975888487
 30
0.0
 40
15.0
 50
292.88538047615845
 51
359.9999999999992
  0
ARC
  8
0
  6
CONTINUOUS
 62
               3
  5
55D
 10
34.999999999999616
 20
673.91561975888499
 30
0.0
 40
15.0
 50
179.9999999999996
 51
247.11461952384028
  0
LINE
  8
0
  6
CONTINUOUS
 62
               3
  5
55E
 10
-20.000000000000444
 20
672.0694147012299
 30
0.0
 11
-20.000000000000444
 21
677.21049820062467
 31
0.0
  0
LINE
  8
0
  6
CONTINUOUS
 62
               3
  5
55F
 10
19.999999999999556
 20
673.91561975888499
 30
0.0
 11
19.999999999999556
 21
677.21049820062467
 31
0.0
  0
CIRCLE
  8
0
  6
CONTINUOUS
 62
               3
  5
560
 10
-0.0000000000004441
 20
591.0
 30
0.0
 40
75.0
  0
ARC
  8
0
  6
CONTINUOUS
 62
               3
  5
561
 10
-0.0000000000004441
 20
591.0
 30
0.0
 40
80.500000000000043
 50
105.06541275409911
 51
165.61435521395379
  0
ARC
  8
0
  6
CONTINUOUS
 62
               3
  5
562
 10
-0.0000000000004441
 20
591.0
 30
0.0
 40
80.500000000000043
 50
195.06541275409879
 51
254.93458724590025
  0
ARC
  8
0
  6
CONTINUOUS
 62
               3
  5
563
 10
-0.0000000000004441
 20
591.0
 30
0.0
 40
88.5
 50
166.9389758851697
 51
193.06102411476073
  0
ARC
  8
0
  6
CONTINUOUS
 62
               3
  5
564
 10
-82.915619758885427
 20
626.0
 30
0.0
 40
15.0
 50
269.99999999999937
 51
337.11461952384042
  0
LINE
  8
0
  6
CONTINUOUS
 62
               3
  5
565
 10
-86.21049820062602
 20
571.0
 30
0.0
 11
-82.915619758885427
 21
571.0
 31
0.0
  0
LINE
  8
0
  6
CONTINUOUS
 62
               3
  5
566
 10
-86.21049820062602
 20
611.0
 30
0.0
 11
-81.069414701230343
 21
611.0
 31
0.0
  0
ARC
  8
0
  6
CONTINUOUS
 62
               3
  5
567
 10
-82.915619758885427
 20
556.0
 30
0.0
 40
15.0
 50
22.885380476158275
 51
89.999999999999801
  0
ARC
  8
0
  6
CONTINUOUS
 62
               3
  5
568
 10
-0.0000000000004441
 20
590.99999999999989
 30
0.0
 40
88.5
 50
256.93897588513505
 51
283.06102411472608
  0
ARC
  8
0
  6
CONTINUOUS
 62
               3
  5
569
 10
34.999999999999503
 20
508.08438024111501
 30
0.0
 40
15.0
 50
112.88538047615847
 51
179.9999999999996
  0
ARC
  8
0
  6
CONTINUOUS
 62
               3
  5
56A
 10
-35.000000000000441
 20
508.08438024111501
 30
0.0
 40
15.0
 50
359.9999999999992
 51
427.11461952384082
  0
LINE
  8
0
  6
CONTINUOUS
 62
               3
  5
56B
 10
19.999999999999556
 20
504.78950179937465
 30
0.0
 11
19.999999999999556
 21
508.08438024111501
 31
0.0
  0
LINE
  8
0
  6
CONTINUOUS
 62
               3
  5
56C
 10
-20.000000000000444
 20
504.78950179937465
 30
0.0
 11
-20.000000000000444
 21
508.08438024111501
 31
0.0
  0
ARC
  8
0
  6
CONTINUOUS
 62
               3
  5
56D
 10
-0.0000000000004441
 20
591.0
 30
0.0
 40
88.5
 50
346.93897588510055
 51
373.06102411469152
  0
LINE
  8
0
  6
CONTINUOUS
 62
               3
  5
56E
 10
82.91561975888456
 20
571.0
 30
0.0
 11
86.210498200624471
 21
571.0
 31
0.0
  0
LINE
  8
0
  6
CONTINUOUS
 62
               3
  5
56F
 10
82.91561975888456
 20
611.0
 30
0.0
 11
86.210498200624471
 21
611.0
 31
0.0
  0
ARC
  8
0
  6
CONTINUOUS
 62
               3
  5
570
 10
82.91561975888456
 20
626.0
 30
0.0
 40
15.0
 50
202.88538047615819
 51
269.99999999999937
  0
ARC
  8
0
  6
CONTINUOUS
 62
               3
  5
571
 10
82.91561975888456
 20
556.0
 30
0.0
 40
15.0
 50
89.999999999999801
 51
157.11461952384118
  0
ARC
  8
0
  6
CONTINUOUS
 62
               3
  5
572
 10
-0.0000000000004441
 20
591.0
 30
0.0
 40
80.500000000000043
 50
15.065412754099194
 51
74.934587245900573
  0
ARC
  8
0
  6
CONTINUOUS
 62
               3
  5
573
 10
-0.0000000000004441
 20
591.0
 30
0.0
 40
80.500000000000043
 50
285.06541275409853
 51
344.93458724589999
  0
ARC
  8
0
  6
CONTINUOUS
 62
               3
  5
574
 10
-0.0000000000003446
 20
591.0
 30
0.0
 40
83.499999999999901
 50
236.38944847047227
 51
256.14173134482377
  0
ARC
  8
0
  6
CONTINUOUS
 62
               3
  5
575
 10
-48.393892694184842
 20
665.0964314248921
 30
0.0
 40
5.0
 50
271.99999999999955
 51
303.14937354333676
  0
ARC
  8
0
  6
CONTINUOUS
 62
               3
  5
576
 10
-0.0000000000003446
 20
591.0
 30
0.0
 40
83.499999999999901
 50
103.85826865517538
 51
166.14173134482405
  0
ARC
  8
0
  6
CONTINUOUS
 62
               3
  5
577
 10
-0.0000000000003446
 20
591.0
 30
0.0
 40
83.499999999999901
 50
103.06102411480029
 51
166.14173134482405
  0
ARC
  8
0
  6
CONTINUOUS
 62
               3
  5
578
 10
-0.0000000000003446
 20
591.0
 30
0.0
 40
83.499999999999901
 50
193.85826865517515
 51
256.14173134482377
  0
ARC
  8
0
  6
CONTINUOUS
 62
               3
  5
579
 10
-0.0000000000003446
 20
591.0
 30
0.0
 40
83.499999999999901
 50
193.85826865517515
 51
236.38944847047227
  0
ARC
  8
0
  6
CONTINUOUS
 62
               3
  5
57A
 10
-74.096431424892174
 20
542.60610730580493
 30
0.0
 40
5.0
 50
2.0000000000036473
 51
33.149373543343351
  0
ARC
  8
0
  6
CONTINUOUS
 62
               3
  5
57B
 10
74.096431424891648
 20
542.6061073058172
 30
0.0
 40
5.0
 50
146.85062645666321
 51
178.00000000000117
  0
ARC
  8
0
  6
CONTINUOUS
 62
               3
  5
57C
 10
-0.0000000000003446
 20
591.0
 30
0.0
 40
83.499999999999901
 50
13.85826865517557
 51
76.141731344824237
  0
ARC
  8
0
  6
CONTINUOUS
 62
               3
  5
57D
 10
-0.0000000000003446
 20
591.0
 30
0.0
 40
83.499999999999901
 50
283.06102411479992
 51
346.1417313448236
  0
CIRCLE
  8
0
  6
CONTINUOUS
 62
               3
  5
57E
 10
609.28652321630761
 20
-1112.8568645130492
 30
0.0
 40
75.0
  0
CIRCLE
  8
0
  6
CONTINUOUS
 62
               3
  5
57F
 10
609.28652321630761
 20
-1112.8568645130492
 30
0.0
 40
52.5
  0
LINE
  8
0
  6
CONTINUOUS
 62
               3
  5
580
 10
523.07602501568226
 20
-1092.8568645130492
 30
0.0
 11
537.00236174230213
 21
-1092.8568645130492
 31
0.0
  0
LINE
  8
0
  6
CONTINUOUS
 62
               3
  5
581
 10
537.00236174230213
 20
-1132.8568645130492
 30
0.0
 11
523.07602501568226
 21
-1132.8568645130492
 31
0.0
  0
ARC
  8
0
  6
CONTINUOUS
 62
               3
  5
582
 10
609.28652321630761
 20
-1112.8568645130492
 30
0.0
 40
88.5
 50
166.93897588507147
 51
193.06102411465253
  0
LINE
  8
0
  6
CONTINUOUS
 62
               3
  5
583
 10
589.28652321630761
 20
-1199.0673627136741
 30
0.0
 11
589.28652321630761
 21
-1185.1410259870543
 31
0.0
  0
LINE
  8
0
  6
CONTINUOUS
 62
               3
  5
584
 10
629.28652321630761
 20
-1185.1410259870543
 30
0.0
 11
629.28652321630761
 21
-1199.0673627136741
 31
0.0
  0
ARC
  8
0
  6
CONTINUOUS
 62
               3
  5
585
 10
609.28652321630761
 20
-1112.8568645130492
 30
0.0
 40
88.5
 50
256.93897588500261
 51
283.06102411458357
  0
LINE
  8
0
  6
CONTINUOUS
 62
               3
  5
586
 10
695.49702141693228
 20
-1132.8568645130492
 30
0.0
 11
681.57068469031174
 21
-1132.8568645130492
 31
0.0
  0
LINE
  8
0
  6
CONTINUOUS
 62
               3
  5
587
 10
681.57068469031174
 20
-1092.8568645130492
 30
0.0
 11
695.49702141693228
 21
-1092.8568645130492
 31
0.0
  0
ARC
  8
0
  6
CONTINUOUS
 62
               3
  5
588
 10
609.28652321630761
 20
-1112.8568645130492
 30
0.0
 40
88.5
 50
346.93897588493354
 51
373.06102411451457
  0
LINE
  8
0
  6
CONTINUOUS
 62
               3
  5
589
 10
629.28652321630761
 20
-1026.6463663124237
 30
0.0
 11
629.28652321630761
 21
-1040.5727030390442
 31
0.0
  0
LINE
  8
0
  6
CONTINUOUS
 62
               3
  5
58A
 10
589.28652321630761
 20
-1040.5727030390442
 30
0.0
 11
589.28652321630761
 21
-1026.6463663124237
 31
0.0
  0
ARC
  8
0
  6
CONTINUOUS
 62
               3
  5
58B
 10
609.28652321630761
 20
-1112.8568645130492
 30
0.0
 40
88.5
 50
76.938975885140493
 51
103.06102411472153
  0
LINE
  8
0
  6
CONTINUOUS
 62
               3
  5
58C
 10
561.61839969544644
 20
-1134.8568645130497
 30
0.0
 11
656.95464673716742
 21
-1134.8568645130497
 31
0.0
  0
ARC
  8
0
  6
CONTINUOUS
 62
               3
  5
58D
 10
621.79013486568874
 20
-1104.1504668854302
 30
0.0
 40
54.763804151667173
 50
141.3859176367296
 51
145.15009542084252
  0
ARC
  8
0
  6
CONTINUOUS
 62
               3
  5
58E
 10
609.28652321630761
 20
-1112.8568645130492
 30
0.0
 40
51.5
 50
334.7109884732011
 51
410.95932736332554
  0
ARC
  8
0
  6
CONTINUOUS
 62
               3
  5
58F
 10
609.28652321630761
 20
-1112.8568645130492
 30
0.0
 40
51.5
 50
129.04067263626098
 51
205.289011526385
  0
ARC
  8
0
  6
CONTINUOUS
 62
               3
  5
590
 10
609.28652321630761
 20
-1112.8568645130492
 30
0.0
 40
77.5
 50
104.95524831656299
 51
128.57288309093474
  0
ARC
  8
0
  6
CONTINUOUS
 62
               3
  5
591
 10
609.28652321630761
 20
-1112.8568645130492
 30
0.0
 40
77.5
 50
14.95524831663182
 51
75.044751683299182
  0
ARC
  8
0
  6
CONTINUOUS
 62
               3
  5
592
 10
609.28652321630761
 20
-1112.8568645130492
 30
0.0
 40
77.5
 50
321.42711690871977
 51
345.04475168309216
  0
LINE
  8
0
  6
CONTINUOUS
 62
               3
  5
593
 10
469.28652321630744
 20
-1167.8568645130492
 30
0.0
 11
469.95807934227167
 21
-1167.8568645130492
 31
0.0
  0
LINE
  8
0
  6
CONTINUOUS
 62
               3
  5
594
 10
472.45807934227213
 20
-1170.3568645130492
 30
0.0
 11
469.95807934227167
 21
-1167.8568645130492
 31
0.0
  0
LINE
  8
0
  6
CONTINUOUS
 62
               3
  5
595
 10
469.28652321630744
 20
-1057.8568645130492
 30
0.0
 11
469.95807934227167
 21
-1057.8568645130492
 31
0.0
  0
LINE
  8
0
  6
CONTINUOUS
 62
               3
  5
596
 10
472.45807934227167
 20
-1055.3568645130492
 30
0.0
 11
469.95807934227167
 21
-1057.8568645130492
 31
0.0
  0
LINE
  8
0
  6
CONTINUOUS
 62
               3
  5
597
 10
469.95807934227167
 20
-1057.8568645130492
 30
0.0
 11
469.95807934227167
 21
-1167.8568645130492
 31
0.0
  0
LINE
  8
0
  6
CONTINUOUS
 62
               3
  5
598
 10
563.79618742992966
 20
-1052.1672674947076
 30
0.0
 11
472.45807934227167
 21
-1055.3568645130492
 31
0.0
  0
LINE
  8
0
  6
CONTINUOUS
 62
               3
  5
599
 10
544.45005149975646
 20
-1172.8708795780169
 30
0.0
 11
472.45807934227224
 21
-1170.3568645130492
 31
0.0
  0
LINE
  8
0
  6
CONTINUOUS
 62
               3
  5
59A
 10
464.28652321630744
 20
-1058.0284206390133
 30
0.0
 11
464.28652321630744
 21
-1167.9568645130491
 31
0.0
  0
LINE
  8
0
  6
CONTINUOUS
 62
               3
  5
59B
 10
469.28652321630744
 20
-1170.4568645130491
 30
0.0
 11
469.28652321630744
 21
-1055.2568645130491
 31
0.0
  0
LINE
  8
0
  6
CONTINUOUS
 62
               3
  5
59C
 10
469.28652321630744
 20
-1055.2568645130491
 30
0.0
 11
466.78652321630744
 21
-1055.2568645130491
 31
0.0
  0
LINE
  8
0
  6
CONTINUOUS
 62
               3
  5
59D
 10
469.28652321630744
 20
-1170.4568645130491
 30
0.0
 11
466.78652321630744
 21
-1170.4568645130491
 31
0.0
  0
ARC
  8
0
  6
CONTINUOUS
 62
               3
  5
59E
 10
466.78652321630744
 20
-1167.9568645130491
 30
0.0
 40
2.5
 50
179.9999999998615
 51
269.99999999979229
  0
ARC
  8
0
  6
CONTINUOUS
 62
               3
  5
59F
 10
466.78652321630744
 20
-1057.7568645130491
 30
0.0
 40
2.5
 50
89.999999999932058
 51
179.9999999998615
  0
LINE
  8
0
  6
CONTINUOUS
 62
               3
  5
5A0
 10
576.8481200496899
 20
-1072.8568645130495
 30
0.0
 11
609.28652321630761
 21
-1072.8568645130495
 31
0.0
  0
LINE
  8
0
  6
CONTINUOUS
 62
               3
  5
5A1
 10
609.28652321630761
 20
-1072.8568645130495
 30
0.0
 11
643.2901994881463
 21
-1072.8568645130495
 31
0.0
  0
LINE
  8
0
  6
CONTINUOUS
 62
               3
  5
5A2
 10
472.45807934227213
 20
-1170.3568645130492
 30
0.0
 11
472.45807934227167
 21
-1055.3568645130492
 31
0.0
  0
ARC
  8
0
  6
CONTINUOUS
 62
               3
  5
5A3
 10
563.62168994641706
 20
-1047.170313359612
 30
0.0
 40
5.0
 50
271.9999999997919
 51
304.80675787019305
  0
LINE
  8
0
  6
CONTINUOUS
 62
               3
  5
5A4
 10
664.28652321630739
 20
-1252.8568645130492
 30
0.0
 11
664.28652321630739
 21
-1252.1853083870849
 31
0.0
  0
LINE
  8
0
  6
CONTINUOUS
 62
               3
  5
5A5
 10
666.78652321630739
 20
-1249.6853083870844
 30
0.0
 11
664.28652321630739
 21
-1252.1853083870849
 31
0.0
  0
LINE
  8
0
  6
CONTINUOUS
 62
               3
  5
5A6
 10
554.28652321630739
 20
-1252.8568645130492
 30
0.0
 11
554.28652321630739
 21
-1252.1853083870849
 31
0.0
  0
LINE
  8
0
  6
CONTINUOUS
 62
               3
  5
5A7
 10
551.78652321630739
 20
-1249.6853083870849
 30
0.0
 11
554.28652321630739
 21
-1252.1853083870849
 31
0.0
  0
LINE
  8
0
  6
CONTINUOUS
 62
               3
  5
5A8
 10
554.28652321630739
 20
-1252.1853083870849
 30
0.0
 11
664.28652321630739
 21
-1252.1853083870849
 31
0.0
  0
LINE
  8
0
  6
CONTINUOUS
 62
               3
  5
5A9
 10
554.4580793422715
 20
-1257.8568645130492
 30
0.0
 11
664.38652321630752
 21
-1257.8568645130492
 31
0.0
  0
LINE
  8
0
  6
CONTINUOUS
 62
               3
  5
5AA
 10
666.88652321630752
 20
-1252.8568645130492
 30
0.0
 11
551.68652321630748
 21
-1252.8568645130492
 31
0.0
  0
LINE
  8
0
  6
CONTINUOUS
 62
               3
  5
5AB
 10
551.68652321630748
 20
-1252.8568645130492
 30
0.0
 11
551.68652321630748
 21
-1255.3568645130492
 31
0.0
  0
LINE
  8
0
  6
CONTINUOUS
 62
               3
  5
5AC
 10
666.88652321630752
 20
-1252.8568645130492
 30
0.0
 11
666.88652321630752
 21
-1255.3568645130492
 31
0.0
  0
ARC
  8
0
  6
CONTINUOUS
 62
               3
  5
5AD
 10
664.38652321630752
 20
-1255.3568645130492
 30
0.0
 40
2.5
 50
269.99999999979354
 51
359.999999999723
  0
ARC
  8
0
  6
CONTINUOUS
 62
               3
  5
5AE
 10
554.18652321630748
 20
-1255.3568645130492
 30
0.0
 40
2.5
 50
179.99999999985891
 51
269.99999999979354
  0
LINE
  8
0
  6
CONTINUOUS
 62
               3
  5
5AF
 10
666.78652321630739
 20
-1249.6853083870844
 30
0.0
 11
551.78652321630739
 21
-1249.6853083870849
 31
0.0
  0
LINE
  8
0
  6
CONTINUOUS
 62
               3
  5
5B0
 10
669.97612023464853
 20
-1158.3472002994274
 30
0.0
 11
666.78652321630739
 21
-1249.6853083870844
 31
0.0
  0
ARC
  8
0
  6
CONTINUOUS
 62
               3
  5
5B1
 10
674.97307436974415
 20
-1158.5216977829402
 30
0.0
 40
5.0
 50
145.19324212946151
 51
177.99999999986429
  0
LINE
  8
0
  6
CONTINUOUS
 62
               3
  5
5B2
 10
549.27250815133948
 20
-1177.6933362296002
 30
0.0
 11
551.78652321630739
 21
-1249.6853083870849
 31
0.0
  0
ARC
  8
0
  6
CONTINUOUS
 62
               3
  5
5B3
 10
544.27555401624409
 20
-1177.8678337131121
 30
0.0
 40
5.0
 50
1.9999999999958187
 51
87.999999999932285
  0
LINE
  8
0
  6
CONTINUOUS
 62
               3
  5
5B4
 10
534.28652321630761
 20
-1421.3562982616334
 30
0.0
 11
684.28652321630761
 21
-1421.3562982616334
 31
0.0
  0
LINE
  8
0
  6
CONTINUOUS
 62
               3
  5
5B5
 10
520.78652321630739
 20
-1431.3562982616334
 30
0.0
 11
520.78652321630739
 21
-1438.3562982616329
 31
0.0
  0
LINE
  8
0
  6
CONTINUOUS
 62
               3
  5
5B6
 10
520.78652321630739
 20
-1431.3562982616334
 30
0.0
 11
534.28652321630761
 21
-1421.3562982616334
 31
0.0
  0
ARC
  8
0
  6
CONTINUOUS
 62
               3
  5
5B7
 10
532.28652321630761
 20
-1442.9388739565886
 30
0.0
 40
4.9999999999999991
 50
0.0
 51
66.421821521747205
  0
LINE
  8
0
  6
CONTINUOUS
 62
               3
  5
5B8
 10
520.78652321630739
 20
-1438.3562982616329
 30
0.0
 11
697.78652321630716
 21
-1438.3562982616329
 31
0.0
  0
ARC
  8
0
  6
CONTINUOUS
 62
               3
  5
5B9
 10
554.28652321630761
 20
-1528.3562982616334
 30
0.0
 40
19.999999999999996
 50
148.2116693828344
 51
167.26981986155914
  0
LINE
  8
0
  6
CONTINUOUS
 62
               3
  5
5BA
 10
537.28652321630761
 20
-1442.9388739565886
 30
0.0
 11
537.28652321630761
 21
-1517.8206445087806
 31
0.0
  0
LINE
  8
0
  6
CONTINUOUS
 62
               3
  5
5BB
 10
681.28652321630739
 20
-1512.8206445087801
 30
0.0
 11
681.28652321630739
 21
-1442.9388739565886
 31
0.0
  0
LINE
  8
0
  6
CONTINUOUS
 62
               3
  5
5BC
 10
537.28652321630761
 20
-1517.8206445087806
 30
0.0
 11
680.78652321630784
 21
-1517.8206445087806
 31
0.0
  0
LINE
  8
0
  6
CONTINUOUS
 62
               3
  5
5BD
 10
589.28652321630761
 20
-1438.3562982616329
 30
0.0
 11
589.28652321630761
 21
-1421.3562982616334
 31
0.0
  0
LINE
  8
0
  6
CONTINUOUS
 62
               3
  5
5BE
 10
629.28652321630761
 20
-1421.3562982616334
 30
0.0
 11
629.28652321630761
 21
-1438.3562982616329
 31
0.0
  0
LINE
  8
0
  6
CONTINUOUS
 62
               3
  5
5BF
 10
589.28652321630761
 20
-1431.3562982616334
 30
0.0
 11
629.28652321630761
 21
-1431.3562982616334
 31
0.0
  0
LINE
  8
0
  6
CONTINUOUS
 62
               3
  5
5C0
 10
537.00236174230213
 20
-1421.3562982616334
 30
0.0
 11
537.00236174230213
 21
-1438.3562982616329
 31
0.0
  0
LINE
  8
0
  6
CONTINUOUS
 62
               3
  5
5C1
 10
523.07602501568226
 20
-1431.3562982616334
 30
0.0
 11
523.07602501568226
 21
-1438.3562982616329
 31
0.0
  0
LINE
  8
0
  6
CONTINUOUS
 62
               3
  5
5C2
 10
520.78652321630739
 20
-1431.3562982616334
 30
0.0
 11
523.07602501568226
 21
-1431.3562982616334
 31
0.0
  0
LINE
  8
0
  6
CONTINUOUS
 62
               3
  5
5C3
 10
523.07602501568226
 20
-1431.3562982616334
 30
0.0
 11
537.00236174230213
 21
-1421.3562982616334
 31
0.0
  0
LINE
  8
0
  6
CONTINUOUS
 62
               3
  5
5C4
 10
697.78652321630716
 20
-1431.3562982616334
 30
0.0
 11
697.78652321630716
 21
-1438.3562982616329
 31
0.0
  0
LINE
  8
0
  6
CONTINUOUS
 62
               3
  5
5C5
 10
697.78652321630716
 20
-1431.3562982616334
 30
0.0
 11
684.28652321630761
 21
-1421.3562982616334
 31
0.0
  0
ARC
  8
0
  6
CONTINUOUS
 62
               3
  5
5C6
 10
686.28652321630739
 20
-1442.9388739565886
 30
0.0
 40
4.9999999999999991
 50
113.5781784781135
 51
179.9999999998615
  0
LINE
  8
0
  6
CONTINUOUS
 62
               3
  5
5C7
 10
681.57068469031174
 20
-1421.3562982616334
 30
0.0
 11
681.57068469031174
 21
-1438.3562982616329
 31
0.0
  0
LINE
  8
0
  6
CONTINUOUS
 62
               3
  5
5C8
 10
695.49702141693274
 20
-1431.3562982616334
 30
0.0
 11
695.49702141693274
 21
-1438.3562982616329
 31
0.0
  0
LINE
  8
0
  6
CONTINUOUS
 62
               3
  5
5C9
 10
697.78652321630716
 20
-1431.3562982616334
 30
0.0
 11
695.49702141693274
 21
-1431.3562982616334
 31
0.0
  0
LINE
  8
0
  6
CONTINUOUS
 62
               3
  5
5CA
 10
695.49702141693274
 20
-1431.3562982616334
 30
0.0
 11
681.57068469031174
 21
-1421.3562982616334
 31
0.0
  0
ARC
  8
0
  6
CONTINUOUS
 62
               3
  5
5CB
 10
544.28652321630761
 20
-1649.8562982616334
 30
0.0
 40
2.4999999999999996
 50
89.999999999929457
 51
269.99999999979354
  0
ARC
  8
0
  6
CONTINUOUS
 62
               3
  5
5CC
 10
684.28652321630761
 20
-1649.8562982616334
 30
0.0
 40
2.4999999999999996
 50
269.99999999979354
 51
449.99999999965507
  0
LINE
  8
0
  6
CONTINUOUS
 62
               3
  5
5CD
 10
469.28652321630744
 20
-1642.3562982616334
 30
0.0
 11
469.95807934227179
 21
-1642.3562982616334
 31
0.0
  0
LINE
  8
0
  6
CONTINUOUS
 62
               3
  5
5CE
 10
472.4580793422719
 20
-1644.8562982616329
 30
0.0
 11
469.95807934227179
 21
-1642.3562982616334
 31
0.0
  0
LINE
  8
0
  6
CONTINUOUS
 62
               3
  5
5CF
 10
472.4580793422727
 20
-1644.8562982616334
 30
0.0
 11
514.6231895985502
 21
-1646.3287363574875
 31
0.0
  0
LINE
  8
0
  6
CONTINUOUS
 62
               3
  5
5D0
 10
532.82205712224004
 20
-1662.6279876879196
 30
0.0
 11
517.98422602097025
 21
-1647.7901565866503
 31
0.0
  0
ARC
  8
0
  6
CONTINUOUS
 62
               3
  5
5D1
 10
529.28652321630761
 20
-1666.1635215938525
 30
0.0
 40
4.9999999999999991
 50
0.0
 51
44.999999999964892
  0
LINE
  8
0
  6
CONTINUOUS
 62
               3
  5
5D2
 10
469.28652321630744
 20
-1532.3562982616334
 30
0.0
 11
469.95807934227179
 21
-1532.3562982616334
 31
0.0
  0
LINE
  8
0
  6
CONTINUOUS
 62
               3
  5
5D3
 10
472.4580793422719
 20
-1529.8562982616334
 30
0.0
 11
469.95807934227179
 21
-1532.3562982616334
 31
0.0
  0
LINE
  8
0
  6
CONTINUOUS
 62
               3
  5
5D4
 10
472.45807934227179
 20
-1529.8562982616334
 30
0.0
 11
530.07555554444616
 21
-1527.8442516564812
 31
0.0
  0
LINE
  8
0
  6
CONTINUOUS
 62
               3
  5
5D5
 10
469.95807934227179
 20
-1532.3562982616334
 30
0.0
 11
469.95807934227179
 21
-1642.3562982616334
 31
0.0
  0
LINE
  8
0
  6
CONTINUOUS
 62
               3
  5
5D6
 10
469.28652321630744
 20
-1644.9562982616333
 30
0.0
 11
469.28652321630744
 21
-1529.7562982616334
 31
0.0
  0
LINE
  8
0
  6
CONTINUOUS
 62
               3
  5
5D7
 10
469.28652321630744
 20
-1529.7562982616334
 30
0.0
 11
466.78652321630744
 21
-1529.7562982616334
 31
0.0
  0
ARC
  8
0
  6
CONTINUOUS
 62
               3
  5
5D8
 10
466.78652321630744
 20
-1532.2562982616334
 30
0.0
 40
2.5
 50
89.999999999932058
 51
179.99999999985891
  0
LINE
  8
0
  6
CONTINUOUS
 62
               3
  5
5D9
 10
464.28652321630744
 20
-1532.2562982616334
 30
0.0
 11
464.28652321630744
 21
-1642.4562982616333
 31
0.0
  0
LINE
  8
0
  6
CONTINUOUS
 62
               3
  5
5DA
 10
469.28652321630744
 20
-1644.9562982616333
 30
0.0
 11
466.78652321630744
 21
-1644.9562982616333
 31
0.0
  0
ARC
  8
0
  6
CONTINUOUS
 62
               3
  5
5DB
 10
466.78652321630744
 20
-1642.4562982616333
 30
0.0
 40
2.5
 50
179.99999999985891
 51
269.99999999979229
  0
LINE
  8
0
  6
CONTINUOUS
 62
               3
  5
5DC
 10
472.4580793422719
 20
-1529.8562982616334
 30
0.0
 11
472.4580793422727
 21
-1644.8562982616334
 31
0.0
  0
ARC
  8
0
  6
CONTINUOUS
 62
               3
  5
5DD
 10
514.4486921150376
 20
-1651.3256904925831
 30
0.0
 40
5.0
 50
44.999999999968587
 51
87.999999999932243
  0
ARC
  8
0
  6
CONTINUOUS
 62
               3
  5
5DE
 10
529.90105806093379
 20
-1522.8472975213856
 30
0.0
 40
5.0
 50
271.9999999997919
 51
347.26981986141988
  0
CIRCLE
  8
0
  6
CONTINUOUS
 62
               3
  5
5DF
 10
609.28652321630761
 20
-1587.3562982616334
 30
0.0
 40
48.5
  0
CIRCLE
  8
0
  6
CONTINUOUS
 62
               3
  5
5E0
 10
609.28652321630761
 20
-1587.3562982616334
 30
0.0
 40
47.299999999999997
  0
LINE
  8
0
  6
CONTINUOUS
 62
               3
  5
5E1
 10
577.46671806291306
 20
-1619.1761034150279
 30
0.0
 11
575.84037246618391
 21
-1620.8024490117571
 31
0.0
  0
LINE
  8
0
  6
CONTINUOUS
 62
               3
  5
5E2
 10
641.10632836970217
 20
-1619.1761034150279
 30
0.0
 11
642.73267396643132
 21
-1620.8024490117571
 31
0.0
  0
ARC
  8
0
  6
CONTINUOUS
 62
               3
  5
5E3
 10
609.28652321630761
 20
-1587.3562982616334
 30
0.0
 40
45.0
 50
224.99999999982745
 51
314.99999999975864
  0
CIRCLE
  8
0
  6
CONTINUOUS
 62
               3
  5
5E4
 10
609.28652321630761
 20
-1587.3562982616334
 30
0.0
 40
57.600000000000001
  0
ARC
  8
0
  6
CONTINUOUS
 62
               3
  5
5E5
 10
586.78652321630807
 20
-1649.8562982616334
 30
0.0
 40
2.4999999999999996
 50
269.99999999979354
 51
449.99999999965507
  0
ARC
  8
0
  6
CONTINUOUS
 62
               3
  5
5E6
 10
631.78652321630807
 20
-1649.8562982616334
 30
0.0
 40
2.4999999999999996
 50
89.999999999929457
 51
269.99999999979354
  0
LINE
  8
0
  6
CONTINUOUS
 62
               3
  5
5E7
 10
544.28652321630761
 20
-1652.3562982616334
 30
0.0
 11
586.78652321630807
 21
-1652.3562982616334
 31
0.0
  0
LINE
  8
0
  6
CONTINUOUS
 62
               3
  5
5E8
 10
544.28652321630761
 20
-1647.3562982616334
 30
0.0
 11
586.78652321630807
 21
-1647.3562982616334
 31
0.0
  0
LINE
  8
0
  6
CONTINUOUS
 62
               3
  5
5E9
 10
631.78652321630807
 20
-1647.3562982616334
 30
0.0
 11
684.28652321630761
 21
-1647.3562982616334
 31
0.0
  0
LINE
  8
0
  6
CONTINUOUS
 62
               3
  5
5EA
 10
631.78652321630807
 20
-1652.3562982616334
 30
0.0
 11
684.28652321630761
 21
-1652.3562982616334
 31
0.0
  0
CIRCLE
  8
0
  6
CONTINUOUS
 62
               3
  5
5EB
 10
609.28652321630761
 20
-1112.8568645130492
 30
0.0
 40
59.0
  0
INSERT
  8
0
  6
CONTINUOUS
  5
5EC
  2
GROUP_1
 10
0.0
 20
0.0
 30
0.0
  0
INSERT
  8
0
  6
CONTINUOUS
  5
5ED
  2
GROUP_2
 10
0.0
 20
0.0
 30
0.0
  0
INSERT
  8
0
  6
CONTINUOUS
  5
5EE
  2
GROUP_3
 10
0.0
 20
0.0
 30
0.0
  0
INSERT
  8
0
  6
CONTINUOUS
  5
5EF
  2
GROUP_4
 10
0.0
 20
0.0
 30
0.0
  0
INSERT
  8
0
  6
CONTINUOUS
  5
5F0
  2
GROUP_5
 10
0.0
 20
0.0
 30
0.0
  0
INSERT
  8
0
  6
CONTINUOUS
  5
5F1
  2
GROUP_6
 10
0.0
 20
0.0
 30
0.0
  0
INSERT
  8
0
  6
CONTINUOUS
  5
5F2
  2
GROUP_7
 10
0.0
 20
0.0
 30
0.0
  0
INSERT
  8
0
  6
CONTINUOUS
  5
5F3
  2
GROUP_8
 10
0.0
 20
0.0
 30
0.0
  0
INSERT
  8
0
  6
CONTINUOUS
  5
5F4
  2
GROUP_9
 10
0.0
 20
0.0
 30
0.0
  0
INSERT
  8
0
  6
CONTINUOUS
  5
5F5
  2
GROUP_10
 10
0.0
 20
0.0
 30
0.0
  0
INSERT
  8
0
  6
CONTINUOUS
  5
5F6
  2
GROUP_11
 10
0.0
 20
0.0
 30
0.0
  0
INSERT
  8
0
  6
CONTINUOUS
  5
5F7
  2
GROUP_12
 10
0.0
 20
0.0
 30
0.0
  0
INSERT
  8
0
  6
CONTINUOUS
  5
5F8
  2
GROUP_13
 10
0.0
 20
0.0
 30
0.0
  0
CIRCLE
  8
0
  6
CONTINUOUS
 62
               7
  5
5F9
 10
64.347442648690802
 20
655.71328675118411
 30
0.0
 40
13.0
  0
CIRCLE
  8
0
  6
CONTINUOUS
 62
               7
  5
5FA
 10
-64.345991527261106
 20
655.71328675118457
 30
0.0
 40
13.0
  0
CIRCLE
  8
0
  6
CONTINUOUS
 62
               7
  5
5FB
 10
64.347442648690219
 20
527.01985257523211
 30
0.0
 40
13.0
  0
CIRCLE
  8
0
  6
CONTINUOUS
 62
               7
  5
5FC
 10
-64.34599152726166
 20
527.01985257523279
 30
0.0
 40
13.0
  0
CIRCLE
  8
0
  6
CONTINUOUS
 62
               7
  5
5FD
 10
-392.1377690504691
 20
-1177.04130008484
 30
0.0
 40
38.0
  0
CIRCLE
  8
0
  6
CONTINUOUS
 62
               7
  5
5FE
 10
-392.1377690504691
 20
-1177.04130008484
 30
0.0
 40
33.5
  0
LINE
  8
0
  6
CONTINUOUS
 62
               7
  5
5FF
 10
-247.6377690504691
 20
-1126.04130008484
 30
0.0
 11
-247.6377690504691
 21
-1215.0360639641656
 31
0.0
  0
LINE
  8
0
  6
CONTINUOUS
 62
               7
  5
600
 10
-247.03776905046908
 20
-1126.04130008484
 30
0.0
 11
-247.6377690504691
 21
-1126.04130008484
 31
0.0
  0
LINE
  8
0
  6
CONTINUOUS
 62
               7
  5
601
 10
-282.6377690504691
 20
-1214.04130008484
 30
0.0
 11
-282.6377690504691
 21
-1140.04130008484
 31
0.0
  0
LINE
  8
0
  6
CONTINUOUS
 62
               7
  5
602
 10
-189.6377690504691
 20
-1214.04130008484
 30
0.0
 11
-189.6377690504691
 21
-1127.04130008484
 31
0.0
  0
LINE
  8
0
  6
CONTINUOUS
 62
               7
  5
603
 10
-247.6377690504691
 20
-1126.04130008484
 30
0.0
 11
-190.6377690504691
 21
-1126.04130008484
 31
0.0
  0
LINE
  8
0
  6
CONTINUOUS
 62
               7
  5
604
 10
-281.6377690504691
 20
-1215.04130008484
 30
0.0
 11
-190.6377690504691
 21
-1215.04130008484
 31
0.0
  0
LINE
  8
0
  6
CONTINUOUS
 62
               7
  5
605
 10
-190.6377690504691
 20
-1126.04130008484
 30
0.0
 11
-189.6377690504691
 21
-1127.04130008484
 31
0.0
  0
LINE
  8
0
  6
CONTINUOUS
 62
               7
  5
606
 10
-189.6377690504691
 20
-1214.04130008484
 30
0.0
 11
-190.6377690504691
 21
-1215.04130008484
 31
0.0
  0
LINE
  8
0
  6
CONTINUOUS
 62
               7
  5
607
 10
-281.6377690504691
 20
-1139.04130008484
 30
0.0
 11
-247.6377690504691
 21
-1139.04130008484
 31
0.0
  0
CIRCLE
  8
0
  6
CONTINUOUS
 62
               7
  5
608
 10
-392.1377690504691
 20
-1170.54130008484
 30
0.0
 40
44.5
  0
LINE
  8
0
  6
CONTINUOUS
 62
               7
  5
609
 10
-281.6377690504691
 20
-1139.04130008484
 30
0.0
 11
-282.6377690504691
 21
-1140.04130008484
 31
0.0
  0
LINE
  8
0
  6
CONTINUOUS
 62
               7
  5
60A
 10
-282.6377690504691
 20
-1214.04130008484
 30
0.0
 11
-281.6377690504691
 21
-1215.04130008484
 31
0.0
  0
LINE
  8
0
  6
CONTINUOUS
 62
               7
  5
60B
 10
-536.63776905046893
 20
-1126.04130008484
 30
0.0
 11
-536.63776905046893
 21
-1215.0360639641656
 31
0.0
  0
LINE
  8
0
  6
CONTINUOUS
 62
               7
  5
60C
 10
-537.23776905046884
 20
-1126.04130008484
 30
0.0
 11
-536.63776905046893
 21
-1126.04130008484
 31
0.0
  0
LINE
  8
0
  6
CONTINUOUS
 62
               7
  5
60D
 10
-501.63776905046899
 20
-1214.04130008484
 30
0.0
 11
-501.63776905046899
 21
-1140.04130008484
 31
0.0
  0
LINE
  8
0
  6
CONTINUOUS
 62
               7
  5
60E
 10
-594.63776905046893
 20
-1214.04130008484
 30
0.0
 11
-594.63776905046893
 21
-1127.04130008484
 31
0.0
  0
LINE
  8
0
  6
CONTINUOUS
 62
               7
  5
60F
 10
-536.63776905046893
 20
-1126.04130008484
 30
0.0
 11
-593.63776905046893
 21
-1126.04130008484
 31
0.0
  0
LINE
  8
0
  6
CONTINUOUS
 62
               7
  5
610
 10
-502.63776905046899
 20
-1215.04130008484
 30
0.0
 11
-593.63776905046893
 21
-1215.04130008484
 31
0.0
  0
LINE
  8
0
  6
CONTINUOUS
 62
               7
  5
611
 10
-593.63776905046893
 20
-1126.04130008484
 30
0.0
 11
-594.63776905046893
 21
-1127.04130008484
 31
0.0
  0
LINE
  8
0
  6
CONTINUOUS
 62
               7
  5
612
 10
-594.63776905046893
 20
-1214.04130008484
 30
0.0
 11
-593.63776905046893
 21
-1215.04130008484
 31
0.0
  0
LINE
  8
0
  6
CONTINUOUS
 62
               7
  5
613
 10
-502.63776905046899
 20
-1139.04130008484
 30
0.0
 11
-536.63776905046893
 21
-1139.04130008484
 31
0.0
  0
LINE
  8
0
  6
CONTINUOUS
 62
               7
  5
614
 10
-502.63776905046899
 20
-1139.04130008484
 30
0.0
 11
-501.63776905046899
 21
-1140.04130008484
 31
0.0
  0
LINE
  8
0
  6
CONTINUOUS
 62
               7
  5
615
 10
-501.63776905046899
 20
-1214.04130008484
 30
0.0
 11
-502.63776905046899
 21
-1215.04130008484
 31
0.0
  0
LINE
  8
0
  6
CONTINUOUS
 62
               7
  5
616
 10
-349.58372644623563
 20
-1018.5734160158054
 30
0.0
 11
-438.57849032556106
 21
-1018.5734160158052
 31
0.0
  0
LINE
  8
0
  6
CONTINUOUS
 62
               7
  5
617
 10
-349.58372644623563
 20
-1017.9734160158052
 30
0.0
 11
-349.58372644623563
 21
-1018.5734160158054
 31
0.0
  0
LINE
  8
0
  6
CONTINUOUS
 62
               7
  5
618
 10
-431.08372644623552
 20
-1053.5734160158052
 30
0.0
 11
-357.08372644623563
 21
-1053.5734160158054
 31
0.0
  0
LINE
  8
0
  6
CONTINUOUS
 62
               7
  5
619
 10
-437.58372644623552
 20
-960.57341601580515
 30
0.0
 11
-350.58372644623563
 21
-960.57341601580538
 31
0.0
  0
LINE
  8
0
  6
CONTINUOUS
 62
               7
  5
61A
 10
-349.58372644623563
 20
-1018.5734160158054
 30
0.0
 11
-349.58372644623563
 21
-961.57341601580538
 31
0.0
  0
LINE
  8
0
  6
CONTINUOUS
 62
               7
  5
61B
 10
-432.08372644623552
 20
-1052.5734160158052
 30
0.0
 11
-432.08372644623552
 21
-1018.5734160158052
 31
0.0
  0
LINE
  8
0
  6
CONTINUOUS
 62
               7
  5
61C
 10
-349.58372644623563
 20
-961.57341601580538
 30
0.0
 11
-350.58372644623563
 21
-960.57341601580538
 31
0.0
  0
LINE
  8
0
  6
CONTINUOUS
 62
               7
  5
61D
 10
-437.58372644623552
 20
-960.57341601580515
 30
0.0
 11
-438.58372644623552
 21
-961.57341601580515
 31
0.0
  0
LINE
  8
0
  6
CONTINUOUS
 62
               7
  5
61E
 10
-356.08372644623563
 20
-1052.5734160158054
 30
0.0
 11
-356.08372644623563
 21
-1018.5734160158052
 31
0.0
  0
LINE
  8
0
  6
CONTINUOUS
 62
               7
  5
61F
 10
-356.08372644623563
 20
-1052.5734160158054
 30
0.0
 11
-357.08372644623563
 21
-1053.5734160158054
 31
0.0
  0
LINE
  8
0
  6
CONTINUOUS
 62
               7
  5
620
 10
-431.08372644623552
 20
-1053.5734160158052
 30
0.0
 11
-432.08372644623552
 21
-1052.5734160158052
 31
0.0
  0
LINE
  8
0
  6
CONTINUOUS
 62
               7
  5
621
 10
-438.58372644623552
 20
-1018.5734160158052
 30
0.0
 11
-438.58372644623552
 21
-961.57341601580515
 31
0.0
  0
LINE
  8
0
  6
CONTINUOUS
 62
               7
  5
622
 10
216.63392368588057
 20
-1214.04130008484
 30
0.0
 11
216.63392368588057
 21
-1156.04130008484
 31
0.0
  0
LINE
  8
0
  6
CONTINUOUS
 62
               7
  5
623
 10
242.23392368588048
 20
-1126.04130008484
 30
0.0
 11
242.23392368588048
 21
-1215.04130008484
 31
0.0
  0
LINE
  8
0
  6
CONTINUOUS
 62
               7
  5
624
 10
242.83392368588062
 20
-1126.04130008484
 30
0.0
 11
242.23392368588048
 21
-1126.04130008484
 31
0.0
  0
LINE
  8
0
  6
CONTINUOUS
 62
               7
  5
625
 10
300.23392368588071
 20
-1214.04130008484
 30
0.0
 11
300.23392368588071
 21
-1127.04130008484
 31
0.0
  0
CIRCLE
  8
0
  6
CONTINUOUS
 62
               7
  5
626
 10
120.87790746063757
 20
-1185.04130008484
 30
0.0
 40
30.0
  0
CIRCLE
  8
0
  6
CONTINUOUS
 62
               7
  5
627
 10
120.87790746063757
 20
-1185.04130008484
 30
0.0
 40
25.5
  0
CIRCLE
  8
0
  6
CONTINUOUS
 62
               7
  5
628
 10
120.87790746063757
 20
-1170.54130008484
 30
0.0
 40
44.5
  0
LINE
  8
0
  6
CONTINUOUS
 62
               7
  5
629
 10
242.3683754313609
 20
-1126.04130008484
 30
0.0
 11
299.23392368588071
 21
-1126.04130008484
 31
0.0
  0
LINE
  8
0
  6
CONTINUOUS
 62
               7
  5
62A
 10
217.63392368588057
 20
-1215.04130008484
 30
0.0
 11
299.23392368588071
 21
-1215.04130008484
 31
0.0
  0
LINE
  8
0
  6
CONTINUOUS
 62
               7
  5
62B
 10
217.63392368588057
 20
-1155.04130008484
 30
0.0
 11
242.23392368588048
 21
-1155.04130008484
 31
0.0
  0
LINE
  8
0
  6
CONTINUOUS
 62
               7
  5
62C
 10
217.63392368588057
 20
-1155.04130008484
 30
0.0
 11
216.63392368588057
 21
-1156.04130008484
 31
0.0
  0
LINE
  8
0
  6
CONTINUOUS
 62
               7
  5
62D
 10
299.23392368588071
 20
-1126.04130008484
 30
0.0
 11
300.23392368588071
 21
-1127.04130008484
 31
0.0
  0
LINE
  8
0
  6
CONTINUOUS
 62
               7
  5
62E
 10
216.63392368588057
 20
-1214.04130008484
 30
0.0
 11
217.63392368588057
 21
-1215.04130008484
 31
0.0
  0
LINE
  8
0
  6
CONTINUOUS
 62
               7
  5
62F
 10
300.23392368588071
 20
-1214.04130008484
 30
0.0
 11
299.23392368588071
 21
-1215.04130008484
 31
0.0
  0
LINE
  8
0
  6
CONTINUOUS
 62
               7
  5
630
 10
25.121891235394799
 20
-1214.04130008484
 30
0.0
 11
25.121891235394799
 21
-1156.04130008484
 31
0.0
  0
LINE
  8
0
  6
CONTINUOUS
 62
               7
  5
631
 10
-0.4781087646052242
 20
-1126.04130008484
 30
0.0
 11
-0.4781087646052242
 21
-1215.04130008484
 31
0.0
  0
LINE
  8
0
  6
CONTINUOUS
 62
               7
  5
632
 10
-1.078108764605247
 20
-1126.04130008484
 30
0.0
 11
-0.4781087646052242
 21
-1126.04130008484
 31
0.0
  0
LINE
  8
0
  6
CONTINUOUS
 62
               7
  5
633
 10
-58.478108764605224
 20
-1214.04130008484
 30
0.0
 11
-58.478108764605224
 21
-1127.04130008484
 31
0.0
  0
LINE
  8
0
  6
CONTINUOUS
 62
               7
  5
634
 10
-0.6125605100855296
 20
-1126.04130008484
 30
0.0
 11
-57.478108764605224
 21
-1126.04130008484
 31
0.0
  0
LINE
  8
0
  6
CONTINUOUS
 62
               7
  5
635
 10
24.121891235394799
 20
-1215.04130008484
 30
0.0
 11
-57.478108764605224
 21
-1215.04130008484
 31
0.0
  0
LINE
  8
0
  6
CONTINUOUS
 62
               7
  5
636
 10
24.121891235394799
 20
-1155.04130008484
 30
0.0
 11
-0.4781087646052242
 21
-1155.04130008484
 31
0.0
  0
LINE
  8
0
  6
CONTINUOUS
 62
               7
  5
637
 10
24.121891235394799
 20
-1155.04130008484
 30
0.0
 11
25.121891235394799
 21
-1156.04130008484
 31
0.0
  0
LINE
  8
0
  6
CONTINUOUS
 62
               7
  5
638
 10
-57.478108764605224
 20
-1126.04130008484
 30
0.0
 11
-58.478108764605224
 21
-1127.04130008484
 31
0.0
  0
LINE
  8
0
  6
CONTINUOUS
 62
               7
  5
639
 10
25.121891235394799
 20
-1214.04130008484
 30
0.0
 11
24.121891235394799
 21
-1215.04130008484
 31
0.0
  0
LINE
  8
0
  6
CONTINUOUS
 62
               7
  5
63A
 10
-58.478108764605224
 20
-1214.04130008484
 30
0.0
 11
-57.478108764605224
 21
-1215.04130008484
 31
0.0
  0
LINE
  8
0
  6
CONTINUOUS
 62
               7
  5
63B
 10
91.8779074606378
 20
-1064.2852838595975
 30
0.0
 11
149.8779074606378
 21
-1064.2852838595975
 31
0.0
  0
LINE
  8
0
  6
CONTINUOUS
 62
               7
  5
63C
 10
165.3779074606378
 20
-1038.6852838595973
 30
0.0
 11
76.3779074606378
 21
-1038.6852838595973
 31
0.0
  0
LINE
  8
0
  6
CONTINUOUS
 62
               7
  5
63D
 10
165.3779074606378
 20
-1038.0852838595974
 30
0.0
 11
165.3779074606378
 21
-1038.6852838595973
 31
0.0
  0
LINE
  8
0
  6
CONTINUOUS
 62
               7
  5
63E
 10
77.3779074606378
 20
-980.68528385959735
 30
0.0
 11
164.3779074606378
 21
-980.68528385959735
 31
0.0
  0
LINE
  8
0
  6
CONTINUOUS
 62
               7
  5
63F
 10
165.3779074606378
 20
-1038.5508321141172
 30
0.0
 11
165.3779074606378
 21
-981.68528385959735
 31
0.0
  0
LINE
  8
0
  6
CONTINUOUS
 62
               7
  5
640
 10
90.8779074606378
 20
-1063.2852838595975
 30
0.0
 11
90.8779074606378
 21
-1038.6852838595973
 31
0.0
  0
LINE
  8
0
  6
CONTINUOUS
 62
               7
  5
641
 10
150.8779074606378
 20
-1063.2852838595975
 30
0.0
 11
150.8779074606378
 21
-1038.6852838595973
 31
0.0
  0
LINE
  8
0
  6
CONTINUOUS
 62
               7
  5
642
 10
150.8779074606378
 20
-1063.2852838595975
 30
0.0
 11
149.8779074606378
 21
-1064.2852838595975
 31
0.0
  0
LINE
  8
0
  6
CONTINUOUS
 62
               7
  5
643
 10
165.3779074606378
 20
-981.68528385959735
 30
0.0
 11
164.3779074606378
 21
-980.68528385959735
 31
0.0
  0
LINE
  8
0
  6
CONTINUOUS
 62
               7
  5
644
 10
91.8779074606378
 20
-1064.2852838595975
 30
0.0
 11
90.8779074606378
 21
-1063.2852838595975
 31
0.0
  0
LINE
  8
0
  6
CONTINUOUS
 62
               7
  5
645
 10
77.3779074606378
 20
-980.68528385959735
 30
0.0
 11
76.3779074606378
 21
-981.68528385959735
 31
0.0
  0
LINE
  8
0
  6
CONTINUOUS
 62
               7
  5
646
 10
76.3779074606378
 20
-1038.5508321141169
 30
0.0
 11
76.3779074606378
 21
-981.68528385959735
 31
0.0
  0
CIRCLE
  8
0
  6
CONTINUOUS
 62
               7
  5
647
 10
609.28652321630761
 20
-1601.8562982616334
 30
0.0
 40
25.5
  0
CIRCLE
  8
0
  6
CONTINUOUS
 62
               7
  5
648
 10
609.28652321630761
 20
-1587.3562982616334
 30
0.0
 40
44.5
  0
CIRCLE
  8
0
  6
CONTINUOUS
 62
               7
  5
649
 10
609.28652321630761
 20
-1601.8562982616334
 30
0.0
 40
30.0
  0
LINE
  8
0
  6
CONTINUOUS
 62
               7
  5
64A
 10
580.28652321630761
 20
-1283.4568645130491
 30
0.0
 11
638.28652321630761
 21
-1283.4568645130491
 31
0.0
  0
LINE
  8
0
  6
CONTINUOUS
 62
               7
  5
64B
 10
653.78652321630761
 20
-1257.8568645130492
 30
0.0
 11
564.78652321630761
 21
-1257.8568645130492
 31
0.0
  0
LINE
  8
0
  6
CONTINUOUS
 62
               7
  5
64C
 10
653.78652321630761
 20
-1257.2568645130493
 30
0.0
 11
653.78652321630761
 21
-1257.8568645130492
 31
0.0
  0
LINE
  8
0
  6
CONTINUOUS
 62
               7
  5
64D
 10
565.78652321630761
 20
-1199.8568645130488
 30
0.0
 11
652.78652321630761
 21
-1199.8568645130488
 31
0.0
  0
LINE
  8
0
  6
CONTINUOUS
 62
               7
  5
64E
 10
653.78652321630761
 20
-1257.7224127675688
 30
0.0
 11
653.78652321630761
 21
-1200.8568645130488
 31
0.0
  0
LINE
  8
0
  6
CONTINUOUS
 62
               7
  5
64F
 10
579.28652321630761
 20
-1282.4568645130491
 30
0.0
 11
579.28652321630761
 21
-1257.8568645130492
 31
0.0
  0
LINE
  8
0
  6
CONTINUOUS
 62
               7
  5
650
 10
639.28652321630761
 20
-1282.4568645130491
 30
0.0
 11
639.28652321630761
 21
-1257.8568645130492
 31
0.0
  0
LINE
  8
0
  6
CONTINUOUS
 62
               7
  5
651
 10
639.28652321630761
 20
-1282.4568645130491
 30
0.0
 11
638.28652321630761
 21
-1283.4568645130491
 31
0.0
  0
LINE
  8
0
  6
CONTINUOUS
 62
               7
  5
652
 10
653.78652321630761
 20
-1200.8568645130488
 30
0.0
 11
652.78652321630761
 21
-1199.8568645130488
 31
0.0
  0
LINE
  8
0
  6
CONTINUOUS
 62
               7
  5
653
 10
580.28652321630761
 20
-1283.4568645130491
 30
0.0
 11
579.28652321630761
 21
-1282.4568645130491
 31
0.0
  0
LINE
  8
0
  6
CONTINUOUS
 62
               7
  5
654
 10
565.78652321630761
 20
-1199.8568645130488
 30
0.0
 11
564.78652321630761
 21
-1200.8568645130488
 31
0.0
  0
LINE
  8
0
  6
CONTINUOUS
 62
               7
  5
655
 10
564.78652321630761
 20
-1257.7224127675688
 30
0.0
 11
564.78652321630761
 21
-1200.8568645130488
 31
0.0
  0
LINE
  8
0
  6
CONTINUOUS
 62
               7
  5
656
 10
464.28652321630744
 20
-1542.8562982616334
 30
0.0
 11
464.28652321630744
 21
-1631.8510621409589
 31
0.0
  0
LINE
  8
0
  6
CONTINUOUS
 62
               7
  5
657
 10
464.88652321630747
 20
-1542.8562982616334
 30
0.0
 11
464.28652321630744
 21
-1542.8562982616334
 31
0.0
  0
LINE
  8
0
  6
CONTINUOUS
 62
               7
  5
658
 10
429.28652321630744
 20
-1630.8562982616334
 30
0.0
 11
429.28652321630744
 21
-1556.8562982616334
 31
0.0
  0
LINE
  8
0
  6
CONTINUOUS
 62
               7
  5
659
 10
522.28652321630761
 20
-1630.8562982616334
 30
0.0
 11
522.28652321630761
 21
-1543.8562982616334
 31
0.0
  0
LINE
  8
0
  6
CONTINUOUS
 62
               7
  5
65A
 10
464.28652321630744
 20
-1542.8562982616334
 30
0.0
 11
521.28652321630761
 21
-1542.8562982616334
 31
0.0
  0
LINE
  8
0
  6
CONTINUOUS
 62
               7
  5
65B
 10
430.28652321630744
 20
-1631.8562982616334
 30
0.0
 11
521.28652321630761
 21
-1631.8562982616334
 31
0.0
  0
LINE
  8
0
  6
CONTINUOUS
 62
               7
  5
65C
 10
521.28652321630761
 20
-1542.8562982616334
 30
0.0
 11
522.28652321630761
 21
-1543.8562982616334
 31
0.0
  0
LINE
  8
0
  6
CONTINUOUS
 62
               7
  5
65D
 10
522.28652321630761
 20
-1630.8562982616334
 30
0.0
 11
521.28652321630761
 21
-1631.8562982616334
 31
0.0
  0
LINE
  8
0
  6
CONTINUOUS
 62
               7
  5
65E
 10
430.28652321630744
 20
-1555.8562982616334
 30
0.0
 11
464.28652321630744
 21
-1555.8562982616334
 31
0.0
  0
LINE
  8
0
  6
CONTINUOUS
 62
               7
  5
65F
 10
430.28652321630744
 20
-1555.8562982616334
 30
0.0
 11
429.28652321630744
 21
-1556.8562982616334
 31
0.0
  0
LINE
  8
0
  6
CONTINUOUS
 62
               7
  5
660
 10
429.28652321630744
 20
-1630.8562982616334
 30
0.0
 11
430.28652321630744
 21
-1631.8562982616334
 31
0.0
  0
LINE
  8
0
  6
CONTINUOUS
 62
               7
  5
661
 10
464.28652321630744
 20
-1157.3568645130488
 30
0.0
 11
464.28652321630767
 21
-1068.3621006337235
 31
0.0
  0
LINE
  8
0
  6
CONTINUOUS
 62
               7
  5
662
 10
464.88652321630758
 20
-1157.3568645130488
 30
0.0
 11
464.28652321630744
 21
-1157.3568645130488
 31
0.0
  0
LINE
  8
0
  6
CONTINUOUS
 62
               7
  5
663
 10
429.28652321630767
 20
-1075.856864513049
 30
0.0
 11
429.28652321630744
 21
-1149.8568645130488
 31
0.0
  0
LINE
  8
0
  6
CONTINUOUS
 62
               7
  5
664
 10
522.28652321630784
 20
-1069.3568645130492
 30
0.0
 11
522.28652321630761
 21
-1156.3568645130488
 31
0.0
  0
LINE
  8
0
  6
CONTINUOUS
 62
               7
  5
665
 10
464.28652321630744
 20
-1157.3568645130488
 30
0.0
 11
521.28652321630761
 21
-1157.3568645130488
 31
0.0
  0
LINE
  8
0
  6
CONTINUOUS
 62
               7
  5
666
 10
430.28652321630767
 20
-1074.856864513049
 30
0.0
 11
464.28652321630767
 21
-1074.856864513049
 31
0.0
  0
LINE
  8
0
  6
CONTINUOUS
 62
               7
  5
667
 10
521.28652321630761
 20
-1157.3568645130488
 30
0.0
 11
522.28652321630761
 21
-1156.3568645130488
 31
0.0
  0
LINE
  8
0
  6
CONTINUOUS
 62
               7
  5
668
 10
522.28652321630784
 20
-1069.3568645130492
 30
0.0
 11
521.28652321630784
 21
-1068.3568645130492
 31
0.0
  0
LINE
  8
0
  6
CONTINUOUS
 62
               7
  5
669
 10
430.28652321630744
 20
-1150.8568645130488
 30
0.0
 11
464.28652321630767
 21
-1150.8568645130488
 31
0.0
  0
LINE
  8
0
  6
CONTINUOUS
 62
               7
  5
66A
 10
430.28652321630744
 20
-1150.8568645130488
 30
0.0
 11
429.28652321630744
 21
-1149.8568645130488
 31
0.0
  0
LINE
  8
0
  6
CONTINUOUS
 62
               7
  5
66B
 10
429.28652321630767
 20
-1075.856864513049
 30
0.0
 11
430.28652321630767
 21
-1074.856864513049
 31
0.0
  0
LINE
  8
0
  6
CONTINUOUS
 62
               7
  5
66C
 10
464.28652321630767
 20
-1068.356864513049
 30
0.0
 11
521.28652321630784
 21
-1068.356864513049
 31
0.0
  0
CIRCLE
  8
0
  6
DASHED
 62
               7
  5
66D
 10
-392.1377690504691
 20
-1170.54130008484
 30
0.0
 40
40.0
  0
CIRCLE
  8
0
  6
DASHED
 62
               7
  5
66E
 10
120.87790746063757
 20
-1170.54130008484
 30
0.0
 40
40.0
  0
CIRCLE
  8
0
  6
DASHED
 62
               7
  5
66F
 10
609.28652321630761
 20
-1587.3562982616334
 30
0.0
 40
40.0
  0
POINT
  8
0
  6
CONTINUOUS
 62
               5
  5
670
 10
-478.61447520184544
 20
-80.238754325259507
 30
0.0
  0
POINT
  8
0
  6
CONTINUOUS
 62
               5
  5
671
 10
-392.1377690504691
 20
-1170.54130008484
 30
0.0
  0
POINT
  8
0
  6
CONTINUOUS
 62
               5
  5
672
 10
-218.90769754050876
 20
-1171.8320941597292
 30
0.0
  0
POINT
  8
0
  6
CONTINUOUS
 62
               5
  5
673
 10
-565.36784056042916
 20
-1171.8320941597287
 30
0.0
  0
POINT
  8
0
  6
CONTINUOUS
 62
               5
  5
674
 10
-395.37452052112468
 20
-989.84334450584493
 30
0.0
  0
POINT
  8
0
  6
CONTINUOUS
 62
               5
  5
675
 10
493.01659472626778
 20
-1588.6470923365225
 30
0.0
  0
POINT
  8
0
  6
CONTINUOUS
 62
               5
  5
676
 10
493.0165947262679
 20
-1111.5660704381601
 30
0.0
  0
TEXT
  8
0
 62
               3
  5
677
 10
-392.1377690504691
 20
-1255.04130008484
 30
0.0
 40
40.0
  1
EMB_80×65
 41
0.8
 72
               1
 11
-392.1377690504691
 21
-1255.04130008484
 31
0.0
 73
               3
  0
TEXT
  8
0
 62
               3
  5
678
 10
120.87790746063757
 20
-1255.04130008484
 30
0.0
 40
40.0
  1
EMB_80×50
 41
0.8
 72
               1
 11
120.87790746063757
 21
-1255.04130008484
 31
0.0
 73
               3
  0
TEXT
  8
0
 62
               3
  5
679
 10
605.58911923866731
 20
-933.41049600782981
 30
0.0
 40
40.0
  1
EMB使用例
 41
0.8
 72
               1
 11
605.58911923866731
 21
-933.41049600782981
 31
0.0
 73
               3
  0
TEXT
  8
0
 62
               3
  5
67A
 10
-123.74270409089129
 20
-879.05036010749041
 30
0.0
 40
35.0
  1
横枝管に呼び６５、５０の管を接続するときは、EMBをご使用ください。
 41
0.8
 72
               1
 11
-123.74270409089129
 21
-879.05036010749041
 31
0.0
 73
               3
  0
ENDSEC
  0
EOF
