  0
SECTION
  2
HEADER
  9
$ACADVER
  1
AC1009
  9
$INSBASE
 10
0.0
 20
0.0
 30
0.0
  9
$EXTMIN
 10
-752.70573046432639
 20
-1529.2790388803155
 30
0.0
  9
$EXTMAX
 10
752.99225368063389
 20
790.7278600157548
 30
0.0
  9
$LIMMIN
 10
-799.75879246885643
 20
-1601.7792544708177
  9
$LIMMAX
 10
800.04531568516393
 20
863.22807560625699
  9
$ORTHOMODE
 70
               0
  9
$REGENMODE
 70
               1
  9
$FILLMODE
 70
               1
  9
$QTEXTMODE
 70
               0
  9
$MIRRTEXT
 70
               1
  9
$DRAGMODE
 70
               2
  9
$LTSCALE
 40
1.0
  9
$OSMODE
 70
               0
  9
$ATTMODE
 70
               1
  9
$TEXTSIZE
 40
0.2
  9
$TRACEWID
 40
0.05
  9
$TEXTSTYLE
  7
STANDARD
  9
$CLAYER
  8
0
  9
$CELTYPE
  6
CONTINUOUS
  9
$CECOLOR
 62
             256
  9
$DIMSCALE
 40
1.0
  9
$DIMASZ
 40
0.18
  9
$DIMEXO
 40
0.0625
  9
$DIMDLI
 40
0.38
  9
$DIMRND
 40
0.0
  9
$DIMDLE
 40
0.0
  9
$DIMEXE
 40
0.18
  9
$DIMTP
 40
0.0
  9
$DIMTM
 40
0.0
  9
$DIMTXT
 40
0.18
  9
$DIMCEN
 40
0.09
  9
$DIMTSZ
 40
0.0
  9
$DIMTOL
 70
               0
  9
$DIMLIM
 70
               0
  9
$DIMTIH
 70
               1
  9
$DIMTOH
 70
               1
  9
$DIMSE1
 70
               0
  9
$DIMSE2
 70
               0
  9
$DIMTAD
 70
               0
  9
$DIMZIN
 70
               0
  9
$DIMBLK
  1

  9
$DIMASO
 70
               1
  9
$DIMSHO
 70
               1
  9
$DIMPOST
  1

  9
$DIMAPOST
  1

  9
$DIMALT
 70
               0
  9
$DIMALTD
 70
               2
  9
$DIMALTF
 40
25.399999999999999
  9
$DIMLFAC
 40
1.0
  9
$DIMTOFL
 70
               0
  9
$DIMTVP
 40
0.0
  9
$DIMTIX
 70
               0
  9
$DIMSOXD
 70
               0
  9
$DIMSAH
 70
               0
  9
$DIMBLK1
  1

  9
$DIMBLK2
  1

  9
$DIMSTYLE
  2
STANDARD
  9
$DIMCLRD
 70
               0
  9
$DIMCLRE
 70
               0
  9
$DIMCLRT
 70
               0
  9
$DIMTFAC
 40
1.0
  9
$DIMGAP
 40
0.09
  9
$LUNITS
 70
               2
  9
$LUPREC
 70
               4
  9
$AXISMODE
 70
               0
  9
$AXISUNIT
 10
0.0
 20
0.0
  9
$SKETCHINC
 40
0.1
  9
$FILLETRAD
 40
0.0
  9
$AUNITS
 70
               0
  9
$AUPREC
 70
               0
  9
$MENU
  1
acad
  9
$ELEVATION
 40
0.0
  9
$PELEVATION
 40
0.0
  9
$THICKNESS
 40
0.0
  9
$LIMCHECK
 70
               0
  9
$BLIPMODE
 70
               1
  9
$CHAMFERA
 40
0.0
  9
$CHAMFERB
 40
0.0
  9
$SKPOLY
 70
               0
  9
$TDCREATE
 40
0.000000000
  9
$TDUPDATE
 40
0.000000000
  9
$TDINDWG
 40
0.0000000000
  9
$TDUSRTIMER
 40
0.0000000000
  9
$USRTIMER
 70
               1
  9
$ANGBASE
 50
0.0
  9
$ANGDIR
 70
               0
  9
$PDMODE
 70
               0
  9
$PDSIZE
 40
1.0
  9
$PLINEWID
 40
0.0
  9
$COORDS
 70
               1
  9
$SPLFRAME
 70
               0
  9
$SPLINETYPE
 70
               6
  9
$SPLINESEGS
 70
               8
  9
$ATTDIA
 70
               0
  9
$ATTREQ
 70
               1
  9
$HANDLING
 70
               1
  9
$HANDSEED
  5
47A
  9
$SURFTAB1
 70
               6
  9
$SURFTAB2
 70
               6
  9
$SURFTYPE
 70
               6
  9
$SURFU
 70
               6
  9
$SURFV
 70
               6
  9
$UCSNAME
  2

  9
$UCSORG
 10
0.0
 20
0.0
 30
0.0
  9
$UCSXDIR
 10
1.0
 20
0.0
 30
0.0
  9
$UCSYDIR
 10
0.0
 20
1.0
 30
0.0
  9
$PUCSNAME
  2

  9
$PUCSORG
 10
0.0
 20
0.0
 30
0.0
  9
$PUCSXDIR
 10
1.0
 20
0.0
 30
0.0
  9
$PUCSYDIR
 10
0.0
 20
1.0
 30
0.0
  9
$USERI1
 70
               0
  9
$USERI2
 70
               0
  9
$USERI3
 70
               0
  9
$USERI4
 70
               0
  9
$USERI5
 70
               0
  9
$USERR1
 40
0.0
  9
$USERR2
 40
0.0
  9
$USERR3
 40
0.0
  9
$USERR4
 40
0.0
  9
$USERR5
 40
0.0
  9
$WORLDVIEW
 70
               1
  9
$SHADEDGE
 70
               3
  9
$SHADEDIF
 70
              70
  9
$TILEMODE
 70
               1
  9
$MAXACTVP
 70
              16
  9
$PINSBASE
 10
0.0
 20
0.0
 30
0.0
  9
$PLIMCHECK
 70
               0
  9
$PEXTMIN
 10
1.0000000000000000E+20
 20
1.0000000000000000E+20
 30
1.0000000000000000E+20
  9
$PEXTMAX
 10
-1.0000000000000000E+20
 20
-1.0000000000000000E+20
 30
-1.0000000000000000E+20
  9
$PLIMMIN
 10
0.0
 20
0.0
  9
$PLIMMAX
 10
12.0
 20
9.0
  9
$UNITMODE
 70
               0
  9
$VISRETAIN
 70
               0
  9
$PLINEGEN
 70
               1
  9
$PSLTSCALE
 70
               0
  9
$TREEDEPTH
 70
            3020
  9
$DWGCODEPAGE
  3
dos932
  0
ENDSEC
  0
SECTION
  2
TABLES
  0
TABLE
  2
VPORT
 70
               1
  0
VPORT
  2
*ACTIVE
 70
               0
 10
0.0
 20
0.0
 11
1.0
 21
1.0
 12
0.1432616081537503
 22
-369.27558943228036
 13
0.0
 23
0.0
 14
1.0
 24
1.0
 15
0.0
 25
0.0
 16
0.0
 26
0.0
 36
1.0
 17
0.0
 27
0.0
 37
0.0
 40
2465.0073300770746
 41
0.6490058218626063
 42
50.0
 43
0.0
 44
0.0
 50
0.0
 51
0.0
 71
               0
 72
             100
 73
               1
 74
               1
 75
               0
 76
               0
 77
               0
 78
               0
  0
ENDTAB
  0
TABLE
  2
LTYPE
 70
              26
  0
LTYPE
  2
CONTINUOUS
 70
               0
  3
Solid line
 72
              65
 73
               0
 40
0.0
  0
LTYPE
  2
HIDDENX2
 70
               0
  3
CADPAC FUSION LINETYPE
 72
              65
 73
               2
 40
80.0
 49
60.0
 49
-20.0
  0
LTYPE
  2
HIDDEN
 70
               0
  3
CADPAC FUSION LINETYPE
 72
              65
 73
               2
 40
60.0
 49
40.0
 49
-20.0
  0
LTYPE
  2
HIDDEN2
 70
               0
  3
CADPAC FUSION LINETYPE
 72
              65
 73
               2
 40
50.0
 49
30.0
 49
-20.0
  0
LTYPE
  2
DASHED
 70
               0
  3
CADPAC FUSION LINETYPE
 72
              65
 73
               2
 40
60.0
 49
40.0
 49
-20.0
  0
LTYPE
  2
DASHED2
 70
               0
  3
CADPAC FUSION LINETYPE
 72
              65
 73
               2
 40
45.0
 49
30.0
 49
-15.0
  0
LTYPE
  2
DASHEDX2
 70
               0
  3
CADPAC FUSION LINETYPE
 72
              65
 73
               2
 40
90.0
 49
60.0
 49
-30.0
  0
LTYPE
  2
DOTX2
 70
               0
  3
CADPAC FUSION LINETYPE
 72
              65
 73
               2
 40
25.0
 49
0.0
 49
-25.0
  0
LTYPE
  2
DOT
 70
               0
  3
CADPAC FUSION LINETYPE
 72
              65
 73
               2
 40
20.0
 49
0.0
 49
-20.0
  0
LTYPE
  2
DOTS
 70
               0
  3
CADPAC FUSION LINETYPE
 72
              65
 73
               2
 40
20.0
 49
0.0
 49
-20.0
  0
LTYPE
  2
DOT2
 70
               0
  3
CADPAC FUSION LINETYPE
 72
              65
 73
               2
 40
15.0
 49
0.0
 49
-15.0
  0
LTYPE
  2
CENTERX2
 70
               0
  3
CADPAC FUSION LINETYPE
 72
              65
 73
               4
 40
120.0
 49
50.0
 49
-25.0
 49
20.0
 49
-25.0
  0
LTYPE
  2
CENTER
 70
               0
  3
CADPAC FUSION LINETYPE
 72
              65
 73
               4
 40
92.0
 49
40.0
 49
-20.0
 49
12.0
 49
-20.0
  0
LTYPE
  2
CENTER2
 70
               0
  3
CADPAC FUSION LINETYPE
 72
              65
 73
               4
 40
64.0
 49
30.0
 49
-15.0
 49
4.0
 49
-15.0
  0
LTYPE
  2
DASHDOTX2
 70
               0
  3
CADPAC FUSION LINETYPE
 72
              65
 73
               4
 40
100.0
 49
50.0
 49
-25.0
 49
0.0
 49
-25.0
  0
LTYPE
  2
DASHDOT
 70
               0
  3
CADPAC FUSION LINETYPE
 72
              65
 73
               4
 40
80.0
 49
40.0
 49
-20.0
 49
0.0
 49
-20.0
  0
LTYPE
  2
DASHDOT2
 70
               0
  3
CADPAC FUSION LINETYPE
 72
              65
 73
               4
 40
60.0
 49
30.0
 49
-15.0
 49
0.0
 49
-15.0
  0
LTYPE
  2
DIVIDEX2
 70
               0
  3
CADPAC FUSION LINETYPE
 72
              65
 73
               6
 40
125.0
 49
50.0
 49
-25.0
 49
0.0
 49
-25.0
 49
0.0
 49
-25.0
  0
LTYPE
  2
DIVIDE
 70
               0
  3
CADPAC FUSION LINETYPE
 72
              65
 73
               6
 40
100.0
 49
40.0
 49
-20.0
 49
0.0
 49
-20.0
 49
0.0
 49
-20.0
  0
LTYPE
  2
DIVIDE2
 70
               0
  3
CADPAC FUSION LINETYPE
 72
              65
 73
               6
 40
75.0
 49
30.0
 49
-15.0
 49
0.0
 49
-15.0
 49
0.0
 49
-15.0
  0
LTYPE
  2
BORDERX2
 70
               0
  3
CADPAC FUSION LINETYPE
 72
              65
 73
               6
 40
175.0
 49
50.0
 49
-25.0
 49
50.0
 49
-25.0
 49
0.0
 49
-25.0
  0
LTYPE
  2
BORDER
 70
               0
  3
CADPAC FUSION LINETYPE
 72
              65
 73
               6
 40
140.0
 49
40.0
 49
-20.0
 49
40.0
 49
-20.0
 49
0.0
 49
-20.0
  0
LTYPE
  2
BORDER2
 70
               0
  3
CADPAC FUSION LINETYPE
 72
              65
 73
               6
 40
105.0
 49
30.0
 49
-15.0
 49
30.0
 49
-15.0
 49
0.0
 49
-15.0
  0
LTYPE
  2
PHANTOMX2
 70
               0
  3
CADPAC FUSION LINETYPE
 72
              65
 73
               6
 40
150.0
 49
50.0
 49
-20.0
 49
20.0
 49
-20.0
 49
20.0
 49
-20.0
  0
LTYPE
  2
PHANTOM
 70
               0
  3
CADPAC FUSION LINETYPE
 72
              65
 73
               6
 40
124.0
 49
40.0
 49
-20.0
 49
12.0
 49
-20.0
 49
12.0
 49
-20.0
  0
LTYPE
  2
PHANTOM2
 70
               0
  3
CADPAC FUSION LINETYPE
 72
              65
 73
               6
 40
106.0
 49
30.0
 49
-20.0
 49
8.0
 49
-20.0
 49
8.0
 49
-20.0
  0
ENDTAB
  0
TABLE
  2
LAYER
 70
             256
  0
LAYER
  2
0
 70
               0
 62
               7
  6
CONTINUOUS
  0
LAYER
  2
LAYER001
 70
               0
 62
               7
  6
CONTINUOUS
  0
LAYER
  2
LAYER002
 70
               0
 62
               7
  6
CONTINUOUS
  0
LAYER
  2
LAYER003
 70
               0
 62
               7
  6
CONTINUOUS
  0
LAYER
  2
LAYER004
 70
               0
 62
               7
  6
CONTINUOUS
  0
LAYER
  2
LAYER005
 70
               0
 62
               7
  6
CONTINUOUS
  0
LAYER
  2
LAYER006
 70
               0
 62
               7
  6
CONTINUOUS
  0
LAYER
  2
LAYER007
 70
               0
 62
               7
  6
CONTINUOUS
  0
LAYER
  2
LAYER008
 70
               0
 62
               7
  6
CONTINUOUS
  0
LAYER
  2
LAYER009
 70
               0
 62
               7
  6
CONTINUOUS
  0
LAYER
  2
LAYER010
 70
               0
 62
               7
  6
CONTINUOUS
  0
LAYER
  2
LAYER011
 70
               0
 62
               7
  6
CONTINUOUS
  0
LAYER
  2
LAYER012
 70
               0
 62
               7
  6
CONTINUOUS
  0
LAYER
  2
LAYER013
 70
               0
 62
               7
  6
CONTINUOUS
  0
LAYER
  2
LAYER014
 70
               0
 62
               7
  6
CONTINUOUS
  0
LAYER
  2
LAYER015
 70
               0
 62
               7
  6
CONTINUOUS
  0
LAYER
  2
LAYER016
 70
               0
 62
               7
  6
CONTINUOUS
  0
LAYER
  2
LAYER017
 70
               0
 62
               7
  6
CONTINUOUS
  0
LAYER
  2
LAYER018
 70
               0
 62
               7
  6
CONTINUOUS
  0
LAYER
  2
LAYER019
 70
               0
 62
               7
  6
CONTINUOUS
  0
LAYER
  2
LAYER020
 70
               0
 62
               7
  6
CONTINUOUS
  0
LAYER
  2
LAYER021
 70
               0
 62
               7
  6
CONTINUOUS
  0
LAYER
  2
LAYER022
 70
               0
 62
               7
  6
CONTINUOUS
  0
LAYER
  2
LAYER023
 70
               0
 62
               7
  6
CONTINUOUS
  0
LAYER
  2
LAYER024
 70
               0
 62
               7
  6
CONTINUOUS
  0
LAYER
  2
LAYER025
 70
               0
 62
               7
  6
CONTINUOUS
  0
LAYER
  2
LAYER026
 70
               0
 62
               7
  6
CONTINUOUS
  0
LAYER
  2
LAYER027
 70
               0
 62
               7
  6
CONTINUOUS
  0
LAYER
  2
LAYER028
 70
               0
 62
               7
  6
CONTINUOUS
  0
LAYER
  2
LAYER029
 70
               0
 62
               7
  6
CONTINUOUS
  0
LAYER
  2
LAYER030
 70
               0
 62
               7
  6
CONTINUOUS
  0
LAYER
  2
LAYER031
 70
               0
 62
               7
  6
CONTINUOUS
  0
LAYER
  2
LAYER032
 70
               0
 62
               7
  6
CONTINUOUS
  0
LAYER
  2
LAYER033
 70
               0
 62
               7
  6
CONTINUOUS
  0
LAYER
  2
LAYER034
 70
               0
 62
               7
  6
CONTINUOUS
  0
LAYER
  2
LAYER035
 70
               0
 62
               7
  6
CONTINUOUS
  0
LAYER
  2
LAYER036
 70
               0
 62
               7
  6
CONTINUOUS
  0
LAYER
  2
LAYER037
 70
               0
 62
               7
  6
CONTINUOUS
  0
LAYER
  2
LAYER038
 70
               0
 62
               7
  6
CONTINUOUS
  0
LAYER
  2
LAYER039
 70
               0
 62
               7
  6
CONTINUOUS
  0
LAYER
  2
LAYER040
 70
               0
 62
               7
  6
CONTINUOUS
  0
LAYER
  2
LAYER041
 70
               0
 62
               7
  6
CONTINUOUS
  0
LAYER
  2
LAYER042
 70
               0
 62
               7
  6
CONTINUOUS
  0
LAYER
  2
LAYER043
 70
               0
 62
               7
  6
CONTINUOUS
  0
LAYER
  2
LAYER044
 70
               0
 62
               7
  6
CONTINUOUS
  0
LAYER
  2
LAYER045
 70
               0
 62
               7
  6
CONTINUOUS
  0
LAYER
  2
LAYER046
 70
               0
 62
               7
  6
CONTINUOUS
  0
LAYER
  2
LAYER047
 70
               0
 62
               7
  6
CONTINUOUS
  0
LAYER
  2
LAYER048
 70
               0
 62
               7
  6
CONTINUOUS
  0
LAYER
  2
LAYER049
 70
               0
 62
               7
  6
CONTINUOUS
  0
LAYER
  2
LAYER050
 70
               0
 62
               7
  6
CONTINUOUS
  0
LAYER
  2
LAYER051
 70
               0
 62
               7
  6
CONTINUOUS
  0
LAYER
  2
LAYER052
 70
               0
 62
               7
  6
CONTINUOUS
  0
LAYER
  2
LAYER053
 70
               0
 62
               7
  6
CONTINUOUS
  0
LAYER
  2
LAYER054
 70
               0
 62
               7
  6
CONTINUOUS
  0
LAYER
  2
LAYER055
 70
               0
 62
               7
  6
CONTINUOUS
  0
LAYER
  2
LAYER056
 70
               0
 62
               7
  6
CONTINUOUS
  0
LAYER
  2
LAYER057
 70
               0
 62
               7
  6
CONTINUOUS
  0
LAYER
  2
LAYER058
 70
               0
 62
               7
  6
CONTINUOUS
  0
LAYER
  2
LAYER059
 70
               0
 62
               7
  6
CONTINUOUS
  0
LAYER
  2
LAYER060
 70
               0
 62
               7
  6
CONTINUOUS
  0
LAYER
  2
LAYER061
 70
               0
 62
               7
  6
CONTINUOUS
  0
LAYER
  2
LAYER062
 70
               0
 62
               7
  6
CONTINUOUS
  0
LAYER
  2
LAYER063
 70
               0
 62
               7
  6
CONTINUOUS
  0
LAYER
  2
LAYER064
 70
               0
 62
               7
  6
CONTINUOUS
  0
LAYER
  2
LAYER065
 70
               0
 62
               7
  6
CONTINUOUS
  0
LAYER
  2
LAYER066
 70
               0
 62
               7
  6
CONTINUOUS
  0
LAYER
  2
LAYER067
 70
               0
 62
               7
  6
CONTINUOUS
  0
LAYER
  2
LAYER068
 70
               0
 62
               7
  6
CONTINUOUS
  0
LAYER
  2
LAYER069
 70
               0
 62
               7
  6
CONTINUOUS
  0
LAYER
  2
LAYER070
 70
               0
 62
               7
  6
CONTINUOUS
  0
LAYER
  2
LAYER071
 70
               0
 62
               7
  6
CONTINUOUS
  0
LAYER
  2
LAYER072
 70
               0
 62
               7
  6
CONTINUOUS
  0
LAYER
  2
LAYER073
 70
               0
 62
               7
  6
CONTINUOUS
  0
LAYER
  2
LAYER074
 70
               0
 62
               7
  6
CONTINUOUS
  0
LAYER
  2
LAYER075
 70
               0
 62
               7
  6
CONTINUOUS
  0
LAYER
  2
LAYER076
 70
               0
 62
               7
  6
CONTINUOUS
  0
LAYER
  2
LAYER077
 70
               0
 62
               7
  6
CONTINUOUS
  0
LAYER
  2
LAYER078
 70
               0
 62
               7
  6
CONTINUOUS
  0
LAYER
  2
LAYER079
 70
               0
 62
               7
  6
CONTINUOUS
  0
LAYER
  2
LAYER080
 70
               0
 62
               7
  6
CONTINUOUS
  0
LAYER
  2
LAYER081
 70
               0
 62
               7
  6
CONTINUOUS
  0
LAYER
  2
LAYER082
 70
               0
 62
               7
  6
CONTINUOUS
  0
LAYER
  2
LAYER083
 70
               0
 62
               7
  6
CONTINUOUS
  0
LAYER
  2
LAYER084
 70
               0
 62
               7
  6
CONTINUOUS
  0
LAYER
  2
LAYER085
 70
               0
 62
               7
  6
CONTINUOUS
  0
LAYER
  2
LAYER086
 70
               0
 62
               7
  6
CONTINUOUS
  0
LAYER
  2
LAYER087
 70
               0
 62
               7
  6
CONTINUOUS
  0
LAYER
  2
LAYER088
 70
               0
 62
               7
  6
CONTINUOUS
  0
LAYER
  2
LAYER089
 70
               0
 62
               7
  6
CONTINUOUS
  0
LAYER
  2
LAYER090
 70
               0
 62
               7
  6
CONTINUOUS
  0
LAYER
  2
LAYER091
 70
               0
 62
               7
  6
CONTINUOUS
  0
LAYER
  2
LAYER092
 70
               0
 62
               7
  6
CONTINUOUS
  0
LAYER
  2
LAYER093
 70
               0
 62
               7
  6
CONTINUOUS
  0
LAYER
  2
LAYER094
 70
               0
 62
               7
  6
CONTINUOUS
  0
LAYER
  2
LAYER095
 70
               0
 62
               7
  6
CONTINUOUS
  0
LAYER
  2
LAYER096
 70
               0
 62
               7
  6
CONTINUOUS
  0
LAYER
  2
LAYER097
 70
               0
 62
               7
  6
CONTINUOUS
  0
LAYER
  2
LAYER098
 70
               0
 62
               7
  6
CONTINUOUS
  0
LAYER
  2
LAYER099
 70
               0
 62
               7
  6
CONTINUOUS
  0
LAYER
  2
LAYER100
 70
               0
 62
               7
  6
CONTINUOUS
  0
LAYER
  2
LAYER101
 70
               0
 62
               7
  6
CONTINUOUS
  0
LAYER
  2
LAYER102
 70
               0
 62
               7
  6
CONTINUOUS
  0
LAYER
  2
LAYER103
 70
               0
 62
               7
  6
CONTINUOUS
  0
LAYER
  2
LAYER104
 70
               0
 62
               7
  6
CONTINUOUS
  0
LAYER
  2
LAYER105
 70
               0
 62
               7
  6
CONTINUOUS
  0
LAYER
  2
LAYER106
 70
               0
 62
               7
  6
CONTINUOUS
  0
LAYER
  2
LAYER107
 70
               0
 62
               7
  6
CONTINUOUS
  0
LAYER
  2
LAYER108
 70
               0
 62
               7
  6
CONTINUOUS
  0
LAYER
  2
LAYER109
 70
               0
 62
               7
  6
CONTINUOUS
  0
LAYER
  2
LAYER110
 70
               0
 62
               7
  6
CONTINUOUS
  0
LAYER
  2
LAYER111
 70
               0
 62
               7
  6
CONTINUOUS
  0
LAYER
  2
LAYER112
 70
               0
 62
               7
  6
CONTINUOUS
  0
LAYER
  2
LAYER113
 70
               0
 62
               7
  6
CONTINUOUS
  0
LAYER
  2
LAYER114
 70
               0
 62
               7
  6
CONTINUOUS
  0
LAYER
  2
LAYER115
 70
               0
 62
               7
  6
CONTINUOUS
  0
LAYER
  2
LAYER116
 70
               0
 62
               7
  6
CONTINUOUS
  0
LAYER
  2
LAYER117
 70
               0
 62
               7
  6
CONTINUOUS
  0
LAYER
  2
LAYER118
 70
               0
 62
               7
  6
CONTINUOUS
  0
LAYER
  2
LAYER119
 70
               0
 62
               7
  6
CONTINUOUS
  0
LAYER
  2
LAYER120
 70
               0
 62
               7
  6
CONTINUOUS
  0
LAYER
  2
LAYER121
 70
               0
 62
               7
  6
CONTINUOUS
  0
LAYER
  2
LAYER122
 70
               0
 62
               7
  6
CONTINUOUS
  0
LAYER
  2
LAYER123
 70
               0
 62
               7
  6
CONTINUOUS
  0
LAYER
  2
LAYER124
 70
               0
 62
               7
  6
CONTINUOUS
  0
LAYER
  2
LAYER125
 70
               0
 62
               7
  6
CONTINUOUS
  0
LAYER
  2
LAYER126
 70
               0
 62
               7
  6
CONTINUOUS
  0
LAYER
  2
LAYER127
 70
               0
 62
               7
  6
CONTINUOUS
  0
LAYER
  2
LAYER128
 70
               0
 62
               7
  6
CONTINUOUS
  0
LAYER
  2
LAYER129
 70
               0
 62
               7
  6
CONTINUOUS
  0
LAYER
  2
LAYER130
 70
               0
 62
               7
  6
CONTINUOUS
  0
LAYER
  2
LAYER131
 70
               0
 62
               7
  6
CONTINUOUS
  0
LAYER
  2
LAYER132
 70
               0
 62
               7
  6
CONTINUOUS
  0
LAYER
  2
LAYER133
 70
               0
 62
               7
  6
CONTINUOUS
  0
LAYER
  2
LAYER134
 70
               0
 62
               7
  6
CONTINUOUS
  0
LAYER
  2
LAYER135
 70
               0
 62
               7
  6
CONTINUOUS
  0
LAYER
  2
LAYER136
 70
               0
 62
               7
  6
CONTINUOUS
  0
LAYER
  2
LAYER137
 70
               0
 62
               7
  6
CONTINUOUS
  0
LAYER
  2
LAYER138
 70
               0
 62
               7
  6
CONTINUOUS
  0
LAYER
  2
LAYER139
 70
               0
 62
               7
  6
CONTINUOUS
  0
LAYER
  2
LAYER140
 70
               0
 62
               7
  6
CONTINUOUS
  0
LAYER
  2
LAYER141
 70
               0
 62
               7
  6
CONTINUOUS
  0
LAYER
  2
LAYER142
 70
               0
 62
               7
  6
CONTINUOUS
  0
LAYER
  2
LAYER143
 70
               0
 62
               7
  6
CONTINUOUS
  0
LAYER
  2
LAYER144
 70
               0
 62
               7
  6
CONTINUOUS
  0
LAYER
  2
LAYER145
 70
               0
 62
               7
  6
CONTINUOUS
  0
LAYER
  2
LAYER146
 70
               0
 62
               7
  6
CONTINUOUS
  0
LAYER
  2
LAYER147
 70
               0
 62
               7
  6
CONTINUOUS
  0
LAYER
  2
LAYER148
 70
               0
 62
               7
  6
CONTINUOUS
  0
LAYER
  2
LAYER149
 70
               0
 62
               7
  6
CONTINUOUS
  0
LAYER
  2
LAYER150
 70
               0
 62
               7
  6
CONTINUOUS
  0
LAYER
  2
LAYER151
 70
               0
 62
               7
  6
CONTINUOUS
  0
LAYER
  2
LAYER152
 70
               0
 62
               7
  6
CONTINUOUS
  0
LAYER
  2
LAYER153
 70
               0
 62
               7
  6
CONTINUOUS
  0
LAYER
  2
LAYER154
 70
               0
 62
               7
  6
CONTINUOUS
  0
LAYER
  2
LAYER155
 70
               0
 62
               7
  6
CONTINUOUS
  0
LAYER
  2
LAYER156
 70
               0
 62
               7
  6
CONTINUOUS
  0
LAYER
  2
LAYER157
 70
               0
 62
               7
  6
CONTINUOUS
  0
LAYER
  2
LAYER158
 70
               0
 62
               7
  6
CONTINUOUS
  0
LAYER
  2
LAYER159
 70
               0
 62
               7
  6
CONTINUOUS
  0
LAYER
  2
LAYER160
 70
               0
 62
               7
  6
CONTINUOUS
  0
LAYER
  2
LAYER161
 70
               0
 62
               7
  6
CONTINUOUS
  0
LAYER
  2
LAYER162
 70
               0
 62
               7
  6
CONTINUOUS
  0
LAYER
  2
LAYER163
 70
               0
 62
               7
  6
CONTINUOUS
  0
LAYER
  2
LAYER164
 70
               0
 62
               7
  6
CONTINUOUS
  0
LAYER
  2
LAYER165
 70
               0
 62
               7
  6
CONTINUOUS
  0
LAYER
  2
LAYER166
 70
               0
 62
               7
  6
CONTINUOUS
  0
LAYER
  2
LAYER167
 70
               0
 62
               7
  6
CONTINUOUS
  0
LAYER
  2
LAYER168
 70
               0
 62
               7
  6
CONTINUOUS
  0
LAYER
  2
LAYER169
 70
               0
 62
               7
  6
CONTINUOUS
  0
LAYER
  2
LAYER170
 70
               0
 62
               7
  6
CONTINUOUS
  0
LAYER
  2
LAYER171
 70
               0
 62
               7
  6
CONTINUOUS
  0
LAYER
  2
LAYER172
 70
               0
 62
               7
  6
CONTINUOUS
  0
LAYER
  2
LAYER173
 70
               0
 62
               7
  6
CONTINUOUS
  0
LAYER
  2
LAYER174
 70
               0
 62
               7
  6
CONTINUOUS
  0
LAYER
  2
LAYER175
 70
               0
 62
               7
  6
CONTINUOUS
  0
LAYER
  2
LAYER176
 70
               0
 62
               7
  6
CONTINUOUS
  0
LAYER
  2
LAYER177
 70
               0
 62
               7
  6
CONTINUOUS
  0
LAYER
  2
LAYER178
 70
               0
 62
               7
  6
CONTINUOUS
  0
LAYER
  2
LAYER179
 70
               0
 62
               7
  6
CONTINUOUS
  0
LAYER
  2
LAYER180
 70
               0
 62
               7
  6
CONTINUOUS
  0
LAYER
  2
LAYER181
 70
               0
 62
               7
  6
CONTINUOUS
  0
LAYER
  2
LAYER182
 70
               0
 62
               7
  6
CONTINUOUS
  0
LAYER
  2
LAYER183
 70
               0
 62
               7
  6
CONTINUOUS
  0
LAYER
  2
LAYER184
 70
               0
 62
               7
  6
CONTINUOUS
  0
LAYER
  2
LAYER185
 70
               0
 62
               7
  6
CONTINUOUS
  0
LAYER
  2
LAYER186
 70
               0
 62
               7
  6
CONTINUOUS
  0
LAYER
  2
LAYER187
 70
               0
 62
               7
  6
CONTINUOUS
  0
LAYER
  2
LAYER188
 70
               0
 62
               7
  6
CONTINUOUS
  0
LAYER
  2
LAYER189
 70
               0
 62
               7
  6
CONTINUOUS
  0
LAYER
  2
LAYER190
 70
               0
 62
               7
  6
CONTINUOUS
  0
LAYER
  2
LAYER191
 70
               0
 62
               7
  6
CONTINUOUS
  0
LAYER
  2
LAYER192
 70
               0
 62
               7
  6
CONTINUOUS
  0
LAYER
  2
LAYER193
 70
               0
 62
               7
  6
CONTINUOUS
  0
LAYER
  2
LAYER194
 70
               0
 62
               7
  6
CONTINUOUS
  0
LAYER
  2
LAYER195
 70
               0
 62
               7
  6
CONTINUOUS
  0
LAYER
  2
LAYER196
 70
               0
 62
               7
  6
CONTINUOUS
  0
LAYER
  2
LAYER197
 70
               0
 62
               7
  6
CONTINUOUS
  0
LAYER
  2
LAYER198
 70
               0
 62
               7
  6
CONTINUOUS
  0
LAYER
  2
LAYER199
 70
               0
 62
               7
  6
CONTINUOUS
  0
LAYER
  2
LAYER200
 70
               0
 62
               7
  6
CONTINUOUS
  0
LAYER
  2
LAYER201
 70
               0
 62
               7
  6
CONTINUOUS
  0
LAYER
  2
LAYER202
 70
               0
 62
               7
  6
CONTINUOUS
  0
LAYER
  2
LAYER203
 70
               0
 62
               7
  6
CONTINUOUS
  0
LAYER
  2
LAYER204
 70
               0
 62
               7
  6
CONTINUOUS
  0
LAYER
  2
LAYER205
 70
               0
 62
               7
  6
CONTINUOUS
  0
LAYER
  2
LAYER206
 70
               0
 62
               7
  6
CONTINUOUS
  0
LAYER
  2
LAYER207
 70
               0
 62
               7
  6
CONTINUOUS
  0
LAYER
  2
LAYER208
 70
               0
 62
               7
  6
CONTINUOUS
  0
LAYER
  2
LAYER209
 70
               0
 62
               7
  6
CONTINUOUS
  0
LAYER
  2
LAYER210
 70
               0
 62
               7
  6
CONTINUOUS
  0
LAYER
  2
LAYER211
 70
               0
 62
               7
  6
CONTINUOUS
  0
LAYER
  2
LAYER212
 70
               0
 62
               7
  6
CONTINUOUS
  0
LAYER
  2
LAYER213
 70
               0
 62
               7
  6
CONTINUOUS
  0
LAYER
  2
LAYER214
 70
               0
 62
               7
  6
CONTINUOUS
  0
LAYER
  2
LAYER215
 70
               0
 62
               7
  6
CONTINUOUS
  0
LAYER
  2
LAYER216
 70
               0
 62
               7
  6
CONTINUOUS
  0
LAYER
  2
LAYER217
 70
               0
 62
               7
  6
CONTINUOUS
  0
LAYER
  2
LAYER218
 70
               0
 62
               7
  6
CONTINUOUS
  0
LAYER
  2
LAYER219
 70
               0
 62
               7
  6
CONTINUOUS
  0
LAYER
  2
LAYER220
 70
               0
 62
               7
  6
CONTINUOUS
  0
LAYER
  2
LAYER221
 70
               0
 62
               7
  6
CONTINUOUS
  0
LAYER
  2
LAYER222
 70
               0
 62
               7
  6
CONTINUOUS
  0
LAYER
  2
LAYER223
 70
               0
 62
               7
  6
CONTINUOUS
  0
LAYER
  2
LAYER224
 70
               0
 62
               7
  6
CONTINUOUS
  0
LAYER
  2
LAYER225
 70
               0
 62
               7
  6
CONTINUOUS
  0
LAYER
  2
LAYER226
 70
               0
 62
               7
  6
CONTINUOUS
  0
LAYER
  2
LAYER227
 70
               0
 62
               7
  6
CONTINUOUS
  0
LAYER
  2
LAYER228
 70
               0
 62
               7
  6
CONTINUOUS
  0
LAYER
  2
LAYER229
 70
               0
 62
               7
  6
CONTINUOUS
  0
LAYER
  2
LAYER230
 70
               0
 62
               7
  6
CONTINUOUS
  0
LAYER
  2
LAYER231
 70
               0
 62
               7
  6
CONTINUOUS
  0
LAYER
  2
LAYER232
 70
               0
 62
               7
  6
CONTINUOUS
  0
LAYER
  2
LAYER233
 70
               0
 62
               7
  6
CONTINUOUS
  0
LAYER
  2
LAYER234
 70
               0
 62
               7
  6
CONTINUOUS
  0
LAYER
  2
LAYER235
 70
               0
 62
               7
  6
CONTINUOUS
  0
LAYER
  2
LAYER236
 70
               0
 62
               7
  6
CONTINUOUS
  0
LAYER
  2
LAYER237
 70
               0
 62
               7
  6
CONTINUOUS
  0
LAYER
  2
LAYER238
 70
               0
 62
               7
  6
CONTINUOUS
  0
LAYER
  2
LAYER239
 70
               0
 62
               7
  6
CONTINUOUS
  0
LAYER
  2
LAYER240
 70
               0
 62
               7
  6
CONTINUOUS
  0
LAYER
  2
LAYER241
 70
               0
 62
               7
  6
CONTINUOUS
  0
LAYER
  2
LAYER242
 70
               0
 62
               7
  6
CONTINUOUS
  0
LAYER
  2
LAYER243
 70
               0
 62
               7
  6
CONTINUOUS
  0
LAYER
  2
LAYER244
 70
               0
 62
               7
  6
CONTINUOUS
  0
LAYER
  2
LAYER245
 70
               0
 62
               7
  6
CONTINUOUS
  0
LAYER
  2
LAYER246
 70
               0
 62
               7
  6
CONTINUOUS
  0
LAYER
  2
LAYER247
 70
               0
 62
               7
  6
CONTINUOUS
  0
LAYER
  2
LAYER248
 70
               0
 62
               7
  6
CONTINUOUS
  0
LAYER
  2
LAYER249
 70
               0
 62
               7
  6
CONTINUOUS
  0
LAYER
  2
LAYER250
 70
               0
 62
               7
  6
CONTINUOUS
  0
LAYER
  2
LAYER251
 70
               0
 62
               7
  6
CONTINUOUS
  0
LAYER
  2
LAYER252
 70
               0
 62
               7
  6
CONTINUOUS
  0
LAYER
  2
LAYER253
 70
               0
 62
               7
  6
CONTINUOUS
  0
LAYER
  2
LAYER254
 70
               0
 62
               7
  6
CONTINUOUS
  0
LAYER
  2
LAYER255
 70
               0
 62
               7
  6
CONTINUOUS
  0
ENDTAB
  0
TABLE
  2
STYLE
 70
               1
  0
STYLE
  2
STANDARD
 70
               0
 40
0.0
 41
0.8
 50
0.0
 71
               0
 42
40.0
  3
MS PGothic.ttf
  4

  0
ENDTAB
  0
TABLE
  2
VIEW
 70
               0
  0
VIEW
  2
QQQQ
 70
               0
 40
2465.0073300770746
 10
0.1432616081537503
 20
-369.27558943228036
 41
1599.8041081540205
 11
0.0
 21
0.0
 31
1.0
 12
100.0
 22
100.0
 32
0.0
 42
50.0
 43
0.0
 44
0.0
 50
0.0
 71
               0
  0
ENDTAB
  0
TABLE
  2
UCS
 70
               0
  0
ENDTAB
  0
TABLE
  2
APPID
 70
               1
  0
APPID
  2
ACAD
 70
               0
  0
ENDTAB
  0
TABLE
  2
DIMSTYLE
 70
               1
  0
DIMSTYLE
  2
STANDARD
 70
               0
  3

  4

  5

  6

  7

 40
1.0
 41
0.18
 42
0.0625
 43
0.38
 44
0.18
 45
0.0
 46
0.0
 47
0.0
 48
0.0
140
0.18
141
0.09
142
0.0
143
25.399999999999999
144
1.0
145
0.0
146
1.0
147
0.09
 71
               0
 72
               0
 73
               1
 74
               1
 75
               0
 76
               0
 77
               0
 78
               0
170
               0
171
               2
172
               0
173
               0
174
               0
175
               0
176
               0
177
               0
178
               0
  0
ENDTAB
  0
ENDSEC
  0
SECTION
  2
BLOCKS
  0
BLOCK
  8
0
  5
139
  2
GROUP_1
 70
               0
 10
0.0
 20
0.0
 30
0.0
  3
GROUP_1
  0
LINE
  8
0
  6
CONTINUOUS
 62
               4
  5
13A
 10
-56.749999999998622
 20
-146.2097339630113
 30
0.0
 11
69.249999999998991
 21
-20.209733963013718
 31
0.0
  0
LINE
  8
0
  6
CONTINUOUS
 62
               4
  5
13B
 10
-56.749999999998622
 20
-75.499055862425365
 30
0.0
 11
50.749055862426879
 21
32.000000000000114
 31
0.0
  0
LINE
  8
0
  6
CONTINUOUS
 62
               4
  5
13C
 10
-56.749999999998622
 20
-4.7883777618394348
 30
0.0
 11
-19.96162223815907
 21
32.000000000000114
 31
0.0
  0
LINE
  8
0
  6
CONTINUOUS
 62
               4
  5
13D
 10
-37.829587936401147
 20
-197.99999999999977
 30
0.0
 11
69.249999999998991
 21
-90.920412063599656
 31
0.0
  0
LINE
  8
0
  6
CONTINUOUS
 62
               4
  5
13E
 10
32.881090164184805
 20
-197.99999999999977
 30
0.0
 11
69.249999999998991
 21
-161.63109016418559
 31
0.0
  0
ENDBLK
  8
0
  5
13F
  0
BLOCK
  8
0
  5
140
  2
GROUP_2
 70
               0
 10
0.0
 20
0.0
 30
0.0
  3
GROUP_2
  0
LINE
  8
0
  6
CONTINUOUS
 62
               4
  5
141
 10
543.25000000000136
 20
-146.2097339630113
 30
0.0
 11
669.24999999999898
 21
-20.209733963013718
 31
0.0
  0
LINE
  8
0
  6
CONTINUOUS
 62
               4
  5
142
 10
543.25000000000136
 20
-75.499055862425365
 30
0.0
 11
650.74905586242687
 21
32.000000000000114
 31
0.0
  0
LINE
  8
0
  6
CONTINUOUS
 62
               4
  5
143
 10
543.25000000000136
 20
-4.7883777618394348
 30
0.0
 11
580.03837776184093
 21
32.000000000000114
 31
0.0
  0
LINE
  8
0
  6
CONTINUOUS
 62
               4
  5
144
 10
562.17041206359886
 20
-197.99999999999977
 30
0.0
 11
669.24999999999898
 21
-90.920412063599656
 31
0.0
  0
LINE
  8
0
  6
CONTINUOUS
 62
               4
  5
145
 10
632.8810901641848
 20
-197.99999999999977
 30
0.0
 11
669.24999999999898
 21
-161.63109016418559
 31
0.0
  0
ENDBLK
  8
0
  5
146
  0
BLOCK
  8
0
  5
147
  2
GROUP_3
 70
               0
 10
0.0
 20
0.0
 30
0.0
  3
GROUP_3
  0
LINE
  8
0
  6
CONTINUOUS
 62
               4
  5
148
 10
-706.74999999999864
 20
-146.2097339630113
 30
0.0
 11
-580.75000000000102
 21
-20.209733963013718
 31
0.0
  0
LINE
  8
0
  6
CONTINUOUS
 62
               4
  5
149
 10
-706.74999999999864
 20
-75.499055862425365
 30
0.0
 11
-599.25094413757313
 21
32.000000000000114
 31
0.0
  0
LINE
  8
0
  6
CONTINUOUS
 62
               4
  5
14A
 10
-706.74999999999864
 20
-4.7883777618394348
 30
0.0
 11
-669.96162223815907
 21
32.000000000000114
 31
0.0
  0
LINE
  8
0
  6
CONTINUOUS
 62
               4
  5
14B
 10
-687.82958793640114
 20
-197.99999999999977
 30
0.0
 11
-580.75000000000102
 21
-90.920412063599656
 31
0.0
  0
LINE
  8
0
  6
CONTINUOUS
 62
               4
  5
14C
 10
-617.1189098358152
 20
-197.99999999999977
 30
0.0
 11
-580.75000000000102
 21
-161.63109016418559
 31
0.0
  0
ENDBLK
  8
0
  5
14D
  0
ENDSEC
  0
SECTION
  2
ENTITIES
  0
LINE
  8
0
  6
CONTINUOUS
 62
               3
  5
14E
 10
526.24999999999989
 20
302.50000000000011
 30
0.0
 11
686.25000000000023
 21
302.50000000000011
 31
0.0
  0
LINE
  8
0
  6
CONTINUOUS
 62
               3
  5
14F
 10
-120.75000000000006
 20
701.11234272929198
 30
0.0
 11
-120.07844387403583
 21
701.11234272929198
 31
0.0
  0
LINE
  8
0
  6
CONTINUOUS
 62
               3
  5
150
 10
-117.74999999999994
 20
703.44078660332718
 30
0.0
 11
-120.07844387403583
 21
701.11234272929198
 31
0.0
  0
LINE
  8
0
  6
CONTINUOUS
 62
               3
  5
151
 10
-120.74999999999993
 20
591.11234272929198
 30
0.0
 11
-120.0784438740357
 21
591.11234272929198
 31
0.0
  0
LINE
  8
0
  6
CONTINUOUS
 62
               3
  5
152
 10
-117.74999999999982
 20
588.7838988552561
 30
0.0
 11
-120.0784438740357
 21
591.11234272929198
 31
0.0
  0
LINE
  8
0
  6
CONTINUOUS
 62
               3
  5
153
 10
-120.0784438740357
 20
591.11234272929198
 30
0.0
 11
-120.07844387403583
 21
701.11234272929198
 31
0.0
  0
LINE
  8
0
  6
CONTINUOUS
 62
               3
  5
154
 10
-117.74999999999994
 20
703.44078660332718
 30
0.0
 11
-117.74999999999982
 21
588.7838988552561
 31
0.0
  0
LINE
  8
0
  6
CONTINUOUS
 62
               3
  5
155
 10
-125.74999999999994
 20
591.2838988552561
 30
0.0
 11
-125.75000000000006
 21
700.94078660332718
 31
0.0
  0
LINE
  8
0
  6
CONTINUOUS
 62
               3
  5
156
 10
-120.75000000000006
 20
703.44078660332718
 30
0.0
 11
-120.74999999999993
 21
588.7838988552561
 31
0.0
  0
LINE
  8
0
  6
CONTINUOUS
 62
               3
  5
157
 10
-120.74999999999993
 20
588.7838988552561
 30
0.0
 11
-123.24999999999993
 21
588.7838988552561
 31
0.0
  0
LINE
  8
0
  6
CONTINUOUS
 62
               3
  5
158
 10
-120.75000000000006
 20
703.44078660332718
 30
0.0
 11
-123.25000000000006
 21
703.44078660332718
 31
0.0
  0
ARC
  8
0
  6
CONTINUOUS
 62
               3
  5
159
 10
-123.25000000000006
 20
700.94078660332718
 30
0.0
 40
2.5
 50
89.999999999999801
 51
179.9999999999996
  0
ARC
  8
0
  6
CONTINUOUS
 62
               3
  5
15A
 10
-123.24999999999993
 20
591.2838988552561
 30
0.0
 40
2.5
 50
179.9999999999996
 51
269.99999999999937
  0
LINE
  8
0
  6
CONTINUOUS
 62
               3
  5
15B
 10
-111.7692432421386
 20
708.65268695294924
 30
0.0
 11
-111.7692432421386
 21
703.64963923145467
 31
0.0
  0
LINE
  8
0
  6
CONTINUOUS
 62
               3
  5
15C
 10
-111.76924324213874
 20
708.64963923145467
 30
0.0
 11
-40.342876935521545
 21
711.14390290488143
 31
0.0
  0
LINE
  8
0
  6
CONTINUOUS
 62
               3
  5
15D
 10
-111.76924324213874
 20
583.57504622712884
 30
0.0
 11
-40.342876935521545
 21
581.08078255370185
 31
0.0
  0
LINE
  8
0
  6
CONTINUOUS
 62
               3
  5
15E
 10
-111.7692432421386
 20
583.57199850563427
 30
0.0
 11
-111.7692432421386
 21
588.57504622712884
 31
0.0
  0
CIRCLE
  8
0
  6
CONTINUOUS
 62
               3
  5
15F
 10
6.2500000000000711
 20
646.11234272929175
 30
0.0
 40
80.000000000000114
  0
LINE
  8
0
  6
CONTINUOUS
 62
               3
  5
160
 10
-111.76924324213881
 20
162.21190034962183
 30
0.0
 11
-75.401005032973728
 21
163.30730336548652
 31
0.0
  0
LINE
  8
0
  6
CONTINUOUS
 62
               3
  5
161
 10
-65.749999999998806
 20
200.86482743905151
 30
0.0
 11
-65.749999999998806
 21
173.30121163567742
 31
0.0
  0
ARC
  8
0
  6
CONTINUOUS
 62
               3
  5
162
 10
-75.749999999998806
 20
173.30121163567742
 30
0.0
 40
10.0
 50
271.99999999999966
 51
359.9999999999992
  0
ARC
  8
0
  6
CONTINUOUS
 62
               3
  5
163
 10
-75.749999999998806
 20
200.86482743905151
 30
0.0
 40
10.0
 50
359.9999999999992
 51
400.36759354418882
  0
ARC
  8
0
  6
CONTINUOUS
 62
               3
  5
164
 10
-59.749999999999716
 20
214.46629794778835
 30
0.0
 40
11.0
 50
179.9999999999996
 51
220.36759354418962
  0
LINE
  8
0
  6
CONTINUOUS
 62
               3
  5
165
 10
-73.750000000000057
 20
302.50000000000011
 30
0.0
 11
-73.750000000000057
 21
278.5
 31
0.0
  0
ARC
  8
0
  6
CONTINUOUS
 62
               3
  5
166
 10
-75.750000000000227
 20
273.91742430504428
 30
0.0
 40
5.0
 50
0.0000000000008142
 51
66.421821521796758
  0
LINE
  8
0
  6
CONTINUOUS
 62
               3
  5
167
 10
86.250000000000227
 20
302.50000000000011
 30
0.0
 11
86.250000000000227
 21
278.5
 31
0.0
  0
ARC
  8
0
  6
CONTINUOUS
 62
               3
  5
168
 10
88.250000000000256
 20
273.91742430504416
 30
0.0
 40
5.0
 50
113.57817847820283
 51
179.99999999999878
  0
LINE
  8
0
  6
CONTINUOUS
 62
               3
  5
169
 10
83.250000000000682
 20
274.54357855328612
 30
0.0
 11
83.249999999999829
 21
214.46629794778823
 31
0.0
  0
ARC
  8
0
  6
CONTINUOUS
 62
               3
  5
16A
 10
72.249999999999744
 20
214.46629794778823
 30
0.0
 40
11.0
 50
319.63240645580919
 51
359.9999999999992
  0
ARC
  8
0
  6
CONTINUOUS
 62
               3
  5
16B
 10
88.249999999998835
 20
200.8648274390514
 30
0.0
 40
10.0
 50
139.63240645580998
 51
179.9999999999996
  0
LINE
  8
0
  6
CONTINUOUS
 62
               3
  5
16C
 10
78.249999999998835
 20
89.0
 30
0.0
 11
69.249999999998778
 21
43.753944570867475
 31
0.0
  0
LINE
  8
0
  6
CONTINUOUS
 62
               3
  5
16D
 10
78.249999999998835
 20
200.86482703215927
 30
0.0
 11
78.249999999998835
 21
89.0
 31
0.0
  0
LINE
  8
0
  6
CONTINUOUS
 62
               3
  5
16E
 10
-120.75000000000013
 20
154.67460384745914
 30
0.0
 11
-120.0784438740359
 21
154.67460384745914
 31
0.0
  0
LINE
  8
0
  6
CONTINUOUS
 62
               3
  5
16F
 10
-117.75000000000001
 20
157.00304772149423
 30
0.0
 11
-120.0784438740359
 21
154.67460384745914
 31
0.0
  0
LINE
  8
0
  6
CONTINUOUS
 62
               3
  5
170
 10
-120.07844387403576
 20
44.674603847459139
 30
0.0
 11
-120.0784438740359
 21
154.67460384745914
 31
0.0
  0
LINE
  8
0
  6
CONTINUOUS
 62
               3
  5
171
 10
-117.75000000000001
 20
157.00304772149423
 30
0.0
 11
-117.74999999999987
 21
42.346159973423255
 31
0.0
  0
LINE
  8
0
  6
CONTINUOUS
 62
               3
  5
172
 10
-120.75000000000013
 20
157.00304772149423
 30
0.0
 11
-120.74999999999999
 21
42.346159973423255
 31
0.0
  0
LINE
  8
0
  6
CONTINUOUS
 62
               3
  5
173
 10
-120.75000000000013
 20
157.00304772149423
 30
0.0
 11
-123.25000000000013
 21
157.00304772149423
 31
0.0
  0
ARC
  8
0
  6
CONTINUOUS
 62
               3
  5
174
 10
-123.25000000000013
 20
154.50304772149423
 30
0.0
 40
2.5
 50
89.999999999999801
 51
179.9999999999996
  0
LINE
  8
0
  6
CONTINUOUS
 62
               3
  5
175
 10
-70.750000000000227
 20
273.91742430504428
 30
0.0
 11
-70.750000000000227
 21
214.46629794778823
 31
0.0
  0
LINE
  8
0
  6
CONTINUOUS
 62
               3
  5
176
 10
-125.74999999999999
 20
44.846159973423255
 30
0.0
 11
-125.75000000000013
 21
154.50304772149423
 31
0.0
  0
LINE
  8
0
  6
CONTINUOUS
 62
               3
  5
177
 10
-73.750000000000057
 20
302.50000000000011
 30
0.0
 11
86.250000000000227
 21
302.50000000000011
 31
0.0
  0
LINE
  8
0
  6
CONTINUOUS
 62
               3
  5
178
 10
-111.76924324213867
 20
162.21494807111628
 30
0.0
 11
-111.76924324213867
 21
157.21190034962183
 31
0.0
  0
ARC
  8
0
  6
CONTINUOUS
 62
               3
  5
179
 10
-725.74999999999886
 20
200.86482743905151
 30
0.0
 40
10.0
 50
359.9999999999992
 51
400.36759354418882
  0
ARC
  8
0
  6
CONTINUOUS
 62
               3
  5
17A
 10
-709.74999999999977
 20
214.46629794778835
 30
0.0
 40
11.0
 50
179.9999999999996
 51
220.36759354418962
  0
LINE
  8
0
  6
CONTINUOUS
 62
               3
  5
17B
 10
-723.75000000000011
 20
302.50000000000011
 30
0.0
 11
-723.75000000000011
 21
278.5
 31
0.0
  0
ARC
  8
0
  6
CONTINUOUS
 62
               3
  5
17C
 10
-725.75000000000023
 20
273.91742430504428
 30
0.0
 40
5.0
 50
0.0000000000008142
 51
66.421821521796758
  0
LINE
  8
0
  6
CONTINUOUS
 62
               3
  5
17D
 10
-563.74999999999977
 20
302.50000000000011
 30
0.0
 11
-563.74999999999977
 21
278.5
 31
0.0
  0
ARC
  8
0
  6
CONTINUOUS
 62
               3
  5
17E
 10
-561.74999999999977
 20
273.91742430504416
 30
0.0
 40
5.0
 50
113.57817847820283
 51
179.99999999999878
  0
LINE
  8
0
  6
CONTINUOUS
 62
               3
  5
17F
 10
-566.74999999999932
 20
274.54357855328612
 30
0.0
 11
-566.75000000000023
 21
214.46629794778823
 31
0.0
  0
ARC
  8
0
  6
CONTINUOUS
 62
               3
  5
180
 10
-577.75000000000023
 20
214.46629794778823
 30
0.0
 40
11.0
 50
319.63240645580919
 51
359.9999999999992
  0
ARC
  8
0
  6
CONTINUOUS
 62
               3
  5
181
 10
-561.75000000000114
 20
200.8648274390514
 30
0.0
 40
10.0
 50
139.63240645580998
 51
179.9999999999996
  0
LINE
  8
0
  6
CONTINUOUS
 62
               3
  5
182
 10
-720.75000000000023
 20
273.91742430504428
 30
0.0
 11
-720.75000000000023
 21
214.46629794778823
 31
0.0
  0
LINE
  8
0
  6
CONTINUOUS
 62
               3
  5
183
 10
-723.75000000000011
 20
302.50000000000011
 30
0.0
 11
-563.74999999999977
 21
302.50000000000011
 31
0.0
  0
CIRCLE
  8
0
  6
CONTINUOUS
 62
               3
  5
184
 10
-643.75
 20
99.499999999999886
 30
0.0
 40
57.5
  0
LINE
  8
0
  6
CONTINUOUS
 62
               3
  5
185
 10
-571.75000000000114
 20
200.86482703215927
 30
0.0
 11
-571.75000000000114
 21
89.0
 31
0.0
  0
LINE
  8
0
  6
CONTINUOUS
 62
               3
  5
186
 10
-571.75000000000114
 20
89.0
 30
0.0
 11
-580.75000000000125
 21
43.753944570867475
 31
0.0
  0
LINE
  8
0
  6
CONTINUOUS
 62
               3
  5
187
 10
-715.74999999999864
 20
200.86482703215927
 30
0.0
 11
-715.74999999999864
 21
89.0
 31
0.0
  0
LINE
  8
0
  6
CONTINUOUS
 62
               3
  5
188
 10
-715.74999999999864
 20
89.0
 30
0.0
 11
-706.74999999999864
 21
43.753944570867475
 31
0.0
  0
ARC
  8
0
  6
CONTINUOUS
 62
               3
  5
189
 10
524.25000000000114
 20
200.86482743905151
 30
0.0
 40
10.0
 50
359.9999999999992
 51
400.36759354418882
  0
ARC
  8
0
  6
CONTINUOUS
 62
               3
  5
18A
 10
540.25000000000023
 20
214.46629794778835
 30
0.0
 40
11.0
 50
179.9999999999996
 51
220.36759354418962
  0
LINE
  8
0
  6
CONTINUOUS
 62
               3
  5
18B
 10
526.24999999999989
 20
302.50000000000011
 30
0.0
 11
526.24999999999989
 21
278.5
 31
0.0
  0
ARC
  8
0
  6
CONTINUOUS
 62
               3
  5
18C
 10
524.24999999999977
 20
273.91742430504428
 30
0.0
 40
5.0
 50
0.0000000000008142
 51
66.421821521796758
  0
LINE
  8
0
  6
CONTINUOUS
 62
               3
  5
18D
 10
686.25000000000023
 20
302.50000000000011
 30
0.0
 11
686.25000000000023
 21
278.5
 31
0.0
  0
ARC
  8
0
  6
CONTINUOUS
 62
               3
  5
18E
 10
688.25000000000023
 20
273.91742430504416
 30
0.0
 40
5.0
 50
113.57817847820283
 51
179.99999999999878
  0
LINE
  8
0
  6
CONTINUOUS
 62
               3
  5
18F
 10
683.25000000000068
 20
274.54357855328612
 30
0.0
 11
683.24999999999989
 21
214.46629794778823
 31
0.0
  0
ARC
  8
0
  6
CONTINUOUS
 62
               3
  5
190
 10
672.24999999999966
 20
214.46629794778823
 30
0.0
 40
11.0
 50
319.63240645580919
 51
359.9999999999992
  0
ARC
  8
0
  6
CONTINUOUS
 62
               3
  5
191
 10
688.24999999999875
 20
200.8648274390514
 30
0.0
 40
10.0
 50
139.63240645580998
 51
179.9999999999996
  0
LINE
  8
0
  6
CONTINUOUS
 62
               3
  5
192
 10
529.24999999999977
 20
273.91742430504428
 30
0.0
 11
529.24999999999977
 21
214.46629794778823
 31
0.0
  0
LINE
  8
0
  6
CONTINUOUS
 62
               3
  5
193
 10
678.24999999999875
 20
200.86482703215927
 30
0.0
 11
678.24999999999875
 21
89.0
 31
0.0
  0
LINE
  8
0
  6
CONTINUOUS
 62
               3
  5
194
 10
678.24999999999875
 20
89.0
 30
0.0
 11
669.24999999999864
 21
43.753944570867475
 31
0.0
  0
LINE
  8
0
  6
CONTINUOUS
 62
               3
  5
195
 10
534.25000000000136
 20
200.86482703215927
 30
0.0
 11
534.25000000000136
 21
89.0
 31
0.0
  0
LINE
  8
0
  6
CONTINUOUS
 62
               3
  5
196
 10
534.25000000000136
 20
89.0
 30
0.0
 11
543.25000000000136
 21
43.753944570867475
 31
0.0
  0
LINE
  8
0
  6
CONTINUOUS
 62
               3
  5
197
 10
-120.74999999999999
 20
44.674603847459139
 30
0.0
 11
-120.07844387403576
 21
44.674603847459139
 31
0.0
  0
LINE
  8
0
  6
CONTINUOUS
 62
               3
  5
198
 10
-117.74999999999987
 20
42.346159973423255
 30
0.0
 11
-120.07844387403576
 21
44.674603847459139
 31
0.0
  0
LINE
  8
0
  6
CONTINUOUS
 62
               3
  5
199
 10
-120.74999999999999
 20
42.346159973423255
 30
0.0
 11
-123.24999999999999
 21
42.346159973423255
 31
0.0
  0
ARC
  8
0
  6
CONTINUOUS
 62
               3
  5
19A
 10
-123.24999999999999
 20
44.846159973423255
 30
0.0
 40
2.5
 50
179.9999999999996
 51
269.99999999999937
  0
LINE
  8
0
  6
CONTINUOUS
 62
               3
  5
19B
 10
-111.76924324213867
 20
35.209259623802495
 30
0.0
 11
-61.544435650297999
 21
33.348364620367647
 31
0.0
  0
LINE
  8
0
  6
CONTINUOUS
 62
               3
  5
19C
 10
-111.76924324213867
 20
42.099564660036549
 30
0.0
 11
-111.76924324213867
 21
35.209259623802495
 31
0.0
  0
LINE
  8
0
  6
CONTINUOUS
 62
               3
  5
19D
 10
69.250000000001009
 20
-292.49999999999989
 30
0.0
 11
69.249999999998991
 21
32.000000000000114
 31
0.0
  0
LINE
  8
0
  6
CONTINUOUS
 62
               3
  5
19E
 10
69.249999999998991
 20
32.000000000000114
 30
0.0
 11
69.249999999998991
 21
43.753944570867475
 31
0.0
  0
ARC
  8
0
  6
CONTINUOUS
 62
               3
  5
19F
 10
-61.749999999998607
 20
28.352090909536287
 30
0.0
 40
5.0
 50
0.0
 51
87.643741965968047
  0
LINE
  8
0
  6
CONTINUOUS
 62
               3
  5
1A0
 10
60.751218345963451
 20
-367.49999999999994
 30
0.0
 11
62.750000000000199
 21
-365.56979899340485
 31
0.0
  0
LINE
  8
0
  6
CONTINUOUS
 62
               3
  5
1A1
 10
-48.251218345963167
 20
-367.49999999999994
 30
0.0
 11
-50.249999999999915
 21
-365.56979899340485
 31
0.0
  0
LINE
  8
0
  6
CONTINUOUS
 62
               3
  5
1A2
 10
60.751218345963451
 20
-367.49999999999994
 30
0.0
 11
-48.251218345963167
 21
-367.49999999999994
 31
0.0
  0
LINE
  8
0
  6
CONTINUOUS
 62
               3
  5
1A3
 10
-56.749999999998622
 20
-292.49999999999994
 30
0.0
 11
-56.749999999998622
 21
28.352090909536287
 31
0.0
  0
LINE
  8
0
  6
CONTINUOUS
 62
               3
  5
1A4
 10
-56.749999999998735
 20
-292.49999999999994
 30
0.0
 11
69.249999999998792
 21
-292.49999999999994
 31
0.0
  0
LINE
  8
0
  6
CONTINUOUS
 62
               3
  5
1A5
 10
-50.250000000000099
 20
-302.49999999999994
 30
0.0
 11
62.750000000000014
 21
-302.49999999999994
 31
0.0
  0
LINE
  8
0
  6
CONTINUOUS
 62
               3
  5
1A6
 10
-56.749999999998877
 20
-277.49999999999994
 30
0.0
 11
69.250000000000924
 21
-277.49999999999994
 31
0.0
  0
LINE
  8
0
  6
CONTINUOUS
 62
               3
  5
1A7
 10
-50.250000000000099
 20
-292.49999999999994
 30
0.0
 11
-50.250000000000099
 21
-365.56979899340485
 31
0.0
  0
LINE
  8
0
  6
CONTINUOUS
 62
               3
  5
1A8
 10
62.750000000000014
 20
-292.49999999999994
 30
0.0
 11
62.750000000000014
 21
-365.56979899340485
 31
0.0
  0
LINE
  8
0
  6
CONTINUOUS
 62
               3
  5
1A9
 10
-55.750000000000739
 20
-447.49999999999881
 30
0.0
 11
-55.750000000000739
 21
-432.49999999999972
 31
0.0
  0
LINE
  8
0
  6
CONTINUOUS
 62
               3
  5
1AA
 10
-58.750000000000568
 20
-447.49999999999881
 30
0.0
 11
71.249999999999403
 21
-447.49999999999881
 31
0.0
  0
ARC
  8
0
  6
CONTINUOUS
 62
               3
  5
1AB
 10
-69.749999999999943
 20
-306.50000000000063
 30
0.0
 40
4.0
 50
89.999999999982236
 51
179.99999999996518
  0
ARC
  8
0
  6
CONTINUOUS
 62
               3
  5
1AC
 10
-72.749999999999915
 20
-303.50000000000063
 30
0.0
 40
1.0000000000000004
 50
89.999999999981483
 51
179.99999999996524
  0
ARC
  8
0
  6
CONTINUOUS
 62
               3
  5
1AD
 10
-72.749999999999915
 20
-303.50000000000063
 30
0.0
 40
1.9999999999999996
 50
89.999999999983004
 51
179.99999999996524
  0
LINE
  8
0
  6
CONTINUOUS
 62
               3
  5
1AE
 10
-74.749999999999943
 20
-303.50000000000063
 30
0.0
 11
-74.750000000000512
 21
-366.49999999999949
 31
0.0
  0
LINE
  8
0
  6
CONTINUOUS
 62
               3
  5
1AF
 10
-73.750000000000142
 20
-303.50000000000063
 30
0.0
 11
-73.750000000000711
 21
-366.49999999999949
 31
0.0
  0
ARC
  8
0
  6
CONTINUOUS
 62
               3
  5
1B0
 10
-75.750000000000455
 20
-366.49999999999949
 30
0.0
 40
1.9999999999999996
 50
269.99999999994748
 51
359.99999999993048
  0
ARC
  8
0
  6
CONTINUOUS
 62
               3
  5
1B1
 10
-75.750000000000455
 20
-366.49999999999949
 30
0.0
 40
1.0000000000000004
 50
269.99999999994748
 51
359.99999999993048
  0
LINE
  8
0
  6
CONTINUOUS
 62
               3
  5
1B2
 10
-75.750000000000455
 20
-368.49999999999949
 30
0.0
 11
-138.75000000000057
 21
-368.49999999999994
 31
0.0
  0
LINE
  8
0
  6
CONTINUOUS
 62
               3
  5
1B3
 10
-75.750000000000455
 20
-367.49999999999949
 30
0.0
 11
-138.75000000000057
 21
-367.49999999999994
 31
0.0
  0
LINE
  8
0
  6
CONTINUOUS
 62
               3
  5
1B4
 10
-58.750000000000142
 20
-301.50000000000063
 30
0.0
 11
-72.749999999999915
 21
-301.50000000000063
 31
0.0
  0
LINE
  8
0
  6
CONTINUOUS
 62
               3
  5
1B5
 10
6.25
 20
-302.49999999999994
 30
0.0
 11
-72.749999999999915
 21
-302.50000000000063
 31
0.0
  0
LINE
  8
0
  6
CONTINUOUS
 62
               3
  5
1B6
 10
-58.750000000000142
 20
-301.50000000000063
 30
0.0
 11
-58.750000000000142
 21
-302.50000000000051
 31
0.0
  0
LINE
  8
0
  6
CONTINUOUS
 62
               3
  5
1B7
 10
-58.749999999999574
 20
-433.49999999999949
 30
0.0
 11
-72.749999999999488
 21
-433.49999999999972
 31
0.0
  0
ARC
  8
0
  6
CONTINUOUS
 62
               3
  5
1B8
 10
-72.749999999999488
 20
-431.49999999999972
 30
0.0
 40
1.0000000000000004
 50
179.99999999996601
 51
269.99999999994748
  0
ARC
  8
0
  6
CONTINUOUS
 62
               3
  5
1B9
 10
-72.749999999999488
 20
-431.49999999999972
 30
0.0
 40
1.9999999999999996
 50
179.99999999996601
 51
269.99999999994901
  0
ARC
  8
0
  6
CONTINUOUS
 62
               3
  5
1BA
 10
-69.749999999999659
 20
-428.49999999999972
 30
0.0
 40
4.0
 50
179.99999999996601
 51
269.99999999994901
  0
LINE
  8
0
  6
CONTINUOUS
 62
               3
  5
1BB
 10
-58.749999999999574
 20
-433.49999999999949
 30
0.0
 11
-58.749999999999574
 21
-432.49999999999972
 31
0.0
  0
LINE
  8
0
  6
CONTINUOUS
 62
               3
  5
1BC
 10
-74.749999999999659
 20
-431.49999999999972
 30
0.0
 11
-74.750000000000512
 21
-370.49999999999949
 31
0.0
  0
LINE
  8
0
  6
CONTINUOUS
 62
               3
  5
1BD
 10
-73.749999999999574
 20
-431.49999999999972
 30
0.0
 11
-73.750000000000568
 21
-370.49999999999949
 31
0.0
  0
LINE
  8
0
  6
CONTINUOUS
 62
               3
  5
1BE
 10
6.2499999999994316
 20
-432.49999999999881
 30
0.0
 11
-72.749999999999488
 21
-432.49999999999972
 31
0.0
  0
LINE
  8
0
  6
CONTINUOUS
 62
               3
  5
1BF
 10
6.2499999999994316
 20
-409.99999999999881
 30
0.0
 11
-73.749999999999716
 21
-409.99999999999949
 31
0.0
  0
ARC
  8
0
  6
CONTINUOUS
 62
               3
  5
1C0
 10
-75.750000000000455
 20
-370.49999999999949
 30
0.0
 40
1.9999999999999996
 50
0.000000000001145
 51
89.999999999983004
  0
ARC
  8
0
  6
CONTINUOUS
 62
               3
  5
1C1
 10
-75.750000000000455
 20
-370.49999999999949
 30
0.0
 40
1.0000000000000004
 50
0.0000000000007633
 51
89.999999999984539
  0
LINE
  8
0
  6
CONTINUOUS
 62
               3
  5
1C2
 10
-75.750000000000455
 20
-369.49999999999949
 30
0.0
 11
-138.75000000000057
 21
-369.49999999999994
 31
0.0
  0
LINE
  8
0
  6
CONTINUOUS
 62
               3
  5
1C3
 10
-73.750000000000142
 20
-325.50000000000063
 30
0.0
 11
6.25
 21
-325.50000000000063
 31
0.0
  0
LINE
  8
0
  6
CONTINUOUS
 62
               3
  5
1C4
 10
-70.750000000000171
 20
-325.50000000000063
 30
0.0
 11
-70.750000000000739
 21
-409.99999999999949
 31
0.0
  0
LINE
  8
0
  6
CONTINUOUS
 62
               3
  5
1C5
 10
-138.75000000000057
 20
-367.49999999999994
 30
0.0
 11
-138.75000000000057
 21
-368.49999999999994
 31
0.0
  0
LINE
  8
0
  6
CONTINUOUS
 62
               3
  5
1C6
 10
-138.75000000000057
 20
-369.49999999999994
 30
0.0
 11
-138.75000000000057
 21
-368.49999999999994
 31
0.0
  0
LINE
  8
0
  6
CONTINUOUS
 62
               3
  5
1C7
 10
-81.000000000000512
 20
-365.99999999999949
 30
0.0
 11
-88.500000000000512
 21
-365.99999999999949
 31
0.0
  0
LINE
  8
0
  6
CONTINUOUS
 62
               3
  5
1C8
 10
-81.000000000000512
 20
-370.99999999999949
 30
0.0
 11
-88.500000000000512
 21
-370.99999999999972
 31
0.0
  0
LINE
  8
0
  6
CONTINUOUS
 62
               3
  5
1C9
 10
-81.000000000000512
 20
-365.99999999999949
 30
0.0
 11
-81.000000000000512
 21
-367.49999999999949
 31
0.0
  0
LINE
  8
0
  6
CONTINUOUS
 62
               3
  5
1CA
 10
-81.000000000000512
 20
-369.49999999999949
 30
0.0
 11
-81.000000000000512
 21
-370.99999999999949
 31
0.0
  0
LINE
  8
0
  6
CONTINUOUS
 62
               3
  5
1CB
 10
-88.500000000000512
 20
-365.99999999999949
 30
0.0
 11
-88.500000000000512
 21
-367.49999999999949
 31
0.0
  0
LINE
  8
0
  6
CONTINUOUS
 62
               3
  5
1CC
 10
-88.500000000000512
 20
-369.49999999999972
 30
0.0
 11
-88.500000000000512
 21
-370.99999999999972
 31
0.0
  0
ARC
  8
0
  6
CONTINUOUS
 62
               3
  5
1CD
 10
82.249999999999801
 20
-306.50000000000063
 30
0.0
 40
4.0
 50
0.0000000000344079
 51
90.000000000017366
  0
ARC
  8
0
  6
CONTINUOUS
 62
               3
  5
1CE
 10
85.249999999999744
 20
-303.50000000000063
 30
0.0
 40
1.0000000000000004
 50
0.000000000034357
 51
90.000000000018133
  0
ARC
  8
0
  6
CONTINUOUS
 62
               3
  5
1CF
 10
85.249999999999744
 20
-303.50000000000063
 30
0.0
 40
1.9999999999999996
 50
0.000000000034357
 51
90.000000000016598
  0
LINE
  8
0
  6
CONTINUOUS
 62
               3
  5
1D0
 10
87.249999999999801
 20
-303.50000000000063
 30
0.0
 11
87.249999999999233
 21
-366.49999999999949
 31
0.0
  0
LINE
  8
0
  6
CONTINUOUS
 62
               3
  5
1D1
 10
86.249999999999972
 20
-303.50000000000063
 30
0.0
 11
86.249999999999403
 21
-366.49999999999949
 31
0.0
  0
ARC
  8
0
  6
CONTINUOUS
 62
               3
  5
1D2
 10
88.249999999999289
 20
-366.49999999999949
 30
0.0
 40
1.9999999999999996
 50
180.0000000000683
 51
270.00000000005133
  0
ARC
  8
0
  6
CONTINUOUS
 62
               3
  5
1D3
 10
88.249999999999289
 20
-366.49999999999949
 30
0.0
 40
1.0000000000000004
 50
180.0000000000683
 51
270.00000000005133
  0
LINE
  8
0
  6
CONTINUOUS
 62
               3
  5
1D4
 10
88.249999999999289
 20
-368.49999999999949
 30
0.0
 11
151.2499999999994
 21
-368.49999999999994
 31
0.0
  0
LINE
  8
0
  6
CONTINUOUS
 62
               3
  5
1D5
 10
88.249999999999289
 20
-367.49999999999949
 30
0.0
 11
151.2499999999994
 21
-367.49999999999994
 31
0.0
  0
LINE
  8
0
  6
CONTINUOUS
 62
               3
  5
1D6
 10
71.249999999999972
 20
-301.50000000000063
 30
0.0
 11
85.249999999999744
 21
-301.50000000000063
 31
0.0
  0
LINE
  8
0
  6
CONTINUOUS
 62
               3
  5
1D7
 10
6.25
 20
-302.49999999999994
 30
0.0
 11
85.249999999999744
 21
-302.50000000000063
 31
0.0
  0
LINE
  8
0
  6
CONTINUOUS
 62
               3
  5
1D8
 10
71.249999999999972
 20
-301.50000000000063
 30
0.0
 11
71.249999999999972
 21
-302.50000000000051
 31
0.0
  0
LINE
  8
0
  6
CONTINUOUS
 62
               3
  5
1D9
 10
71.249999999998266
 20
-433.49999999999949
 30
0.0
 11
85.249999999998323
 21
-433.49999999999972
 31
0.0
  0
ARC
  8
0
  6
CONTINUOUS
 62
               3
  5
1DA
 10
85.249999999998323
 20
-431.49999999999972
 30
0.0
 40
1.0000000000000004
 50
270.00000000005133
 51
360.0000000000328
  0
ARC
  8
0
  6
CONTINUOUS
 62
               3
  5
1DB
 10
85.249999999998323
 20
-431.49999999999972
 30
0.0
 40
1.9999999999999996
 50
270.00000000004979
 51
360.0000000000328
  0
ARC
  8
0
  6
CONTINUOUS
 62
               3
  5
1DC
 10
82.24999999999838
 20
-428.49999999999972
 30
0.0
 40
4.0
 50
270.00000000004979
 51
360.0000000000328
  0
LINE
  8
0
  6
CONTINUOUS
 62
               3
  5
1DD
 10
71.249999999998266
 20
-433.49999999999949
 30
0.0
 11
71.249999999998266
 21
-432.49999999999972
 31
0.0
  0
LINE
  8
0
  6
CONTINUOUS
 62
               3
  5
1DE
 10
87.249999999998209
 20
-431.49999999999972
 30
0.0
 11
87.249999999999233
 21
-370.49999999999949
 31
0.0
  0
LINE
  8
0
  6
CONTINUOUS
 62
               3
  5
1DF
 10
86.249999999998266
 20
-431.49999999999972
 30
0.0
 11
86.249999999999289
 21
-370.49999999999949
 31
0.0
  0
LINE
  8
0
  6
CONTINUOUS
 62
               3
  5
1E0
 10
6.2499999999994316
 20
-432.49999999999881
 30
0.0
 11
85.249999999998323
 21
-432.49999999999972
 31
0.0
  0
LINE
  8
0
  6
CONTINUOUS
 62
               3
  5
1E1
 10
6.2499999999994316
 20
-409.99999999999881
 30
0.0
 11
86.24999999999855
 21
-409.99999999999949
 31
0.0
  0
ARC
  8
0
  6
CONTINUOUS
 62
               3
  5
1E2
 10
88.249999999999289
 20
-370.49999999999949
 30
0.0
 40
1.9999999999999996
 50
90.000000000016598
 51
179.99999999999847
  0
ARC
  8
0
  6
CONTINUOUS
 62
               3
  5
1E3
 10
88.249999999999289
 20
-370.49999999999949
 30
0.0
 40
1.0000000000000004
 50
90.000000000015078
 51
179.99999999999883
  0
LINE
  8
0
  6
CONTINUOUS
 62
               3
  5
1E4
 10
88.249999999999289
 20
-369.49999999999949
 30
0.0
 11
151.2499999999994
 21
-369.49999999999994
 31
0.0
  0
LINE
  8
0
  6
CONTINUOUS
 62
               3
  5
1E5
 10
86.249999999999972
 20
-325.50000000000063
 30
0.0
 11
6.25
 21
-325.50000000000063
 31
0.0
  0
LINE
  8
0
  6
CONTINUOUS
 62
               3
  5
1E6
 10
83.249999999999858
 20
-325.50000000000063
 30
0.0
 11
83.249999999999289
 21
-409.99999999999949
 31
0.0
  0
LINE
  8
0
  6
CONTINUOUS
 62
               3
  5
1E7
 10
151.2499999999994
 20
-367.49999999999994
 30
0.0
 11
151.2499999999994
 21
-368.49999999999994
 31
0.0
  0
LINE
  8
0
  6
CONTINUOUS
 62
               3
  5
1E8
 10
151.2499999999994
 20
-369.49999999999994
 30
0.0
 11
151.2499999999994
 21
-368.49999999999994
 31
0.0
  0
LINE
  8
0
  6
CONTINUOUS
 62
               3
  5
1E9
 10
93.499999999999233
 20
-365.99999999999949
 30
0.0
 11
100.99999999999923
 21
-365.99999999999949
 31
0.0
  0
LINE
  8
0
  6
CONTINUOUS
 62
               3
  5
1EA
 10
93.499999999999233
 20
-370.99999999999949
 30
0.0
 11
100.99999999999923
 21
-370.99999999999972
 31
0.0
  0
LINE
  8
0
  6
CONTINUOUS
 62
               3
  5
1EB
 10
93.499999999999233
 20
-365.99999999999949
 30
0.0
 11
93.499999999999233
 21
-367.49999999999949
 31
0.0
  0
LINE
  8
0
  6
CONTINUOUS
 62
               3
  5
1EC
 10
93.499999999999233
 20
-369.49999999999949
 30
0.0
 11
93.499999999999233
 21
-370.99999999999949
 31
0.0
  0
LINE
  8
0
  6
CONTINUOUS
 62
               3
  5
1ED
 10
100.99999999999923
 20
-365.99999999999949
 30
0.0
 11
100.99999999999923
 21
-367.49999999999949
 31
0.0
  0
LINE
  8
0
  6
CONTINUOUS
 62
               3
  5
1EE
 10
100.99999999999923
 20
-369.49999999999972
 30
0.0
 11
100.99999999999923
 21
-370.99999999999972
 31
0.0
  0
LINE
  8
0
  6
CONTINUOUS
 62
               3
  5
1EF
 10
68.249999999999318
 20
-447.49999999999881
 30
0.0
 11
68.249999999999318
 21
-432.49999999999972
 31
0.0
  0
LINE
  8
0
  6
CONTINUOUS
 62
               3
  5
1F0
 10
543.25000000000125
 20
-292.49999999999994
 30
0.0
 11
669.24999999999864
 21
-292.49999999999994
 31
0.0
  0
LINE
  8
0
  6
CONTINUOUS
 62
               3
  5
1F1
 10
669.24999999999864
 20
-292.49999999999994
 30
0.0
 11
669.24999999999864
 21
43.753944570867475
 31
0.0
  0
LINE
  8
0
  6
CONTINUOUS
 62
               3
  5
1F2
 10
543.25000000000136
 20
43.753944570867475
 30
0.0
 11
543.25000000000125
 21
-292.49999999999994
 31
0.0
  0
LINE
  8
0
  6
CONTINUOUS
 62
               3
  5
1F3
 10
660.75121834596325
 20
-367.49999999999994
 30
0.0
 11
662.75
 21
-365.56979899340485
 31
0.0
  0
LINE
  8
0
  6
CONTINUOUS
 62
               3
  5
1F4
 10
551.74878165403663
 20
-367.49999999999994
 30
0.0
 11
549.74999999999989
 21
-365.56979899340485
 31
0.0
  0
LINE
  8
0
  6
CONTINUOUS
 62
               3
  5
1F5
 10
660.75121834596325
 20
-367.49999999999994
 30
0.0
 11
551.74878165403663
 21
-367.49999999999994
 31
0.0
  0
LINE
  8
0
  6
CONTINUOUS
 62
               3
  5
1F6
 10
549.74999999999989
 20
-302.49999999999994
 30
0.0
 11
662.75
 21
-302.49999999999994
 31
0.0
  0
LINE
  8
0
  6
CONTINUOUS
 62
               3
  5
1F7
 10
543.25000000000114
 20
-277.49999999999994
 30
0.0
 11
669.25000000000091
 21
-277.49999999999994
 31
0.0
  0
LINE
  8
0
  6
CONTINUOUS
 62
               3
  5
1F8
 10
549.74999999999989
 20
-292.49999999999994
 30
0.0
 11
549.74999999999989
 21
-365.56979899340485
 31
0.0
  0
LINE
  8
0
  6
CONTINUOUS
 62
               3
  5
1F9
 10
662.75
 20
-292.49999999999994
 30
0.0
 11
662.75
 21
-365.56979899340485
 31
0.0
  0
LINE
  8
0
  6
CONTINUOUS
 62
               3
  5
1FA
 10
544.25000000000057
 20
-447.49999999999903
 30
0.0
 11
544.25000000000057
 21
-432.49999999999994
 31
0.0
  0
LINE
  8
0
  6
CONTINUOUS
 62
               3
  5
1FB
 10
541.25000000000068
 20
-447.49999999999903
 30
0.0
 11
671.25000000000068
 21
-447.49999999999903
 31
0.0
  0
ARC
  8
0
  6
CONTINUOUS
 62
               3
  5
1FC
 10
530.25000000000136
 20
-306.50000000000085
 30
0.0
 40
4.0
 50
89.999999999982236
 51
179.99999999996518
  0
LINE
  8
0
  6
CONTINUOUS
 62
               3
  5
1FD
 10
526.25000000000136
 20
-306.49999999999847
 30
0.0
 11
526.25000000000114
 21
-325.50000000000085
 31
0.0
  0
LINE
  8
0
  6
CONTINUOUS
 62
               3
  5
1FE
 10
590.25000000000136
 20
-302.50000000000028
 30
0.0
 11
530.25000000000136
 21
-302.50000000000085
 31
0.0
  0
LINE
  8
0
  6
CONTINUOUS
 62
               3
  5
1FF
 10
590.25000000000136
 20
-433.49999999999892
 30
0.0
 11
622.25000000000182
 21
-433.49999999999847
 31
0.0
  0
ARC
  8
0
  6
CONTINUOUS
 62
               3
  5
200
 10
530.25000000000159
 20
-428.49999999999994
 30
0.0
 40
4.0
 50
179.99999999996601
 51
269.99999999994901
  0
LINE
  8
0
  6
CONTINUOUS
 62
               3
  5
201
 10
526.25000000000159
 20
-428.49999999999994
 30
0.0
 11
526.25000000000171
 21
-409.99999999999972
 31
0.0
  0
LINE
  8
0
  6
CONTINUOUS
 62
               3
  5
202
 10
590.25000000000136
 20
-432.49999999999926
 30
0.0
 11
530.24999999999818
 21
-432.49999999999994
 31
0.0
  0
LINE
  8
0
  6
CONTINUOUS
 62
               3
  5
203
 10
590.25000000000136
 20
-409.99999999999915
 30
0.0
 11
526.25000000000159
 21
-409.99999999999972
 31
0.0
  0
LINE
  8
0
  6
CONTINUOUS
 62
               3
  5
204
 10
526.25000000000114
 20
-325.50000000000085
 30
0.0
 11
590.25000000000136
 21
-325.50000000000085
 31
0.0
  0
LINE
  8
0
  6
CONTINUOUS
 62
               3
  5
205
 10
529.25000000000114
 20
-325.50000000000085
 30
0.0
 11
529.25000000000057
 21
-409.99999999999972
 31
0.0
  0
LINE
  8
0
  6
CONTINUOUS
 62
               3
  5
206
 10
622.25000000000136
 20
-302.50000000000028
 30
0.0
 11
685.25000000000114
 21
-302.50000000000085
 31
0.0
  0
LINE
  8
0
  6
CONTINUOUS
 62
               3
  5
207
 10
622.25000000000182
 20
-432.49999999999926
 30
0.0
 11
682.24999999999977
 21
-432.49999999999994
 31
0.0
  0
LINE
  8
0
  6
CONTINUOUS
 62
               3
  5
208
 10
622.25000000000182
 20
-409.99999999999926
 30
0.0
 11
686.24999999999989
 21
-409.99999999999972
 31
0.0
  0
LINE
  8
0
  6
CONTINUOUS
 62
               3
  5
209
 10
686.25000000000136
 20
-325.50000000000085
 30
0.0
 11
622.25000000000136
 21
-325.50000000000085
 31
0.0
  0
LINE
  8
0
  6
CONTINUOUS
 62
               3
  5
20A
 10
668.25000000000068
 20
-447.49999999999903
 30
0.0
 11
668.25000000000068
 21
-432.49999999999994
 31
0.0
  0
LINE
  8
0
  6
CONTINUOUS
 62
               3
  5
20B
 10
590.25000000000136
 20
-301.50000000000085
 30
0.0
 11
590.25000000000136
 21
-433.49999999999892
 31
0.0
  0
LINE
  8
0
  6
CONTINUOUS
 62
               3
  5
20C
 10
622.25000000000182
 20
-433.49999999999847
 30
0.0
 11
622.25000000000136
 21
-301.50000000000085
 31
0.0
  0
LINE
  8
0
  6
CONTINUOUS
 62
               3
  5
20D
 10
590.25000000000068
 20
-301.50000000000085
 30
0.0
 11
622.25000000000068
 21
-301.50000000000085
 31
0.0
  0
LINE
  8
0
  6
CONTINUOUS
 62
               3
  5
20E
 10
590.25000000000136
 20
-368.49999999999972
 30
0.0
 11
622.25000000000182
 21
-368.49999999999972
 31
0.0
  0
LINE
  8
0
  6
CONTINUOUS
 62
               3
  5
20F
 10
590.25000000000136
 20
-367.49999999999994
 30
0.0
 11
622.25000000000182
 21
-367.49999999999994
 31
0.0
  0
LINE
  8
0
  6
CONTINUOUS
 62
               3
  5
210
 10
590.25000000000136
 20
-369.49999999999994
 30
0.0
 11
622.25000000000182
 21
-369.49999999999994
 31
0.0
  0
ARC
  8
0
  6
CONTINUOUS
 62
               3
  5
211
 10
682.25000000000011
 20
-306.50000000000085
 30
0.0
 40
4.0
 50
0.0000000000344079
 51
90.000000000017366
  0
LINE
  8
0
  6
CONTINUOUS
 62
               3
  5
212
 10
686.25000000000011
 20
-306.49999999999847
 30
0.0
 11
686.25000000000034
 21
-325.50000000000085
 31
0.0
  0
ARC
  8
0
  6
CONTINUOUS
 62
               3
  5
213
 10
682.24999999999977
 20
-428.49999999999994
 30
0.0
 40
4.0
 50
270.00000000004979
 51
360.0000000000328
  0
LINE
  8
0
  6
CONTINUOUS
 62
               3
  5
214
 10
686.24999999999989
 20
-428.49999999999994
 30
0.0
 11
686.24999999999977
 21
-409.99999999999972
 31
0.0
  0
LINE
  8
0
  6
CONTINUOUS
 62
               3
  5
215
 10
683.25000000000034
 20
-325.50000000000085
 30
0.0
 11
683.25000000000091
 21
-409.99999999999972
 31
0.0
  0
LINE
  8
0
  6
CONTINUOUS
 62
               3
  5
216
 10
-706.74999999999875
 20
-292.5
 30
0.0
 11
-580.75000000000125
 21
-292.5
 31
0.0
  0
LINE
  8
0
  6
CONTINUOUS
 62
               3
  5
217
 10
-580.75000000000125
 20
-292.5
 30
0.0
 11
-580.75000000000125
 21
43.753944570867475
 31
0.0
  0
LINE
  8
0
  6
CONTINUOUS
 62
               3
  5
218
 10
-706.74999999999864
 20
43.753944570867475
 30
0.0
 11
-706.74999999999875
 21
-292.5
 31
0.0
  0
LINE
  8
0
  6
CONTINUOUS
 62
               3
  5
219
 10
-589.24878165403675
 20
-367.5
 30
0.0
 11
-587.25
 21
-365.5697989934049
 31
0.0
  0
LINE
  8
0
  6
CONTINUOUS
 62
               3
  5
21A
 10
-698.25121834596337
 20
-367.5
 30
0.0
 11
-700.25000000000011
 21
-365.5697989934049
 31
0.0
  0
LINE
  8
0
  6
CONTINUOUS
 62
               3
  5
21B
 10
-589.24878165403675
 20
-367.5
 30
0.0
 11
-698.25121834596337
 21
-367.5
 31
0.0
  0
LINE
  8
0
  6
CONTINUOUS
 62
               3
  5
21C
 10
-700.25000000000011
 20
-302.5
 30
0.0
 11
-587.25
 21
-302.5
 31
0.0
  0
LINE
  8
0
  6
CONTINUOUS
 62
               3
  5
21D
 10
-706.74999999999886
 20
-277.5
 30
0.0
 11
-580.74999999999909
 21
-277.5
 31
0.0
  0
LINE
  8
0
  6
CONTINUOUS
 62
               3
  5
21E
 10
-700.25000000000011
 20
-292.5
 30
0.0
 11
-700.25000000000011
 21
-365.5697989934049
 31
0.0
  0
LINE
  8
0
  6
CONTINUOUS
 62
               3
  5
21F
 10
-587.25
 20
-292.5
 30
0.0
 11
-587.25
 21
-365.5697989934049
 31
0.0
  0
LINE
  8
0
  6
CONTINUOUS
 62
               3
  5
220
 10
-705.75000000000068
 20
-447.49999999999886
 30
0.0
 11
-705.75000000000068
 21
-432.49999999999977
 31
0.0
  0
LINE
  8
0
  6
CONTINUOUS
 62
               3
  5
221
 10
-708.75000000000057
 20
-447.49999999999886
 30
0.0
 11
-578.75000000000057
 21
-447.49999999999886
 31
0.0
  0
ARC
  8
0
  6
CONTINUOUS
 62
               3
  5
222
 10
-719.75
 20
-306.50000000000068
 30
0.0
 40
4.0
 50
89.999999999982236
 51
179.99999999996518
  0
LINE
  8
0
  6
CONTINUOUS
 62
               3
  5
223
 10
-723.75
 20
-306.49999999999829
 30
0.0
 11
-723.75000000000023
 21
-325.50000000000068
 31
0.0
  0
LINE
  8
0
  6
CONTINUOUS
 62
               3
  5
224
 10
-659.75
 20
-302.50000000000011
 30
0.0
 11
-719.75
 21
-302.50000000000068
 31
0.0
  0
LINE
  8
0
  6
CONTINUOUS
 62
               3
  5
225
 10
-659.75
 20
-433.49999999999875
 30
0.0
 11
-627.74999999999955
 21
-433.49999999999829
 31
0.0
  0
ARC
  8
0
  6
CONTINUOUS
 62
               3
  5
226
 10
-719.74999999999966
 20
-428.49999999999977
 30
0.0
 40
4.0
 50
179.99999999996601
 51
269.99999999994901
  0
LINE
  8
0
  6
CONTINUOUS
 62
               3
  5
227
 10
-723.74999999999977
 20
-428.49999999999977
 30
0.0
 11
-723.74999999999955
 21
-409.99999999999955
 31
0.0
  0
LINE
  8
0
  6
CONTINUOUS
 62
               3
  5
228
 10
-659.75
 20
-432.49999999999909
 30
0.0
 11
-719.75000000000318
 21
-432.49999999999977
 31
0.0
  0
LINE
  8
0
  6
CONTINUOUS
 62
               3
  5
229
 10
-659.75
 20
-409.99999999999898
 30
0.0
 11
-723.74999999999977
 21
-409.99999999999955
 31
0.0
  0
LINE
  8
0
  6
CONTINUOUS
 62
               3
  5
22A
 10
-723.75000000000023
 20
-325.50000000000068
 30
0.0
 11
-659.75
 21
-325.50000000000068
 31
0.0
  0
LINE
  8
0
  6
CONTINUOUS
 62
               3
  5
22B
 10
-720.75000000000023
 20
-325.50000000000068
 30
0.0
 11
-720.75000000000068
 21
-409.99999999999955
 31
0.0
  0
LINE
  8
0
  6
CONTINUOUS
 62
               3
  5
22C
 10
-627.75
 20
-302.50000000000011
 30
0.0
 11
-564.75000000000023
 21
-302.50000000000068
 31
0.0
  0
LINE
  8
0
  6
CONTINUOUS
 62
               3
  5
22D
 10
-627.74999999999955
 20
-432.49999999999909
 30
0.0
 11
-567.75000000000159
 21
-432.49999999999977
 31
0.0
  0
LINE
  8
0
  6
CONTINUOUS
 62
               3
  5
22E
 10
-627.74999999999955
 20
-409.99999999999909
 30
0.0
 11
-563.75000000000136
 21
-409.99999999999955
 31
0.0
  0
LINE
  8
0
  6
CONTINUOUS
 62
               3
  5
22F
 10
-563.75
 20
-325.50000000000068
 30
0.0
 11
-627.75
 21
-325.50000000000068
 31
0.0
  0
LINE
  8
0
  6
CONTINUOUS
 62
               3
  5
230
 10
-581.75000000000068
 20
-447.49999999999886
 30
0.0
 11
-581.75000000000068
 21
-432.49999999999977
 31
0.0
  0
LINE
  8
0
  6
CONTINUOUS
 62
               3
  5
231
 10
-659.75
 20
-301.50000000000068
 30
0.0
 11
-659.75
 21
-433.49999999999875
 31
0.0
  0
LINE
  8
0
  6
CONTINUOUS
 62
               3
  5
232
 10
-627.74999999999955
 20
-433.49999999999829
 30
0.0
 11
-627.75
 21
-301.50000000000068
 31
0.0
  0
LINE
  8
0
  6
CONTINUOUS
 62
               3
  5
233
 10
-659.75000000000057
 20
-301.50000000000068
 30
0.0
 11
-627.75000000000057
 21
-301.50000000000068
 31
0.0
  0
LINE
  8
0
  6
CONTINUOUS
 62
               3
  5
234
 10
-659.75
 20
-368.49999999999955
 30
0.0
 11
-627.74999999999955
 21
-368.49999999999955
 31
0.0
  0
LINE
  8
0
  6
CONTINUOUS
 62
               3
  5
235
 10
-659.75
 20
-367.49999999999977
 30
0.0
 11
-627.74999999999955
 21
-367.49999999999977
 31
0.0
  0
LINE
  8
0
  6
CONTINUOUS
 62
               3
  5
236
 10
-659.75
 20
-369.49999999999977
 30
0.0
 11
-627.74999999999955
 21
-369.49999999999977
 31
0.0
  0
ARC
  8
0
  6
CONTINUOUS
 62
               3
  5
237
 10
-567.75000000000114
 20
-306.50000000000068
 30
0.0
 40
4.0
 50
0.0000000000344079
 51
90.000000000017366
  0
LINE
  8
0
  6
CONTINUOUS
 62
               3
  5
238
 10
-563.75000000000114
 20
-306.49999999999829
 30
0.0
 11
-563.75000000000091
 21
-325.50000000000068
 31
0.0
  0
ARC
  8
0
  6
CONTINUOUS
 62
               3
  5
239
 10
-567.75000000000148
 20
-428.49999999999977
 30
0.0
 40
4.0
 50
270.00000000004979
 51
360.0000000000328
  0
LINE
  8
0
  6
CONTINUOUS
 62
               3
  5
23A
 10
-563.75000000000136
 20
-428.49999999999977
 30
0.0
 11
-563.75000000000159
 21
-409.99999999999955
 31
0.0
  0
LINE
  8
0
  6
CONTINUOUS
 62
               3
  5
23B
 10
-566.75000000000091
 20
-325.50000000000068
 30
0.0
 11
-566.75000000000045
 21
-409.99999999999955
 31
0.0
  0
CIRCLE
  8
0
  6
CONTINUOUS
 62
               3
  5
23C
 10
615.5365232163075
 20
-931.35686451304935
 30
0.0
 40
75.0
  0
CIRCLE
  8
0
  6
CONTINUOUS
 62
               3
  5
23D
 10
615.5365232163075
 20
-931.35686451304935
 30
0.0
 40
52.5
  0
LINE
  8
0
  6
CONTINUOUS
 62
               3
  5
23E
 10
529.32602501568215
 20
-911.35686451304935
 30
0.0
 11
543.25236174230201
 21
-911.35686451304935
 31
0.0
  0
LINE
  8
0
  6
CONTINUOUS
 62
               3
  5
23F
 10
543.25236174230201
 20
-951.35686451304935
 30
0.0
 11
529.32602501568215
 21
-951.35686451304935
 31
0.0
  0
ARC
  8
0
  6
CONTINUOUS
 62
               3
  5
240
 10
615.5365232163075
 20
-931.35686451304935
 30
0.0
 40
88.5
 50
166.93897588507147
 51
193.06102411465253
  0
LINE
  8
0
  6
CONTINUOUS
 62
               3
  5
241
 10
595.5365232163075
 20
-1017.5673627136744
 30
0.0
 11
595.5365232163075
 21
-1003.6410259870545
 31
0.0
  0
LINE
  8
0
  6
CONTINUOUS
 62
               3
  5
242
 10
635.5365232163075
 20
-1003.6410259870545
 30
0.0
 11
635.5365232163075
 21
-1017.5673627136744
 31
0.0
  0
ARC
  8
0
  6
CONTINUOUS
 62
               3
  5
243
 10
615.5365232163075
 20
-931.35686451304935
 30
0.0
 40
88.5
 50
256.93897588500261
 51
283.06102411458357
  0
LINE
  8
0
  6
CONTINUOUS
 62
               3
  5
244
 10
701.74702141693217
 20
-951.35686451304935
 30
0.0
 11
687.82068469031162
 21
-951.35686451304935
 31
0.0
  0
LINE
  8
0
  6
CONTINUOUS
 62
               3
  5
245
 10
687.82068469031162
 20
-911.35686451304935
 30
0.0
 11
701.74702141693217
 21
-911.35686451304935
 31
0.0
  0
ARC
  8
0
  6
CONTINUOUS
 62
               3
  5
246
 10
615.5365232163075
 20
-931.35686451304935
 30
0.0
 40
88.5
 50
346.93897588493354
 51
373.06102411451457
  0
LINE
  8
0
  6
CONTINUOUS
 62
               3
  5
247
 10
635.5365232163075
 20
-845.14636631242377
 30
0.0
 11
635.5365232163075
 21
-859.07270303904431
 31
0.0
  0
LINE
  8
0
  6
CONTINUOUS
 62
               3
  5
248
 10
595.5365232163075
 20
-859.07270303904431
 30
0.0
 11
595.5365232163075
 21
-845.14636631242377
 31
0.0
  0
ARC
  8
0
  6
CONTINUOUS
 62
               3
  5
249
 10
615.5365232163075
 20
-931.35686451304935
 30
0.0
 40
88.5
 50
76.938975885140493
 51
103.06102411472153
  0
LINE
  8
0
  6
CONTINUOUS
 62
               3
  5
24A
 10
567.86839969544633
 20
-953.3568645130498
 30
0.0
 11
663.20464673716731
 21
-953.3568645130498
 31
0.0
  0
ARC
  8
0
  6
CONTINUOUS
 62
               3
  5
24B
 10
628.04013486568863
 20
-922.65046688543032
 30
0.0
 40
54.763804151667173
 50
141.3859176367296
 51
145.15009542084252
  0
ARC
  8
0
  6
CONTINUOUS
 62
               3
  5
24C
 10
615.5365232163075
 20
-931.35686451304935
 30
0.0
 40
51.5
 50
334.7109884732011
 51
410.95932736332554
  0
ARC
  8
0
  6
CONTINUOUS
 62
               3
  5
24D
 10
615.5365232163075
 20
-931.35686451304935
 30
0.0
 40
51.5
 50
129.04067263626098
 51
205.289011526385
  0
ARC
  8
0
  6
CONTINUOUS
 62
               3
  5
24E
 10
615.5365232163075
 20
-931.35686451304935
 30
0.0
 40
77.5
 50
104.95524831656299
 51
128.57288309093474
  0
ARC
  8
0
  6
CONTINUOUS
 62
               3
  5
24F
 10
615.5365232163075
 20
-931.35686451304935
 30
0.0
 40
77.5
 50
14.95524831663182
 51
75.044751683299182
  0
ARC
  8
0
  6
CONTINUOUS
 62
               3
  5
250
 10
615.5365232163075
 20
-931.35686451304935
 30
0.0
 40
77.5
 50
321.42711690871977
 51
345.04475168309216
  0
LINE
  8
0
  6
CONTINUOUS
 62
               3
  5
251
 10
475.53652321630744
 20
-986.35686451304946
 30
0.0
 11
476.20807934227167
 21
-986.35686451304946
 31
0.0
  0
LINE
  8
0
  6
CONTINUOUS
 62
               3
  5
252
 10
478.70807934227213
 20
-988.85686451304946
 30
0.0
 11
476.20807934227167
 21
-986.35686451304946
 31
0.0
  0
LINE
  8
0
  6
CONTINUOUS
 62
               3
  5
253
 10
475.53652321630744
 20
-876.35686451304935
 30
0.0
 11
476.20807934227167
 21
-876.35686451304935
 31
0.0
  0
LINE
  8
0
  6
CONTINUOUS
 62
               3
  5
254
 10
478.70807934227167
 20
-873.85686451304935
 30
0.0
 11
476.20807934227167
 21
-876.35686451304935
 31
0.0
  0
LINE
  8
0
  6
CONTINUOUS
 62
               3
  5
255
 10
476.20807934227167
 20
-876.35686451304935
 30
0.0
 11
476.20807934227167
 21
-986.35686451304946
 31
0.0
  0
LINE
  8
0
  6
CONTINUOUS
 62
               3
  5
256
 10
570.04618742992955
 20
-870.66726749470774
 30
0.0
 11
478.70807934227167
 21
-873.85686451304935
 31
0.0
  0
LINE
  8
0
  6
CONTINUOUS
 62
               3
  5
257
 10
550.70005149975634
 20
-991.37087957801714
 30
0.0
 11
478.70807934227224
 21
-988.85686451304946
 31
0.0
  0
LINE
  8
0
  6
CONTINUOUS
 62
               3
  5
258
 10
470.53652321630744
 20
-876.52842063901346
 30
0.0
 11
470.53652321630744
 21
-986.45686451304937
 31
0.0
  0
LINE
  8
0
  6
CONTINUOUS
 62
               3
  5
259
 10
475.53652321630744
 20
-988.95686451304937
 30
0.0
 11
475.53652321630744
 21
-873.75686451304921
 31
0.0
  0
LINE
  8
0
  6
CONTINUOUS
 62
               3
  5
25A
 10
475.53652321630744
 20
-873.75686451304921
 30
0.0
 11
473.03652321630744
 21
-873.75686451304921
 31
0.0
  0
LINE
  8
0
  6
CONTINUOUS
 62
               3
  5
25B
 10
475.53652321630744
 20
-988.95686451304937
 30
0.0
 11
473.03652321630744
 21
-988.95686451304937
 31
0.0
  0
ARC
  8
0
  6
CONTINUOUS
 62
               3
  5
25C
 10
473.03652321630744
 20
-986.45686451304937
 30
0.0
 40
2.5
 50
179.9999999998615
 51
269.99999999979229
  0
ARC
  8
0
  6
CONTINUOUS
 62
               3
  5
25D
 10
473.03652321630744
 20
-876.25686451304921
 30
0.0
 40
2.5
 50
89.999999999932058
 51
179.9999999998615
  0
LINE
  8
0
  6
CONTINUOUS
 62
               3
  5
25E
 10
583.09812004968978
 20
-891.35686451304957
 30
0.0
 11
615.5365232163075
 21
-891.35686451304957
 31
0.0
  0
LINE
  8
0
  6
CONTINUOUS
 62
               3
  5
25F
 10
615.5365232163075
 20
-891.35686451304957
 30
0.0
 11
649.54019948814619
 21
-891.35686451304957
 31
0.0
  0
LINE
  8
0
  6
CONTINUOUS
 62
               3
  5
260
 10
478.70807934227213
 20
-988.85686451304946
 30
0.0
 11
478.70807934227167
 21
-873.85686451304935
 31
0.0
  0
ARC
  8
0
  6
CONTINUOUS
 62
               3
  5
261
 10
569.87168994641695
 20
-865.67031335961212
 30
0.0
 40
5.0
 50
271.9999999997919
 51
304.80675787019305
  0
LINE
  8
0
  6
CONTINUOUS
 62
               3
  5
262
 10
670.53652321630727
 20
-1071.3568645130495
 30
0.0
 11
670.53652321630727
 21
-1070.6853083870851
 31
0.0
  0
LINE
  8
0
  6
CONTINUOUS
 62
               3
  5
263
 10
673.03652321630727
 20
-1068.1853083870847
 30
0.0
 11
670.53652321630727
 21
-1070.6853083870851
 31
0.0
  0
LINE
  8
0
  6
CONTINUOUS
 62
               3
  5
264
 10
560.53652321630727
 20
-1071.3568645130495
 30
0.0
 11
560.53652321630727
 21
-1070.6853083870851
 31
0.0
  0
LINE
  8
0
  6
CONTINUOUS
 62
               3
  5
265
 10
558.03652321630727
 20
-1068.1853083870851
 30
0.0
 11
560.53652321630727
 21
-1070.6853083870851
 31
0.0
  0
LINE
  8
0
  6
CONTINUOUS
 62
               3
  5
266
 10
560.53652321630727
 20
-1070.6853083870851
 30
0.0
 11
670.53652321630727
 21
-1070.6853083870851
 31
0.0
  0
LINE
  8
0
  6
CONTINUOUS
 62
               3
  5
267
 10
560.70807934227139
 20
-1076.3568645130495
 30
0.0
 11
670.63652321630741
 21
-1076.3568645130495
 31
0.0
  0
LINE
  8
0
  6
CONTINUOUS
 62
               3
  5
268
 10
673.13652321630741
 20
-1071.3568645130495
 30
0.0
 11
557.93652321630736
 21
-1071.3568645130495
 31
0.0
  0
LINE
  8
0
  6
CONTINUOUS
 62
               3
  5
269
 10
557.93652321630736
 20
-1071.3568645130495
 30
0.0
 11
557.93652321630736
 21
-1073.8568645130495
 31
0.0
  0
LINE
  8
0
  6
CONTINUOUS
 62
               3
  5
26A
 10
673.13652321630741
 20
-1071.3568645130495
 30
0.0
 11
673.13652321630741
 21
-1073.8568645130495
 31
0.0
  0
ARC
  8
0
  6
CONTINUOUS
 62
               3
  5
26B
 10
670.63652321630741
 20
-1073.8568645130495
 30
0.0
 40
2.5
 50
269.99999999979354
 51
359.999999999723
  0
ARC
  8
0
  6
CONTINUOUS
 62
               3
  5
26C
 10
560.43652321630736
 20
-1073.8568645130495
 30
0.0
 40
2.5
 50
179.99999999985891
 51
269.99999999979354
  0
LINE
  8
0
  6
CONTINUOUS
 62
               3
  5
26D
 10
673.03652321630727
 20
-1068.1853083870847
 30
0.0
 11
558.03652321630727
 21
-1068.1853083870851
 31
0.0
  0
LINE
  8
0
  6
CONTINUOUS
 62
               3
  5
26E
 10
676.22612023464842
 20
-976.84720029942753
 30
0.0
 11
673.03652321630727
 21
-1068.1853083870847
 31
0.0
  0
ARC
  8
0
  6
CONTINUOUS
 62
               3
  5
26F
 10
681.22307436974404
 20
-977.02169778294035
 30
0.0
 40
5.0
 50
145.19324212946151
 51
177.99999999986429
  0
LINE
  8
0
  6
CONTINUOUS
 62
               3
  5
270
 10
555.52250815133937
 20
-996.19333622960039
 30
0.0
 11
558.03652321630727
 21
-1068.1853083870851
 31
0.0
  0
ARC
  8
0
  6
CONTINUOUS
 62
               3
  5
271
 10
550.52555401624397
 20
-996.3678337131123
 30
0.0
 40
5.0
 50
1.9999999999958187
 51
87.999999999932285
  0
LINE
  8
0
  6
CONTINUOUS
 62
               3
  5
272
 10
540.5365232163075
 20
-1239.8562982616336
 30
0.0
 11
690.5365232163075
 21
-1239.8562982616336
 31
0.0
  0
LINE
  8
0
  6
CONTINUOUS
 62
               3
  5
273
 10
527.03652321630727
 20
-1249.8562982616336
 30
0.0
 11
527.03652321630727
 21
-1256.8562982616331
 31
0.0
  0
LINE
  8
0
  6
CONTINUOUS
 62
               3
  5
274
 10
527.03652321630727
 20
-1249.8562982616336
 30
0.0
 11
540.5365232163075
 21
-1239.8562982616336
 31
0.0
  0
ARC
  8
0
  6
CONTINUOUS
 62
               3
  5
275
 10
538.5365232163075
 20
-1261.4388739565888
 30
0.0
 40
4.9999999999999991
 50
0.0
 51
66.421821521747205
  0
LINE
  8
0
  6
CONTINUOUS
 62
               3
  5
276
 10
527.03652321630727
 20
-1256.8562982616331
 30
0.0
 11
704.03652321630705
 21
-1256.8562982616331
 31
0.0
  0
ARC
  8
0
  6
CONTINUOUS
 62
               3
  5
277
 10
560.5365232163075
 20
-1346.8562982616336
 30
0.0
 40
19.999999999999996
 50
148.2116693828344
 51
167.26981986155914
  0
LINE
  8
0
  6
CONTINUOUS
 62
               3
  5
278
 10
543.5365232163075
 20
-1261.4388739565888
 30
0.0
 11
543.5365232163075
 21
-1336.3206445087808
 31
0.0
  0
LINE
  8
0
  6
CONTINUOUS
 62
               3
  5
279
 10
687.53652321630727
 20
-1331.3206445087803
 30
0.0
 11
687.53652321630727
 21
-1261.4388739565888
 31
0.0
  0
LINE
  8
0
  6
CONTINUOUS
 62
               3
  5
27A
 10
543.5365232163075
 20
-1336.3206445087808
 30
0.0
 11
687.03652321630773
 21
-1336.3206445087808
 31
0.0
  0
LINE
  8
0
  6
CONTINUOUS
 62
               3
  5
27B
 10
595.5365232163075
 20
-1256.8562982616331
 30
0.0
 11
595.5365232163075
 21
-1239.8562982616336
 31
0.0
  0
LINE
  8
0
  6
CONTINUOUS
 62
               3
  5
27C
 10
635.5365232163075
 20
-1239.8562982616336
 30
0.0
 11
635.5365232163075
 21
-1256.8562982616331
 31
0.0
  0
LINE
  8
0
  6
CONTINUOUS
 62
               3
  5
27D
 10
595.5365232163075
 20
-1249.8562982616336
 30
0.0
 11
635.5365232163075
 21
-1249.8562982616336
 31
0.0
  0
LINE
  8
0
  6
CONTINUOUS
 62
               3
  5
27E
 10
543.25236174230201
 20
-1239.8562982616336
 30
0.0
 11
543.25236174230201
 21
-1256.8562982616331
 31
0.0
  0
LINE
  8
0
  6
CONTINUOUS
 62
               3
  5
27F
 10
529.32602501568215
 20
-1249.8562982616336
 30
0.0
 11
529.32602501568215
 21
-1256.8562982616331
 31
0.0
  0
LINE
  8
0
  6
CONTINUOUS
 62
               3
  5
280
 10
527.03652321630727
 20
-1249.8562982616336
 30
0.0
 11
529.32602501568215
 21
-1249.8562982616336
 31
0.0
  0
LINE
  8
0
  6
CONTINUOUS
 62
               3
  5
281
 10
529.32602501568215
 20
-1249.8562982616336
 30
0.0
 11
543.25236174230201
 21
-1239.8562982616336
 31
0.0
  0
LINE
  8
0
  6
CONTINUOUS
 62
               3
  5
282
 10
704.03652321630705
 20
-1249.8562982616336
 30
0.0
 11
704.03652321630705
 21
-1256.8562982616331
 31
0.0
  0
LINE
  8
0
  6
CONTINUOUS
 62
               3
  5
283
 10
704.03652321630705
 20
-1249.8562982616336
 30
0.0
 11
690.5365232163075
 21
-1239.8562982616336
 31
0.0
  0
ARC
  8
0
  6
CONTINUOUS
 62
               3
  5
284
 10
692.53652321630727
 20
-1261.4388739565888
 30
0.0
 40
4.9999999999999991
 50
113.5781784781135
 51
179.9999999998615
  0
LINE
  8
0
  6
CONTINUOUS
 62
               3
  5
285
 10
687.82068469031162
 20
-1239.8562982616336
 30
0.0
 11
687.82068469031162
 21
-1256.8562982616331
 31
0.0
  0
LINE
  8
0
  6
CONTINUOUS
 62
               3
  5
286
 10
701.74702141693263
 20
-1249.8562982616336
 30
0.0
 11
701.74702141693263
 21
-1256.8562982616331
 31
0.0
  0
LINE
  8
0
  6
CONTINUOUS
 62
               3
  5
287
 10
704.03652321630705
 20
-1249.8562982616336
 30
0.0
 11
701.74702141693263
 21
-1249.8562982616336
 31
0.0
  0
LINE
  8
0
  6
CONTINUOUS
 62
               3
  5
288
 10
701.74702141693263
 20
-1249.8562982616336
 30
0.0
 11
687.82068469031162
 21
-1239.8562982616336
 31
0.0
  0
ARC
  8
0
  6
CONTINUOUS
 62
               3
  5
289
 10
550.5365232163075
 20
-1468.3562982616336
 30
0.0
 40
2.4999999999999996
 50
89.999999999929457
 51
269.99999999979354
  0
ARC
  8
0
  6
CONTINUOUS
 62
               3
  5
28A
 10
690.5365232163075
 20
-1468.3562982616336
 30
0.0
 40
2.4999999999999996
 50
269.99999999979354
 51
449.99999999965507
  0
LINE
  8
0
  6
CONTINUOUS
 62
               3
  5
28B
 10
475.53652321630744
 20
-1460.8562982616336
 30
0.0
 11
476.20807934227179
 21
-1460.8562982616336
 31
0.0
  0
LINE
  8
0
  6
CONTINUOUS
 62
               3
  5
28C
 10
478.7080793422719
 20
-1463.3562982616331
 30
0.0
 11
476.20807934227179
 21
-1460.8562982616336
 31
0.0
  0
LINE
  8
0
  6
CONTINUOUS
 62
               3
  5
28D
 10
478.7080793422727
 20
-1463.3562982616336
 30
0.0
 11
520.87318959855008
 21
-1464.8287363574877
 31
0.0
  0
LINE
  8
0
  6
CONTINUOUS
 62
               3
  5
28E
 10
539.07205712223993
 20
-1481.1279876879198
 30
0.0
 11
524.23422602097014
 21
-1466.2901565866505
 31
0.0
  0
ARC
  8
0
  6
CONTINUOUS
 62
               3
  5
28F
 10
535.5365232163075
 20
-1484.6635215938527
 30
0.0
 40
4.9999999999999991
 50
0.0
 51
44.999999999964892
  0
LINE
  8
0
  6
CONTINUOUS
 62
               3
  5
290
 10
475.53652321630744
 20
-1350.8562982616336
 30
0.0
 11
476.20807934227179
 21
-1350.8562982616336
 31
0.0
  0
LINE
  8
0
  6
CONTINUOUS
 62
               3
  5
291
 10
478.7080793422719
 20
-1348.3562982616336
 30
0.0
 11
476.20807934227179
 21
-1350.8562982616336
 31
0.0
  0
LINE
  8
0
  6
CONTINUOUS
 62
               3
  5
292
 10
478.70807934227179
 20
-1348.3562982616336
 30
0.0
 11
536.32555554444605
 21
-1346.3442516564814
 31
0.0
  0
LINE
  8
0
  6
CONTINUOUS
 62
               3
  5
293
 10
476.20807934227179
 20
-1350.8562982616336
 30
0.0
 11
476.20807934227179
 21
-1460.8562982616336
 31
0.0
  0
LINE
  8
0
  6
CONTINUOUS
 62
               3
  5
294
 10
475.53652321630744
 20
-1463.4562982616335
 30
0.0
 11
475.53652321630744
 21
-1348.2562982616337
 31
0.0
  0
LINE
  8
0
  6
CONTINUOUS
 62
               3
  5
295
 10
475.53652321630744
 20
-1348.2562982616337
 30
0.0
 11
473.03652321630744
 21
-1348.2562982616337
 31
0.0
  0
ARC
  8
0
  6
CONTINUOUS
 62
               3
  5
296
 10
473.03652321630744
 20
-1350.7562982616337
 30
0.0
 40
2.5
 50
89.999999999932058
 51
179.99999999985891
  0
LINE
  8
0
  6
CONTINUOUS
 62
               3
  5
297
 10
470.53652321630744
 20
-1350.7562982616337
 30
0.0
 11
470.53652321630744
 21
-1460.9562982616335
 31
0.0
  0
LINE
  8
0
  6
CONTINUOUS
 62
               3
  5
298
 10
475.53652321630744
 20
-1463.4562982616335
 30
0.0
 11
473.03652321630744
 21
-1463.4562982616335
 31
0.0
  0
ARC
  8
0
  6
CONTINUOUS
 62
               3
  5
299
 10
473.03652321630744
 20
-1460.9562982616335
 30
0.0
 40
2.5
 50
179.99999999985891
 51
269.99999999979229
  0
LINE
  8
0
  6
CONTINUOUS
 62
               3
  5
29A
 10
478.7080793422719
 20
-1348.3562982616336
 30
0.0
 11
478.7080793422727
 21
-1463.3562982616336
 31
0.0
  0
ARC
  8
0
  6
CONTINUOUS
 62
               3
  5
29B
 10
520.69869211503749
 20
-1469.8256904925834
 30
0.0
 40
5.0
 50
44.999999999968587
 51
87.999999999932243
  0
ARC
  8
0
  6
CONTINUOUS
 62
               3
  5
29C
 10
536.15105806093368
 20
-1341.3472975213858
 30
0.0
 40
5.0
 50
271.9999999997919
 51
347.26981986141988
  0
CIRCLE
  8
0
  6
CONTINUOUS
 62
               3
  5
29D
 10
615.5365232163075
 20
-1405.8562982616336
 30
0.0
 40
48.5
  0
CIRCLE
  8
0
  6
CONTINUOUS
 62
               3
  5
29E
 10
615.5365232163075
 20
-1405.8562982616336
 30
0.0
 40
47.299999999999997
  0
LINE
  8
0
  6
CONTINUOUS
 62
               3
  5
29F
 10
583.71671806291295
 20
-1437.6761034150281
 30
0.0
 11
582.09037246618379
 21
-1439.3024490117573
 31
0.0
  0
LINE
  8
0
  6
CONTINUOUS
 62
               3
  5
2A0
 10
647.35632836970206
 20
-1437.6761034150281
 30
0.0
 11
648.98267396643121
 21
-1439.3024490117573
 31
0.0
  0
ARC
  8
0
  6
CONTINUOUS
 62
               3
  5
2A1
 10
615.5365232163075
 20
-1405.8562982616336
 30
0.0
 40
45.0
 50
224.99999999982745
 51
314.99999999975864
  0
CIRCLE
  8
0
  6
CONTINUOUS
 62
               3
  5
2A2
 10
615.5365232163075
 20
-1405.8562982616336
 30
0.0
 40
57.600000000000001
  0
ARC
  8
0
  6
CONTINUOUS
 62
               3
  5
2A3
 10
593.03652321630796
 20
-1468.3562982616336
 30
0.0
 40
2.4999999999999996
 50
269.99999999979354
 51
449.99999999965507
  0
ARC
  8
0
  6
CONTINUOUS
 62
               3
  5
2A4
 10
638.03652321630796
 20
-1468.3562982616336
 30
0.0
 40
2.4999999999999996
 50
89.999999999929457
 51
269.99999999979354
  0
LINE
  8
0
  6
CONTINUOUS
 62
               3
  5
2A5
 10
550.5365232163075
 20
-1470.8562982616336
 30
0.0
 11
593.03652321630796
 21
-1470.8562982616336
 31
0.0
  0
LINE
  8
0
  6
CONTINUOUS
 62
               3
  5
2A6
 10
550.5365232163075
 20
-1465.8562982616336
 30
0.0
 11
593.03652321630796
 21
-1465.8562982616336
 31
0.0
  0
LINE
  8
0
  6
CONTINUOUS
 62
               3
  5
2A7
 10
638.03652321630796
 20
-1465.8562982616336
 30
0.0
 11
690.5365232163075
 21
-1465.8562982616336
 31
0.0
  0
LINE
  8
0
  6
CONTINUOUS
 62
               3
  5
2A8
 10
638.03652321630796
 20
-1470.8562982616336
 30
0.0
 11
690.5365232163075
 21
-1470.8562982616336
 31
0.0
  0
CIRCLE
  8
0
  6
CONTINUOUS
 62
               3
  5
2A9
 10
615.5365232163075
 20
-931.35686451304935
 30
0.0
 40
59.0
  0
ARC
  8
0
  6
CONTINUOUS
 62
               4
  5
2AA
 10
6.25
 20
646.11234272929175
 30
0.0
 40
51.5
 50
247.14815970712681
 51
510.93845082065758
  0
ARC
  8
0
  6
CONTINUOUS
 62
               4
  5
2AB
 10
6.2500000000000711
 20
646.11234272929175
 30
0.0
 40
75.5
 50
0.0
 51
127.29649278708915
  0
ARC
  8
0
  6
CONTINUOUS
 62
               4
  5
2AC
 10
6.2500000000000711
 20
646.11234272929175
 30
0.0
 40
75.5
 50
269.99999999999932
 51
359.9999999999992
  0
LINE
  8
0
  6
CONTINUOUS
 62
               4
  5
2AD
 10
-13.750000000003485
 20
646.11234272929175
 30
0.0
 11
-46.250000000000519
 21
646.11234272929175
 31
0.0
  0
LINE
  8
0
  6
CONTINUOUS
 62
               4
  5
2AE
 10
-13.750000000000021
 20
597.57112313192249
 30
0.0
 11
-13.750000000000004
 21
641.97020710556137
 31
0.0
  0
ARC
  8
0
  6
CONTINUOUS
 62
               4
  5
2AF
 10
-23.750000000000004
 20
641.97020710556137
 30
0.0
 40
10.0
 50
359.9999999999992
 51
404.99999999999909
  0
LINE
  8
0
  6
CONTINUOUS
 62
               4
  5
2B0
 10
-16.678932188134507
 20
649.0412749174269
 30
0.0
 11
-39.500874115189362
 21
671.86321684447773
 31
0.0
  0
CIRCLE
  8
0
  6
CONTINUOUS
 62
               4
  5
2B1
 10
6.2499999999994813
 20
646.11234272929175
 30
0.0
 40
52.5
  0
CIRCLE
  8
0
  6
CONTINUOUS
 62
               4
  5
2B2
 10
6.2499999999994813
 20
646.11234272929175
 30
0.0
 40
64.000000000000057
  0
CIRCLE
  8
0
  6
CONTINUOUS
 62
               4
  5
2B3
 10
6.2499999999994813
 20
646.11234272929175
 30
0.0
 40
74.999999999999488
  0
ARC
  8
0
  6
CONTINUOUS
 62
               4
  5
2B4
 10
6.2500000000000711
 20
646.11234272929175
 30
0.0
 40
75.5
 50
232.70350721291064
 51
269.99999999999903
  0
LINE
  8
0
  6
CONTINUOUS
 62
               4
  5
2B5
 10
-38.627805444974463
 20
706.20379452106442
 30
0.0
 11
-117.74999999999994
 21
703.44078660332718
 31
0.0
  0
LINE
  8
0
  6
CONTINUOUS
 62
               4
  5
2B6
 10
-38.627805444973824
 20
586.02089093751863
 30
0.0
 11
-117.74999999999982
 21
588.7838988552561
 31
0.0
  0
ARC
  8
0
  6
CONTINUOUS
 62
               4
  5
2B7
 10
-63.383184991464304
 20
163.73002261044326
 30
0.0
 40
5.0
 50
319.7576293518394
 51
354.52634157409415
  0
ARC
  8
0
  6
CONTINUOUS
 62
               4
  5
2B8
 10
-55.250372908288682
 20
162.03161733335503
 30
0.0
 40
5.0
 50
242.2178093170989
 51
335.43172396398262
  0
ARC
  8
0
  6
CONTINUOUS
 62
               4
  5
2B9
 10
-55.749999999998806
 20
157.2697991711135
 30
0.0
 40
5.0
 50
139.75762935184071
 51
164.34500844836853
  0
ARC
  8
0
  6
CONTINUOUS
 62
               4
  5
2BA
 10
-62.242047844730507
 20
148.76072883322047
 30
0.0
 40
10.0
 50
62.217809317099025
 51
92.000000000000838
  0
LINE
  8
0
  6
CONTINUOUS
 62
               4
  5
2BB
 10
-21.114609066743299
 20
89.0
 30
0.0
 11
73.249999999999829
 21
89.0
 31
0.0
  0
LINE
  8
0
  6
CONTINUOUS
 62
               4
  5
2BC
 10
73.249999999999829
 20
89.0
 30
0.0
 11
64.249999999999773
 21
43.753944570867475
 31
0.0
  0
LINE
  8
0
  6
CONTINUOUS
 62
               4
  5
2BD
 10
-68.750000000000057
 20
280.49999999999989
 30
0.0
 11
-68.750000000000057
 21
297.50000000000011
 31
0.0
  0
ARC
  8
0
  6
CONTINUOUS
 62
               4
  5
2BE
 10
-70.750000000000227
 20
275.91742430504416
 30
0.0
 40
5.0
 50
0.0
 51
66.421821521796758
  0
ARC
  8
0
  6
CONTINUOUS
 62
               4
  5
2BF
 10
-54.749999999999716
 20
216.46629794778823
 30
0.0
 40
11.0
 50
179.9999999999996
 51
220.36759354418962
  0
ARC
  8
0
  6
CONTINUOUS
 62
               4
  5
2C0
 10
-70.749999999998806
 20
202.86482743905151
 30
0.0
 40
10.0
 50
359.9999999999992
 51
400.36759354418882
  0
LINE
  8
0
  6
CONTINUOUS
 62
               4
  5
2C1
 10
-60.749999999998806
 20
196.28997825920158
 30
0.0
 11
-60.749999999998806
 21
202.86482743905151
 31
0.0
  0
ARC
  8
0
  6
CONTINUOUS
 62
               4
  5
2C2
 10
-50.750000000001648
 20
197.45279345773099
 30
0.0
 40
10.0
 50
179.9999999999996
 51
239.99999999999969
  0
ARC
  8
0
  6
CONTINUOUS
 62
               4
  5
2C3
 10
-157.95000000000164
 20
172.79189323085393
 30
0.0
 40
100.0
 50
354.52634157409398
 51
373.59049396679819
  0
ARC
  8
0
  6
CONTINUOUS
 62
               4
  5
2C4
 10
-74.211920342721157
 20
170.70019530550564
 30
0.0
 40
25.849089312664582
 50
335.43172396398251
 51
404.4207396332767
  0
LINE
  8
0
  6
CONTINUOUS
 62
               4
  5
2C5
 10
-65.750000000000227
 20
275.91742430504416
 30
0.0
 11
-65.749999999999659
 21
216.46629794778823
 31
0.0
  0
LINE
  8
0
  6
CONTINUOUS
 62
               4
  5
2C6
 10
81.249999999999943
 20
280.49999999999989
 30
0.0
 11
81.249999999999943
 21
297.50000000000011
 31
0.0
  0
LINE
  8
0
  6
CONTINUOUS
 62
               4
  5
2C7
 10
78.249999999999545
 20
216.46629794778823
 30
0.0
 11
78.249999999999829
 21
275.91742430504416
 31
0.0
  0
ARC
  8
0
  6
CONTINUOUS
 62
               4
  5
2C8
 10
83.249999999999829
 20
275.91742430504416
 30
0.0
 40
5.0
 50
113.57817847820284
 51
179.9999999999996
  0
LINE
  8
0
  6
CONTINUOUS
 62
               4
  5
2C9
 10
73.249999999998408
 20
202.86482743905151
 30
0.0
 11
73.249999999999829
 21
89.0
 31
0.0
  0
ARC
  8
0
  6
CONTINUOUS
 62
               4
  5
2CA
 10
67.249999999999318
 20
216.46629794778823
 30
0.0
 40
11.0
 50
319.63240645580953
 51
359.9999999999992
  0
ARC
  8
0
  6
CONTINUOUS
 62
               4
  5
2CB
 10
83.249999999998408
 20
202.86482743905151
 30
0.0
 40
10.0
 50
139.63240645581024
 51
179.9999999999996
  0
LINE
  8
0
  6
CONTINUOUS
 62
               4
  5
2CC
 10
-68.750000000000057
 20
280.49999999999989
 30
0.0
 11
81.249999999999943
 21
280.49999999999989
 31
0.0
  0
LINE
  8
0
  6
CONTINUOUS
 62
               4
  5
2CD
 10
-117.75000000000001
 20
157.00304772149423
 30
0.0
 11
-62.591042811755585
 21
158.75463710341148
 31
0.0
  0
LINE
  8
0
  6
CONTINUOUS
 62
               4
  5
2CE
 10
81.249999999999943
 20
297.50000000000011
 30
0.0
 11
-68.750000000000057
 21
297.50000000000011
 31
0.0
  0
LINE
  8
0
  6
CONTINUOUS
 62
               4
  5
2CF
 10
-718.75000000000011
 20
280.49999999999989
 30
0.0
 11
-718.75000000000011
 21
297.50000000000011
 31
0.0
  0
ARC
  8
0
  6
CONTINUOUS
 62
               4
  5
2D0
 10
-720.75000000000023
 20
275.91742430504416
 30
0.0
 40
5.0
 50
0.0
 51
66.421821521796758
  0
ARC
  8
0
  6
CONTINUOUS
 62
               4
  5
2D1
 10
-720.74999999999886
 20
202.86482743905151
 30
0.0
 40
10.0
 50
359.9999999999992
 51
400.36759354418882
  0
LINE
  8
0
  6
CONTINUOUS
 62
               4
  5
2D2
 10
-715.75000000000023
 20
275.91742430504416
 30
0.0
 11
-715.74999999999966
 21
216.46629794778823
 31
0.0
  0
LINE
  8
0
  6
CONTINUOUS
 62
               4
  5
2D3
 10
-568.75
 20
280.49999999999989
 30
0.0
 11
-568.75
 21
297.50000000000011
 31
0.0
  0
LINE
  8
0
  6
CONTINUOUS
 62
               4
  5
2D4
 10
-571.75000000000045
 20
216.46629794778823
 30
0.0
 11
-571.75000000000023
 21
275.91742430504416
 31
0.0
  0
ARC
  8
0
  6
CONTINUOUS
 62
               4
  5
2D5
 10
-566.75000000000023
 20
275.91742430504416
 30
0.0
 40
5.0
 50
113.57817847820284
 51
179.9999999999996
  0
LINE
  8
0
  6
CONTINUOUS
 62
               4
  5
2D6
 10
-718.75000000000011
 20
280.49999999999989
 30
0.0
 11
-568.75
 21
280.49999999999989
 31
0.0
  0
LINE
  8
0
  6
CONTINUOUS
 62
               4
  5
2D7
 10
-568.75
 20
297.50000000000011
 30
0.0
 11
-718.75000000000011
 21
297.50000000000011
 31
0.0
  0
LINE
  8
0
  6
CONTINUOUS
 62
               4
  5
2D8
 10
-576.75
 20
88.507542983213057
 30
0.0
 11
-576.75000000000136
 21
202.86482743905151
 31
0.0
  0
LINE
  8
0
  6
CONTINUOUS
 62
               4
  5
2D9
 10
-710.74999999999864
 20
202.86482743905151
 30
0.0
 11
-710.74999999999864
 21
88.507542983206235
 31
0.0
  0
ARC
  8
0
  6
CONTINUOUS
 62
               4
  5
2DA
 10
-582.75000000000045
 20
216.46629794778812
 30
0.0
 40
11.0
 50
319.63240645580953
 51
359.9999999999992
  0
ARC
  8
0
  6
CONTINUOUS
 62
               4
  5
2DB
 10
-566.75000000000136
 20
202.86482743905151
 30
0.0
 40
10.0
 50
139.63240645581024
 51
179.9999999999996
  0
ARC
  8
0
  6
CONTINUOUS
 62
               4
  5
2DC
 10
-704.74999999999966
 20
216.46629794778812
 30
0.0
 40
11.0
 50
179.9999999999996
 51
220.36759354418928
  0
LINE
  8
0
  6
CONTINUOUS
 62
               4
  5
2DD
 10
-576.75
 20
88.507542983213057
 30
0.0
 11
-585.75
 21
43.261487554080645
 31
0.0
  0
LINE
  8
0
  6
CONTINUOUS
 62
               4
  5
2DE
 10
-710.75
 20
88.507542983213057
 30
0.0
 11
-701.75
 21
43.261487554080645
 31
0.0
  0
ARC
  8
0
  6
CONTINUOUS
 62
               4
  5
2DF
 10
-646.48886467040404
 20
88.568100209909517
 30
0.0
 40
75.238995147991176
 50
66.251709401210945
 51
99.116170731728488
  0
ARC
  8
0
  6
CONTINUOUS
 62
               4
  5
2E0
 10
-659.04323283998565
 20
166.80623791733444
 30
0.0
 40
4.0
 50
151.46651938402164
 51
279.116170731728
  0
ARC
  8
0
  6
CONTINUOUS
 62
               4
  5
2E1
 10
-614.57778554144193
 20
161.09741415184942
 30
0.0
 40
4.0
 50
246.25170940120867
 51
395.78778983851345
  0
ARC
  8
0
  6
CONTINUOUS
 62
               4
  5
2E2
 10
-641.22715094279351
 20
173.86499018578786
 30
0.0
 40
15.395931900744419
 50
47.914158101635444
 51
144.58600371307961
  0
ARC
  8
0
  6
CONTINUOUS
 62
               4
  5
2E3
 10
-541.14489900960189
 20
102.70343385349668
 30
0.0
 40
138.19831075251042
 50
144.58600371307966
 51
151.46651938402184
  0
ARC
  8
0
  6
CONTINUOUS
 62
               4
  5
2E4
 10
-723.99450729219802
 20
82.219026571887639
 30
0.0
 40
138.88446547285218
 50
35.787789838514875
 51
47.914158101635635
  0
LINE
  8
0
  6
CONTINUOUS
 62
               4
  5
2E5
 10
-643.75
 20
174.19732621910191
 30
0.0
 11
-618.92262784409672
 21
159.40448574060167
 31
0.0
  0
LINE
  8
0
  6
CONTINUOUS
 62
               4
  5
2E6
 10
-643.75
 20
174.19732614839893
 30
0.0
 11
-659.98122525712733
 21
164.82622387691902
 31
0.0
  0
LINE
  8
0
  6
CONTINUOUS
 62
               4
  5
2E7
 10
-643.81237579684421
 20
174.19732621910191
 30
0.0
 11
-643.81237579684421
 21
187.68615816895533
 31
0.0
  0
LINE
  8
0
  6
CONTINUOUS
 62
               4
  5
2E8
 10
531.24999999999989
 20
280.49999999999989
 30
0.0
 11
531.24999999999989
 21
297.50000000000011
 31
0.0
  0
ARC
  8
0
  6
CONTINUOUS
 62
               4
  5
2E9
 10
529.24999999999977
 20
275.91742430504416
 30
0.0
 40
5.0
 50
0.0
 51
66.421821521796758
  0
ARC
  8
0
  6
CONTINUOUS
 62
               4
  5
2EA
 10
529.25000000000114
 20
202.86482743905151
 30
0.0
 40
10.0
 50
359.9999999999992
 51
400.36759354418882
  0
LINE
  8
0
  6
CONTINUOUS
 62
               4
  5
2EB
 10
534.24999999999977
 20
275.91742430504416
 30
0.0
 11
534.25000000000034
 21
216.46629794778823
 31
0.0
  0
LINE
  8
0
  6
CONTINUOUS
 62
               4
  5
2EC
 10
681.25
 20
280.49999999999989
 30
0.0
 11
681.25
 21
297.50000000000011
 31
0.0
  0
LINE
  8
0
  6
CONTINUOUS
 62
               4
  5
2ED
 10
678.24999999999955
 20
216.46629794778823
 30
0.0
 11
678.24999999999989
 21
275.91742430504416
 31
0.0
  0
ARC
  8
0
  6
CONTINUOUS
 62
               4
  5
2EE
 10
683.24999999999989
 20
275.91742430504416
 30
0.0
 40
5.0
 50
113.57817847820284
 51
179.9999999999996
  0
LINE
  8
0
  6
CONTINUOUS
 62
               4
  5
2EF
 10
531.24999999999989
 20
280.49999999999989
 30
0.0
 11
681.25
 21
280.49999999999989
 31
0.0
  0
LINE
  8
0
  6
CONTINUOUS
 62
               4
  5
2F0
 10
681.25
 20
297.50000000000011
 30
0.0
 11
531.24999999999989
 21
297.50000000000011
 31
0.0
  0
LINE
  8
0
  6
CONTINUOUS
 62
               4
  5
2F1
 10
673.24999999999989
 20
88.999999999999886
 30
0.0
 11
673.24999999999864
 21
202.86482743905151
 31
0.0
  0
LINE
  8
0
  6
CONTINUOUS
 62
               4
  5
2F2
 10
539.25000000000136
 20
202.86482743905151
 30
0.0
 11
539.25000000000136
 21
88.507542983207145
 31
0.0
  0
ARC
  8
0
  6
CONTINUOUS
 62
               4
  5
2F3
 10
667.24999999999955
 20
216.46629794778812
 30
0.0
 40
11.0
 50
319.63240645580953
 51
359.9999999999992
  0
ARC
  8
0
  6
CONTINUOUS
 62
               4
  5
2F4
 10
683.24999999999864
 20
202.86482743905151
 30
0.0
 40
10.0
 50
139.63240645581024
 51
179.9999999999996
  0
ARC
  8
0
  6
CONTINUOUS
 62
               4
  5
2F5
 10
545.25000000000034
 20
216.46629794778812
 30
0.0
 40
11.0
 50
179.9999999999996
 51
220.36759354418928
  0
LINE
  8
0
  6
CONTINUOUS
 62
               4
  5
2F6
 10
673.24999999999989
 20
88.507542983213057
 30
0.0
 11
664.25
 21
43.261487554080645
 31
0.0
  0
LINE
  8
0
  6
CONTINUOUS
 62
               4
  5
2F7
 10
606.18762420315579
 20
174.19732621910191
 30
0.0
 11
606.18762420315579
 21
187.68615816895533
 31
0.0
  0
LINE
  8
0
  6
CONTINUOUS
 62
               4
  5
2F8
 10
539.25000000000011
 20
88.507542983213057
 30
0.0
 11
548.25
 21
43.261487554080645
 31
0.0
  0
LINE
  8
0
  6
CONTINUOUS
 62
               4
  5
2F9
 10
-117.76217974870075
 20
42.346159973423255
 30
0.0
 11
-56.749893700847792
 21
40.041385474919366
 31
0.0
  0
LINE
  8
0
  6
CONTINUOUS
 62
               4
  5
2FA
 10
64.249999999999972
 20
43.753944570867475
 30
0.0
 11
64.249999999999972
 21
33.499999999999886
 31
0.0
  0
LINE
  8
0
  6
CONTINUOUS
 62
               4
  5
2FB
 10
62.750000000000199
 20
32.000000000000227
 30
0.0
 11
64.249999999999972
 21
33.499999999999886
 31
0.0
  0
LINE
  8
0
  6
CONTINUOUS
 62
               4
  5
2FC
 10
-51.749999999999972
 20
33.5
 30
0.0
 11
64.249999999999972
 21
33.499999999999886
 31
0.0
  0
LINE
  8
0
  6
CONTINUOUS
 62
               4
  5
2FD
 10
-51.750000000000256
 20
33.5
 30
0.0
 11
-50.249999999999915
 21
32.000000000000227
 31
0.0
  0
LINE
  8
0
  6
CONTINUOUS
 62
               4
  5
2FE
 10
-51.749999999999972
 20
33.5
 30
0.0
 11
-51.749999999999972
 21
35.038341465473536
 31
0.0
  0
ARC
  8
0
  6
CONTINUOUS
 62
               4
  5
2FF
 10
-56.749999999999972
 20
35.038341465473536
 30
0.0
 40
5.0
 50
0.0
 51
89.999999999999801
  0
LINE
  8
0
  6
CONTINUOUS
 62
               4
  5
300
 10
-58.330532312227369
 20
32.000000000000114
 30
0.0
 11
69.249999999998991
 21
32.000000000000114
 31
0.0
  0
LINE
  8
0
  6
CONTINUOUS
 62
               4
  5
301
 10
-50.249999999999915
 20
32.000000000000227
 30
0.0
 11
-50.249999999999915
 21
-317.49999999999994
 31
0.0
  0
LINE
  8
0
  6
CONTINUOUS
 62
               4
  5
302
 10
62.750000000000199
 20
32.000000000000227
 30
0.0
 11
62.750000000000199
 21
-317.49999999999994
 31
0.0
  0
LINE
  8
0
  6
CONTINUOUS
 62
               4
  5
303
 10
-84.750000000000512
 20
-373.24522178732235
 30
0.0
 11
-84.750000000000512
 21
-363.37093558026658
 31
0.0
  0
LINE
  8
0
  6
CONTINUOUS
 62
               4
  5
304
 10
97.249999999999233
 20
-373.24522178732235
 30
0.0
 11
97.249999999999233
 21
-363.37093558026658
 31
0.0
  0
LINE
  8
0
  6
CONTINUOUS
 62
               4
  5
305
 10
-58.750000000000568
 20
-472.49999999999875
 30
0.0
 11
71.249999999999403
 21
-472.49999999999875
 31
0.0
  0
LINE
  8
0
  6
CONTINUOUS
 62
               4
  5
306
 10
-56.749999999998735
 20
-197.99999999999977
 30
0.0
 11
69.249999999998792
 21
-197.99999999999977
 31
0.0
  0
LINE
  8
0
  6
CONTINUOUS
 62
               4
  5
307
 10
664.24999999999977
 20
43.753944570867475
 30
0.0
 11
664.24999999999977
 21
33.499999999999886
 31
0.0
  0
LINE
  8
0
  6
CONTINUOUS
 62
               4
  5
308
 10
662.75
 20
32.000000000000227
 30
0.0
 11
664.24999999999977
 21
33.499999999999886
 31
0.0
  0
LINE
  8
0
  6
CONTINUOUS
 62
               4
  5
309
 10
548.24999999999977
 20
33.5
 30
0.0
 11
664.24999999999977
 21
33.499999999999886
 31
0.0
  0
LINE
  8
0
  6
CONTINUOUS
 62
               4
  5
30A
 10
548.24999999999955
 20
33.5
 30
0.0
 11
549.74999999999989
 21
32.000000000000227
 31
0.0
  0
LINE
  8
0
  6
CONTINUOUS
 62
               4
  5
30B
 10
549.74999999999989
 20
32.000000000000227
 30
0.0
 11
549.74999999999989
 21
-292.49999999999994
 31
0.0
  0
LINE
  8
0
  6
CONTINUOUS
 62
               4
  5
30C
 10
662.75
 20
32.000000000000227
 30
0.0
 11
662.75
 21
-292.49999999999994
 31
0.0
  0
LINE
  8
0
  6
CONTINUOUS
 62
               4
  5
30D
 10
543.25000000000136
 20
32.000000000000227
 30
0.0
 11
669.24999999999864
 21
32.000000000000227
 31
0.0
  0
LINE
  8
0
  6
CONTINUOUS
 62
               4
  5
30E
 10
548.25
 20
43.06820460459619
 30
0.0
 11
548.25
 21
33.499999999999659
 31
0.0
  0
LINE
  8
0
  6
CONTINUOUS
 62
               4
  5
30F
 10
541.25000000000068
 20
-472.49999999999898
 30
0.0
 11
671.25000000000068
 21
-472.49999999999898
 31
0.0
  0
LINE
  8
0
  6
CONTINUOUS
 62
               4
  5
310
 10
543.25000000000125
 20
-197.99999999999977
 30
0.0
 11
669.24999999999875
 21
-197.99999999999977
 31
0.0
  0
LINE
  8
0
  6
CONTINUOUS
 62
               4
  5
311
 10
-585.75000000000023
 20
43.753944570867475
 30
0.0
 11
-585.75000000000023
 21
33.499999999999886
 31
0.0
  0
LINE
  8
0
  6
CONTINUOUS
 62
               4
  5
312
 10
-587.25
 20
32.000000000000227
 30
0.0
 11
-585.75000000000023
 21
33.499999999999886
 31
0.0
  0
LINE
  8
0
  6
CONTINUOUS
 62
               4
  5
313
 10
-701.75000000000023
 20
33.5
 30
0.0
 11
-585.75000000000023
 21
33.499999999999886
 31
0.0
  0
LINE
  8
0
  6
CONTINUOUS
 62
               4
  5
314
 10
-701.75000000000045
 20
33.5
 30
0.0
 11
-700.25000000000011
 21
32.000000000000227
 31
0.0
  0
LINE
  8
0
  6
CONTINUOUS
 62
               4
  5
315
 10
-700.25000000000011
 20
32.000000000000227
 30
0.0
 11
-700.25000000000011
 21
-292.5
 31
0.0
  0
LINE
  8
0
  6
CONTINUOUS
 62
               4
  5
316
 10
-587.25
 20
32.000000000000227
 30
0.0
 11
-587.25
 21
-292.5
 31
0.0
  0
LINE
  8
0
  6
CONTINUOUS
 62
               4
  5
317
 10
-706.74999999999864
 20
32.000000000000227
 30
0.0
 11
-580.75000000000125
 21
32.000000000000227
 31
0.0
  0
LINE
  8
0
  6
CONTINUOUS
 62
               4
  5
318
 10
-701.75
 20
43.06820460459619
 30
0.0
 11
-701.75
 21
33.499999999999659
 31
0.0
  0
LINE
  8
0
  6
CONTINUOUS
 62
               4
  5
319
 10
-708.75000000000057
 20
-472.49999999999875
 30
0.0
 11
-578.75000000000057
 21
-472.49999999999875
 31
0.0
  0
LINE
  8
0
  6
CONTINUOUS
 62
               4
  5
31A
 10
-706.74999999999875
 20
-197.99999999999977
 30
0.0
 11
-580.75000000000125
 21
-197.99999999999977
 31
0.0
  0
LINE
  8
0
  6
CONTINUOUS
 62
               4
  5
31B
 10
-616.9626429075206
 20
127.49999999999977
 30
0.0
 11
-670.5373570924794
 21
127.49999999999977
 31
0.0
  0
CIRCLE
  8
0
  6
CONTINUOUS
 62
               4
  5
31C
 10
-643.75
 20
99.499999999999886
 30
0.0
 40
48.500000000000007
  0
CIRCLE
  8
0
  6
CONTINUOUS
 62
               4
  5
31D
 10
-643.75
 20
99.499999999999886
 30
0.0
 40
38.75
  0
CIRCLE
  8
0
  6
CONTINUOUS
 62
               4
  5
31E
 10
-643.75
 20
99.499999999999886
 30
0.0
 40
47.299999999999997
  0
LINE
  8
0
  6
CONTINUOUS
 62
               4
  5
31F
 10
-675.56980515339455
 20
67.680194846605332
 30
0.0
 11
-677.19615075012371
 21
66.05384924987618
 31
0.0
  0
LINE
  8
0
  6
CONTINUOUS
 62
               4
  5
320
 10
-611.93019484660545
 20
67.680194846605332
 30
0.0
 11
-610.30384924987629
 21
66.05384924987618
 31
0.0
  0
ARC
  8
0
  6
CONTINUOUS
 62
               4
  5
321
 10
-643.75
 20
99.499999999999886
 30
0.0
 40
45.0
 50
224.99999999999949
 51
314.99999999999937
  0
CIRCLE
  8
0
  6
CONTINUOUS
 62
               4
  5
322
 10
-643.75
 20
99.499999999999886
 30
0.0
 40
43.0
  0
POINT
  8
0
  6
CONTINUOUS
 62
               4
  5
323
 10
-240.78776905046908
 20
-944.54130008484015
 30
0.0
  0
POINT
  8
0
  6
CONTINUOUS
 62
               4
  5
324
 10
-530.98776905046896
 20
-944.54130008484015
 30
0.0
  0
POINT
  8
0
  6
CONTINUOUS
 62
               4
  5
325
 10
-343.33372644623563
 20
-836.47341601580536
 30
0.0
  0
POINT
  8
0
  6
CONTINUOUS
 62
               4
  5
326
 10
249.08392368588062
 20
-944.54130008484015
 30
0.0
  0
POINT
  8
0
  6
CONTINUOUS
 62
               4
  5
327
 10
5.1718912353947388
 20
-944.54130008484015
 30
0.0
  0
POINT
  8
0
  6
CONTINUOUS
 62
               4
  5
328
 10
171.6279074606378
 20
-856.58528385959755
 30
0.0
  0
LINE
  8
0
  6
CONTINUOUS
 62
               4
  5
329
 10
692.53652321630727
 20
-1336.3206445087808
 30
0.0
 11
687.53652321630727
 21
-1331.3206445087808
 31
0.0
  0
ARC
  8
0
  6
CONTINUOUS
 62
               4
  5
32A
 10
670.03652321630727
 20
-1346.8562982616336
 30
0.0
 40
19.999999999999996
 50
0.0
 51
31.788330617027277
  0
LINE
  8
0
  6
CONTINUOUS
 62
               4
  5
32B
 10
687.03652321630773
 20
-1336.3206445087808
 30
0.0
 11
687.03652321630773
 21
-1331.3206445087803
 31
0.0
  0
LINE
  8
0
  6
CONTINUOUS
 62
               4
  5
32C
 10
687.53652321630727
 20
-1331.3206445087808
 30
0.0
 11
687.03652321630773
 21
-1331.3206445087808
 31
0.0
  0
LINE
  8
0
  6
CONTINUOUS
 62
               4
  5
32D
 10
692.2865232163075
 20
-1336.5706445087808
 30
0.0
 11
687.03652321630773
 21
-1331.3206445087808
 31
0.0
  0
LINE
  8
0
  6
CONTINUOUS
 62
               4
  5
32E
 10
692.2865232163075
 20
-1336.5706445087808
 30
0.0
 11
692.53652321630727
 21
-1336.3206445087808
 31
0.0
  0
LINE
  8
0
  6
CONTINUOUS
 62
               4
  5
32F
 10
692.53652321630727
 20
-1336.3206445087808
 30
0.0
 11
692.53652321630727
 21
-1467.0093218587508
 31
0.0
  0
LINE
  8
0
  6
CONTINUOUS
 62
               4
  5
330
 10
692.2865232163075
 20
-1336.5706445087808
 30
0.0
 11
692.2865232163075
 21
-1466.7239647516153
 31
0.0
  0
LINE
  8
0
  6
CONTINUOUS
 62
               4
  5
331
 10
690.03652321630727
 20
-1346.7032746645164
 30
0.0
 11
690.03652321630727
 21
-1465.8562982616336
 31
0.0
  0
POINT
  8
0
  6
CONTINUOUS
 62
               4
  5
332
 10
660.0365232163075
 20
-1075.7568645130495
 30
0.0
  0
POINT
  8
0
  6
CONTINUOUS
 62
               4
  5
333
 10
471.13652321630747
 20
-1361.3562982616336
 30
0.0
  0
POINT
  8
0
  6
CONTINUOUS
 62
               4
  5
334
 10
471.13652321630758
 20
-975.85686451304889
 30
0.0
  0
LINE
  8
0
  6
DASHED2
 62
               4
  5
335
 10
-125.74999999999994
 20
691.11234272929175
 30
0.0
 11
-67.749999999999545
 21
691.11234272929175
 31
0.0
  0
LINE
  8
0
  6
DASHED2
 62
               4
  5
336
 10
-67.749999999999545
 20
691.11234272929175
 30
0.0
 11
-67.749999999999545
 21
601.11234272929175
 31
0.0
  0
LINE
  8
0
  6
DASHED2
 62
               4
  5
337
 10
-125.74999999999994
 20
601.11234272928812
 30
0.0
 11
-67.749999999999545
 21
601.11234272929175
 31
0.0
  0
LINE
  8
0
  6
DASHED2
 62
               4
  5
338
 10
-67.750000000000114
 20
144.50000000000011
 30
0.0
 11
-67.750000000000114
 21
54.500000000000114
 31
0.0
  0
LINE
  8
0
  6
DASHED2
 62
               4
  5
339
 10
-125.74999999999999
 20
144.50000000000011
 30
0.0
 11
-67.750000000000114
 21
144.50000000000011
 31
0.0
  0
LINE
  8
0
  6
DASHED2
 62
               4
  5
33A
 10
-125.74999999999999
 20
54.499999999996817
 30
0.0
 11
-67.750000000000114
 21
54.500000000000114
 31
0.0
  0
LINE
  8
0
  6
DASHED2
 62
               4
  5
33B
 10
-50.750000000000227
 20
232.50000000000011
 30
0.0
 11
63.249999999999829
 21
232.50000000000011
 31
0.0
  0
LINE
  8
0
  6
DASHED2
 62
               4
  5
33C
 10
-700.75000000000023
 20
232.50000000000011
 30
0.0
 11
-586.75000000000023
 21
232.50000000000011
 31
0.0
  0
LINE
  8
0
  6
DASHED2
 62
               4
  5
33D
 10
549.24999999999977
 20
232.50000000000011
 30
0.0
 11
663.24999999999989
 21
232.50000000000011
 31
0.0
  0
LINE
  8
0
  6
DASHED2
 62
               4
  5
33E
 10
-45.249999999999915
 20
-367.49999999999994
 30
0.0
 11
-45.249999999999915
 21
22.588563186587749
 31
0.0
  0
LINE
  8
0
  6
DASHED2
 62
               4
  5
33F
 10
57.750000000000199
 20
-367.49999999999994
 30
0.0
 11
57.750000000000199
 21
22.588563186587749
 31
0.0
  0
LINE
  8
0
  6
DASHED2
 62
               4
  5
340
 10
-51.250000000002984
 20
-382.50000000000108
 30
0.0
 11
-51.250000000002984
 21
-447.49999999999881
 31
0.0
  0
LINE
  8
0
  6
DASHED2
 62
               4
  5
341
 10
-51.250000000002984
 20
-382.50000000000108
 30
0.0
 11
6.2499999999988631
 21
-382.49999999999994
 31
0.0
  0
LINE
  8
0
  6
DASHED2
 62
               4
  5
342
 10
63.750000000001705
 20
-382.50000000000108
 30
0.0
 11
6.25
 21
-382.49999999999994
 31
0.0
  0
LINE
  8
0
  6
DASHED2
 62
               4
  5
343
 10
63.750000000001705
 20
-382.50000000000108
 30
0.0
 11
63.750000000001705
 21
-447.49999999999881
 31
0.0
  0
LINE
  8
0
  6
DASHED2
 62
               4
  5
344
 10
-130.51000000000073
 20
-367.49999999999949
 30
0.0
 11
-130.51000000000073
 21
-358.97387150069227
 31
0.0
  0
LINE
  8
0
  6
DASHED2
 62
               4
  5
345
 10
-124.62102725426632
 20
-358.97387150069227
 30
0.0
 11
-124.62102725426632
 21
-367.49999999999949
 31
0.0
  0
LINE
  8
0
  6
DASHED2
 62
               4
  5
346
 10
-127.56551362713338
 20
-357.89999999999935
 30
0.0
 11
-109.93448637286747
 21
-357.89999999999935
 31
0.0
  0
LINE
  8
0
  6
DASHED2
 62
               4
  5
347
 10
-106.99000000000041
 20
-367.49999999999949
 30
0.0
 11
-106.99000000000041
 21
-358.97387150069227
 31
0.0
  0
LINE
  8
0
  6
DASHED2
 62
               4
  5
348
 10
-112.8789727457351
 20
-367.49999999999949
 30
0.0
 11
-112.8789727457351
 21
-358.97387150069227
 31
0.0
  0
ARC
  8
0
  6
DASHED2
 62
               4
  5
349
 10
-127.56551362713338
 20
-362.47373158411534
 30
0.0
 40
4.5737315841157447
 50
49.925579661612304
 51
130.07442033835341
  0
ARC
  8
0
  6
DASHED2
 62
               4
  5
34A
 10
-109.93448637286747
 20
-362.47373158411534
 30
0.0
 40
4.5737315841157686
 50
49.925579661612304
 51
130.07442033835341
  0
ARC
  8
0
  6
DASHED2
 62
               4
  5
34B
 10
-118.75000000000057
 20
-374.48585826951984
 30
0.0
 40
16.58585826952007
 50
69.269184858547646
 51
110.73081514141818
  0
LINE
  8
0
  6
DASHED2
 62
               4
  5
34C
 10
-130.51000000000215
 20
-369.49999999999983
 30
0.0
 11
-130.51000000000215
 21
-378.02612849930705
 31
0.0
  0
LINE
  8
0
  6
DASHED2
 62
               4
  5
34D
 10
-124.62102725426774
 20
-378.02612849930705
 30
0.0
 11
-124.62102725426774
 21
-369.49999999999983
 31
0.0
  0
LINE
  8
0
  6
DASHED2
 62
               4
  5
34E
 10
-127.56551362713481
 20
-379.09999999999962
 30
0.0
 11
-109.93448637286917
 21
-379.09999999999962
 31
0.0
  0
LINE
  8
0
  6
DASHED2
 62
               4
  5
34F
 10
-106.99000000000183
 20
-369.49999999999983
 30
0.0
 11
-106.99000000000183
 21
-378.02612849930705
 31
0.0
  0
LINE
  8
0
  6
DASHED2
 62
               4
  5
350
 10
-112.87897274573623
 20
-369.49999999999983
 30
0.0
 11
-112.87897274573623
 21
-378.02612849930705
 31
0.0
  0
ARC
  8
0
  6
DASHED2
 62
               4
  5
351
 10
-127.56551362713481
 20
-374.5262684158842
 30
0.0
 40
4.5737315841157447
 50
229.92557966157796
 51
310.07442033831961
  0
ARC
  8
0
  6
DASHED2
 62
               4
  5
352
 10
-109.93448637286917
 20
-374.5262684158842
 30
0.0
 40
4.5737315841157686
 50
229.92557966157852
 51
310.07442033831961
  0
ARC
  8
0
  6
DASHED2
 62
               4
  5
353
 10
-118.75000000000199
 20
-362.51414173047971
 30
0.0
 40
16.58585826952007
 50
249.26918485851303
 51
290.73081514138352
  0
LINE
  8
0
  6
DASHED2
 62
               4
  5
354
 10
-124.75000000000051
 20
-379.09999999999962
 30
0.0
 11
-124.75000000000051
 21
-389.61936624232425
 31
0.0
  0
LINE
  8
0
  6
DASHED2
 62
               4
  5
355
 10
-112.75000000000063
 20
-379.09999999999962
 30
0.0
 11
-112.75000000000063
 21
-389.61936624232425
 31
0.0
  0
LINE
  8
0
  6
DASHED2
 62
               4
  5
356
 10
-123.55000000000075
 20
-390.81936624232463
 30
0.0
 11
-113.95000000000067
 21
-390.81936624232463
 31
0.0
  0
LINE
  8
0
  6
DASHED2
 62
               4
  5
357
 10
-124.75000000000051
 20
-389.61936624232425
 30
0.0
 11
-123.55000000000075
 21
-390.81936624232463
 31
0.0
  0
LINE
  8
0
  6
DASHED2
 62
               4
  5
358
 10
-112.75000000000063
 20
-389.61936624232425
 30
0.0
 11
-113.95000000000067
 21
-390.81936624232463
 31
0.0
  0
LINE
  8
0
  6
DASHED2
 62
               4
  5
359
 10
-130.51000000000073
 20
-367.49999999999949
 30
0.0
 11
-106.99000000000041
 21
-367.49999999999949
 31
0.0
  0
LINE
  8
0
  6
DASHED2
 62
               4
  5
35A
 10
-106.99000000000183
 20
-369.49999999999983
 30
0.0
 11
-130.51000000000215
 21
-369.49999999999983
 31
0.0
  0
LINE
  8
0
  6
DASHED2
 62
               4
  5
35B
 10
-124.75000000000051
 20
-252.43642052407068
 30
0.0
 11
-124.75000000000051
 21
-357.89999999999935
 31
0.0
  0
LINE
  8
0
  6
DASHED2
 62
               4
  5
35C
 10
-112.75000000000063
 20
-252.43642052407068
 30
0.0
 11
-112.75000000000063
 21
-357.89999999999935
 31
0.0
  0
LINE
  8
0
  6
DASHED2
 62
               4
  5
35D
 10
-112.75000000000063
 20
-252.43642052407068
 30
0.0
 11
-124.75000000000051
 21
-252.43642052407068
 31
0.0
  0
LINE
  8
0
  6
DASHED2
 62
               4
  5
35E
 10
143.00999999999956
 20
-367.49999999999949
 30
0.0
 11
143.00999999999956
 21
-358.97387150069227
 31
0.0
  0
LINE
  8
0
  6
DASHED2
 62
               4
  5
35F
 10
137.12102725426516
 20
-358.97387150069227
 30
0.0
 11
137.12102725426516
 21
-367.49999999999949
 31
0.0
  0
LINE
  8
0
  6
DASHED2
 62
               4
  5
360
 10
140.06551362713222
 20
-357.89999999999935
 30
0.0
 11
122.4344863728663
 21
-357.89999999999935
 31
0.0
  0
LINE
  8
0
  6
DASHED2
 62
               4
  5
361
 10
119.48999999999924
 20
-367.49999999999949
 30
0.0
 11
119.48999999999924
 21
-358.97387150069227
 31
0.0
  0
LINE
  8
0
  6
DASHED2
 62
               4
  5
362
 10
125.37897274573393
 20
-367.49999999999949
 30
0.0
 11
125.37897274573393
 21
-358.97387150069227
 31
0.0
  0
ARC
  8
0
  6
DASHED2
 62
               4
  5
363
 10
140.06551362713222
 20
-362.47373158411534
 30
0.0
 40
4.5737315841157447
 50
49.925579661646204
 51
130.07442033838728
  0
ARC
  8
0
  6
DASHED2
 62
               4
  5
364
 10
122.4344863728663
 20
-362.47373158411534
 30
0.0
 40
4.5737315841157686
 50
49.925579661646204
 51
130.07442033838728
  0
ARC
  8
0
  6
DASHED2
 62
               4
  5
365
 10
131.2499999999994
 20
-374.48585826951984
 30
0.0
 40
16.58585826952007
 50
69.269184858581426
 51
110.73081514145197
  0
LINE
  8
0
  6
DASHED2
 62
               4
  5
366
 10
143.01000000000099
 20
-369.49999999999983
 30
0.0
 11
143.01000000000099
 21
-378.02612849930705
 31
0.0
  0
LINE
  8
0
  6
DASHED2
 62
               4
  5
367
 10
137.12102725426658
 20
-378.02612849930705
 30
0.0
 11
137.12102725426658
 21
-369.49999999999983
 31
0.0
  0
LINE
  8
0
  6
DASHED2
 62
               4
  5
368
 10
140.06551362713364
 20
-379.09999999999962
 30
0.0
 11
122.43448637286801
 21
-379.09999999999962
 31
0.0
  0
LINE
  8
0
  6
DASHED2
 62
               4
  5
369
 10
119.49000000000066
 20
-369.49999999999983
 30
0.0
 11
119.49000000000066
 21
-378.02612849930705
 31
0.0
  0
LINE
  8
0
  6
DASHED2
 62
               4
  5
36A
 10
125.37897274573507
 20
-369.49999999999983
 30
0.0
 11
125.37897274573507
 21
-378.02612849930705
 31
0.0
  0
ARC
  8
0
  6
DASHED2
 62
               4
  5
36B
 10
140.06551362713364
 20
-374.5262684158842
 30
0.0
 40
4.5737315841157447
 50
229.92557966167917
 51
310.07442033842085
  0
ARC
  8
0
  6
DASHED2
 62
               4
  5
36C
 10
122.43448637286801
 20
-374.5262684158842
 30
0.0
 40
4.5737315841157686
 50
229.92557966167917
 51
310.07442033842028
  0
ARC
  8
0
  6
DASHED2
 62
               4
  5
36D
 10
131.25000000000082
 20
-362.51414173047971
 30
0.0
 40
16.58585826952007
 50
249.26918485861526
 51
290.73081514148578
  0
LINE
  8
0
  6
DASHED2
 62
               4
  5
36E
 10
137.24999999999935
 20
-379.09999999999962
 30
0.0
 11
137.24999999999935
 21
-389.61936624232425
 31
0.0
  0
LINE
  8
0
  6
DASHED2
 62
               4
  5
36F
 10
125.24999999999946
 20
-379.09999999999962
 30
0.0
 11
125.24999999999946
 21
-389.61936624232425
 31
0.0
  0
LINE
  8
0
  6
DASHED2
 62
               4
  5
370
 10
136.04999999999959
 20
-390.81936624232463
 30
0.0
 11
126.44999999999951
 21
-390.81936624232463
 31
0.0
  0
LINE
  8
0
  6
DASHED2
 62
               4
  5
371
 10
137.24999999999935
 20
-389.61936624232425
 30
0.0
 11
136.04999999999959
 21
-390.81936624232463
 31
0.0
  0
LINE
  8
0
  6
DASHED2
 62
               4
  5
372
 10
125.24999999999946
 20
-389.61936624232425
 30
0.0
 11
126.44999999999951
 21
-390.81936624232463
 31
0.0
  0
LINE
  8
0
  6
DASHED2
 62
               4
  5
373
 10
143.00999999999956
 20
-367.49999999999949
 30
0.0
 11
119.48999999999924
 21
-367.49999999999949
 31
0.0
  0
LINE
  8
0
  6
DASHED2
 62
               4
  5
374
 10
119.49000000000066
 20
-369.49999999999983
 30
0.0
 11
143.01000000000099
 21
-369.49999999999983
 31
0.0
  0
LINE
  8
0
  6
DASHED2
 62
               4
  5
375
 10
137.24999999999935
 20
-252.43642052407068
 30
0.0
 11
137.24999999999935
 21
-357.89999999999935
 31
0.0
  0
LINE
  8
0
  6
DASHED2
 62
               4
  5
376
 10
125.24999999999946
 20
-252.43642052407068
 30
0.0
 11
125.24999999999946
 21
-357.89999999999935
 31
0.0
  0
LINE
  8
0
  6
DASHED2
 62
               4
  5
377
 10
125.24999999999946
 20
-252.43642052407068
 30
0.0
 11
137.24999999999935
 21
-252.43642052407068
 31
0.0
  0
LINE
  8
0
  6
DASHED2
 62
               4
  5
378
 10
657.75
 20
-367.49999999999994
 30
0.0
 11
657.75
 21
22.588563186587749
 31
0.0
  0
LINE
  8
0
  6
DASHED2
 62
               4
  5
379
 10
554.74999999999989
 20
-367.49999999999994
 30
0.0
 11
554.74999999999989
 21
22.588563186587749
 31
0.0
  0
LINE
  8
0
  6
DASHED2
 62
               4
  5
37A
 10
548.74999999999841
 20
-382.50000000000131
 30
0.0
 11
548.74999999999841
 21
-447.49999999999903
 31
0.0
  0
LINE
  8
0
  6
DASHED2
 62
               4
  5
37B
 10
548.74999999999841
 20
-382.50000000000131
 30
0.0
 11
606.25000000000023
 21
-382.50000000000017
 31
0.0
  0
LINE
  8
0
  6
DASHED2
 62
               4
  5
37C
 10
663.75000000000296
 20
-382.50000000000131
 30
0.0
 11
606.25000000000136
 21
-382.50000000000017
 31
0.0
  0
LINE
  8
0
  6
DASHED2
 62
               4
  5
37D
 10
663.75000000000296
 20
-382.50000000000131
 30
0.0
 11
663.75000000000296
 21
-447.49999999999903
 31
0.0
  0
LINE
  8
0
  6
DASHED2
 62
               4
  5
37E
 10
594.49000000000046
 20
-367.50000000000017
 30
0.0
 11
594.49000000000046
 21
-358.97387150069295
 31
0.0
  0
LINE
  8
0
  6
DASHED2
 62
               4
  5
37F
 10
600.37897274573493
 20
-358.97387150069295
 30
0.0
 11
600.37897274573493
 21
-367.50000000000017
 31
0.0
  0
LINE
  8
0
  6
DASHED2
 62
               4
  5
380
 10
597.43448637286792
 20
-357.90000000000003
 30
0.0
 11
615.0655136271339
 21
-357.90000000000003
 31
0.0
  0
LINE
  8
0
  6
DASHED2
 62
               4
  5
381
 10
618.0100000000009
 20
-367.50000000000017
 30
0.0
 11
618.0100000000009
 21
-358.97387150069295
 31
0.0
  0
LINE
  8
0
  6
DASHED2
 62
               4
  5
382
 10
612.12102725426621
 20
-367.50000000000017
 30
0.0
 11
612.12102725426621
 21
-358.97387150069295
 31
0.0
  0
ARC
  8
0
  6
DASHED2
 62
               4
  5
383
 10
597.43448637286792
 20
-362.47373158411602
 30
0.0
 40
4.5737315841157447
 50
49.925579661612304
 51
130.07442033835341
  0
ARC
  8
0
  6
DASHED2
 62
               4
  5
384
 10
615.0655136271339
 20
-362.47373158411602
 30
0.0
 40
4.5737315841157686
 50
49.925579661612304
 51
130.07442033835341
  0
ARC
  8
0
  6
DASHED2
 62
               4
  5
385
 10
606.25000000000068
 20
-374.48585826952052
 30
0.0
 40
16.58585826952007
 50
69.269184858547646
 51
110.73081514141818
  0
LINE
  8
0
  6
DASHED2
 62
               4
  5
386
 10
594.4899999999991
 20
-369.50000000000051
 30
0.0
 11
594.4899999999991
 21
-378.02612849930773
 31
0.0
  0
LINE
  8
0
  6
DASHED2
 62
               4
  5
387
 10
600.37897274573356
 20
-378.02612849930773
 30
0.0
 11
600.37897274573356
 21
-369.50000000000051
 31
0.0
  0
LINE
  8
0
  6
DASHED2
 62
               4
  5
388
 10
597.43448637286656
 20
-379.10000000000031
 30
0.0
 11
615.06551362713208
 21
-379.10000000000031
 31
0.0
  0
LINE
  8
0
  6
DASHED2
 62
               4
  5
389
 10
618.00999999999954
 20
-369.50000000000051
 30
0.0
 11
618.00999999999954
 21
-378.02612849930773
 31
0.0
  0
LINE
  8
0
  6
DASHED2
 62
               4
  5
38A
 10
612.12102725426507
 20
-369.50000000000051
 30
0.0
 11
612.12102725426507
 21
-378.02612849930773
 31
0.0
  0
ARC
  8
0
  6
DASHED2
 62
               4
  5
38B
 10
597.43448637286656
 20
-374.52626841588489
 30
0.0
 40
4.5737315841157447
 50
229.92557966157796
 51
310.07442033831961
  0
ARC
  8
0
  6
DASHED2
 62
               4
  5
38C
 10
615.06551362713208
 20
-374.52626841588489
 30
0.0
 40
4.5737315841157686
 50
229.92557966157852
 51
310.07442033831961
  0
ARC
  8
0
  6
DASHED2
 62
               4
  5
38D
 10
606.24999999999932
 20
-362.51414173048039
 30
0.0
 40
16.58585826952007
 50
249.26918485851303
 51
290.73081514138352
  0
LINE
  8
0
  6
DASHED2
 62
               4
  5
38E
 10
600.25000000000068
 20
-379.10000000000031
 30
0.0
 11
600.25000000000068
 21
-389.61936624232493
 31
0.0
  0
LINE
  8
0
  6
DASHED2
 62
               4
  5
38F
 10
612.25000000000068
 20
-379.10000000000031
 30
0.0
 11
612.25000000000068
 21
-389.61936624232493
 31
0.0
  0
LINE
  8
0
  6
DASHED2
 62
               4
  5
390
 10
601.4500000000005
 20
-390.81936624232532
 30
0.0
 11
611.05000000000064
 21
-390.81936624232532
 31
0.0
  0
LINE
  8
0
  6
DASHED2
 62
               4
  5
391
 10
600.25000000000068
 20
-389.61936624232493
 30
0.0
 11
601.4500000000005
 21
-390.81936624232532
 31
0.0
  0
LINE
  8
0
  6
DASHED2
 62
               4
  5
392
 10
612.25000000000068
 20
-389.61936624232493
 30
0.0
 11
611.05000000000064
 21
-390.81936624232532
 31
0.0
  0
LINE
  8
0
  6
DASHED2
 62
               4
  5
393
 10
594.49000000000046
 20
-367.50000000000017
 30
0.0
 11
618.0100000000009
 21
-367.50000000000017
 31
0.0
  0
LINE
  8
0
  6
DASHED2
 62
               4
  5
394
 10
618.00999999999954
 20
-369.50000000000051
 30
0.0
 11
594.4899999999991
 21
-369.50000000000051
 31
0.0
  0
LINE
  8
0
  6
DASHED2
 62
               4
  5
395
 10
600.25000000000068
 20
-252.43642052407137
 30
0.0
 11
600.25000000000068
 21
-357.90000000000003
 31
0.0
  0
LINE
  8
0
  6
DASHED2
 62
               4
  5
396
 10
612.25000000000068
 20
-252.43642052407137
 30
0.0
 11
612.25000000000068
 21
-357.90000000000003
 31
0.0
  0
LINE
  8
0
  6
DASHED2
 62
               4
  5
397
 10
612.25000000000068
 20
-252.43642052407137
 30
0.0
 11
600.25000000000068
 21
-252.43642052407137
 31
0.0
  0
LINE
  8
0
  6
DASHED2
 62
               4
  5
398
 10
-592.25
 20
-367.5
 30
0.0
 11
-592.25
 21
22.588563186587749
 31
0.0
  0
LINE
  8
0
  6
DASHED2
 62
               4
  5
399
 10
-695.25000000000011
 20
-367.5
 30
0.0
 11
-695.25000000000011
 21
22.588563186587749
 31
0.0
  0
LINE
  8
0
  6
DASHED2
 62
               4
  5
39A
 10
-701.25000000000296
 20
-382.50000000000114
 30
0.0
 11
-701.25000000000296
 21
-447.49999999999886
 31
0.0
  0
LINE
  8
0
  6
DASHED2
 62
               4
  5
39B
 10
-701.25000000000296
 20
-382.50000000000114
 30
0.0
 11
-643.75000000000114
 21
-382.5
 31
0.0
  0
LINE
  8
0
  6
DASHED2
 62
               4
  5
39C
 10
-586.24999999999829
 20
-382.50000000000114
 30
0.0
 11
-643.75
 21
-382.5
 31
0.0
  0
LINE
  8
0
  6
DASHED2
 62
               4
  5
39D
 10
-586.24999999999829
 20
-382.50000000000114
 30
0.0
 11
-586.24999999999829
 21
-447.49999999999886
 31
0.0
  0
LINE
  8
0
  6
DASHED2
 62
               4
  5
39E
 10
-655.51000000000079
 20
-367.5
 30
0.0
 11
-655.51000000000079
 21
-358.97387150069278
 31
0.0
  0
LINE
  8
0
  6
DASHED2
 62
               4
  5
39F
 10
-649.62102725426632
 20
-358.97387150069278
 30
0.0
 11
-649.62102725426632
 21
-367.5
 31
0.0
  0
LINE
  8
0
  6
DASHED2
 62
               4
  5
3A0
 10
-652.56551362713344
 20
-357.89999999999986
 30
0.0
 11
-634.93448637286747
 21
-357.89999999999986
 31
0.0
  0
LINE
  8
0
  6
DASHED2
 62
               4
  5
3A1
 10
-631.99000000000046
 20
-367.5
 30
0.0
 11
-631.99000000000046
 21
-358.97387150069278
 31
0.0
  0
LINE
  8
0
  6
DASHED2
 62
               4
  5
3A2
 10
-637.87897274573515
 20
-367.5
 30
0.0
 11
-637.87897274573515
 21
-358.97387150069278
 31
0.0
  0
ARC
  8
0
  6
DASHED2
 62
               4
  5
3A3
 10
-652.56551362713344
 20
-362.47373158411585
 30
0.0
 40
4.5737315841157447
 50
49.925579661612304
 51
130.07442033835341
  0
ARC
  8
0
  6
DASHED2
 62
               4
  5
3A4
 10
-634.93448637286747
 20
-362.47373158411585
 30
0.0
 40
4.5737315841157686
 50
49.925579661612304
 51
130.07442033835341
  0
ARC
  8
0
  6
DASHED2
 62
               4
  5
3A5
 10
-643.75000000000057
 20
-374.48585826952035
 30
0.0
 40
16.58585826952007
 50
69.269184858547646
 51
110.73081514141818
  0
LINE
  8
0
  6
DASHED2
 62
               4
  5
3A6
 10
-655.51000000000215
 20
-369.50000000000034
 30
0.0
 11
-655.51000000000215
 21
-378.02612849930756
 31
0.0
  0
LINE
  8
0
  6
DASHED2
 62
               4
  5
3A7
 10
-649.6210272542678
 20
-378.02612849930756
 30
0.0
 11
-649.6210272542678
 21
-369.50000000000034
 31
0.0
  0
LINE
  8
0
  6
DASHED2
 62
               4
  5
3A8
 10
-652.56551362713481
 20
-379.10000000000014
 30
0.0
 11
-634.93448637286917
 21
-379.10000000000014
 31
0.0
  0
LINE
  8
0
  6
DASHED2
 62
               4
  5
3A9
 10
-631.99000000000183
 20
-369.50000000000034
 30
0.0
 11
-631.99000000000183
 21
-378.02612849930756
 31
0.0
  0
LINE
  8
0
  6
DASHED2
 62
               4
  5
3AA
 10
-637.87897274573629
 20
-369.50000000000034
 30
0.0
 11
-637.87897274573629
 21
-378.02612849930756
 31
0.0
  0
ARC
  8
0
  6
DASHED2
 62
               4
  5
3AB
 10
-652.56551362713481
 20
-374.52626841588472
 30
0.0
 40
4.5737315841157447
 50
229.92557966157796
 51
310.07442033831961
  0
ARC
  8
0
  6
DASHED2
 62
               4
  5
3AC
 10
-634.93448637286917
 20
-374.52626841588472
 30
0.0
 40
4.5737315841157686
 50
229.92557966157852
 51
310.07442033831961
  0
ARC
  8
0
  6
DASHED2
 62
               4
  5
3AD
 10
-643.75000000000205
 20
-362.51414173048022
 30
0.0
 40
16.58585826952007
 50
249.26918485851303
 51
290.73081514138352
  0
LINE
  8
0
  6
DASHED2
 62
               4
  5
3AE
 10
-649.75000000000057
 20
-379.10000000000014
 30
0.0
 11
-649.75000000000057
 21
-389.61936624232476
 31
0.0
  0
LINE
  8
0
  6
DASHED2
 62
               4
  5
3AF
 10
-637.75000000000068
 20
-379.10000000000014
 30
0.0
 11
-637.75000000000068
 21
-389.61936624232476
 31
0.0
  0
LINE
  8
0
  6
DASHED2
 62
               4
  5
3B0
 10
-648.55000000000075
 20
-390.81936624232515
 30
0.0
 11
-638.95000000000073
 21
-390.81936624232515
 31
0.0
  0
LINE
  8
0
  6
DASHED2
 62
               4
  5
3B1
 10
-649.75000000000057
 20
-389.61936624232476
 30
0.0
 11
-648.55000000000075
 21
-390.81936624232515
 31
0.0
  0
LINE
  8
0
  6
DASHED2
 62
               4
  5
3B2
 10
-637.75000000000068
 20
-389.61936624232476
 30
0.0
 11
-638.95000000000073
 21
-390.81936624232515
 31
0.0
  0
LINE
  8
0
  6
DASHED2
 62
               4
  5
3B3
 10
-655.51000000000079
 20
-367.5
 30
0.0
 11
-631.99000000000046
 21
-367.5
 31
0.0
  0
LINE
  8
0
  6
DASHED2
 62
               4
  5
3B4
 10
-631.99000000000183
 20
-369.50000000000034
 30
0.0
 11
-655.51000000000215
 21
-369.50000000000034
 31
0.0
  0
LINE
  8
0
  6
DASHED2
 62
               4
  5
3B5
 10
-649.75000000000057
 20
-252.43642052407117
 30
0.0
 11
-649.75000000000057
 21
-357.89999999999986
 31
0.0
  0
LINE
  8
0
  6
DASHED2
 62
               4
  5
3B6
 10
-637.75000000000068
 20
-252.43642052407117
 30
0.0
 11
-637.75000000000068
 21
-357.89999999999986
 31
0.0
  0
LINE
  8
0
  6
DASHED2
 62
               4
  5
3B7
 10
-637.75000000000068
 20
-252.43642052407117
 30
0.0
 11
-649.75000000000057
 21
-252.43642052407117
 31
0.0
  0
LINE
  8
0
  6
DASHED2
 62
               4
  5
3B8
 10
558.5365232163075
 20
-1304.8562982616336
 30
0.0
 11
672.53652321630727
 21
-1304.8562982616336
 31
0.0
  0
LINE
  8
0
  6
DASHDOT
 62
               4
  5
3B9
 10
-118.75000000000057
 20
-246.5098980019946
 30
0.0
 11
-118.75000000000057
 21
-410.88825962148502
 31
0.0
  0
LINE
  8
0
  6
DASHDOT
 62
               4
  5
3BA
 10
131.2499999999994
 20
-246.5098980019946
 30
0.0
 11
131.2499999999994
 21
-410.88825962148502
 31
0.0
  0
LINE
  8
0
  6
DASHDOT
 62
               4
  5
3BB
 10
-643.75
 20
332.50000000000006
 30
0.0
 11
-643.75
 21
-587.39310460364959
 31
0.0
  0
LINE
  8
0
  6
DASHDOT
 62
               4
  5
3BC
 10
6.2500000000000018
 20
322.50000000000011
 30
0.0
 11
6.2499999999994085
 21
-587.39310460364959
 31
0.0
  0
LINE
  8
0
  6
DASHDOT
 62
               4
  5
3BD
 10
606.25
 20
322.50000000000011
 30
0.0
 11
606.25000000000057
 21
-587.39310460364993
 31
0.0
  0
LINE
  8
0
  6
DASHDOT
 62
               4
  5
3BE
 10
6.2500000000000719
 20
746.11234272929187
 30
0.0
 11
6.2500000000000719
 21
546.11234272929164
 31
0.0
  0
LINE
  8
0
  6
DASHDOT
 62
               4
  5
3BF
 10
106.25000000000018
 20
646.11234272929175
 30
0.0
 11
-145.74999999999994
 21
646.11234272929175
 31
0.0
  0
LINE
  8
0
  6
DASHDOT
 62
               4
  5
3C0
 10
-575.22477522477527
 20
99.499999999999886
 30
0.0
 11
-711.9255744255745
 21
99.499999999999886
 31
0.0
  0
LINE
  8
0
  6
DASHDOT
 62
               4
  5
3C1
 10
-45.224775224775215
 20
99.500000000000114
 30
0.0
 11
-155.74999999999994
 21
99.500000000000114
 31
0.0
  0
LINE
  8
0
  6
DASHDOT
 62
               4
  5
3C2
 10
-385.8877690504691
 20
-1053.5413000848403
 30
0.0
 11
-385.88776905046899
 21
-924.54130008484037
 31
0.0
  0
LINE
  8
0
  6
DASHDOT
 62
               4
  5
3C3
 10
-443.88776905046899
 20
-995.54130008484026
 30
0.0
 11
-327.8877690504691
 21
-995.54130008484026
 31
0.0
  0
LINE
  8
0
  6
DASHDOT
 62
               4
  5
3C4
 10
-455.69094753457654
 20
-989.04130008484026
 30
0.0
 11
-321.3877690504691
 21
-989.04130008484026
 31
0.0
  0
LINE
  8
0
  6
DASHDOT
 62
               4
  5
3C5
 10
-261.98776905046901
 20
-989.04130008484026
 30
0.0
 11
-163.3877690504691
 21
-989.04130008484026
 31
0.0
  0
LINE
  8
0
  6
DASHDOT
 62
               4
  5
3C6
 10
-296.3877690504691
 20
-995.54130008484026
 30
0.0
 11
-221.98776905046913
 21
-995.54130008484026
 31
0.0
  0
LINE
  8
0
  6
DASHDOT
 62
               4
  5
3C7
 10
-509.78776905046885
 20
-989.04130008484026
 30
0.0
 11
-608.38776905046905
 21
-989.0413000848398
 31
0.0
  0
LINE
  8
0
  6
DASHDOT
 62
               4
  5
3C8
 10
-475.38776905046899
 20
-995.54130008484026
 30
0.0
 11
-549.78776905046891
 21
-995.54130008484026
 31
0.0
  0
LINE
  8
0
  6
DASHDOT
 62
               4
  5
3C9
 10
-387.83372644623563
 20
-892.07341601580526
 30
0.0
 11
-387.83372644623563
 21
-759.07341601580526
 31
0.0
  0
LINE
  8
0
  6
DASHDOT
 62
               4
  5
3CA
 10
227.88392368588057
 20
-989.04130008484026
 30
0.0
 11
326.48392368588071
 21
-989.04130008484026
 31
0.0
  0
LINE
  8
0
  6
DASHDOT
 62
               4
  5
3CB
 10
202.88392368588057
 20
-1003.5413000848403
 30
0.0
 11
267.88392368588057
 21
-1003.5413000848403
 31
0.0
  0
LINE
  8
0
  6
DASHDOT
 62
               4
  5
3CC
 10
77.127907460637559
 20
-1003.5413000848403
 30
0.0
 11
177.1279074606378
 21
-1003.5413000848403
 31
0.0
  0
LINE
  8
0
  6
DASHDOT
 62
               4
  5
3CD
 10
127.12790746063756
 20
-1053.5413000848403
 30
0.0
 11
127.12790746063779
 21
-924.54130008484037
 31
0.0
  0
LINE
  8
0
  6
DASHDOT
 62
               4
  5
3CE
 10
62.627907460637559
 20
-989.04130008484026
 30
0.0
 11
197.17191724058881
 21
-989.04130008484026
 31
0.0
  0
LINE
  8
0
  6
DASHDOT
 62
               4
  5
3CF
 10
26.371891235394784
 20
-989.04130008484026
 30
0.0
 11
-72.228108764605238
 21
-989.04130008484026
 31
0.0
  0
LINE
  8
0
  6
DASHDOT
 62
               4
  5
3D0
 10
51.371891235394784
 20
-1003.5413000848403
 30
0.0
 11
-13.628108764605216
 21
-1003.5413000848403
 31
0.0
  0
LINE
  8
0
  6
DASHDOT
 62
               4
  5
3D1
 10
127.12790746063779
 20
-902.7852838595976
 30
0.0
 11
127.12790746063779
 21
-779.18528385959746
 31
0.0
  0
LINE
  8
0
  6
DASHDOT
 62
               4
  5
3D2
 10
615.5365232163075
 20
-822.85686451304935
 30
0.0
 11
615.5365232163075
 21
-1093.4036513128758
 31
0.0
  0
LINE
  8
0
  6
DASHDOT
 62
               4
  5
3D3
 10
453.53652321630756
 20
-931.35686451304935
 30
0.0
 11
724.03652321630773
 21
-931.35686451304935
 31
0.0
  0
LINE
  8
0
  6
DASHDOT
 62
               4
  5
3D4
 10
684.06174799153212
 20
-1405.8562982616336
 30
0.0
 11
453.80790992287922
 21
-1405.8562982616336
 31
0.0
  0
LINE
  8
0
  6
DASHDOT
 62
               4
  5
3D5
 10
615.5365232163075
 20
-1219.8562982616336
 30
0.0
 11
615.5365232163075
 21
-1470.8562982616336
 31
0.0
  0
LINE
  8
0
  6
DASHDOT
 62
               4
  5
3D6
 10
565.5365232163075
 20
-1420.3562982616336
 30
0.0
 11
665.53652321630773
 21
-1420.3562982616336
 31
0.0
  0
LINE
  8
0
  6
DASHDOT
 62
               4
  5
3D7
 10
615.5365232163075
 20
-1121.9568645130494
 30
0.0
 11
615.5365232163075
 21
-998.356864513049
 31
0.0
  0
LINE
  8
0
  6
DASHDOT
 62
               4
  5
3D8
 10
415.53652321630744
 20
-1412.3562982616336
 30
0.0
 11
489.93652321630742
 21
-1412.3562982616336
 31
0.0
  0
LINE
  8
0
  6
DASHDOT
 62
               4
  5
3D9
 10
415.53652321630767
 20
-931.35686451304912
 30
0.0
 11
548.53652321630773
 21
-931.35686451304912
 31
0.0
  0
ARC
  8
0
  6
DIVIDE
 62
               4
  5
3DA
 10
-22.250000000000512
 20
-614.43298130416849
 30
0.0
 40
55.0
 50
58.789629707489617
 51
121.21037029250985
  0
ARC
  8
0
  6
DIVIDE
 62
               4
  5
3DB
 10
-22.250000000000512
 20
-520.35322790313091
 30
0.0
 40
55.0
 50
238.78962970748935
 51
301.21037029250937
  0
ARC
  8
0
  6
DIVIDE
 62
               4
  5
3DC
 10
-26.250000000000568
 20
-589.89560203944632
 30
0.0
 40
65.0
 50
59.999999999999723
 51
119.99999999999987
  0
ARC
  8
0
  6
DIVIDE
 62
               4
  5
3DD
 10
34.749999999999517
 20
-520.35322790313114
 30
0.0
 40
55.0
 50
238.78962970748941
 51
301.21037029250959
  0
ARC
  8
0
  6
DIVIDE
 62
               4
  5
3DE
 10
38.749999999999432
 20
-477.31229954746925
 30
0.0
 40
65.0
 50
239.99999999999966
 51
299.99999999999932
  0
LINE
  8
0
  6
DIVIDE
 62
               4
  5
3DF
 10
-50.750000000000455
 20
-529.68970531827779
 30
0.0
 11
-50.750000000000455
 21
-567.3931046036497
 31
0.0
  0
LINE
  8
0
  6
DIVIDE
 62
               4
  5
3E0
 10
63.249999999999602
 20
-537.51819626863778
 30
0.0
 11
63.249999999999602
 21
-567.3931046036497
 31
0.0
  0
ARC
  8
0
  6
DIVIDE
 62
               4
  5
3E1
 10
-26.250000000000568
 20
-477.31229954746948
 30
0.0
 40
65.0
 50
239.99999999999929
 51
247.85677929855132
  0
LINE
  8
0
  6
DIVIDE
 62
               4
  5
3E2
 10
71.249999999999403
 20
-447.49999999999881
 30
0.0
 11
71.249999999999403
 21
-533.60395079345778
 31
0.0
  0
LINE
  8
0
  6
DIVIDE
 62
               4
  5
3E3
 10
-58.750000000000568
 20
-447.49999999999881
 30
0.0
 11
-58.750000000000568
 21
-533.60395079345778
 31
0.0
  0
ARC
  8
0
  6
DIVIDE
 62
               4
  5
3E4
 10
577.7500000000008
 20
-614.43298130416872
 30
0.0
 40
55.0
 50
58.789629707489617
 51
121.21037029250985
  0
ARC
  8
0
  6
DIVIDE
 62
               4
  5
3E5
 10
577.7500000000008
 20
-520.35322790313114
 30
0.0
 40
55.0
 50
238.78962970748935
 51
301.21037029250937
  0
ARC
  8
0
  6
DIVIDE
 62
               4
  5
3E6
 10
573.75000000000068
 20
-589.89560203944654
 30
0.0
 40
65.0
 50
59.999999999999723
 51
119.99999999999987
  0
ARC
  8
0
  6
DIVIDE
 62
               4
  5
3E7
 10
634.75000000000091
 20
-520.35322790313137
 30
0.0
 40
55.0
 50
238.78962970748941
 51
301.21037029250959
  0
ARC
  8
0
  6
DIVIDE
 62
               4
  5
3E8
 10
638.75000000000068
 20
-477.31229954746948
 30
0.0
 40
65.0
 50
239.99999999999966
 51
299.99999999999932
  0
LINE
  8
0
  6
DIVIDE
 62
               4
  5
3E9
 10
549.25000000000091
 20
-529.68970531827802
 30
0.0
 11
549.25000000000091
 21
-567.39310460364993
 31
0.0
  0
LINE
  8
0
  6
DIVIDE
 62
               4
  5
3EA
 10
663.25000000000091
 20
-537.51819626863801
 30
0.0
 11
663.25000000000091
 21
-567.39310460364993
 31
0.0
  0
ARC
  8
0
  6
DIVIDE
 62
               4
  5
3EB
 10
573.75000000000068
 20
-477.31229954746971
 30
0.0
 40
65.0
 50
239.99999999999929
 51
247.85677929855132
  0
LINE
  8
0
  6
DIVIDE
 62
               4
  5
3EC
 10
671.25000000000068
 20
-447.49999999999903
 30
0.0
 11
671.25000000000068
 21
-533.60395079345801
 31
0.0
  0
LINE
  8
0
  6
DIVIDE
 62
               4
  5
3ED
 10
541.25000000000068
 20
-447.49999999999903
 30
0.0
 11
541.25000000000068
 21
-533.60395079345801
 31
0.0
  0
ARC
  8
0
  6
DIVIDE
 62
               4
  5
3EE
 10
-672.25000000000045
 20
-614.43298130416849
 30
0.0
 40
55.0
 50
58.789629707489617
 51
121.21037029250985
  0
ARC
  8
0
  6
DIVIDE
 62
               4
  5
3EF
 10
-672.25000000000045
 20
-520.35322790313091
 30
0.0
 40
55.0
 50
238.78962970748935
 51
301.21037029250937
  0
ARC
  8
0
  6
DIVIDE
 62
               4
  5
3F0
 10
-676.25000000000057
 20
-589.89560203944632
 30
0.0
 40
65.0
 50
59.999999999999723
 51
119.99999999999987
  0
ARC
  8
0
  6
DIVIDE
 62
               4
  5
3F1
 10
-615.25000000000045
 20
-520.35322790313114
 30
0.0
 40
55.0
 50
238.78962970748941
 51
301.21037029250959
  0
ARC
  8
0
  6
DIVIDE
 62
               4
  5
3F2
 10
-611.25000000000057
 20
-477.31229954746925
 30
0.0
 40
65.0
 50
239.99999999999966
 51
299.99999999999932
  0
LINE
  8
0
  6
DIVIDE
 62
               4
  5
3F3
 10
-700.75000000000045
 20
-529.68970531827779
 30
0.0
 11
-700.75000000000045
 21
-567.3931046036497
 31
0.0
  0
LINE
  8
0
  6
DIVIDE
 62
               4
  5
3F4
 10
-586.75000000000045
 20
-537.51819626863778
 30
0.0
 11
-586.75000000000045
 21
-567.3931046036497
 31
0.0
  0
ARC
  8
0
  6
DIVIDE
 62
               4
  5
3F5
 10
-676.25000000000057
 20
-477.31229954746948
 30
0.0
 40
65.0
 50
239.99999999999929
 51
247.85677929855132
  0
LINE
  8
0
  6
DIVIDE
 62
               4
  5
3F6
 10
-578.75000000000057
 20
-447.49999999999886
 30
0.0
 11
-578.75000000000057
 21
-533.60395079345778
 31
0.0
  0
LINE
  8
0
  6
DIVIDE
 62
               4
  5
3F7
 10
-708.75000000000057
 20
-447.49999999999886
 30
0.0
 11
-708.75000000000057
 21
-533.60395079345778
 31
0.0
  0
INSERT
  8
0
  6
CONTINUOUS
  5
3F8
  2
GROUP_1
 10
0.0
 20
0.0
 30
0.0
  0
INSERT
  8
0
  6
CONTINUOUS
  5
3F9
  2
GROUP_2
 10
0.0
 20
0.0
 30
0.0
  0
INSERT
  8
0
  6
CONTINUOUS
  5
3FA
  2
GROUP_3
 10
0.0
 20
0.0
 30
0.0
  0
POINT
  8
0
  6
CONTINUOUS
 62
               5
  5
3FB
 10
-385.8877690504691
 20
-989.04130008484026
 30
0.0
  0
POINT
  8
0
  6
CONTINUOUS
 62
               5
  5
3FC
 10
-212.65769754050876
 20
-990.33209415972942
 30
0.0
  0
POINT
  8
0
  6
CONTINUOUS
 62
               5
  5
3FD
 10
-559.11784056042927
 20
-990.33209415972897
 30
0.0
  0
POINT
  8
0
  6
CONTINUOUS
 62
               5
  5
3FE
 10
-389.12452052112468
 20
-808.34334450584504
 30
0.0
  0
POINT
  8
0
  6
CONTINUOUS
 62
               5
  5
3FF
 10
499.26659472626778
 20
-1407.1470923365227
 30
0.0
  0
POINT
  8
0
  6
CONTINUOUS
 62
               5
  5
400
 10
499.2665947262679
 20
-930.06607043816018
 30
0.0
  0
CIRCLE
  8
0
  6
CONTINUOUS
 62
               7
  5
401
 10
-385.8877690504691
 20
-995.54130008484026
 30
0.0
 40
38.0
  0
CIRCLE
  8
0
  6
CONTINUOUS
 62
               7
  5
402
 10
-385.8877690504691
 20
-995.54130008484026
 30
0.0
 40
33.5
  0
LINE
  8
0
  6
CONTINUOUS
 62
               7
  5
403
 10
-241.3877690504691
 20
-944.54130008484015
 30
0.0
 11
-241.3877690504691
 21
-1033.5360639641658
 31
0.0
  0
LINE
  8
0
  6
CONTINUOUS
 62
               7
  5
404
 10
-240.78776905046908
 20
-944.54130008484015
 30
0.0
 11
-241.3877690504691
 21
-944.54130008484015
 31
0.0
  0
LINE
  8
0
  6
CONTINUOUS
 62
               7
  5
405
 10
-276.3877690504691
 20
-1032.5413000848403
 30
0.0
 11
-276.3877690504691
 21
-958.54130008484015
 31
0.0
  0
LINE
  8
0
  6
CONTINUOUS
 62
               7
  5
406
 10
-183.3877690504691
 20
-1032.5413000848403
 30
0.0
 11
-183.3877690504691
 21
-945.54130008484015
 31
0.0
  0
LINE
  8
0
  6
CONTINUOUS
 62
               7
  5
407
 10
-241.3877690504691
 20
-944.54130008484015
 30
0.0
 11
-184.3877690504691
 21
-944.54130008484015
 31
0.0
  0
LINE
  8
0
  6
CONTINUOUS
 62
               7
  5
408
 10
-275.3877690504691
 20
-1033.5413000848403
 30
0.0
 11
-184.3877690504691
 21
-1033.5413000848403
 31
0.0
  0
LINE
  8
0
  6
CONTINUOUS
 62
               7
  5
409
 10
-184.3877690504691
 20
-944.54130008484015
 30
0.0
 11
-183.3877690504691
 21
-945.54130008484015
 31
0.0
  0
LINE
  8
0
  6
CONTINUOUS
 62
               7
  5
40A
 10
-183.3877690504691
 20
-1032.5413000848403
 30
0.0
 11
-184.3877690504691
 21
-1033.5413000848403
 31
0.0
  0
LINE
  8
0
  6
CONTINUOUS
 62
               7
  5
40B
 10
-275.3877690504691
 20
-957.54130008484015
 30
0.0
 11
-241.3877690504691
 21
-957.54130008484015
 31
0.0
  0
CIRCLE
  8
0
  6
CONTINUOUS
 62
               7
  5
40C
 10
-385.8877690504691
 20
-989.04130008484026
 30
0.0
 40
44.5
  0
LINE
  8
0
  6
CONTINUOUS
 62
               7
  5
40D
 10
-275.3877690504691
 20
-957.54130008484015
 30
0.0
 11
-276.3877690504691
 21
-958.54130008484015
 31
0.0
  0
LINE
  8
0
  6
CONTINUOUS
 62
               7
  5
40E
 10
-276.3877690504691
 20
-1032.5413000848403
 30
0.0
 11
-275.3877690504691
 21
-1033.5413000848403
 31
0.0
  0
LINE
  8
0
  6
CONTINUOUS
 62
               7
  5
40F
 10
-530.38776905046905
 20
-944.54130008484015
 30
0.0
 11
-530.38776905046905
 21
-1033.5360639641658
 31
0.0
  0
LINE
  8
0
  6
CONTINUOUS
 62
               7
  5
410
 10
-530.98776905046896
 20
-944.54130008484015
 30
0.0
 11
-530.38776905046905
 21
-944.54130008484015
 31
0.0
  0
LINE
  8
0
  6
CONTINUOUS
 62
               7
  5
411
 10
-495.38776905046899
 20
-1032.5413000848403
 30
0.0
 11
-495.38776905046899
 21
-958.54130008484015
 31
0.0
  0
LINE
  8
0
  6
CONTINUOUS
 62
               7
  5
412
 10
-588.38776905046905
 20
-1032.5413000848403
 30
0.0
 11
-588.38776905046905
 21
-945.54130008484015
 31
0.0
  0
LINE
  8
0
  6
CONTINUOUS
 62
               7
  5
413
 10
-530.38776905046905
 20
-944.54130008484015
 30
0.0
 11
-587.38776905046905
 21
-944.54130008484015
 31
0.0
  0
LINE
  8
0
  6
CONTINUOUS
 62
               7
  5
414
 10
-496.38776905046899
 20
-1033.5413000848403
 30
0.0
 11
-587.38776905046905
 21
-1033.5413000848403
 31
0.0
  0
LINE
  8
0
  6
CONTINUOUS
 62
               7
  5
415
 10
-587.38776905046905
 20
-944.54130008484015
 30
0.0
 11
-588.38776905046905
 21
-945.54130008484015
 31
0.0
  0
LINE
  8
0
  6
CONTINUOUS
 62
               7
  5
416
 10
-588.38776905046905
 20
-1032.5413000848403
 30
0.0
 11
-587.38776905046905
 21
-1033.5413000848403
 31
0.0
  0
LINE
  8
0
  6
CONTINUOUS
 62
               7
  5
417
 10
-496.38776905046899
 20
-957.54130008484015
 30
0.0
 11
-530.38776905046905
 21
-957.54130008484015
 31
0.0
  0
LINE
  8
0
  6
CONTINUOUS
 62
               7
  5
418
 10
-496.38776905046899
 20
-957.54130008484015
 30
0.0
 11
-495.38776905046899
 21
-958.54130008484015
 31
0.0
  0
LINE
  8
0
  6
CONTINUOUS
 62
               7
  5
419
 10
-495.38776905046899
 20
-1032.5413000848403
 30
0.0
 11
-496.38776905046899
 21
-1033.5413000848403
 31
0.0
  0
LINE
  8
0
  6
CONTINUOUS
 62
               7
  5
41A
 10
-343.33372644623563
 20
-837.07341601580549
 30
0.0
 11
-432.32849032556106
 21
-837.07341601580526
 31
0.0
  0
LINE
  8
0
  6
CONTINUOUS
 62
               7
  5
41B
 10
-343.33372644623563
 20
-836.47341601580536
 30
0.0
 11
-343.33372644623563
 21
-837.07341601580549
 31
0.0
  0
LINE
  8
0
  6
CONTINUOUS
 62
               7
  5
41C
 10
-424.83372644623552
 20
-872.07341601580526
 30
0.0
 11
-350.83372644623563
 21
-872.07341601580549
 31
0.0
  0
LINE
  8
0
  6
CONTINUOUS
 62
               7
  5
41D
 10
-431.33372644623552
 20
-779.07341601580526
 30
0.0
 11
-344.33372644623563
 21
-779.07341601580549
 31
0.0
  0
LINE
  8
0
  6
CONTINUOUS
 62
               7
  5
41E
 10
-343.33372644623563
 20
-837.07341601580549
 30
0.0
 11
-343.33372644623563
 21
-780.07341601580549
 31
0.0
  0
LINE
  8
0
  6
CONTINUOUS
 62
               7
  5
41F
 10
-425.83372644623552
 20
-871.07341601580526
 30
0.0
 11
-425.83372644623552
 21
-837.07341601580526
 31
0.0
  0
LINE
  8
0
  6
CONTINUOUS
 62
               7
  5
420
 10
-343.33372644623563
 20
-780.07341601580549
 30
0.0
 11
-344.33372644623563
 21
-779.07341601580549
 31
0.0
  0
LINE
  8
0
  6
CONTINUOUS
 62
               7
  5
421
 10
-431.33372644623552
 20
-779.07341601580526
 30
0.0
 11
-432.33372644623552
 21
-780.07341601580526
 31
0.0
  0
LINE
  8
0
  6
CONTINUOUS
 62
               7
  5
422
 10
-349.83372644623563
 20
-871.07341601580549
 30
0.0
 11
-349.83372644623563
 21
-837.07341601580526
 31
0.0
  0
LINE
  8
0
  6
CONTINUOUS
 62
               7
  5
423
 10
-349.83372644623563
 20
-871.07341601580549
 30
0.0
 11
-350.83372644623563
 21
-872.07341601580549
 31
0.0
  0
LINE
  8
0
  6
CONTINUOUS
 62
               7
  5
424
 10
-424.83372644623552
 20
-872.07341601580526
 30
0.0
 11
-425.83372644623552
 21
-871.07341601580526
 31
0.0
  0
LINE
  8
0
  6
CONTINUOUS
 62
               7
  5
425
 10
-432.33372644623552
 20
-837.07341601580526
 30
0.0
 11
-432.33372644623552
 21
-780.07341601580526
 31
0.0
  0
LINE
  8
0
  6
CONTINUOUS
 62
               7
  5
426
 10
222.88392368588057
 20
-1032.5413000848403
 30
0.0
 11
222.88392368588057
 21
-974.54130008484015
 31
0.0
  0
LINE
  8
0
  6
CONTINUOUS
 62
               7
  5
427
 10
248.48392368588048
 20
-944.54130008484015
 30
0.0
 11
248.48392368588048
 21
-1033.5413000848403
 31
0.0
  0
LINE
  8
0
  6
CONTINUOUS
 62
               7
  5
428
 10
249.08392368588062
 20
-944.54130008484015
 30
0.0
 11
248.48392368588048
 21
-944.54130008484015
 31
0.0
  0
LINE
  8
0
  6
CONTINUOUS
 62
               7
  5
429
 10
306.48392368588071
 20
-1032.5413000848403
 30
0.0
 11
306.48392368588071
 21
-945.54130008484015
 31
0.0
  0
CIRCLE
  8
0
  6
CONTINUOUS
 62
               7
  5
42A
 10
127.12790746063756
 20
-1003.5413000848403
 30
0.0
 40
30.0
  0
CIRCLE
  8
0
  6
CONTINUOUS
 62
               7
  5
42B
 10
127.12790746063756
 20
-1003.5413000848403
 30
0.0
 40
25.5
  0
CIRCLE
  8
0
  6
CONTINUOUS
 62
               7
  5
42C
 10
127.12790746063756
 20
-989.04130008484026
 30
0.0
 40
44.5
  0
LINE
  8
0
  6
CONTINUOUS
 62
               7
  5
42D
 10
248.6183754313609
 20
-944.54130008484015
 30
0.0
 11
305.48392368588071
 21
-944.54130008484015
 31
0.0
  0
LINE
  8
0
  6
CONTINUOUS
 62
               7
  5
42E
 10
223.88392368588057
 20
-1033.5413000848403
 30
0.0
 11
305.48392368588071
 21
-1033.5413000848403
 31
0.0
  0
LINE
  8
0
  6
CONTINUOUS
 62
               7
  5
42F
 10
223.88392368588057
 20
-973.54130008484015
 30
0.0
 11
248.48392368588048
 21
-973.54130008484015
 31
0.0
  0
LINE
  8
0
  6
CONTINUOUS
 62
               7
  5
430
 10
223.88392368588057
 20
-973.54130008484015
 30
0.0
 11
222.88392368588057
 21
-974.54130008484015
 31
0.0
  0
LINE
  8
0
  6
CONTINUOUS
 62
               7
  5
431
 10
305.48392368588071
 20
-944.54130008484015
 30
0.0
 11
306.48392368588071
 21
-945.54130008484015
 31
0.0
  0
LINE
  8
0
  6
CONTINUOUS
 62
               7
  5
432
 10
222.88392368588057
 20
-1032.5413000848403
 30
0.0
 11
223.88392368588057
 21
-1033.5413000848403
 31
0.0
  0
LINE
  8
0
  6
CONTINUOUS
 62
               7
  5
433
 10
306.48392368588071
 20
-1032.5413000848403
 30
0.0
 11
305.48392368588071
 21
-1033.5413000848403
 31
0.0
  0
LINE
  8
0
  6
CONTINUOUS
 62
               7
  5
434
 10
31.371891235394784
 20
-1032.5413000848403
 30
0.0
 11
31.371891235394784
 21
-974.54130008484015
 31
0.0
  0
LINE
  8
0
  6
CONTINUOUS
 62
               7
  5
435
 10
5.7718912353947616
 20
-944.54130008484015
 30
0.0
 11
5.7718912353947616
 21
-1033.5413000848403
 31
0.0
  0
LINE
  8
0
  6
CONTINUOUS
 62
               7
  5
436
 10
5.1718912353947388
 20
-944.54130008484015
 30
0.0
 11
5.7718912353947616
 21
-944.54130008484015
 31
0.0
  0
LINE
  8
0
  6
CONTINUOUS
 62
               7
  5
437
 10
-52.228108764605238
 20
-1032.5413000848403
 30
0.0
 11
-52.228108764605238
 21
-945.54130008484015
 31
0.0
  0
LINE
  8
0
  6
CONTINUOUS
 62
               7
  5
438
 10
5.6374394899144562
 20
-944.54130008484015
 30
0.0
 11
-51.228108764605238
 21
-944.54130008484015
 31
0.0
  0
LINE
  8
0
  6
CONTINUOUS
 62
               7
  5
439
 10
30.371891235394784
 20
-1033.5413000848403
 30
0.0
 11
-51.228108764605238
 21
-1033.5413000848403
 31
0.0
  0
LINE
  8
0
  6
CONTINUOUS
 62
               7
  5
43A
 10
30.371891235394784
 20
-973.54130008484015
 30
0.0
 11
5.7718912353947616
 21
-973.54130008484015
 31
0.0
  0
LINE
  8
0
  6
CONTINUOUS
 62
               7
  5
43B
 10
30.371891235394784
 20
-973.54130008484015
 30
0.0
 11
31.371891235394784
 21
-974.54130008484015
 31
0.0
  0
LINE
  8
0
  6
CONTINUOUS
 62
               7
  5
43C
 10
-51.228108764605238
 20
-944.54130008484015
 30
0.0
 11
-52.228108764605238
 21
-945.54130008484015
 31
0.0
  0
LINE
  8
0
  6
CONTINUOUS
 62
               7
  5
43D
 10
31.371891235394784
 20
-1032.5413000848403
 30
0.0
 11
30.371891235394784
 21
-1033.5413000848403
 31
0.0
  0
LINE
  8
0
  6
CONTINUOUS
 62
               7
  5
43E
 10
-52.228108764605238
 20
-1032.5413000848403
 30
0.0
 11
-51.228108764605238
 21
-1033.5413000848403
 31
0.0
  0
LINE
  8
0
  6
CONTINUOUS
 62
               7
  5
43F
 10
98.127907460637786
 20
-882.7852838595976
 30
0.0
 11
156.1279074606378
 21
-882.7852838595976
 31
0.0
  0
LINE
  8
0
  6
CONTINUOUS
 62
               7
  5
440
 10
171.6279074606378
 20
-857.18528385959746
 30
0.0
 11
82.627907460637786
 21
-857.18528385959746
 31
0.0
  0
LINE
  8
0
  6
CONTINUOUS
 62
               7
  5
441
 10
171.6279074606378
 20
-856.58528385959755
 30
0.0
 11
171.6279074606378
 21
-857.18528385959746
 31
0.0
  0
LINE
  8
0
  6
CONTINUOUS
 62
               7
  5
442
 10
83.627907460637786
 20
-799.18528385959746
 30
0.0
 11
170.6279074606378
 21
-799.18528385959746
 31
0.0
  0
LINE
  8
0
  6
CONTINUOUS
 62
               7
  5
443
 10
171.6279074606378
 20
-857.05083211411727
 30
0.0
 11
171.6279074606378
 21
-800.18528385959746
 31
0.0
  0
LINE
  8
0
  6
CONTINUOUS
 62
               7
  5
444
 10
97.127907460637786
 20
-881.7852838595976
 30
0.0
 11
97.127907460637786
 21
-857.18528385959746
 31
0.0
  0
LINE
  8
0
  6
CONTINUOUS
 62
               7
  5
445
 10
157.1279074606378
 20
-881.7852838595976
 30
0.0
 11
157.1279074606378
 21
-857.18528385959746
 31
0.0
  0
LINE
  8
0
  6
CONTINUOUS
 62
               7
  5
446
 10
157.1279074606378
 20
-881.7852838595976
 30
0.0
 11
156.1279074606378
 21
-882.7852838595976
 31
0.0
  0
LINE
  8
0
  6
CONTINUOUS
 62
               7
  5
447
 10
171.6279074606378
 20
-800.18528385959746
 30
0.0
 11
170.6279074606378
 21
-799.18528385959746
 31
0.0
  0
LINE
  8
0
  6
CONTINUOUS
 62
               7
  5
448
 10
98.127907460637786
 20
-882.7852838595976
 30
0.0
 11
97.127907460637786
 21
-881.7852838595976
 31
0.0
  0
LINE
  8
0
  6
CONTINUOUS
 62
               7
  5
449
 10
83.627907460637786
 20
-799.18528385959746
 30
0.0
 11
82.627907460637786
 21
-800.18528385959746
 31
0.0
  0
LINE
  8
0
  6
CONTINUOUS
 62
               7
  5
44A
 10
82.627907460637786
 20
-857.05083211411704
 30
0.0
 11
82.627907460637786
 21
-800.18528385959746
 31
0.0
  0
CIRCLE
  8
0
  6
CONTINUOUS
 62
               7
  5
44B
 10
615.5365232163075
 20
-1420.3562982616336
 30
0.0
 40
25.5
  0
CIRCLE
  8
0
  6
CONTINUOUS
 62
               7
  5
44C
 10
615.5365232163075
 20
-1405.8562982616336
 30
0.0
 40
44.5
  0
CIRCLE
  8
0
  6
CONTINUOUS
 62
               7
  5
44D
 10
615.5365232163075
 20
-1420.3562982616336
 30
0.0
 40
30.0
  0
LINE
  8
0
  6
CONTINUOUS
 62
               7
  5
44E
 10
586.5365232163075
 20
-1101.9568645130494
 30
0.0
 11
644.5365232163075
 21
-1101.9568645130494
 31
0.0
  0
LINE
  8
0
  6
CONTINUOUS
 62
               7
  5
44F
 10
660.0365232163075
 20
-1076.3568645130495
 30
0.0
 11
571.0365232163075
 21
-1076.3568645130495
 31
0.0
  0
LINE
  8
0
  6
CONTINUOUS
 62
               7
  5
450
 10
660.0365232163075
 20
-1075.7568645130495
 30
0.0
 11
660.0365232163075
 21
-1076.3568645130495
 31
0.0
  0
LINE
  8
0
  6
CONTINUOUS
 62
               7
  5
451
 10
572.0365232163075
 20
-1018.356864513049
 30
0.0
 11
659.0365232163075
 21
-1018.356864513049
 31
0.0
  0
LINE
  8
0
  6
CONTINUOUS
 62
               7
  5
452
 10
660.0365232163075
 20
-1076.222412767569
 30
0.0
 11
660.0365232163075
 21
-1019.356864513049
 31
0.0
  0
LINE
  8
0
  6
CONTINUOUS
 62
               7
  5
453
 10
585.5365232163075
 20
-1100.9568645130494
 30
0.0
 11
585.5365232163075
 21
-1076.3568645130495
 31
0.0
  0
LINE
  8
0
  6
CONTINUOUS
 62
               7
  5
454
 10
645.5365232163075
 20
-1100.9568645130494
 30
0.0
 11
645.5365232163075
 21
-1076.3568645130495
 31
0.0
  0
LINE
  8
0
  6
CONTINUOUS
 62
               7
  5
455
 10
645.5365232163075
 20
-1100.9568645130494
 30
0.0
 11
644.5365232163075
 21
-1101.9568645130494
 31
0.0
  0
LINE
  8
0
  6
CONTINUOUS
 62
               7
  5
456
 10
660.0365232163075
 20
-1019.356864513049
 30
0.0
 11
659.0365232163075
 21
-1018.356864513049
 31
0.0
  0
LINE
  8
0
  6
CONTINUOUS
 62
               7
  5
457
 10
586.5365232163075
 20
-1101.9568645130494
 30
0.0
 11
585.5365232163075
 21
-1100.9568645130494
 31
0.0
  0
LINE
  8
0
  6
CONTINUOUS
 62
               7
  5
458
 10
572.0365232163075
 20
-1018.356864513049
 30
0.0
 11
571.0365232163075
 21
-1019.356864513049
 31
0.0
  0
LINE
  8
0
  6
CONTINUOUS
 62
               7
  5
459
 10
571.0365232163075
 20
-1076.222412767569
 30
0.0
 11
571.0365232163075
 21
-1019.356864513049
 31
0.0
  0
LINE
  8
0
  6
CONTINUOUS
 62
               7
  5
45A
 10
470.53652321630744
 20
-1361.3562982616336
 30
0.0
 11
470.53652321630744
 21
-1450.3510621409591
 31
0.0
  0
LINE
  8
0
  6
CONTINUOUS
 62
               7
  5
45B
 10
471.13652321630747
 20
-1361.3562982616336
 30
0.0
 11
470.53652321630744
 21
-1361.3562982616336
 31
0.0
  0
LINE
  8
0
  6
CONTINUOUS
 62
               7
  5
45C
 10
435.53652321630744
 20
-1449.3562982616336
 30
0.0
 11
435.53652321630744
 21
-1375.3562982616336
 31
0.0
  0
LINE
  8
0
  6
CONTINUOUS
 62
               7
  5
45D
 10
528.5365232163075
 20
-1449.3562982616336
 30
0.0
 11
528.5365232163075
 21
-1362.3562982616336
 31
0.0
  0
LINE
  8
0
  6
CONTINUOUS
 62
               7
  5
45E
 10
470.53652321630744
 20
-1361.3562982616336
 30
0.0
 11
527.5365232163075
 21
-1361.3562982616336
 31
0.0
  0
LINE
  8
0
  6
CONTINUOUS
 62
               7
  5
45F
 10
436.53652321630744
 20
-1450.3562982616336
 30
0.0
 11
527.5365232163075
 21
-1450.3562982616336
 31
0.0
  0
LINE
  8
0
  6
CONTINUOUS
 62
               7
  5
460
 10
527.5365232163075
 20
-1361.3562982616336
 30
0.0
 11
528.5365232163075
 21
-1362.3562982616336
 31
0.0
  0
LINE
  8
0
  6
CONTINUOUS
 62
               7
  5
461
 10
528.5365232163075
 20
-1449.3562982616336
 30
0.0
 11
527.5365232163075
 21
-1450.3562982616336
 31
0.0
  0
LINE
  8
0
  6
CONTINUOUS
 62
               7
  5
462
 10
436.53652321630744
 20
-1374.3562982616336
 30
0.0
 11
470.53652321630744
 21
-1374.3562982616336
 31
0.0
  0
LINE
  8
0
  6
CONTINUOUS
 62
               7
  5
463
 10
436.53652321630744
 20
-1374.3562982616336
 30
0.0
 11
435.53652321630744
 21
-1375.3562982616336
 31
0.0
  0
LINE
  8
0
  6
CONTINUOUS
 62
               7
  5
464
 10
435.53652321630744
 20
-1449.3562982616336
 30
0.0
 11
436.53652321630744
 21
-1450.3562982616336
 31
0.0
  0
LINE
  8
0
  6
CONTINUOUS
 62
               7
  5
465
 10
470.53652321630744
 20
-975.85686451304889
 30
0.0
 11
470.53652321630767
 21
-886.86210063372357
 31
0.0
  0
LINE
  8
0
  6
CONTINUOUS
 62
               7
  5
466
 10
471.13652321630758
 20
-975.85686451304889
 30
0.0
 11
470.53652321630744
 21
-975.85686451304889
 31
0.0
  0
LINE
  8
0
  6
CONTINUOUS
 62
               7
  5
467
 10
435.53652321630767
 20
-894.35686451304912
 30
0.0
 11
435.53652321630744
 21
-968.35686451304889
 31
0.0
  0
LINE
  8
0
  6
CONTINUOUS
 62
               7
  5
468
 10
528.53652321630773
 20
-887.85686451304935
 30
0.0
 11
528.5365232163075
 21
-974.85686451304889
 31
0.0
  0
LINE
  8
0
  6
CONTINUOUS
 62
               7
  5
469
 10
470.53652321630744
 20
-975.85686451304889
 30
0.0
 11
527.5365232163075
 21
-975.85686451304889
 31
0.0
  0
LINE
  8
0
  6
CONTINUOUS
 62
               7
  5
46A
 10
436.53652321630767
 20
-893.35686451304912
 30
0.0
 11
470.53652321630767
 21
-893.35686451304912
 31
0.0
  0
LINE
  8
0
  6
CONTINUOUS
 62
               7
  5
46B
 10
527.5365232163075
 20
-975.85686451304889
 30
0.0
 11
528.5365232163075
 21
-974.85686451304889
 31
0.0
  0
LINE
  8
0
  6
CONTINUOUS
 62
               7
  5
46C
 10
528.53652321630773
 20
-887.85686451304935
 30
0.0
 11
527.53652321630773
 21
-886.85686451304935
 31
0.0
  0
LINE
  8
0
  6
CONTINUOUS
 62
               7
  5
46D
 10
436.53652321630744
 20
-969.35686451304889
 30
0.0
 11
470.53652321630767
 21
-969.35686451304889
 31
0.0
  0
LINE
  8
0
  6
CONTINUOUS
 62
               7
  5
46E
 10
436.53652321630744
 20
-969.35686451304889
 30
0.0
 11
435.53652321630744
 21
-968.35686451304889
 31
0.0
  0
LINE
  8
0
  6
CONTINUOUS
 62
               7
  5
46F
 10
435.53652321630767
 20
-894.35686451304912
 30
0.0
 11
436.53652321630767
 21
-893.35686451304912
 31
0.0
  0
LINE
  8
0
  6
CONTINUOUS
 62
               7
  5
470
 10
470.53652321630767
 20
-886.85686451304912
 30
0.0
 11
527.53652321630773
 21
-886.85686451304912
 31
0.0
  0
CIRCLE
  8
0
  6
DASHED
 62
               7
  5
471
 10
-385.8877690504691
 20
-989.04130008484026
 30
0.0
 40
40.0
  0
CIRCLE
  8
0
  6
DASHED
 62
               7
  5
472
 10
127.12790746063756
 20
-989.04130008484026
 30
0.0
 40
40.0
  0
CIRCLE
  8
0
  6
DASHED
 62
               7
  5
473
 10
615.5365232163075
 20
-1405.8562982616336
 30
0.0
 40
40.0
  0
TEXT
  8
0
 62
               3
  5
474
 10
-385.8877690504691
 20
-1073.5413000848403
 30
0.0
 40
40.0
  1
EMB_80×65
 41
0.8
 72
               1
 11
-385.8877690504691
 21
-1073.5413000848403
 31
0.0
 73
               3
  0
TEXT
  8
0
 62
               3
  5
475
 10
127.12790746063756
 20
-1073.5413000848403
 30
0.0
 40
40.0
  1
EMB_80×50
 41
0.8
 72
               1
 11
127.12790746063756
 21
-1073.5413000848403
 31
0.0
 73
               3
  0
TEXT
  8
0
 62
               3
  5
476
 10
611.83911923866719
 20
-751.91049600782992
 30
0.0
 40
40.0
  1
EMB使用例
 41
0.8
 72
               1
 11
611.83911923866719
 21
-751.91049600782992
 31
0.0
 73
               3
  0
TEXT
  8
0
 62
               3
  5
477
 10
-117.49270409089131
 20
-697.55036010749052
 30
0.0
 40
35.0
  1
横枝管に呼び６５、５０の管を接続するときは、EMBをご使用ください。
 41
0.8
 72
               1
 11
-117.49270409089131
 21
-697.55036010749052
 31
0.0
 73
               3
  0
ENDSEC
  0
EOF
