  0
SECTION
  2
HEADER
  9
$ACADVER
  1
AC1009
  9
$INSBASE
 10
0.0
 20
0.0
 30
0.0
  9
$EXTMIN
 10
-597.48132845554107
 20
-756.29951351351303
 30
0.0
  9
$EXTMAX
 10
597.54775123260686
 20
643.92744144143876
 30
0.0
  9
$LIMMIN
 10
-634.82598719579573
 20
-800.05660585585531
  9
$LIMMAX
 10
634.89240997286151
 20
687.68453378378103
  9
$ORTHOMODE
 70
               0
  9
$REGENMODE
 70
               1
  9
$FILLMODE
 70
               1
  9
$QTEXTMODE
 70
               0
  9
$MIRRTEXT
 70
               1
  9
$DRAGMODE
 70
               2
  9
$LTSCALE
 40
1.0
  9
$OSMODE
 70
               0
  9
$ATTMODE
 70
               1
  9
$TEXTSIZE
 40
0.2
  9
$TRACEWID
 40
0.05
  9
$TEXTSTYLE
  7
STANDARD
  9
$CLAYER
  8
0
  9
$CELTYPE
  6
CONTINUOUS
  9
$CECOLOR
 62
             256
  9
$DIMSCALE
 40
1.0
  9
$DIMASZ
 40
0.18
  9
$DIMEXO
 40
0.0625
  9
$DIMDLI
 40
0.38
  9
$DIMRND
 40
0.0
  9
$DIMDLE
 40
0.0
  9
$DIMEXE
 40
0.18
  9
$DIMTP
 40
0.0
  9
$DIMTM
 40
0.0
  9
$DIMTXT
 40
0.18
  9
$DIMCEN
 40
0.09
  9
$DIMTSZ
 40
0.0
  9
$DIMTOL
 70
               0
  9
$DIMLIM
 70
               0
  9
$DIMTIH
 70
               1
  9
$DIMTOH
 70
               1
  9
$DIMSE1
 70
               0
  9
$DIMSE2
 70
               0
  9
$DIMTAD
 70
               0
  9
$DIMZIN
 70
               0
  9
$DIMBLK
  1

  9
$DIMASO
 70
               1
  9
$DIMSHO
 70
               1
  9
$DIMPOST
  1

  9
$DIMAPOST
  1

  9
$DIMALT
 70
               0
  9
$DIMALTD
 70
               2
  9
$DIMALTF
 40
25.399999999999999
  9
$DIMLFAC
 40
1.0
  9
$DIMTOFL
 70
               0
  9
$DIMTVP
 40
0.0
  9
$DIMTIX
 70
               0
  9
$DIMSOXD
 70
               0
  9
$DIMSAH
 70
               0
  9
$DIMBLK1
  1

  9
$DIMBLK2
  1

  9
$DIMSTYLE
  2
STANDARD
  9
$DIMCLRD
 70
               0
  9
$DIMCLRE
 70
               0
  9
$DIMCLRT
 70
               0
  9
$DIMTFAC
 40
1.0
  9
$DIMGAP
 40
0.09
  9
$LUNITS
 70
               2
  9
$LUPREC
 70
               4
  9
$AXISMODE
 70
               0
  9
$AXISUNIT
 10
0.0
 20
0.0
  9
$SKETCHINC
 40
0.1
  9
$FILLETRAD
 40
0.0
  9
$AUNITS
 70
               0
  9
$AUPREC
 70
               0
  9
$MENU
  1
acad
  9
$ELEVATION
 40
0.0
  9
$PELEVATION
 40
0.0
  9
$THICKNESS
 40
0.0
  9
$LIMCHECK
 70
               0
  9
$BLIPMODE
 70
               1
  9
$CHAMFERA
 40
0.0
  9
$CHAMFERB
 40
0.0
  9
$SKPOLY
 70
               0
  9
$TDCREATE
 40
0.000000000
  9
$TDUPDATE
 40
0.000000000
  9
$TDINDWG
 40
0.0000000000
  9
$TDUSRTIMER
 40
0.0000000000
  9
$USRTIMER
 70
               1
  9
$ANGBASE
 50
0.0
  9
$ANGDIR
 70
               0
  9
$PDMODE
 70
               0
  9
$PDSIZE
 40
1.0
  9
$PLINEWID
 40
0.0
  9
$COORDS
 70
               1
  9
$SPLFRAME
 70
               0
  9
$SPLINETYPE
 70
               6
  9
$SPLINESEGS
 70
               8
  9
$ATTDIA
 70
               0
  9
$ATTREQ
 70
               1
  9
$HANDLING
 70
               1
  9
$HANDSEED
  5
3F1
  9
$SURFTAB1
 70
               6
  9
$SURFTAB2
 70
               6
  9
$SURFTYPE
 70
               6
  9
$SURFU
 70
               6
  9
$SURFV
 70
               6
  9
$UCSNAME
  2

  9
$UCSORG
 10
0.0
 20
0.0
 30
0.0
  9
$UCSXDIR
 10
1.0
 20
0.0
 30
0.0
  9
$UCSYDIR
 10
0.0
 20
1.0
 30
0.0
  9
$PUCSNAME
  2

  9
$PUCSORG
 10
0.0
 20
0.0
 30
0.0
  9
$PUCSXDIR
 10
1.0
 20
0.0
 30
0.0
  9
$PUCSYDIR
 10
0.0
 20
1.0
 30
0.0
  9
$USERI1
 70
               0
  9
$USERI2
 70
               0
  9
$USERI3
 70
               0
  9
$USERI4
 70
               0
  9
$USERI5
 70
               0
  9
$USERR1
 40
0.0
  9
$USERR2
 40
0.0
  9
$USERR3
 40
0.0
  9
$USERR4
 40
0.0
  9
$USERR5
 40
0.0
  9
$WORLDVIEW
 70
               1
  9
$SHADEDGE
 70
               3
  9
$SHADEDIF
 70
              70
  9
$TILEMODE
 70
               1
  9
$MAXACTVP
 70
              16
  9
$PINSBASE
 10
0.0
 20
0.0
 30
0.0
  9
$PLIMCHECK
 70
               0
  9
$PEXTMIN
 10
1.0000000000000000E+20
 20
1.0000000000000000E+20
 30
1.0000000000000000E+20
  9
$PEXTMAX
 10
-1.0000000000000000E+20
 20
-1.0000000000000000E+20
 30
-1.0000000000000000E+20
  9
$PLIMMIN
 10
0.0
 20
0.0
  9
$PLIMMAX
 10
12.0
 20
9.0
  9
$UNITMODE
 70
               0
  9
$VISRETAIN
 70
               0
  9
$PLINEGEN
 70
               1
  9
$PSLTSCALE
 70
               0
  9
$TREEDEPTH
 70
            3020
  9
$DWGCODEPAGE
  3
dos932
  0
ENDSEC
  0
SECTION
  2
TABLES
  0
TABLE
  2
VPORT
 70
               1
  0
VPORT
  2
*ACTIVE
 70
               0
 10
0.0
 20
0.0
 11
1.0
 21
1.0
 12
0.0332113885328909
 22
-56.186036036037137
 13
0.0
 23
0.0
 14
1.0
 24
1.0
 15
0.0
 25
0.0
 16
0.0
 26
0.0
 36
1.0
 17
0.0
 27
0.0
 37
0.0
 40
1487.7411396396365
 41
0.853453845792159
 42
50.0
 43
0.0
 44
0.0
 50
0.0
 51
0.0
 71
               0
 72
             100
 73
               1
 74
               1
 75
               0
 76
               0
 77
               0
 78
               0
  0
ENDTAB
  0
TABLE
  2
LTYPE
 70
              26
  0
LTYPE
  2
CONTINUOUS
 70
               0
  3
Solid line
 72
              65
 73
               0
 40
0.0
  0
LTYPE
  2
HIDDENX2
 70
               0
  3
CADPAC FUSION LINETYPE
 72
              65
 73
               2
 40
80.0
 49
60.0
 49
-20.0
  0
LTYPE
  2
HIDDEN
 70
               0
  3
CADPAC FUSION LINETYPE
 72
              65
 73
               2
 40
60.0
 49
40.0
 49
-20.0
  0
LTYPE
  2
HIDDEN2
 70
               0
  3
CADPAC FUSION LINETYPE
 72
              65
 73
               2
 40
50.0
 49
30.0
 49
-20.0
  0
LTYPE
  2
DASHED
 70
               0
  3
CADPAC FUSION LINETYPE
 72
              65
 73
               2
 40
60.0
 49
40.0
 49
-20.0
  0
LTYPE
  2
DASHED2
 70
               0
  3
CADPAC FUSION LINETYPE
 72
              65
 73
               2
 40
45.0
 49
30.0
 49
-15.0
  0
LTYPE
  2
DASHEDX2
 70
               0
  3
CADPAC FUSION LINETYPE
 72
              65
 73
               2
 40
90.0
 49
60.0
 49
-30.0
  0
LTYPE
  2
DOTX2
 70
               0
  3
CADPAC FUSION LINETYPE
 72
              65
 73
               2
 40
25.0
 49
0.0
 49
-25.0
  0
LTYPE
  2
DOT
 70
               0
  3
CADPAC FUSION LINETYPE
 72
              65
 73
               2
 40
20.0
 49
0.0
 49
-20.0
  0
LTYPE
  2
DOTS
 70
               0
  3
CADPAC FUSION LINETYPE
 72
              65
 73
               2
 40
20.0
 49
0.0
 49
-20.0
  0
LTYPE
  2
DOT2
 70
               0
  3
CADPAC FUSION LINETYPE
 72
              65
 73
               2
 40
15.0
 49
0.0
 49
-15.0
  0
LTYPE
  2
CENTERX2
 70
               0
  3
CADPAC FUSION LINETYPE
 72
              65
 73
               4
 40
120.0
 49
50.0
 49
-25.0
 49
20.0
 49
-25.0
  0
LTYPE
  2
CENTER
 70
               0
  3
CADPAC FUSION LINETYPE
 72
              65
 73
               4
 40
92.0
 49
40.0
 49
-20.0
 49
12.0
 49
-20.0
  0
LTYPE
  2
CENTER2
 70
               0
  3
CADPAC FUSION LINETYPE
 72
              65
 73
               4
 40
64.0
 49
30.0
 49
-15.0
 49
4.0
 49
-15.0
  0
LTYPE
  2
DASHDOTX2
 70
               0
  3
CADPAC FUSION LINETYPE
 72
              65
 73
               4
 40
100.0
 49
50.0
 49
-25.0
 49
0.0
 49
-25.0
  0
LTYPE
  2
DASHDOT
 70
               0
  3
CADPAC FUSION LINETYPE
 72
              65
 73
               4
 40
80.0
 49
40.0
 49
-20.0
 49
0.0
 49
-20.0
  0
LTYPE
  2
DASHDOT2
 70
               0
  3
CADPAC FUSION LINETYPE
 72
              65
 73
               4
 40
60.0
 49
30.0
 49
-15.0
 49
0.0
 49
-15.0
  0
LTYPE
  2
DIVIDEX2
 70
               0
  3
CADPAC FUSION LINETYPE
 72
              65
 73
               6
 40
125.0
 49
50.0
 49
-25.0
 49
0.0
 49
-25.0
 49
0.0
 49
-25.0
  0
LTYPE
  2
DIVIDE
 70
               0
  3
CADPAC FUSION LINETYPE
 72
              65
 73
               6
 40
100.0
 49
40.0
 49
-20.0
 49
0.0
 49
-20.0
 49
0.0
 49
-20.0
  0
LTYPE
  2
DIVIDE2
 70
               0
  3
CADPAC FUSION LINETYPE
 72
              65
 73
               6
 40
75.0
 49
30.0
 49
-15.0
 49
0.0
 49
-15.0
 49
0.0
 49
-15.0
  0
LTYPE
  2
BORDERX2
 70
               0
  3
CADPAC FUSION LINETYPE
 72
              65
 73
               6
 40
175.0
 49
50.0
 49
-25.0
 49
50.0
 49
-25.0
 49
0.0
 49
-25.0
  0
LTYPE
  2
BORDER
 70
               0
  3
CADPAC FUSION LINETYPE
 72
              65
 73
               6
 40
140.0
 49
40.0
 49
-20.0
 49
40.0
 49
-20.0
 49
0.0
 49
-20.0
  0
LTYPE
  2
BORDER2
 70
               0
  3
CADPAC FUSION LINETYPE
 72
              65
 73
               6
 40
105.0
 49
30.0
 49
-15.0
 49
30.0
 49
-15.0
 49
0.0
 49
-15.0
  0
LTYPE
  2
PHANTOMX2
 70
               0
  3
CADPAC FUSION LINETYPE
 72
              65
 73
               6
 40
150.0
 49
50.0
 49
-20.0
 49
20.0
 49
-20.0
 49
20.0
 49
-20.0
  0
LTYPE
  2
PHANTOM
 70
               0
  3
CADPAC FUSION LINETYPE
 72
              65
 73
               6
 40
124.0
 49
40.0
 49
-20.0
 49
12.0
 49
-20.0
 49
12.0
 49
-20.0
  0
LTYPE
  2
PHANTOM2
 70
               0
  3
CADPAC FUSION LINETYPE
 72
              65
 73
               6
 40
106.0
 49
30.0
 49
-20.0
 49
8.0
 49
-20.0
 49
8.0
 49
-20.0
  0
ENDTAB
  0
TABLE
  2
LAYER
 70
             256
  0
LAYER
  2
0
 70
               0
 62
               7
  6
CONTINUOUS
  0
LAYER
  2
LAYER001
 70
               0
 62
               7
  6
CONTINUOUS
  0
LAYER
  2
LAYER002
 70
               0
 62
               7
  6
CONTINUOUS
  0
LAYER
  2
LAYER003
 70
               0
 62
               7
  6
CONTINUOUS
  0
LAYER
  2
LAYER004
 70
               0
 62
               7
  6
CONTINUOUS
  0
LAYER
  2
LAYER005
 70
               0
 62
               7
  6
CONTINUOUS
  0
LAYER
  2
LAYER006
 70
               0
 62
               7
  6
CONTINUOUS
  0
LAYER
  2
LAYER007
 70
               0
 62
               7
  6
CONTINUOUS
  0
LAYER
  2
LAYER008
 70
               0
 62
               7
  6
CONTINUOUS
  0
LAYER
  2
LAYER009
 70
               0
 62
               7
  6
CONTINUOUS
  0
LAYER
  2
LAYER010
 70
               0
 62
               7
  6
CONTINUOUS
  0
LAYER
  2
LAYER011
 70
               0
 62
               7
  6
CONTINUOUS
  0
LAYER
  2
LAYER012
 70
               0
 62
               7
  6
CONTINUOUS
  0
LAYER
  2
LAYER013
 70
               0
 62
               7
  6
CONTINUOUS
  0
LAYER
  2
LAYER014
 70
               0
 62
               7
  6
CONTINUOUS
  0
LAYER
  2
LAYER015
 70
               0
 62
               7
  6
CONTINUOUS
  0
LAYER
  2
LAYER016
 70
               0
 62
               7
  6
CONTINUOUS
  0
LAYER
  2
LAYER017
 70
               0
 62
               7
  6
CONTINUOUS
  0
LAYER
  2
LAYER018
 70
               0
 62
               7
  6
CONTINUOUS
  0
LAYER
  2
LAYER019
 70
               0
 62
               7
  6
CONTINUOUS
  0
LAYER
  2
LAYER020
 70
               0
 62
               7
  6
CONTINUOUS
  0
LAYER
  2
LAYER021
 70
               0
 62
               7
  6
CONTINUOUS
  0
LAYER
  2
LAYER022
 70
               0
 62
               7
  6
CONTINUOUS
  0
LAYER
  2
LAYER023
 70
               0
 62
               7
  6
CONTINUOUS
  0
LAYER
  2
LAYER024
 70
               0
 62
               7
  6
CONTINUOUS
  0
LAYER
  2
LAYER025
 70
               0
 62
               7
  6
CONTINUOUS
  0
LAYER
  2
LAYER026
 70
               0
 62
               7
  6
CONTINUOUS
  0
LAYER
  2
LAYER027
 70
               0
 62
               7
  6
CONTINUOUS
  0
LAYER
  2
LAYER028
 70
               0
 62
               7
  6
CONTINUOUS
  0
LAYER
  2
LAYER029
 70
               0
 62
               7
  6
CONTINUOUS
  0
LAYER
  2
LAYER030
 70
               0
 62
               7
  6
CONTINUOUS
  0
LAYER
  2
LAYER031
 70
               0
 62
               7
  6
CONTINUOUS
  0
LAYER
  2
LAYER032
 70
               0
 62
               7
  6
CONTINUOUS
  0
LAYER
  2
LAYER033
 70
               0
 62
               7
  6
CONTINUOUS
  0
LAYER
  2
LAYER034
 70
               0
 62
               7
  6
CONTINUOUS
  0
LAYER
  2
LAYER035
 70
               0
 62
               7
  6
CONTINUOUS
  0
LAYER
  2
LAYER036
 70
               0
 62
               7
  6
CONTINUOUS
  0
LAYER
  2
LAYER037
 70
               0
 62
               7
  6
CONTINUOUS
  0
LAYER
  2
LAYER038
 70
               0
 62
               7
  6
CONTINUOUS
  0
LAYER
  2
LAYER039
 70
               0
 62
               7
  6
CONTINUOUS
  0
LAYER
  2
LAYER040
 70
               0
 62
               7
  6
CONTINUOUS
  0
LAYER
  2
LAYER041
 70
               0
 62
               7
  6
CONTINUOUS
  0
LAYER
  2
LAYER042
 70
               0
 62
               7
  6
CONTINUOUS
  0
LAYER
  2
LAYER043
 70
               0
 62
               7
  6
CONTINUOUS
  0
LAYER
  2
LAYER044
 70
               0
 62
               7
  6
CONTINUOUS
  0
LAYER
  2
LAYER045
 70
               0
 62
               7
  6
CONTINUOUS
  0
LAYER
  2
LAYER046
 70
               0
 62
               7
  6
CONTINUOUS
  0
LAYER
  2
LAYER047
 70
               0
 62
               7
  6
CONTINUOUS
  0
LAYER
  2
LAYER048
 70
               0
 62
               7
  6
CONTINUOUS
  0
LAYER
  2
LAYER049
 70
               0
 62
               7
  6
CONTINUOUS
  0
LAYER
  2
LAYER050
 70
               0
 62
               7
  6
CONTINUOUS
  0
LAYER
  2
LAYER051
 70
               0
 62
               7
  6
CONTINUOUS
  0
LAYER
  2
LAYER052
 70
               0
 62
               7
  6
CONTINUOUS
  0
LAYER
  2
LAYER053
 70
               0
 62
               7
  6
CONTINUOUS
  0
LAYER
  2
LAYER054
 70
               0
 62
               7
  6
CONTINUOUS
  0
LAYER
  2
LAYER055
 70
               0
 62
               7
  6
CONTINUOUS
  0
LAYER
  2
LAYER056
 70
               0
 62
               7
  6
CONTINUOUS
  0
LAYER
  2
LAYER057
 70
               0
 62
               7
  6
CONTINUOUS
  0
LAYER
  2
LAYER058
 70
               0
 62
               7
  6
CONTINUOUS
  0
LAYER
  2
LAYER059
 70
               0
 62
               7
  6
CONTINUOUS
  0
LAYER
  2
LAYER060
 70
               0
 62
               7
  6
CONTINUOUS
  0
LAYER
  2
LAYER061
 70
               0
 62
               7
  6
CONTINUOUS
  0
LAYER
  2
LAYER062
 70
               0
 62
               7
  6
CONTINUOUS
  0
LAYER
  2
LAYER063
 70
               0
 62
               7
  6
CONTINUOUS
  0
LAYER
  2
LAYER064
 70
               0
 62
               7
  6
CONTINUOUS
  0
LAYER
  2
LAYER065
 70
               0
 62
               7
  6
CONTINUOUS
  0
LAYER
  2
LAYER066
 70
               0
 62
               7
  6
CONTINUOUS
  0
LAYER
  2
LAYER067
 70
               0
 62
               7
  6
CONTINUOUS
  0
LAYER
  2
LAYER068
 70
               0
 62
               7
  6
CONTINUOUS
  0
LAYER
  2
LAYER069
 70
               0
 62
               7
  6
CONTINUOUS
  0
LAYER
  2
LAYER070
 70
               0
 62
               7
  6
CONTINUOUS
  0
LAYER
  2
LAYER071
 70
               0
 62
               7
  6
CONTINUOUS
  0
LAYER
  2
LAYER072
 70
               0
 62
               7
  6
CONTINUOUS
  0
LAYER
  2
LAYER073
 70
               0
 62
               7
  6
CONTINUOUS
  0
LAYER
  2
LAYER074
 70
               0
 62
               7
  6
CONTINUOUS
  0
LAYER
  2
LAYER075
 70
               0
 62
               7
  6
CONTINUOUS
  0
LAYER
  2
LAYER076
 70
               0
 62
               7
  6
CONTINUOUS
  0
LAYER
  2
LAYER077
 70
               0
 62
               7
  6
CONTINUOUS
  0
LAYER
  2
LAYER078
 70
               0
 62
               7
  6
CONTINUOUS
  0
LAYER
  2
LAYER079
 70
               0
 62
               7
  6
CONTINUOUS
  0
LAYER
  2
LAYER080
 70
               0
 62
               7
  6
CONTINUOUS
  0
LAYER
  2
LAYER081
 70
               0
 62
               7
  6
CONTINUOUS
  0
LAYER
  2
LAYER082
 70
               0
 62
               7
  6
CONTINUOUS
  0
LAYER
  2
LAYER083
 70
               0
 62
               7
  6
CONTINUOUS
  0
LAYER
  2
LAYER084
 70
               0
 62
               7
  6
CONTINUOUS
  0
LAYER
  2
LAYER085
 70
               0
 62
               7
  6
CONTINUOUS
  0
LAYER
  2
LAYER086
 70
               0
 62
               7
  6
CONTINUOUS
  0
LAYER
  2
LAYER087
 70
               0
 62
               7
  6
CONTINUOUS
  0
LAYER
  2
LAYER088
 70
               0
 62
               7
  6
CONTINUOUS
  0
LAYER
  2
LAYER089
 70
               0
 62
               7
  6
CONTINUOUS
  0
LAYER
  2
LAYER090
 70
               0
 62
               7
  6
CONTINUOUS
  0
LAYER
  2
LAYER091
 70
               0
 62
               7
  6
CONTINUOUS
  0
LAYER
  2
LAYER092
 70
               0
 62
               7
  6
CONTINUOUS
  0
LAYER
  2
LAYER093
 70
               0
 62
               7
  6
CONTINUOUS
  0
LAYER
  2
LAYER094
 70
               0
 62
               7
  6
CONTINUOUS
  0
LAYER
  2
LAYER095
 70
               0
 62
               7
  6
CONTINUOUS
  0
LAYER
  2
LAYER096
 70
               0
 62
               7
  6
CONTINUOUS
  0
LAYER
  2
LAYER097
 70
               0
 62
               7
  6
CONTINUOUS
  0
LAYER
  2
LAYER098
 70
               0
 62
               7
  6
CONTINUOUS
  0
LAYER
  2
LAYER099
 70
               0
 62
               7
  6
CONTINUOUS
  0
LAYER
  2
LAYER100
 70
               0
 62
               7
  6
CONTINUOUS
  0
LAYER
  2
LAYER101
 70
               0
 62
               7
  6
CONTINUOUS
  0
LAYER
  2
LAYER102
 70
               0
 62
               7
  6
CONTINUOUS
  0
LAYER
  2
LAYER103
 70
               0
 62
               7
  6
CONTINUOUS
  0
LAYER
  2
LAYER104
 70
               0
 62
               7
  6
CONTINUOUS
  0
LAYER
  2
LAYER105
 70
               0
 62
               7
  6
CONTINUOUS
  0
LAYER
  2
LAYER106
 70
               0
 62
               7
  6
CONTINUOUS
  0
LAYER
  2
LAYER107
 70
               0
 62
               7
  6
CONTINUOUS
  0
LAYER
  2
LAYER108
 70
               0
 62
               7
  6
CONTINUOUS
  0
LAYER
  2
LAYER109
 70
               0
 62
               7
  6
CONTINUOUS
  0
LAYER
  2
LAYER110
 70
               0
 62
               7
  6
CONTINUOUS
  0
LAYER
  2
LAYER111
 70
               0
 62
               7
  6
CONTINUOUS
  0
LAYER
  2
LAYER112
 70
               0
 62
               7
  6
CONTINUOUS
  0
LAYER
  2
LAYER113
 70
               0
 62
               7
  6
CONTINUOUS
  0
LAYER
  2
LAYER114
 70
               0
 62
               7
  6
CONTINUOUS
  0
LAYER
  2
LAYER115
 70
               0
 62
               7
  6
CONTINUOUS
  0
LAYER
  2
LAYER116
 70
               0
 62
               7
  6
CONTINUOUS
  0
LAYER
  2
LAYER117
 70
               0
 62
               7
  6
CONTINUOUS
  0
LAYER
  2
LAYER118
 70
               0
 62
               7
  6
CONTINUOUS
  0
LAYER
  2
LAYER119
 70
               0
 62
               7
  6
CONTINUOUS
  0
LAYER
  2
LAYER120
 70
               0
 62
               7
  6
CONTINUOUS
  0
LAYER
  2
LAYER121
 70
               0
 62
               7
  6
CONTINUOUS
  0
LAYER
  2
LAYER122
 70
               0
 62
               7
  6
CONTINUOUS
  0
LAYER
  2
LAYER123
 70
               0
 62
               7
  6
CONTINUOUS
  0
LAYER
  2
LAYER124
 70
               0
 62
               7
  6
CONTINUOUS
  0
LAYER
  2
LAYER125
 70
               0
 62
               7
  6
CONTINUOUS
  0
LAYER
  2
LAYER126
 70
               0
 62
               7
  6
CONTINUOUS
  0
LAYER
  2
LAYER127
 70
               0
 62
               7
  6
CONTINUOUS
  0
LAYER
  2
LAYER128
 70
               0
 62
               7
  6
CONTINUOUS
  0
LAYER
  2
LAYER129
 70
               0
 62
               7
  6
CONTINUOUS
  0
LAYER
  2
LAYER130
 70
               0
 62
               7
  6
CONTINUOUS
  0
LAYER
  2
LAYER131
 70
               0
 62
               7
  6
CONTINUOUS
  0
LAYER
  2
LAYER132
 70
               0
 62
               7
  6
CONTINUOUS
  0
LAYER
  2
LAYER133
 70
               0
 62
               7
  6
CONTINUOUS
  0
LAYER
  2
LAYER134
 70
               0
 62
               7
  6
CONTINUOUS
  0
LAYER
  2
LAYER135
 70
               0
 62
               7
  6
CONTINUOUS
  0
LAYER
  2
LAYER136
 70
               0
 62
               7
  6
CONTINUOUS
  0
LAYER
  2
LAYER137
 70
               0
 62
               7
  6
CONTINUOUS
  0
LAYER
  2
LAYER138
 70
               0
 62
               7
  6
CONTINUOUS
  0
LAYER
  2
LAYER139
 70
               0
 62
               7
  6
CONTINUOUS
  0
LAYER
  2
LAYER140
 70
               0
 62
               7
  6
CONTINUOUS
  0
LAYER
  2
LAYER141
 70
               0
 62
               7
  6
CONTINUOUS
  0
LAYER
  2
LAYER142
 70
               0
 62
               7
  6
CONTINUOUS
  0
LAYER
  2
LAYER143
 70
               0
 62
               7
  6
CONTINUOUS
  0
LAYER
  2
LAYER144
 70
               0
 62
               7
  6
CONTINUOUS
  0
LAYER
  2
LAYER145
 70
               0
 62
               7
  6
CONTINUOUS
  0
LAYER
  2
LAYER146
 70
               0
 62
               7
  6
CONTINUOUS
  0
LAYER
  2
LAYER147
 70
               0
 62
               7
  6
CONTINUOUS
  0
LAYER
  2
LAYER148
 70
               0
 62
               7
  6
CONTINUOUS
  0
LAYER
  2
LAYER149
 70
               0
 62
               7
  6
CONTINUOUS
  0
LAYER
  2
LAYER150
 70
               0
 62
               7
  6
CONTINUOUS
  0
LAYER
  2
LAYER151
 70
               0
 62
               7
  6
CONTINUOUS
  0
LAYER
  2
LAYER152
 70
               0
 62
               7
  6
CONTINUOUS
  0
LAYER
  2
LAYER153
 70
               0
 62
               7
  6
CONTINUOUS
  0
LAYER
  2
LAYER154
 70
               0
 62
               7
  6
CONTINUOUS
  0
LAYER
  2
LAYER155
 70
               0
 62
               7
  6
CONTINUOUS
  0
LAYER
  2
LAYER156
 70
               0
 62
               7
  6
CONTINUOUS
  0
LAYER
  2
LAYER157
 70
               0
 62
               7
  6
CONTINUOUS
  0
LAYER
  2
LAYER158
 70
               0
 62
               7
  6
CONTINUOUS
  0
LAYER
  2
LAYER159
 70
               0
 62
               7
  6
CONTINUOUS
  0
LAYER
  2
LAYER160
 70
               0
 62
               7
  6
CONTINUOUS
  0
LAYER
  2
LAYER161
 70
               0
 62
               7
  6
CONTINUOUS
  0
LAYER
  2
LAYER162
 70
               0
 62
               7
  6
CONTINUOUS
  0
LAYER
  2
LAYER163
 70
               0
 62
               7
  6
CONTINUOUS
  0
LAYER
  2
LAYER164
 70
               0
 62
               7
  6
CONTINUOUS
  0
LAYER
  2
LAYER165
 70
               0
 62
               7
  6
CONTINUOUS
  0
LAYER
  2
LAYER166
 70
               0
 62
               7
  6
CONTINUOUS
  0
LAYER
  2
LAYER167
 70
               0
 62
               7
  6
CONTINUOUS
  0
LAYER
  2
LAYER168
 70
               0
 62
               7
  6
CONTINUOUS
  0
LAYER
  2
LAYER169
 70
               0
 62
               7
  6
CONTINUOUS
  0
LAYER
  2
LAYER170
 70
               0
 62
               7
  6
CONTINUOUS
  0
LAYER
  2
LAYER171
 70
               0
 62
               7
  6
CONTINUOUS
  0
LAYER
  2
LAYER172
 70
               0
 62
               7
  6
CONTINUOUS
  0
LAYER
  2
LAYER173
 70
               0
 62
               7
  6
CONTINUOUS
  0
LAYER
  2
LAYER174
 70
               0
 62
               7
  6
CONTINUOUS
  0
LAYER
  2
LAYER175
 70
               0
 62
               7
  6
CONTINUOUS
  0
LAYER
  2
LAYER176
 70
               0
 62
               7
  6
CONTINUOUS
  0
LAYER
  2
LAYER177
 70
               0
 62
               7
  6
CONTINUOUS
  0
LAYER
  2
LAYER178
 70
               0
 62
               7
  6
CONTINUOUS
  0
LAYER
  2
LAYER179
 70
               0
 62
               7
  6
CONTINUOUS
  0
LAYER
  2
LAYER180
 70
               0
 62
               7
  6
CONTINUOUS
  0
LAYER
  2
LAYER181
 70
               0
 62
               7
  6
CONTINUOUS
  0
LAYER
  2
LAYER182
 70
               0
 62
               7
  6
CONTINUOUS
  0
LAYER
  2
LAYER183
 70
               0
 62
               7
  6
CONTINUOUS
  0
LAYER
  2
LAYER184
 70
               0
 62
               7
  6
CONTINUOUS
  0
LAYER
  2
LAYER185
 70
               0
 62
               7
  6
CONTINUOUS
  0
LAYER
  2
LAYER186
 70
               0
 62
               7
  6
CONTINUOUS
  0
LAYER
  2
LAYER187
 70
               0
 62
               7
  6
CONTINUOUS
  0
LAYER
  2
LAYER188
 70
               0
 62
               7
  6
CONTINUOUS
  0
LAYER
  2
LAYER189
 70
               0
 62
               7
  6
CONTINUOUS
  0
LAYER
  2
LAYER190
 70
               0
 62
               7
  6
CONTINUOUS
  0
LAYER
  2
LAYER191
 70
               0
 62
               7
  6
CONTINUOUS
  0
LAYER
  2
LAYER192
 70
               0
 62
               7
  6
CONTINUOUS
  0
LAYER
  2
LAYER193
 70
               0
 62
               7
  6
CONTINUOUS
  0
LAYER
  2
LAYER194
 70
               0
 62
               7
  6
CONTINUOUS
  0
LAYER
  2
LAYER195
 70
               0
 62
               7
  6
CONTINUOUS
  0
LAYER
  2
LAYER196
 70
               0
 62
               7
  6
CONTINUOUS
  0
LAYER
  2
LAYER197
 70
               0
 62
               7
  6
CONTINUOUS
  0
LAYER
  2
LAYER198
 70
               0
 62
               7
  6
CONTINUOUS
  0
LAYER
  2
LAYER199
 70
               0
 62
               7
  6
CONTINUOUS
  0
LAYER
  2
LAYER200
 70
               0
 62
               7
  6
CONTINUOUS
  0
LAYER
  2
LAYER201
 70
               0
 62
               7
  6
CONTINUOUS
  0
LAYER
  2
LAYER202
 70
               0
 62
               7
  6
CONTINUOUS
  0
LAYER
  2
LAYER203
 70
               0
 62
               7
  6
CONTINUOUS
  0
LAYER
  2
LAYER204
 70
               0
 62
               7
  6
CONTINUOUS
  0
LAYER
  2
LAYER205
 70
               0
 62
               7
  6
CONTINUOUS
  0
LAYER
  2
LAYER206
 70
               0
 62
               7
  6
CONTINUOUS
  0
LAYER
  2
LAYER207
 70
               0
 62
               7
  6
CONTINUOUS
  0
LAYER
  2
LAYER208
 70
               0
 62
               7
  6
CONTINUOUS
  0
LAYER
  2
LAYER209
 70
               0
 62
               7
  6
CONTINUOUS
  0
LAYER
  2
LAYER210
 70
               0
 62
               7
  6
CONTINUOUS
  0
LAYER
  2
LAYER211
 70
               0
 62
               7
  6
CONTINUOUS
  0
LAYER
  2
LAYER212
 70
               0
 62
               7
  6
CONTINUOUS
  0
LAYER
  2
LAYER213
 70
               0
 62
               7
  6
CONTINUOUS
  0
LAYER
  2
LAYER214
 70
               0
 62
               7
  6
CONTINUOUS
  0
LAYER
  2
LAYER215
 70
               0
 62
               7
  6
CONTINUOUS
  0
LAYER
  2
LAYER216
 70
               0
 62
               7
  6
CONTINUOUS
  0
LAYER
  2
LAYER217
 70
               0
 62
               7
  6
CONTINUOUS
  0
LAYER
  2
LAYER218
 70
               0
 62
               7
  6
CONTINUOUS
  0
LAYER
  2
LAYER219
 70
               0
 62
               7
  6
CONTINUOUS
  0
LAYER
  2
LAYER220
 70
               0
 62
               7
  6
CONTINUOUS
  0
LAYER
  2
LAYER221
 70
               0
 62
               7
  6
CONTINUOUS
  0
LAYER
  2
LAYER222
 70
               0
 62
               7
  6
CONTINUOUS
  0
LAYER
  2
LAYER223
 70
               0
 62
               7
  6
CONTINUOUS
  0
LAYER
  2
LAYER224
 70
               0
 62
               7
  6
CONTINUOUS
  0
LAYER
  2
LAYER225
 70
               0
 62
               7
  6
CONTINUOUS
  0
LAYER
  2
LAYER226
 70
               0
 62
               7
  6
CONTINUOUS
  0
LAYER
  2
LAYER227
 70
               0
 62
               7
  6
CONTINUOUS
  0
LAYER
  2
LAYER228
 70
               0
 62
               7
  6
CONTINUOUS
  0
LAYER
  2
LAYER229
 70
               0
 62
               7
  6
CONTINUOUS
  0
LAYER
  2
LAYER230
 70
               0
 62
               7
  6
CONTINUOUS
  0
LAYER
  2
LAYER231
 70
               0
 62
               7
  6
CONTINUOUS
  0
LAYER
  2
LAYER232
 70
               0
 62
               7
  6
CONTINUOUS
  0
LAYER
  2
LAYER233
 70
               0
 62
               7
  6
CONTINUOUS
  0
LAYER
  2
LAYER234
 70
               0
 62
               7
  6
CONTINUOUS
  0
LAYER
  2
LAYER235
 70
               0
 62
               7
  6
CONTINUOUS
  0
LAYER
  2
LAYER236
 70
               0
 62
               7
  6
CONTINUOUS
  0
LAYER
  2
LAYER237
 70
               0
 62
               7
  6
CONTINUOUS
  0
LAYER
  2
LAYER238
 70
               0
 62
               7
  6
CONTINUOUS
  0
LAYER
  2
LAYER239
 70
               0
 62
               7
  6
CONTINUOUS
  0
LAYER
  2
LAYER240
 70
               0
 62
               7
  6
CONTINUOUS
  0
LAYER
  2
LAYER241
 70
               0
 62
               7
  6
CONTINUOUS
  0
LAYER
  2
LAYER242
 70
               0
 62
               7
  6
CONTINUOUS
  0
LAYER
  2
LAYER243
 70
               0
 62
               7
  6
CONTINUOUS
  0
LAYER
  2
LAYER244
 70
               0
 62
               7
  6
CONTINUOUS
  0
LAYER
  2
LAYER245
 70
               0
 62
               7
  6
CONTINUOUS
  0
LAYER
  2
LAYER246
 70
               0
 62
               7
  6
CONTINUOUS
  0
LAYER
  2
LAYER247
 70
               0
 62
               7
  6
CONTINUOUS
  0
LAYER
  2
LAYER248
 70
               0
 62
               7
  6
CONTINUOUS
  0
LAYER
  2
LAYER249
 70
               0
 62
               7
  6
CONTINUOUS
  0
LAYER
  2
LAYER250
 70
               0
 62
               7
  6
CONTINUOUS
  0
LAYER
  2
LAYER251
 70
               0
 62
               7
  6
CONTINUOUS
  0
LAYER
  2
LAYER252
 70
               0
 62
               7
  6
CONTINUOUS
  0
LAYER
  2
LAYER253
 70
               0
 62
               7
  6
CONTINUOUS
  0
LAYER
  2
LAYER254
 70
               0
 62
               7
  6
CONTINUOUS
  0
LAYER
  2
LAYER255
 70
               0
 62
               7
  6
CONTINUOUS
  0
ENDTAB
  0
TABLE
  2
STYLE
 70
               1
  0
STYLE
  2
STANDARD
 70
               0
 40
0.0
 41
1.0
 50
0.0
 71
               0
 42
0.0
  3
txt
  4

  0
ENDTAB
  0
TABLE
  2
VIEW
 70
               0
  0
VIEW
  2
QQQQ
 70
               0
 40
1487.7411396396365
 10
0.0332113885328909
 20
-56.186036036037137
 41
1269.7183971686572
 11
0.0
 21
0.0
 31
1.0
 12
100.0
 22
100.0
 32
0.0
 42
50.0
 43
0.0
 44
0.0
 50
0.0
 71
               0
  0
ENDTAB
  0
TABLE
  2
UCS
 70
               0
  0
ENDTAB
  0
TABLE
  2
APPID
 70
               1
  0
APPID
  2
ACAD
 70
               0
  0
ENDTAB
  0
TABLE
  2
DIMSTYLE
 70
               1
  0
DIMSTYLE
  2
STANDARD
 70
               0
  3

  4

  5

  6

  7

 40
1.0
 41
0.18
 42
0.0625
 43
0.38
 44
0.18
 45
0.0
 46
0.0
 47
0.0
 48
0.0
140
0.18
141
0.09
142
0.0
143
25.399999999999999
144
1.0
145
0.0
146
1.0
147
0.09
 71
               0
 72
               0
 73
               1
 74
               1
 75
               0
 76
               0
 77
               0
 78
               0
170
               0
171
               2
172
               0
173
               0
174
               0
175
               0
176
               0
177
               0
178
               0
  0
ENDTAB
  0
ENDSEC
  0
SECTION
  2
BLOCKS
  0
BLOCK
  8
0
  5
13D
  2
GROUP_1
 70
               0
 10
0.0
 20
0.0
 30
0.0
  3
GROUP_1
  0
LINE
  8
0
  6
CONTINUOUS
 62
               4
  5
13E
 10
-65.607417647008788
 20
-181.89488047340546
 30
0.0
 11
56.287462826397132
 21
-59.999999999999432
 31
0.0
  0
LINE
  8
0
  6
CONTINUOUS
 62
               4
  5
13F
 10
-73.5
 20
-119.07678472581063
 30
0.0
 11
-14.423215274188806
 21
-59.999999999999432
 31
0.0
  0
LINE
  8
0
  6
CONTINUOUS
 62
               4
  5
140
 10
-36.287460834279045
 20
-293.99627986184748
 30
0.0
 11
64.017688353511403
 21
-193.69113067405692
 31
0.0
  0
LINE
  8
0
  6
CONTINUOUS
 62
               4
  5
141
 10
34.423217266306892
 20
-293.99627986184748
 30
0.0
 11
53.004059188183533
 21
-275.4154379399709
 31
0.0
  0
ENDBLK
  8
0
  5
142
  0
BLOCK
  8
0
  5
143
  2
GROUP_2
 70
               0
 10
0.0
 20
0.0
 30
0.0
  3
GROUP_2
  0
LINE
  8
0
  6
CONTINUOUS
 62
               4
  5
144
 10
-565.6074176470089
 20
-181.89488047340552
 30
0.0
 11
-443.71253717360287
 21
-59.999999999999488
 31
0.0
  0
LINE
  8
0
  6
CONTINUOUS
 62
               4
  5
145
 10
-573.5
 20
-119.07678472581068
 30
0.0
 11
-514.42321527418881
 21
-59.999999999999488
 31
0.0
  0
LINE
  8
0
  6
CONTINUOUS
 62
               4
  5
146
 10
-536.28746083427905
 20
-293.99627986184754
 30
0.0
 11
-435.98231164648854
 21
-193.69113067405698
 31
0.0
  0
LINE
  8
0
  6
CONTINUOUS
 62
               4
  5
147
 10
-465.57678273369316
 20
-293.99627986184754
 30
0.0
 11
-446.99594081181652
 21
-275.41543793997096
 31
0.0
  0
ENDBLK
  8
0
  5
148
  0
BLOCK
  8
0
  5
149
  2
GROUP_3
 70
               0
 10
0.0
 20
0.0
 30
0.0
  3
GROUP_3
  0
LINE
  8
0
  6
CONTINUOUS
 62
               3
  5
14A
 10
-426.50000000000011
 20
58.679617631586389
 30
0.0
 11
-426.5
 21
-123.32964138146684
 31
0.0
  0
LINE
  8
0
  6
CONTINUOUS
 62
               3
  5
14B
 10
-573.49999999999989
 20
58.679617631586382
 30
0.0
 11
-573.5
 21
-123.32964138146707
 31
0.0
  0
ENDBLK
  8
0
  5
14C
  0
BLOCK
  8
0
  5
14D
  2
GROUP_4
 70
               0
 10
0.0
 20
0.0
 30
0.0
  3
GROUP_4
  0
LINE
  8
0
  6
CONTINUOUS
 62
               4
  5
14E
 10
434.45900513005665
 20
-181.89488047340546
 30
0.0
 11
556.35388560346269
 21
-59.999999999999432
 31
0.0
  0
LINE
  8
0
  6
CONTINUOUS
 62
               4
  5
14F
 10
426.56642277706555
 20
-119.07678472581063
 30
0.0
 11
485.64320750287675
 21
-59.999999999999432
 31
0.0
  0
LINE
  8
0
  6
CONTINUOUS
 62
               4
  5
150
 10
463.77896194278651
 20
-293.99627986184748
 30
0.0
 11
564.08411113057696
 21
-193.69113067405692
 31
0.0
  0
LINE
  8
0
  6
CONTINUOUS
 62
               4
  5
151
 10
534.48964004337245
 20
-293.99627986184748
 30
0.0
 11
553.07048196524897
 21
-275.4154379399709
 31
0.0
  0
ENDBLK
  8
0
  5
152
  0
BLOCK
  8
0
  5
153
  2
GROUP_5
 70
               0
 10
0.0
 20
0.0
 30
0.0
  3
GROUP_5
  0
LINE
  8
0
  6
CONTINUOUS
 62
               3
  5
154
 10
573.56642277706544
 20
58.679617631586446
 30
0.0
 11
573.56642277706555
 21
-123.32964138146679
 31
0.0
  0
LINE
  8
0
  6
CONTINUOUS
 62
               3
  5
155
 10
426.56642277706567
 20
58.679617631586439
 30
0.0
 11
426.56642277706555
 21
-123.32964138146701
 31
0.0
  0
ENDBLK
  8
0
  5
156
  0
BLOCK
  8
0
  5
157
  2
GROUP_6
 70
               0
 10
0.0
 20
0.0
 30
0.0
  3
GROUP_6
  0
LINE
  8
0
  6
CONTINUOUS
 62
               3
  5
158
 10
73.499999999999886
 20
58.679617631586446
 30
0.0
 11
73.5
 21
-123.32964138146679
 31
0.0
  0
ENDBLK
  8
0
  5
159
  0
BLOCK
  8
0
  5
15A
  2
GROUP_7
 70
               0
 10
0.0
 20
0.0
 30
0.0
  3
GROUP_7
  0
LINE
  8
0
  6
CONTINUOUS
 62
               3
  5
15B
 10
73.499999999999886
 20
58.679617631586446
 30
0.0
 11
73.5
 21
-123.32964138146679
 31
0.0
  0
LINE
  8
0
  6
CONTINUOUS
 62
               3
  5
15C
 10
-73.5
 20
-75.078038612390515
 30
0.0
 11
-73.5
 21
-123.32964138146701
 31
0.0
  0
ENDBLK
  8
0
  5
15D
  0
ENDSEC
  0
SECTION
  2
ENTITIES
  0
LINE
  8
0
  6
DASHDOT
 62
               4
  5
15E
 10
500.0
 20
199.92742304476107
 30
0.0
 11
500.00000000000006
 21
-729.37207207207155
 31
0.0
  0
LINE
  8
0
  6
DASHDOT
 62
               4
  5
15F
 10
-500.0
 20
199.92742304476096
 30
0.0
 11
-499.99999999999994
 21
-729.37207207207166
 31
0.0
  0
LINE
  8
0
  6
DASHDOT
 62
               4
  5
160
 10
-0.0000000000017621
 20
399.99999999999716
 30
0.0
 11
-0.0000000000009389
 21
616.99999999999739
 31
0.0
  0
LINE
  8
0
  6
DASHDOT
 62
               4
  5
161
 10
-160.50000000000176
 20
508.49999999999898
 30
0.0
 11
108.49999999999844
 21
508.49999999999898
 31
0.0
  0
LINE
  8
0
  6
DASHDOT
 62
               4
  5
162
 10
0.0
 20
199.92742304476104
 30
0.0
 11
0.0000000000001137
 21
-729.37207207207166
 31
0.0
  0
LINE
  8
0
  6
DASHDOT
 62
               4
  5
163
 10
-115.0000000000004
 20
-339.00989800199477
 30
0.0
 11
-115.0000000000004
 21
-503.38825962148519
 31
0.0
  0
LINE
  8
0
  6
DASHDOT
 62
               4
  5
164
 10
115.00000000000017
 20
-339.00989800199454
 30
0.0
 11
115.00000000000017
 21
-503.38825962148508
 31
0.0
  0
LINE
  8
0
  6
DASHDOT
 62
               4
  5
165
 10
-563.27012211134445
 20
-1.9655178667827613
 30
0.0
 11
-437.14492820749547
 21
-1.9655178667827613
 31
0.0
  0
LINE
  8
0
  6
DASHDOT
 62
               4
  5
166
 10
-76.999999999999773
 20
-3.4999999999993379
 30
0.0
 11
-157.49999999999989
 21
-3.4999999999995324
 31
0.0
  0
LINE
  8
0
  6
CONTINUOUS
 62
               4
  5
167
 10
-45.5
 20
-293.99627986184748
 30
0.0
 11
-65.0
 21
-122.84697640288221
 31
0.0
  0
LINE
  8
0
  6
CONTINUOUS
 62
               4
  5
168
 10
-65.0
 20
-71.557223332218882
 30
0.0
 11
-65.0
 21
-122.84697640288221
 31
0.0
  0
ARC
  8
0
  6
CONTINUOUS
 62
               4
  5
169
 10
-55.0
 20
-57.499999999999545
 30
0.0
 40
2.4999999999999996
 50
89.999999999999801
 51
269.99999999999937
  0
ARC
  8
0
  6
CONTINUOUS
 62
               4
  5
16A
 10
65.0
 20
-57.499999999999545
 30
0.0
 40
2.4999999999999996
 50
269.99999999999937
 51
449.99999999999898
  0
LINE
  8
0
  6
CONTINUOUS
 62
               4
  5
16B
 10
66.999999999999886
 20
-122.96054463313749
 30
0.0
 11
47.771775600348633
 21
-291.72450426149908
 31
0.0
  0
LINE
  8
0
  6
CONTINUOUS
 62
               4
  5
16C
 10
64.499999999999886
 20
-59.999999999999545
 30
0.0
 11
64.499999999999886
 21
-122.81858434531796
 31
0.0
  0
LINE
  8
0
  6
CONTINUOUS
 62
               4
  5
16D
 10
64.499999999999886
 20
-122.81858434531796
 30
0.0
 11
44.996765133650342
 21
-293.99627986184748
 31
0.0
  0
LINE
  8
0
  6
CONTINUOUS
 62
               4
  5
16E
 10
64.496765133649774
 20
-122.84697640288221
 30
0.0
 11
66.999999999999886
 21
-122.96054463313749
 31
0.0
  0
LINE
  8
0
  6
CONTINUOUS
 62
               4
  5
16F
 10
66.750000000000114
 20
-122.94634860435542
 30
0.0
 11
47.494274553678565
 21
-291.95168182153412
 31
0.0
  0
LINE
  8
0
  6
CONTINUOUS
 62
               4
  5
170
 10
66.999999999999886
 20
-4.7951433957927065
 30
0.0
 11
66.999999999999886
 21
-55.999999999999432
 31
0.0
  0
LINE
  8
0
  6
CONTINUOUS
 62
               4
  5
171
 10
-65.0
 20
-122.84697640288221
 30
0.0
 11
64.496765133649774
 21
-122.84697640288221
 31
0.0
  0
LINE
  8
0
  6
CONTINUOUS
 62
               4
  5
172
 10
-55.0
 20
-54.999999999999545
 30
0.0
 11
65.0
 21
-54.999999999999545
 31
0.0
  0
LINE
  8
0
  6
CONTINUOUS
 62
               4
  5
173
 10
-126.99999999999977
 20
-54.078443874034974
 30
0.0
 11
-80.690152323672919
 21
-55.695619389937974
 31
0.0
  0
ARC
  8
0
  6
CONTINUOUS
 62
               4
  5
174
 10
-80.86464980718597
 20
-60.69257352503314
 30
0.0
 40
4.9999999999999991
 50
44.999999999998977
 51
87.99999999999882
  0
ARC
  8
0
  6
CONTINUOUS
 62
               4
  5
175
 10
-70.0
 20
-71.557223332218882
 30
0.0
 40
4.9999999999999991
 50
0.0
 51
44.999999999999901
  0
LINE
  8
0
  6
CONTINUOUS
 62
               4
  5
176
 10
45.499999999999886
 20
-293.99627986184748
 30
0.0
 11
47.771775600348633
 21
-291.72450426149908
 31
0.0
  0
LINE
  8
0
  6
CONTINUOUS
 62
               4
  5
177
 10
44.996765133650229
 20
-293.99627986184805
 30
0.0
 11
47.771775600348633
 21
-291.72450426149908
 31
0.0
  0
LINE
  8
0
  6
CONTINUOUS
 62
               4
  5
178
 10
-74.499999999999773
 20
145.0873019237298
 30
0.0
 11
-74.499999999999773
 21
140.0873019237298
 31
0.0
  0
LINE
  8
0
  6
CONTINUOUS
 62
               4
  5
179
 10
-74.499999999999773
 20
145.0873019237298
 30
0.0
 11
-60.999999999999773
 21
155.00000000000045
 31
0.0
  0
LINE
  8
0
  6
CONTINUOUS
 62
               4
  5
17A
 10
-74.499999999999773
 20
140.0873019237298
 30
0.0
 11
-63.825502516487177
 21
139.71454025766775
 31
0.0
  0
ARC
  8
0
  6
CONTINUOUS
 62
               4
  5
17B
 10
-63.999999999999773
 20
134.71758612257236
 30
0.0
 40
5.0
 50
0.0
 51
87.999999999999417
  0
LINE
  8
0
  6
CONTINUOUS
 62
               4
  5
17C
 10
74.5
 20
145.0873019237298
 30
0.0
 11
74.5
 21
140.0873019237298
 31
0.0
  0
LINE
  8
0
  6
CONTINUOUS
 62
               4
  5
17D
 10
74.5
 20
145.0873019237298
 30
0.0
 11
61.000000000000114
 21
155.00000000000045
 31
0.0
  0
LINE
  8
0
  6
CONTINUOUS
 62
               4
  5
17E
 10
74.5
 20
140.0873019237298
 30
0.0
 11
63.825502516487518
 21
139.71454025766775
 31
0.0
  0
ARC
  8
0
  6
CONTINUOUS
 62
               4
  5
17F
 10
64.000000000000114
 20
134.71758612257236
 30
0.0
 40
5.0
 50
92.000000000000213
 51
179.99999999999963
  0
LINE
  8
0
  6
CONTINUOUS
 62
               4
  5
180
 10
-60.999999999999773
 20
155.00000000000045
 30
0.0
 11
61.000000000000114
 21
155.00000000000045
 31
0.0
  0
LINE
  8
0
  6
CONTINUOUS
 62
               4
  5
181
 10
-60.511976087981566
 20
138.3000000000003
 30
0.0
 11
60.511976087981907
 21
138.3000000000003
 31
0.0
  0
LINE
  8
0
  6
CONTINUOUS
 62
               4
  5
182
 10
-19.999999999999886
 20
138.3000000000003
 30
0.0
 11
-19.999999999999886
 21
155.00000000000045
 31
0.0
  0
LINE
  8
0
  6
CONTINUOUS
 62
               4
  5
183
 10
20.000000000000114
 20
155.00000000000045
 30
0.0
 11
20.000000000000114
 21
138.3000000000003
 31
0.0
  0
LINE
  8
0
  6
CONTINUOUS
 62
               4
  5
184
 10
-19.999999999999886
 20
145.0873019237298
 30
0.0
 11
20.000000000000114
 21
145.0873019237298
 31
0.0
  0
LINE
  8
0
  6
CONTINUOUS
 62
               4
  5
185
 10
20.000000000000114
 20
140.0873019237298
 30
0.0
 11
-19.999999999999886
 21
140.0873019237298
 31
0.0
  0
LINE
  8
0
  6
CONTINUOUS
 62
               4
  5
186
 10
-60.999999999999773
 20
155.00000000000045
 30
0.0
 11
-60.999999999999773
 21
138.71758612257224
 31
0.0
  0
LINE
  8
0
  6
CONTINUOUS
 62
               4
  5
187
 10
61.000000000000114
 20
155.00000000000045
 30
0.0
 11
61.000000000000114
 21
138.71758612257224
 31
0.0
  0
LINE
  8
0
  6
CONTINUOUS
 62
               4
  5
188
 10
-58.999999999999773
 20
134.71758612257236
 30
0.0
 11
-58.999999999999773
 21
73.170994377776083
 31
0.0
  0
LINE
  8
0
  6
CONTINUOUS
 62
               4
  5
189
 10
65.0
 20
-2.3681725410798435
 30
0.0
 11
64.999999999999886
 21
56.679617631586666
 31
0.0
  0
LINE
  8
0
  6
CONTINUOUS
 62
               4
  5
18A
 10
-74.486155520354032
 20
-59.999999999999432
 30
0.0
 11
73.5
 21
-59.999999999999432
 31
0.0
  0
LINE
  8
0
  6
CONTINUOUS
 62
               4
  5
18B
 10
-50.500000000000227
 20
-293.99627986184748
 30
0.0
 11
50.5
 21
-293.99627986184748
 31
0.0
  0
LINE
  8
0
  6
CONTINUOUS
 62
               4
  5
18C
 10
-74.486155520354032
 20
-59.999999999999432
 30
0.0
 11
-66.464466094067802
 21
-68.021689426285889
 31
0.0
  0
LINE
  8
0
  6
CONTINUOUS
 62
               4
  5
18D
 10
-77.329115901252635
 20
-57.157039619100829
 30
0.0
 11
-74.486155520354032
 21
-59.999999999999432
 31
0.0
  0
LINE
  8
0
  6
CONTINUOUS
 62
               4
  5
18E
 10
66.999999999999886
 20
-59.999999999999432
 30
0.0
 11
66.999999999999886
 21
-58.999999999999318
 31
0.0
  0
LINE
  8
0
  6
CONTINUOUS
 62
               4
  5
18F
 10
66.999999999999886
 20
-59.999999999999432
 30
0.0
 11
66.999999999999886
 21
-122.96054463313749
 31
0.0
  0
LINE
  8
0
  6
CONTINUOUS
 62
               4
  5
190
 10
66.750000000000114
 20
-59.999999999999432
 30
0.0
 11
66.750000000000114
 21
-122.94634860435542
 31
0.0
  0
LINE
  8
0
  6
CONTINUOUS
 62
               4
  5
191
 10
73.5
 20
-113.49814092698234
 30
0.0
 11
-57.209762743331567
 21
-244.20790367031412
 31
0.0
  0
LINE
  8
0
  6
CONTINUOUS
 62
               4
  5
192
 10
-45.500000000000455
 20
-358.90624095768396
 30
0.0
 11
-45.5
 21
-293.9962798618476
 31
0.0
  0
LINE
  8
0
  6
CONTINUOUS
 62
               4
  5
193
 10
45.500000000000455
 20
-358.90624095768396
 30
0.0
 11
45.499999999999886
 21
-293.9962798618476
 31
0.0
  0
LINE
  8
0
  6
CONTINUOUS
 62
               4
  5
194
 10
-550.50000000000023
 20
-293.99627986184754
 30
0.0
 11
-449.5
 21
-293.99627986184754
 31
0.0
  0
LINE
  8
0
  6
CONTINUOUS
 62
               4
  5
195
 10
-545.50000000000057
 20
-358.90624095768402
 30
0.0
 11
-545.5
 21
-293.99627986184765
 31
0.0
  0
LINE
  8
0
  6
CONTINUOUS
 62
               4
  5
196
 10
-454.4999999999996
 20
-358.90624095768402
 30
0.0
 11
-454.50000000000006
 21
-293.99627986184765
 31
0.0
  0
LINE
  8
0
  6
CONTINUOUS
 62
               4
  5
197
 10
-545.5
 20
-293.99627986184754
 30
0.0
 11
-565.0
 21
-122.84697640288226
 31
0.0
  0
LINE
  8
0
  6
CONTINUOUS
 62
               4
  5
198
 10
-565.0
 20
-59.999999999999488
 30
0.0
 11
-565.0
 21
-122.84697640288226
 31
0.0
  0
ARC
  8
0
  6
CONTINUOUS
 62
               4
  5
199
 10
-435.0
 20
-57.499999999999602
 30
0.0
 40
2.4999999999999996
 50
269.99999999999937
 51
449.99999999999898
  0
LINE
  8
0
  6
CONTINUOUS
 62
               4
  5
19A
 10
-435.50323486635023
 20
-122.84697640288226
 30
0.0
 11
-433.00000000000011
 21
-122.96054463313754
 31
0.0
  0
LINE
  8
0
  6
CONTINUOUS
 62
               4
  5
19B
 10
-565.0
 20
-122.84697640288226
 30
0.0
 11
-435.50323486635023
 21
-122.84697640288226
 31
0.0
  0
LINE
  8
0
  6
CONTINUOUS
 62
               4
  5
19C
 10
-565.0
 20
58.679617631586382
 30
0.0
 11
-565.0
 21
-54.999999999999616
 31
0.0
  0
LINE
  8
0
  6
CONTINUOUS
 62
               4
  5
19D
 10
-574.49999999999977
 20
145.08730192372974
 30
0.0
 11
-574.49999999999977
 21
140.08730192372974
 31
0.0
  0
LINE
  8
0
  6
CONTINUOUS
 62
               4
  5
19E
 10
-574.49999999999977
 20
145.08730192372974
 30
0.0
 11
-560.99999999999977
 21
155.0000000000004
 31
0.0
  0
LINE
  8
0
  6
CONTINUOUS
 62
               4
  5
19F
 10
-574.49999999999977
 20
140.08730192372974
 30
0.0
 11
-563.82550251648729
 21
139.71454025766769
 31
0.0
  0
ARC
  8
0
  6
CONTINUOUS
 62
               4
  5
1A0
 10
-563.99999999999977
 20
134.7175861225723
 30
0.0
 40
5.0
 50
0.0
 51
87.999999999999417
  0
LINE
  8
0
  6
CONTINUOUS
 62
               4
  5
1A1
 10
-425.49999999999994
 20
145.08730192372974
 30
0.0
 11
-425.49999999999994
 21
140.08730192372974
 31
0.0
  0
LINE
  8
0
  6
CONTINUOUS
 62
               4
  5
1A2
 10
-425.49999999999994
 20
145.08730192372974
 30
0.0
 11
-438.99999999999989
 21
155.0000000000004
 31
0.0
  0
LINE
  8
0
  6
CONTINUOUS
 62
               4
  5
1A3
 10
-425.49999999999994
 20
140.08730192372974
 30
0.0
 11
-436.17449748351248
 21
139.71454025766769
 31
0.0
  0
ARC
  8
0
  6
CONTINUOUS
 62
               4
  5
1A4
 10
-435.99999999999994
 20
134.7175861225723
 30
0.0
 40
5.0
 50
92.000000000000213
 51
179.99999999999963
  0
LINE
  8
0
  6
CONTINUOUS
 62
               4
  5
1A5
 10
-560.99999999999977
 20
155.0000000000004
 30
0.0
 11
-438.99999999999989
 21
155.0000000000004
 31
0.0
  0
LINE
  8
0
  6
CONTINUOUS
 62
               4
  5
1A6
 10
-560.51197608798168
 20
138.30000000000024
 30
0.0
 11
-439.48802391201809
 21
138.30000000000024
 31
0.0
  0
LINE
  8
0
  6
CONTINUOUS
 62
               4
  5
1A7
 10
-519.99999999999989
 20
138.30000000000024
 30
0.0
 11
-519.99999999999989
 21
155.0000000000004
 31
0.0
  0
LINE
  8
0
  6
CONTINUOUS
 62
               4
  5
1A8
 10
-479.99999999999983
 20
155.0000000000004
 30
0.0
 11
-479.99999999999983
 21
138.30000000000024
 31
0.0
  0
LINE
  8
0
  6
CONTINUOUS
 62
               4
  5
1A9
 10
-519.99999999999989
 20
145.08730192372974
 30
0.0
 11
-479.99999999999983
 21
145.08730192372974
 31
0.0
  0
LINE
  8
0
  6
CONTINUOUS
 62
               4
  5
1AA
 10
-479.99999999999983
 20
140.08730192372974
 30
0.0
 11
-519.99999999999989
 21
140.08730192372974
 31
0.0
  0
LINE
  8
0
  6
CONTINUOUS
 62
               4
  5
1AB
 10
-560.99999999999977
 20
155.0000000000004
 30
0.0
 11
-560.99999999999977
 21
138.71758612257219
 31
0.0
  0
LINE
  8
0
  6
CONTINUOUS
 62
               4
  5
1AC
 10
-438.99999999999989
 20
155.0000000000004
 30
0.0
 11
-438.99999999999989
 21
138.71758612257219
 31
0.0
  0
LINE
  8
0
  6
CONTINUOUS
 62
               4
  5
1AD
 10
-558.99999999999977
 20
134.7175861225723
 30
0.0
 11
-558.99999999999977
 21
73.170994377776026
 31
0.0
  0
ARC
  8
0
  6
CONTINUOUS
 62
               4
  5
1AE
 10
-563.99999999999977
 20
73.170994377776026
 30
0.0
 40
5.0
 50
315.01704217218719
 51
359.9999999999992
  0
ARC
  8
0
  6
CONTINUOUS
 62
               4
  5
1AF
 10
-549.49999999999989
 20
58.679617631586382
 30
0.0
 40
15.5
 50
135.01704217218645
 51
179.9999999999996
  0
LINE
  8
0
  6
CONTINUOUS
 62
               4
  5
1B0
 10
-440.99999999999989
 20
134.7175861225723
 30
0.0
 11
-440.99999999999989
 21
71.170994377776026
 31
0.0
  0
LINE
  8
0
  6
CONTINUOUS
 62
               4
  5
1B1
 10
-573.5
 20
-59.999999999999488
 30
0.0
 11
-426.5
 21
-59.999999999999488
 31
0.0
  0
LINE
  8
0
  6
CONTINUOUS
 62
               4
  5
1B2
 10
-426.5
 20
-113.4981409269824
 30
0.0
 11
-557.20976274333157
 21
-244.20790367031418
 31
0.0
  0
ARC
  8
0
  6
CONTINUOUS
 62
               4
  5
1B3
 10
-565.0
 20
-57.499999999999616
 30
0.0
 40
2.4999999999999996
 50
89.999999999999815
 51
269.99999999999937
  0
LINE
  8
0
  6
CONTINUOUS
 62
               4
  5
1B4
 10
-435.0
 20
58.679617631586389
 30
0.0
 11
-435.0
 21
-54.999999999999602
 31
0.0
  0
ARC
  8
0
  6
CONTINUOUS
 62
               4
  5
1B5
 10
-436.00000000000023
 20
73.170994377776026
 30
0.0
 40
5.0
 50
179.9999999999996
 51
224.98295782781162
  0
ARC
  8
0
  6
CONTINUOUS
 62
               4
  5
1B6
 10
-450.50000000000011
 20
58.679617631586382
 30
0.0
 40
15.5
 50
0.0000000000000078
 51
44.982957827813145
  0
LINE
  8
0
  6
CONTINUOUS
 62
               4
  5
1B7
 10
-454.5
 20
-293.99627986184754
 30
0.0
 11
-435.0
 21
-122.84697640288225
 31
0.0
  0
LINE
  8
0
  6
CONTINUOUS
 62
               4
  5
1B8
 10
-435.0
 20
-59.999999999999474
 30
0.0
 11
-435.0
 21
-122.84697640288225
 31
0.0
  0
ARC
  8
0
  6
CONTINUOUS
 62
               4
  5
1B9
 10
-522.49999999999943
 20
-57.499999999999602
 30
0.0
 40
2.4999999999999996
 50
269.99999999999937
 51
449.99999999999898
  0
ARC
  8
0
  6
CONTINUOUS
 62
               4
  5
1BA
 10
-477.49999999999943
 20
-57.499999999999602
 30
0.0
 40
2.4999999999999996
 50
89.999999999999801
 51
269.99999999999937
  0
LINE
  8
0
  6
CONTINUOUS
 62
               4
  5
1BB
 10
-565.0
 20
-54.999999999999616
 30
0.0
 11
-522.49999999999943
 21
-54.999999999999609
 31
0.0
  0
LINE
  8
0
  6
CONTINUOUS
 62
               4
  5
1BC
 10
-477.49999999999943
 20
-54.999999999999602
 30
0.0
 11
-435.0
 21
-54.999999999999602
 31
0.0
  0
LINE
  8
0
  6
CONTINUOUS
 62
               4
  5
1BD
 10
449.56642277706533
 20
-293.99627986184748
 30
0.0
 11
550.56642277706555
 21
-293.99627986184748
 31
0.0
  0
LINE
  8
0
  6
CONTINUOUS
 62
               4
  5
1BE
 10
454.56642277706555
 20
-293.99627986184748
 30
0.0
 11
435.06642277706555
 21
-122.84697640288221
 31
0.0
  0
LINE
  8
0
  6
CONTINUOUS
 62
               4
  5
1BF
 10
435.06642277706555
 20
-59.999999999999432
 30
0.0
 11
435.06642277706555
 21
-122.84697640288221
 31
0.0
  0
ARC
  8
0
  6
CONTINUOUS
 62
               4
  5
1C0
 10
565.06642277706555
 20
-57.499999999999545
 30
0.0
 40
2.4999999999999996
 50
269.99999999999937
 51
449.99999999999898
  0
LINE
  8
0
  6
CONTINUOUS
 62
               4
  5
1C1
 10
564.56318791071533
 20
-122.84697640288221
 30
0.0
 11
567.06642277706544
 21
-122.96054463313749
 31
0.0
  0
LINE
  8
0
  6
CONTINUOUS
 62
               4
  5
1C2
 10
435.06642277706555
 20
-122.84697640288221
 30
0.0
 11
564.56318791071533
 21
-122.84697640288221
 31
0.0
  0
LINE
  8
0
  6
CONTINUOUS
 62
               4
  5
1C3
 10
435.06642277706555
 20
58.679617631586439
 30
0.0
 11
435.06642277706555
 21
-54.999999999999559
 31
0.0
  0
LINE
  8
0
  6
CONTINUOUS
 62
               4
  5
1C4
 10
425.56642277706578
 20
145.0873019237298
 30
0.0
 11
425.56642277706578
 21
140.0873019237298
 31
0.0
  0
LINE
  8
0
  6
CONTINUOUS
 62
               4
  5
1C5
 10
425.56642277706578
 20
145.0873019237298
 30
0.0
 11
439.06642277706578
 21
155.00000000000045
 31
0.0
  0
LINE
  8
0
  6
CONTINUOUS
 62
               4
  5
1C6
 10
425.56642277706578
 20
140.0873019237298
 30
0.0
 11
436.24092026057826
 21
139.71454025766775
 31
0.0
  0
ARC
  8
0
  6
CONTINUOUS
 62
               4
  5
1C7
 10
436.06642277706578
 20
134.71758612257236
 30
0.0
 40
5.0
 50
0.0
 51
87.999999999999417
  0
LINE
  8
0
  6
CONTINUOUS
 62
               4
  5
1C8
 10
574.56642277706555
 20
145.0873019237298
 30
0.0
 11
574.56642277706555
 21
140.0873019237298
 31
0.0
  0
LINE
  8
0
  6
CONTINUOUS
 62
               4
  5
1C9
 10
574.56642277706555
 20
145.0873019237298
 30
0.0
 11
561.06642277706567
 21
155.00000000000045
 31
0.0
  0
LINE
  8
0
  6
CONTINUOUS
 62
               4
  5
1CA
 10
574.56642277706555
 20
140.0873019237298
 30
0.0
 11
563.89192529355307
 21
139.71454025766775
 31
0.0
  0
ARC
  8
0
  6
CONTINUOUS
 62
               4
  5
1CB
 10
564.06642277706555
 20
134.71758612257236
 30
0.0
 40
5.0
 50
92.000000000000213
 51
179.99999999999963
  0
LINE
  8
0
  6
CONTINUOUS
 62
               4
  5
1CC
 10
439.06642277706578
 20
155.00000000000045
 30
0.0
 11
561.06642277706567
 21
155.00000000000045
 31
0.0
  0
LINE
  8
0
  6
CONTINUOUS
 62
               4
  5
1CD
 10
439.55444668908387
 20
138.3000000000003
 30
0.0
 11
560.57839886504746
 21
138.3000000000003
 31
0.0
  0
LINE
  8
0
  6
CONTINUOUS
 62
               4
  5
1CE
 10
480.06642277706567
 20
138.3000000000003
 30
0.0
 11
480.06642277706567
 21
155.00000000000045
 31
0.0
  0
LINE
  8
0
  6
CONTINUOUS
 62
               4
  5
1CF
 10
520.06642277706578
 20
155.00000000000045
 30
0.0
 11
520.06642277706578
 21
138.3000000000003
 31
0.0
  0
LINE
  8
0
  6
CONTINUOUS
 62
               4
  5
1D0
 10
480.06642277706567
 20
145.0873019237298
 30
0.0
 11
520.06642277706578
 21
145.0873019237298
 31
0.0
  0
LINE
  8
0
  6
CONTINUOUS
 62
               4
  5
1D1
 10
520.06642277706578
 20
140.0873019237298
 30
0.0
 11
480.06642277706567
 21
140.0873019237298
 31
0.0
  0
LINE
  8
0
  6
CONTINUOUS
 62
               4
  5
1D2
 10
439.06642277706578
 20
155.00000000000045
 30
0.0
 11
439.06642277706578
 21
138.71758612257224
 31
0.0
  0
LINE
  8
0
  6
CONTINUOUS
 62
               4
  5
1D3
 10
561.06642277706567
 20
155.00000000000045
 30
0.0
 11
561.06642277706567
 21
138.71758612257224
 31
0.0
  0
LINE
  8
0
  6
CONTINUOUS
 62
               4
  5
1D4
 10
441.06642277706578
 20
134.71758612257236
 30
0.0
 11
441.06642277706578
 21
73.170994377776083
 31
0.0
  0
ARC
  8
0
  6
CONTINUOUS
 62
               4
  5
1D5
 10
436.06642277706578
 20
73.170994377776083
 30
0.0
 40
5.0
 50
315.01704217218719
 51
359.9999999999992
  0
ARC
  8
0
  6
CONTINUOUS
 62
               4
  5
1D6
 10
450.56642277706567
 20
58.679617631586439
 30
0.0
 40
15.5
 50
135.01704217218645
 51
179.9999999999996
  0
LINE
  8
0
  6
CONTINUOUS
 62
               4
  5
1D7
 10
559.06642277706567
 20
134.71758612257236
 30
0.0
 11
559.06642277706567
 21
71.170994377776083
 31
0.0
  0
LINE
  8
0
  6
CONTINUOUS
 62
               4
  5
1D8
 10
426.56642277706555
 20
-59.999999999999432
 30
0.0
 11
573.56642277706555
 21
-59.999999999999432
 31
0.0
  0
LINE
  8
0
  6
CONTINUOUS
 62
               4
  5
1D9
 10
573.56642277706555
 20
-113.49814092698234
 30
0.0
 11
442.85666003373399
 21
-244.20790367031412
 31
0.0
  0
ARC
  8
0
  6
CONTINUOUS
 62
               4
  5
1DA
 10
435.06642277706555
 20
-57.499999999999559
 30
0.0
 40
2.4999999999999996
 50
89.999999999999815
 51
269.99999999999937
  0
LINE
  8
0
  6
CONTINUOUS
 62
               4
  5
1DB
 10
565.06642277706555
 20
58.679617631586446
 30
0.0
 11
565.06642277706555
 21
-54.999999999999545
 31
0.0
  0
ARC
  8
0
  6
CONTINUOUS
 62
               4
  5
1DC
 10
564.06642277706533
 20
73.170994377776083
 30
0.0
 40
5.0
 50
179.9999999999996
 51
224.98295782781162
  0
ARC
  8
0
  6
CONTINUOUS
 62
               4
  5
1DD
 10
549.56642277706544
 20
58.679617631586439
 30
0.0
 40
15.5
 50
0.0000000000000078
 51
44.982957827813145
  0
LINE
  8
0
  6
CONTINUOUS
 62
               4
  5
1DE
 10
545.56642277706555
 20
-293.99627986184748
 30
0.0
 11
565.06642277706555
 21
-122.84697640288219
 31
0.0
  0
LINE
  8
0
  6
CONTINUOUS
 62
               4
  5
1DF
 10
565.06642277706555
 20
-59.999999999999417
 30
0.0
 11
565.06642277706555
 21
-122.84697640288219
 31
0.0
  0
LINE
  8
0
  6
CONTINUOUS
 62
               4
  5
1E0
 10
454.56642277706499
 20
-358.90624095768396
 30
0.0
 11
454.56642277706555
 21
-293.9962798618476
 31
0.0
  0
LINE
  8
0
  6
CONTINUOUS
 62
               4
  5
1E1
 10
545.56642277706601
 20
-358.90624095768396
 30
0.0
 11
545.56642277706555
 21
-293.9962798618476
 31
0.0
  0
LINE
  8
0
  6
CONTINUOUS
 62
               4
  5
1E2
 10
435.06642277706555
 20
-54.999999999999559
 30
0.0
 11
491.93835546658465
 21
-54.999999999999545
 31
0.0
  0
LINE
  8
0
  6
CONTINUOUS
 62
               4
  5
1E3
 10
508.2170000000001
 20
-54.999999999999545
 30
0.0
 11
565.06642277706555
 21
-54.999999999999538
 31
0.0
  0
LINE
  8
0
  6
CONTINUOUS
 62
               4
  5
1E4
 10
66.414213562373448
 20
67.585786437627348
 30
0.0
 11
59.585786437627007
 21
74.414213562373618
 31
0.0
  0
ARC
  8
0
  6
CONTINUOUS
 62
               4
  5
1E5
 10
65.000000000000227
 20
66.171572875254014
 30
0.0
 40
2.0
 50
0.0
 51
44.999999999999901
  0
ARC
  8
0
  6
CONTINUOUS
 62
               4
  5
1E6
 10
61.000000000000114
 20
75.828427124746781
 30
0.0
 40
2.0
 50
179.9999999999996
 51
224.99999999999949
  0
LINE
  8
0
  6
CONTINUOUS
 62
               4
  5
1E7
 10
65.0
 20
-54.999999999999659
 30
0.0
 11
65.000000000000227
 21
58.679617631586666
 31
0.0
  0
LINE
  8
0
  6
CONTINUOUS
 62
               4
  5
1E8
 10
67.000000000000227
 20
66.171572875254014
 30
0.0
 11
67.000000000000227
 21
-56.0
 31
0.0
  0
ARC
  8
0
  6
CONTINUOUS
 62
               4
  5
1E9
 10
64.000000000000114
 20
73.170994377776196
 30
0.0
 40
5.0
 50
179.99999999999963
 51
224.98295782781162
  0
ARC
  8
0
  6
CONTINUOUS
 62
               4
  5
1EA
 10
61.000000000000114
 20
75.828427124746781
 30
0.0
 40
2.0
 50
179.9999999999996
 51
224.99999999999949
  0
ARC
  8
0
  6
CONTINUOUS
 62
               4
  5
1EB
 10
49.500000000000227
 20
58.679617631586666
 30
0.0
 40
15.5
 50
0.0
 51
44.982957827813252
  0
LINE
  8
0
  6
CONTINUOUS
 62
               4
  5
1EC
 10
59.000000000000114
 20
134.71758612257236
 30
0.0
 11
59.000000000000114
 21
73.170994377776196
 31
0.0
  0
LINE
  8
0
  6
CONTINUOUS
 62
               4
  5
1ED
 10
505.99999999999955
 20
-56.085920151532889
 30
0.0
 11
493.99999999999966
 21
-56.085920151532889
 31
0.0
  0
ARC
  8
0
  6
CONTINUOUS
 62
               4
  5
1EE
 10
491.93835546658465
 20
-57.499999999999545
 30
0.0
 40
2.4999999999999996
 50
34.446185822144464
 51
89.999999999999801
  0
ARC
  8
0
  6
CONTINUOUS
 62
               4
  5
1EF
 10
508.06164453341512
 20
-57.499999999999545
 30
0.0
 40
2.4999999999999996
 50
89.999999999999801
 51
145.55381417785514
  0
LINE
  8
0
  6
CONTINUOUS
 62
               4
  5
1F0
 10
505.99999999999955
 20
-58.914079848465917
 30
0.0
 11
493.99999999999966
 21
-58.914079848465917
 31
0.0
  0
ARC
  8
0
  6
CONTINUOUS
 62
               4
  5
1F1
 10
491.93835546658465
 20
-57.499999999999545
 30
0.0
 40
2.4999999999999996
 50
269.99999999999937
 51
325.55381417785475
  0
ARC
  8
0
  6
CONTINUOUS
 62
               4
  5
1F2
 10
508.06164453341512
 20
-57.499999999999545
 30
0.0
 40
2.4999999999999996
 50
214.44618582214406
 51
269.99999999999937
  0
LINE
  8
0
  6
CONTINUOUS
 62
               4
  5
1F3
 10
491.78299999999979
 20
60.391412592650227
 30
0.0
 11
491.78299999999967
 21
-54.999999999999545
 31
0.0
  0
LINE
  8
0
  6
CONTINUOUS
 62
               4
  5
1F4
 10
508.21699999999964
 20
60.391412592650227
 30
0.0
 11
508.2170000000001
 21
-54.999999999999545
 31
0.0
  0
LINE
  8
0
  6
CONTINUOUS
 62
               4
  5
1F5
 10
505.99999999999955
 20
-55.914079848466088
 30
0.0
 11
505.99999999999966
 21
70.927066345502908
 31
0.0
  0
LINE
  8
0
  6
CONTINUOUS
 62
               4
  5
1F6
 10
493.99999999999966
 20
70.927066345502908
 30
0.0
 11
493.99999999999966
 21
-55.914079848466088
 31
0.0
  0
LINE
  8
0
  6
CONTINUOUS
 62
               4
  5
1F7
 10
508.21699999999953
 20
-59.999999999999545
 30
0.0
 11
508.06164453341512
 21
-59.999999999999545
 31
0.0
  0
LINE
  8
0
  6
CONTINUOUS
 62
               4
  5
1F8
 10
508.2170000000001
 20
-54.999999999999545
 30
0.0
 11
508.06164453341512
 21
-54.999999999999545
 31
0.0
  0
LINE
  8
0
  6
CONTINUOUS
 62
               4
  5
1F9
 10
491.78299999999967
 20
-54.999999999999545
 30
0.0
 11
491.93835546658465
 21
-54.999999999999545
 31
0.0
  0
LINE
  8
0
  6
CONTINUOUS
 62
               4
  5
1FA
 10
491.78299999999967
 20
-59.999999999999545
 30
0.0
 11
491.93835546658465
 21
-59.999999999999545
 31
0.0
  0
LINE
  8
0
  6
CONTINUOUS
 62
               4
  5
1FB
 10
491.78299999999967
 20
-59.999999999999545
 30
0.0
 11
491.78299999999967
 21
-293.99627986184748
 31
0.0
  0
LINE
  8
0
  6
CONTINUOUS
 62
               4
  5
1FC
 10
508.21699999999953
 20
-59.999999999999545
 30
0.0
 11
508.21699999999953
 21
-293.99627986184748
 31
0.0
  0
LINE
  8
0
  6
CONTINUOUS
 62
               4
  5
1FD
 10
493.99999999999966
 20
-58.914079848465917
 30
0.0
 11
493.99999999999966
 21
-291.72450426149851
 31
0.0
  0
LINE
  8
0
  6
CONTINUOUS
 62
               4
  5
1FE
 10
505.99999999999955
 20
-291.72450426149851
 30
0.0
 11
505.99999999999955
 21
-58.914079848465917
 31
0.0
  0
LINE
  8
0
  6
CONTINUOUS
 62
               4
  5
1FF
 10
508.21699999999953
 20
-122.84697640288226
 30
0.0
 11
491.78299999999967
 21
-122.84697640288226
 31
0.0
  0
LINE
  8
0
  6
CONTINUOUS
 62
               4
  5
200
 10
493.99999999999966
 20
-291.72450426149851
 30
0.0
 11
505.99999999999955
 21
-291.72450426149851
 31
0.0
  0
LINE
  8
0
  6
CONTINUOUS
 62
               4
  5
201
 10
491.78299999999967
 20
-293.99627986184748
 30
0.0
 11
493.99999999999966
 21
-291.72450426149851
 31
0.0
  0
LINE
  8
0
  6
CONTINUOUS
 62
               4
  5
202
 10
505.99999999999955
 20
-291.72450426149851
 30
0.0
 11
508.21699999999953
 21
-293.99627986184748
 31
0.0
  0
ARC
  8
0
  6
CONTINUOUS
 62
               4
  5
203
 10
474.21603418803386
 20
60.391412592650227
 30
0.0
 40
17.566965811965957
 50
0.0
 51
36.851448659230869
  0
LINE
  8
0
  6
CONTINUOUS
 62
               4
  5
204
 10
511.7270000000002
 20
75.927066345502908
 30
0.0
 11
488.2729999999998
 21
75.927066345502908
 31
0.0
  0
ARC
  8
0
  6
CONTINUOUS
 62
               4
  5
205
 10
525.78396581196557
 20
60.391412592650227
 30
0.0
 40
17.566965811965957
 50
143.14855134076873
 51
179.9999999999996
  0
LINE
  8
0
  6
CONTINUOUS
 62
               4
  5
206
 10
488.2729999999998
 20
70.927066345502908
 30
0.0
 11
488.2729999999998
 21
75.927066345502908
 31
0.0
  0
LINE
  8
0
  6
CONTINUOUS
 62
               4
  5
207
 10
511.7270000000002
 20
70.927066345502908
 30
0.0
 11
511.7270000000002
 21
75.927066345502908
 31
0.0
  0
LINE
  8
0
  6
CONTINUOUS
 62
               4
  5
208
 10
488.2729999999998
 20
75.927066345502908
 30
0.0
 11
493.99999999999977
 21
70.927066345502908
 31
0.0
  0
LINE
  8
0
  6
CONTINUOUS
 62
               4
  5
209
 10
505.99999999999966
 20
70.927066345502908
 30
0.0
 11
511.7270000000002
 21
75.927066345502908
 31
0.0
  0
LINE
  8
0
  6
CONTINUOUS
 62
               4
  5
20A
 10
493.99999999999966
 20
70.927066345502908
 30
0.0
 11
505.99999999999955
 21
70.927066345502908
 31
0.0
  0
LINE
  8
0
  6
CONTINUOUS
 62
               4
  5
20B
 10
-494.00553013329142
 20
72.46154847871972
 30
0.0
 11
-446.93161192007454
 21
72.46154847871972
 31
0.0
  0
LINE
  8
0
  6
CONTINUOUS
 62
               4
  5
20C
 10
-555.46341463414626
 20
72.46154847871972
 30
0.0
 11
-494.00553013329142
 21
72.46154847871972
 31
0.0
  0
LINE
  8
0
  6
CONTINUOUS
 62
               4
  5
20D
 10
446.00000000000011
 20
70.927066345502908
 30
0.0
 11
488.2729999999998
 21
70.927066345502908
 31
0.0
  0
LINE
  8
0
  6
CONTINUOUS
 62
               4
  5
20E
 10
511.7270000000002
 20
70.927066345502908
 30
0.0
 11
554.53180271407177
 21
70.927066345502908
 31
0.0
  0
LINE
  8
0
  6
CONTINUOUS
 62
               4
  5
20F
 10
7.4578845008549024
 20
70.927066345502908
 30
0.0
 11
54.531802714071773
 21
70.927066345502908
 31
0.0
  0
LINE
  8
0
  6
CONTINUOUS
 62
               4
  5
210
 10
-54.0
 20
70.927066345502908
 30
0.0
 11
7.4578845008549024
 21
70.927066345502908
 31
0.0
  0
LINE
  8
0
  6
CONTINUOUS
 62
               4
  5
211
 10
-20.00000000000199
 20
436.66513629745407
 30
0.0
 11
-20.00000000000199
 21
451.11569825140839
 31
0.0
  0
LINE
  8
0
  6
CONTINUOUS
 62
               4
  5
212
 10
19.99999999999801
 20
450.77984191421763
 30
0.0
 11
19.99999999999801
 21
436.66513629745407
 31
0.0
  0
ARC
  8
0
  6
CONTINUOUS
 62
               4
  5
213
 10
-0.0000000000019611
 20
510.37563449807897
 30
0.0
 40
76.375634498080188
 50
254.81932855955753
 51
285.18067144044119
  0
LINE
  8
0
  6
CONTINUOUS
 62
               4
  5
214
 10
71.834863702542805
 20
488.49999999999898
 30
0.0
 11
58.086368194000869
 21
488.49999999999898
 31
0.0
  0
LINE
  8
0
  6
CONTINUOUS
 62
               4
  5
215
 10
58.137462938720944
 20
528.49999999999898
 30
0.0
 11
71.834863702542805
 21
528.49999999999898
 31
0.0
  0
ARC
  8
0
  6
CONTINUOUS
 62
               4
  5
216
 10
-1.8756344980821495
 20
508.49999999999898
 30
0.0
 40
76.375634498080188
 50
344.81932855955733
 51
375.18067144044102
  0
LINE
  8
0
  6
CONTINUOUS
 62
               4
  5
217
 10
19.999999999998124
 20
580.33486370254388
 30
0.0
 11
19.999999999998124
 21
566.36738265044767
 31
0.0
  0
LINE
  8
0
  6
CONTINUOUS
 62
               4
  5
218
 10
-20.000000000001876
 20
566.0315263132569
 30
0.0
 11
-20.000000000001876
 21
580.33486370254388
 31
0.0
  0
ARC
  8
0
  6
CONTINUOUS
 62
               4
  5
219
 10
-0.0000000000019327
 20
506.62436550191876
 30
0.0
 40
76.375634498080188
 50
74.819328559557945
 51
105.18067144044161
  0
LINE
  8
0
  6
CONTINUOUS
 62
               4
  5
21A
 10
-71.834863702546784
 20
528.49999999999898
 30
0.0
 11
-57.169762724291843
 21
528.49999999999898
 31
0.0
  0
LINE
  8
0
  6
CONTINUOUS
 62
               4
  5
21B
 10
-57.11866797957174
 20
488.49999999999898
 30
0.0
 11
-71.834863702546784
 21
488.49999999999898
 31
0.0
  0
ARC
  8
0
  6
CONTINUOUS
 62
               4
  5
21C
 10
1.8756344980781989
 20
508.49999999999898
 30
0.0
 40
76.375634498080188
 50
164.81932855955776
 51
195.18067144044142
  0
ARC
  8
0
  6
CONTINUOUS
 62
               4
  5
21D
 10
-0.0000000000019327
 20
508.49999999999898
 30
0.0
 40
67.499999999999957
 50
287.23528525708718
 51
342.76471474291139
  0
ARC
  8
0
  6
CONTINUOUS
 62
               4
  5
21E
 10
-0.0000000000019895
 20
508.49999999999898
 30
0.0
 40
65.0
 50
287.92021313939165
 51
342.07978686060699
  0
ARC
  8
0
  6
CONTINUOUS
 62
               4
  5
21F
 10
-0.0000000000019327
 20
508.49999999999898
 30
0.0
 40
67.499999999999957
 50
232.90680694087561
 51
252.76471474291148
  0
ARC
  8
0
  6
CONTINUOUS
 62
               4
  5
220
 10
-0.0000000000019895
 20
508.49999999999898
 30
0.0
 40
65.0
 50
197.92021313939182
 51
252.07978686060716
  0
ARC
  8
0
  6
CONTINUOUS
 62
               4
  5
221
 10
-0.0000000000019327
 20
508.49999999999898
 30
0.0
 40
67.499999999999957
 50
17.235285257087856
 51
72.764714742911892
  0
ARC
  8
0
  6
CONTINUOUS
 62
               4
  5
222
 10
-0.0000000000019327
 20
508.49999999999898
 30
0.0
 40
67.499999999999957
 50
107.23528525708761
 51
127.0931930591224
  0
ARC
  8
0
  6
CONTINUOUS
 62
               4
  5
223
 10
-0.0000000000019895
 20
508.49999999999898
 30
0.0
 40
65.0
 50
17.920213139392249
 51
72.079786860607399
  0
ARC
  8
0
  6
CONTINUOUS
 62
               4
  5
224
 10
-0.0000000000019895
 20
508.49999999999898
 30
0.0
 40
65.0
 50
107.92021313939196
 51
162.07978686060736
  0
CIRCLE
  8
0
  6
CONTINUOUS
 62
               4
  5
225
 10
0.4838501072145505
 20
508.57361228233265
 30
0.0
 40
61.000000000000007
  0
CIRCLE
  8
0
  6
CONTINUOUS
 62
               4
  5
226
 10
-0.0000000000017621
 20
508.49999999999898
 30
0.0
 40
47.0
  0
CIRCLE
  8
0
  6
CONTINUOUS
 62
               4
  5
227
 10
-0.0000000000000568
 20
508.50000000000057
 30
0.0
 40
40.5
  0
LINE
  8
0
  6
CONTINUOUS
 62
               4
  5
228
 10
24.438462962568309
 20
525.80597194462791
 30
0.0
 11
-18.217086312156908
 21
544.67164312407533
 31
0.0
  0
ARC
  8
0
  6
CONTINUOUS
 62
               4
  5
229
 10
30.271587850717992
 20
538.9947497901336
 30
0.0
 40
14.421137507799237
 50
246.14118011765956
 51
295.69436237361231
  0
LINE
  8
0
  6
CONTINUOUS
 62
               4
  5
22A
 10
-544.50000000000068
 20
-359.90624095768396
 30
0.0
 11
-545.50000000000045
 21
-358.90624095768402
 31
0.0
  0
LINE
  8
0
  6
CONTINUOUS
 62
               4
  5
22B
 10
-455.49999999999955
 20
-359.90624095768396
 30
0.0
 11
-454.49999999999955
 21
-358.90624095768402
 31
0.0
  0
LINE
  8
0
  6
CONTINUOUS
 62
               4
  5
22C
 10
-544.50000000000068
 20
-359.90624095768396
 30
0.0
 11
-455.49999999999955
 21
-359.90624095768396
 31
0.0
  0
LINE
  8
0
  6
CONTINUOUS
 62
               4
  5
22D
 10
-454.49999999999955
 20
-358.90624095768402
 30
0.0
 11
-545.50000000000045
 21
-358.90624095768402
 31
0.0
  0
LINE
  8
0
  6
CONTINUOUS
 62
               4
  5
22E
 10
-544.5
 20
-394.9999999999996
 30
0.0
 11
-544.5
 21
-359.90624095768396
 31
0.0
  0
LINE
  8
0
  6
CONTINUOUS
 62
               4
  5
22F
 10
-455.5
 20
-394.9999999999996
 30
0.0
 11
-455.5
 21
-359.90624095768396
 31
0.0
  0
LINE
  8
0
  6
CONTINUOUS
 62
               4
  5
230
 10
-44.500000000000682
 20
-359.90624095768391
 30
0.0
 11
-45.500000000000455
 21
-358.90624095768396
 31
0.0
  0
LINE
  8
0
  6
CONTINUOUS
 62
               4
  5
231
 10
44.500000000000455
 20
-359.90624095768391
 30
0.0
 11
45.500000000000455
 21
-358.90624095768396
 31
0.0
  0
LINE
  8
0
  6
CONTINUOUS
 62
               4
  5
232
 10
-44.500000000000682
 20
-359.90624095768391
 30
0.0
 11
44.500000000000455
 21
-359.90624095768391
 31
0.0
  0
LINE
  8
0
  6
CONTINUOUS
 62
               4
  5
233
 10
45.500000000000455
 20
-358.90624095768396
 30
0.0
 11
-45.500000000000455
 21
-358.90624095768396
 31
0.0
  0
LINE
  8
0
  6
CONTINUOUS
 62
               4
  5
234
 10
-44.5
 20
-394.99999999999955
 30
0.0
 11
-44.5
 21
-359.90624095768391
 31
0.0
  0
LINE
  8
0
  6
CONTINUOUS
 62
               4
  5
235
 10
44.5
 20
-394.99999999999955
 30
0.0
 11
44.5
 21
-359.90624095768391
 31
0.0
  0
LINE
  8
0
  6
CONTINUOUS
 62
               4
  5
236
 10
-75.000000000000284
 20
-455.89522178732352
 30
0.0
 11
-75.000000000000284
 21
-446.02093558026763
 31
0.0
  0
LINE
  8
0
  6
CONTINUOUS
 62
               4
  5
237
 10
-52.999999999999829
 20
-550.00000000000011
 30
0.0
 11
53.000000000002672
 21
-549.99999999999932
 31
0.0
  0
LINE
  8
0
  6
CONTINUOUS
 62
               4
  5
238
 10
75.000000000000284
 20
-455.89522178732341
 30
0.0
 11
75.000000000000284
 21
-446.02093558026752
 31
0.0
  0
LINE
  8
0
  6
CONTINUOUS
 62
               4
  5
239
 10
-552.99999999999989
 20
-549.99999999999955
 30
0.0
 11
-446.99999999999739
 21
-549.99999999999875
 31
0.0
  0
LINE
  8
0
  6
CONTINUOUS
 62
               4
  5
23A
 10
455.49999999999932
 20
-359.90624095768391
 30
0.0
 11
454.49999999999955
 21
-358.90624095768396
 31
0.0
  0
LINE
  8
0
  6
CONTINUOUS
 62
               4
  5
23B
 10
544.50000000000045
 20
-359.90624095768391
 30
0.0
 11
545.50000000000045
 21
-358.90624095768396
 31
0.0
  0
LINE
  8
0
  6
CONTINUOUS
 62
               4
  5
23C
 10
455.49999999999932
 20
-359.90624095768391
 30
0.0
 11
544.50000000000045
 21
-359.90624095768391
 31
0.0
  0
LINE
  8
0
  6
CONTINUOUS
 62
               4
  5
23D
 10
545.50000000000045
 20
-358.90624095768396
 30
0.0
 11
454.49999999999955
 21
-358.90624095768396
 31
0.0
  0
LINE
  8
0
  6
CONTINUOUS
 62
               4
  5
23E
 10
455.5
 20
-394.99999999999955
 30
0.0
 11
455.5
 21
-359.90624095768391
 31
0.0
  0
LINE
  8
0
  6
CONTINUOUS
 62
               4
  5
23F
 10
544.5
 20
-394.99999999999955
 30
0.0
 11
544.5
 21
-359.90624095768391
 31
0.0
  0
LINE
  8
0
  6
CONTINUOUS
 62
               4
  5
240
 10
447.00000000000011
 20
-549.99999999999955
 30
0.0
 11
553.00000000000261
 21
-549.99999999999864
 31
0.0
  0
LINE
  8
0
  6
CONTINUOUS
 62
               4
  5
241
 10
-36.180192433818675
 20
454.50005856066036
 30
0.0
 11
-127.00000000000169
 21
457.67155612596366
 31
0.0
  0
LINE
  8
0
  6
CONTINUOUS
 62
               4
  5
242
 10
-130.00000000000182
 20
459.99999999999886
 30
0.0
 11
-129.32844387403759
 21
459.99999999999886
 31
0.0
  0
LINE
  8
0
  6
CONTINUOUS
 62
               4
  5
243
 10
-127.00000000000169
 20
457.67155612596366
 30
0.0
 11
-129.32844387403759
 21
459.99999999999886
 31
0.0
  0
LINE
  8
0
  6
CONTINUOUS
 62
               4
  5
244
 10
-130.00000000000182
 20
556.99999999999886
 30
0.0
 11
-129.32844387403759
 21
556.99999999999886
 31
0.0
  0
LINE
  8
0
  6
CONTINUOUS
 62
               4
  5
245
 10
-127.00000000000169
 20
559.32844387403475
 30
0.0
 11
-129.32844387403759
 21
556.99999999999886
 31
0.0
  0
LINE
  8
0
  6
CONTINUOUS
 62
               4
  5
246
 10
-129.32844387403759
 20
556.99999999999909
 30
0.0
 11
-129.32844387403759
 21
459.99999999999886
 31
0.0
  0
LINE
  8
0
  6
CONTINUOUS
 62
               4
  5
247
 10
-127.00000000000169
 20
457.67155612596366
 30
0.0
 11
-127.00000000000169
 21
559.32844387403475
 31
0.0
  0
LINE
  8
0
  6
CONTINUOUS
 62
               4
  5
248
 10
-135.00000000000182
 20
556.82844387403475
 30
0.0
 11
-135.00000000000182
 21
460.17155612596366
 31
0.0
  0
LINE
  8
0
  6
CONTINUOUS
 62
               4
  5
249
 10
-130.00000000000182
 20
457.67155612596366
 30
0.0
 11
-130.00000000000182
 21
559.32844387403475
 31
0.0
  0
LINE
  8
0
  6
CONTINUOUS
 62
               4
  5
24A
 10
-130.00000000000182
 20
559.32844387403475
 30
0.0
 11
-132.50000000000182
 21
559.32844387403475
 31
0.0
  0
LINE
  8
0
  6
CONTINUOUS
 62
               4
  5
24B
 10
-130.00000000000182
 20
457.67155612596366
 30
0.0
 11
-132.50000000000182
 21
457.67155612596366
 31
0.0
  0
ARC
  8
0
  6
CONTINUOUS
 62
               4
  5
24C
 10
-132.50000000000182
 20
460.17155612596366
 30
0.0
 40
2.5
 50
179.9999999999996
 51
269.99999999999937
  0
ARC
  8
0
  6
CONTINUOUS
 62
               4
  5
24D
 10
-132.50000000000182
 20
556.82844387403475
 30
0.0
 40
2.5
 50
89.999999999999801
 51
179.9999999999996
  0
LINE
  8
0
  6
CONTINUOUS
 62
               4
  5
24E
 10
-36.180192433817126
 20
562.4999414393385
 30
0.0
 11
-127.00000000000169
 21
559.32844387403475
 31
0.0
  0
LINE
  8
0
  6
CONTINUOUS
 62
               4
  5
24F
 10
-64.999999999999886
 20
58.679617631586552
 30
0.0
 11
-64.999999999999886
 21
54.571975456559812
 31
0.0
  0
ARC
  8
0
  6
CONTINUOUS
 62
               4
  5
250
 10
-63.999999999999716
 20
73.170994377776196
 30
0.0
 40
5.0
 50
315.01704217218719
 51
359.9999999999992
  0
ARC
  8
0
  6
CONTINUOUS
 62
               4
  5
251
 10
-49.499999999999758
 20
58.679617631586552
 30
0.0
 40
15.5
 50
135.01704217218645
 51
179.9999999999996
  0
LINE
  8
0
  6
CONTINUOUS
 62
               4
  5
252
 10
-129.99999999999989
 20
45.250000000000341
 30
0.0
 11
-129.32844387403566
 21
45.250000000000341
 31
0.0
  0
LINE
  8
0
  6
CONTINUOUS
 62
               4
  5
253
 10
-126.99999999999977
 20
47.578443874036225
 30
0.0
 11
-129.32844387403566
 21
45.250000000000341
 31
0.0
  0
LINE
  8
0
  6
CONTINUOUS
 62
               4
  5
254
 10
-126.99999999999977
 20
47.578443874036225
 30
0.0
 11
-69.825502516487617
 21
49.575021321464305
 31
0.0
  0
ARC
  8
0
  6
CONTINUOUS
 62
               4
  5
255
 10
-70.000000000000441
 20
54.571975456559812
 30
0.0
 40
5.0
 50
271.99999999999784
 51
359.9999999999992
  0
LINE
  8
0
  6
CONTINUOUS
 62
               4
  5
256
 10
-129.99999999999989
 20
47.578443874036225
 30
0.0
 11
-132.49999999999989
 21
47.578443874036225
 31
0.0
  0
ARC
  8
0
  6
CONTINUOUS
 62
               4
  5
257
 10
-132.49999999999989
 20
45.078443874036225
 30
0.0
 40
2.5
 50
89.999999999999801
 51
179.9999999999996
  0
LINE
  8
0
  6
CONTINUOUS
 62
               4
  5
258
 10
-126.99999999999977
 20
-54.078443874034861
 30
0.0
 11
-126.99999999999977
 21
32.078443874035997
 31
0.0
  0
LINE
  8
0
  6
CONTINUOUS
 62
               4
  5
259
 10
-129.32844387403537
 20
29.750000000000796
 30
0.0
 11
-129.32844387403537
 21
-51.749999999999318
 31
0.0
  0
LINE
  8
0
  6
CONTINUOUS
 62
               4
  5
25A
 10
-134.99999999999989
 20
29.578443874036111
 30
0.0
 11
-134.99999999999989
 21
-51.578443874034861
 31
0.0
  0
LINE
  8
0
  6
CONTINUOUS
 62
               4
  5
25B
 10
-129.99999999999989
 20
-54.078443874034861
 30
0.0
 11
-129.99999999999989
 21
32.078443874036111
 31
0.0
  0
LINE
  8
0
  6
CONTINUOUS
 62
               4
  5
25C
 10
-126.99999999999977
 20
-54.078443874034861
 30
0.0
 11
-126.99999999999977
 21
47.578443874036225
 31
0.0
  0
LINE
  8
0
  6
CONTINUOUS
 62
               4
  5
25D
 10
-129.99999999999989
 20
-51.749999999999318
 30
0.0
 11
-129.32844387403537
 21
-51.749999999999318
 31
0.0
  0
LINE
  8
0
  6
CONTINUOUS
 62
               4
  5
25E
 10
-126.99999999999977
 20
-54.078443874034861
 30
0.0
 11
-129.32844387403537
 21
-51.749999999999318
 31
0.0
  0
LINE
  8
0
  6
CONTINUOUS
 62
               4
  5
25F
 10
-129.32844387403566
 20
45.250000000000341
 30
0.0
 11
-129.32844387403537
 21
-51.749999999999318
 31
0.0
  0
LINE
  8
0
  6
CONTINUOUS
 62
               4
  5
260
 10
-134.99999999999989
 20
45.078443874036225
 30
0.0
 11
-134.99999999999989
 21
-51.578443874034861
 31
0.0
  0
LINE
  8
0
  6
CONTINUOUS
 62
               4
  5
261
 10
-129.99999999999989
 20
-54.078443874034861
 30
0.0
 11
-129.99999999999989
 21
47.578443874036225
 31
0.0
  0
LINE
  8
0
  6
CONTINUOUS
 62
               4
  5
262
 10
-129.99999999999989
 20
-54.078443874034861
 30
0.0
 11
-132.49999999999989
 21
-54.078443874034861
 31
0.0
  0
ARC
  8
0
  6
CONTINUOUS
 62
               4
  5
263
 10
-132.49999999999989
 20
-51.578443874034861
 30
0.0
 40
2.5
 50
179.9999999999996
 51
269.99999999999937
  0
CIRCLE
  8
0
  6
CONTINUOUS
 62
               4
  5
264
 10
-499.99999999999943
 20
-1.9655178667827613
 30
0.0
 40
50.75
  0
LINE
  8
0
  6
CONTINUOUS
 62
               4
  5
265
 10
-519.08042190309175
 20
24.034482133217125
 30
0.0
 11
-480.91957809690723
 21
24.034482133217125
 31
0.0
  0
CIRCLE
  8
0
  6
CONTINUOUS
 62
               4
  5
266
 10
-500.0
 20
-1.9655178667827613
 30
0.0
 40
41.849999999999994
  0
CIRCLE
  8
0
  6
CONTINUOUS
 62
               4
  5
267
 10
-500.0
 20
-1.9655178667827613
 30
0.0
 40
40.75
  0
CIRCLE
  8
0
  6
CONTINUOUS
 62
               4
  5
268
 10
-499.99999999999943
 20
-1.9655178667827613
 30
0.0
 40
36.399999999999999
  0
CIRCLE
  8
0
  6
CONTINUOUS
 62
               4
  5
269
 10
-499.99999999999943
 20
-1.9655178667827613
 30
0.0
 40
32.25
  0
LINE
  8
0
  6
CONTINUOUS
 62
               4
  5
26A
 10
-527.04683438038501
 20
-29.012352247168224
 30
0.0
 11
-528.81460133335179
 21
-30.780119200134664
 31
0.0
  0
LINE
  8
0
  6
CONTINUOUS
 62
               4
  5
26B
 10
-472.9531656196209
 20
-29.012352247175045
 30
0.0
 11
-471.18539866664867
 21
-30.780119200135232
 31
0.0
  0
ARC
  8
0
  6
CONTINUOUS
 62
               4
  5
26C
 10
-499.99999999999943
 20
-1.9655178667827613
 30
0.0
 40
38.25
 50
224.99999999999045
 51
314.99999999998482
  0
LINE
  8
0
  6
DASHED2
 62
               4
  5
26D
 10
-44.5
 20
90.000000000000455
 30
0.0
 11
44.5
 21
90.000000000000455
 31
0.0
  0
LINE
  8
0
  6
DASHED2
 62
               4
  5
26E
 10
-544.5
 20
90.000000000000398
 30
0.0
 11
-455.5
 21
90.000000000000398
 31
0.0
  0
LINE
  8
0
  6
DASHED2
 62
               4
  5
26F
 10
455.56642277706555
 20
90.000000000000455
 30
0.0
 11
544.56642277706555
 21
90.000000000000455
 31
0.0
  0
LINE
  8
0
  6
DASHED2
 62
               4
  5
270
 10
-544.5
 20
-459.9999999999996
 30
0.0
 11
-455.5
 21
-459.9999999999996
 31
0.0
  0
LINE
  8
0
  6
DASHED2
 62
               4
  5
271
 10
-455.5
 20
-394.9999999999996
 30
0.0
 11
-455.5
 21
-459.9999999999996
 31
0.0
  0
LINE
  8
0
  6
DASHED2
 62
               4
  5
272
 10
-544.5
 20
-395.09842774545069
 30
0.0
 11
-544.5
 21
-459.9999999999996
 31
0.0
  0
LINE
  8
0
  6
DASHED2
 62
               4
  5
273
 10
-44.5
 20
-459.99999999999955
 30
0.0
 11
44.5
 21
-459.99999999999955
 31
0.0
  0
LINE
  8
0
  6
DASHED2
 62
               4
  5
274
 10
44.5
 20
-394.99999999999955
 30
0.0
 11
44.5
 21
-459.99999999999955
 31
0.0
  0
LINE
  8
0
  6
DASHED2
 62
               4
  5
275
 10
-44.5
 20
-395.09842774545064
 30
0.0
 11
-44.5
 21
-459.99999999999955
 31
0.0
  0
LINE
  8
0
  6
DASHED2
 62
               4
  5
276
 10
-126.76000000000056
 20
-449.55000000000064
 30
0.0
 11
-126.76000000000056
 21
-441.02387150069353
 31
0.0
  0
LINE
  8
0
  6
DASHED2
 62
               4
  5
277
 10
-120.87102725426615
 20
-441.02387150069353
 30
0.0
 11
-120.87102725426615
 21
-449.55000000000064
 31
0.0
  0
LINE
  8
0
  6
DASHED2
 62
               4
  5
278
 10
-123.81551362713321
 20
-439.9500000000005
 30
0.0
 11
-106.1844863728673
 21
-439.9500000000005
 31
0.0
  0
LINE
  8
0
  6
DASHED2
 62
               4
  5
279
 10
-103.24000000000024
 20
-449.55000000000064
 30
0.0
 11
-103.24000000000024
 21
-441.02387150069353
 31
0.0
  0
LINE
  8
0
  6
DASHED2
 62
               4
  5
27A
 10
-109.12897274573493
 20
-449.55000000000064
 30
0.0
 11
-109.12897274573493
 21
-441.02387150069353
 31
0.0
  0
ARC
  8
0
  6
DASHED2
 62
               4
  5
27B
 10
-123.81551362713321
 20
-444.52373158411649
 30
0.0
 40
4.5737315841157447
 50
49.925579661612304
 51
130.07442033835341
  0
ARC
  8
0
  6
DASHED2
 62
               4
  5
27C
 10
-106.1844863728673
 20
-444.52373158411649
 30
0.0
 40
4.5737315841157686
 50
49.925579661612304
 51
130.07442033835341
  0
ARC
  8
0
  6
DASHED2
 62
               4
  5
27D
 10
-115.0000000000004
 20
-456.53585826952099
 30
0.0
 40
16.58585826952007
 50
69.269184858547646
 51
110.73081514141818
  0
LINE
  8
0
  6
DASHED2
 62
               4
  5
27E
 10
-126.76000000000198
 20
-452.75000000000091
 30
0.0
 11
-126.76000000000198
 21
-461.27612849930813
 31
0.0
  0
LINE
  8
0
  6
DASHED2
 62
               4
  5
27F
 10
-120.87102725426757
 20
-461.27612849930813
 30
0.0
 11
-120.87102725426757
 21
-452.75000000000091
 31
0.0
  0
LINE
  8
0
  6
DASHED2
 62
               4
  5
280
 10
-123.81551362713464
 20
-462.3500000000007
 30
0.0
 11
-106.184486372869
 21
-462.3500000000007
 31
0.0
  0
LINE
  8
0
  6
DASHED2
 62
               4
  5
281
 10
-103.24000000000166
 20
-452.75000000000091
 30
0.0
 11
-103.24000000000166
 21
-461.27612849930813
 31
0.0
  0
LINE
  8
0
  6
DASHED2
 62
               4
  5
282
 10
-109.12897274573606
 20
-452.75000000000091
 30
0.0
 11
-109.12897274573606
 21
-461.27612849930813
 31
0.0
  0
ARC
  8
0
  6
DASHED2
 62
               4
  5
283
 10
-123.81551362713464
 20
-457.77626841588528
 30
0.0
 40
4.5737315841157447
 50
229.92557966157796
 51
310.07442033831961
  0
ARC
  8
0
  6
DASHED2
 62
               4
  5
284
 10
-106.184486372869
 20
-457.77626841588528
 30
0.0
 40
4.5737315841157686
 50
229.92557966157852
 51
310.07442033831961
  0
ARC
  8
0
  6
DASHED2
 62
               4
  5
285
 10
-115.00000000000182
 20
-445.76414173048079
 30
0.0
 40
16.58585826952007
 50
249.26918485851303
 51
290.73081514138352
  0
LINE
  8
0
  6
DASHED2
 62
               4
  5
286
 10
-121.00000000000034
 20
-462.3500000000007
 30
0.0
 11
-121.00000000000034
 21
-472.86936624232544
 31
0.0
  0
LINE
  8
0
  6
DASHED2
 62
               4
  5
287
 10
-109.00000000000045
 20
-462.3500000000007
 30
0.0
 11
-109.00000000000045
 21
-472.86936624232544
 31
0.0
  0
LINE
  8
0
  6
DASHED2
 62
               4
  5
288
 10
-119.80000000000058
 20
-474.06936624232571
 30
0.0
 11
-110.2000000000005
 21
-474.06936624232571
 31
0.0
  0
LINE
  8
0
  6
DASHED2
 62
               4
  5
289
 10
-121.00000000000034
 20
-472.86936624232544
 30
0.0
 11
-119.80000000000058
 21
-474.06936624232571
 31
0.0
  0
LINE
  8
0
  6
DASHED2
 62
               4
  5
28A
 10
-109.00000000000045
 20
-472.86936624232544
 30
0.0
 11
-110.2000000000005
 21
-474.06936624232571
 31
0.0
  0
LINE
  8
0
  6
DASHED2
 62
               4
  5
28B
 10
-121.00000000000034
 20
-344.93642052407085
 30
0.0
 11
-121.00000000000034
 21
-440.55000000000052
 31
0.0
  0
LINE
  8
0
  6
DASHED2
 62
               4
  5
28C
 10
-109.00000000000045
 20
-344.93642052407085
 30
0.0
 11
-109.00000000000045
 21
-440.55000000000052
 31
0.0
  0
LINE
  8
0
  6
DASHED2
 62
               4
  5
28D
 10
-109.00000000000045
 20
-344.93642052407085
 30
0.0
 11
-121.00000000000034
 21
-344.93642052407085
 31
0.0
  0
LINE
  8
0
  6
DASHED2
 62
               4
  5
28E
 10
-45.00000000000199
 20
-470.00000000000125
 30
0.0
 11
-45.000000000001421
 21
-525.00000000000011
 31
0.0
  0
LINE
  8
0
  6
DASHED2
 62
               4
  5
28F
 10
-45.00000000000199
 20
-470.00000000000125
 30
0.0
 11
0.0000000000002842
 21
-469.99999999999977
 31
0.0
  0
LINE
  8
0
  6
DASHED2
 62
               4
  5
290
 10
45.000000000003411
 20
-470.00000000000023
 30
0.0
 11
0.0000000000014211
 21
-469.99999999999977
 31
0.0
  0
LINE
  8
0
  6
DASHED2
 62
               4
  5
291
 10
45.000000000003411
 20
-470.00000000000023
 30
0.0
 11
45.000000000003979
 21
-524.99999999999909
 31
0.0
  0
LINE
  8
0
  6
DASHED2
 62
               4
  5
292
 10
126.76000000000033
 20
-449.55000000000041
 30
0.0
 11
126.76000000000033
 21
-441.02387150069319
 31
0.0
  0
LINE
  8
0
  6
DASHED2
 62
               4
  5
293
 10
120.87102725426593
 20
-441.02387150069319
 30
0.0
 11
120.87102725426593
 21
-449.55000000000041
 31
0.0
  0
LINE
  8
0
  6
DASHED2
 62
               4
  5
294
 10
123.81551362713299
 20
-439.95000000000027
 30
0.0
 11
106.18448637286707
 21
-439.95000000000027
 31
0.0
  0
LINE
  8
0
  6
DASHED2
 62
               4
  5
295
 10
103.24000000000001
 20
-449.55000000000041
 30
0.0
 11
103.24000000000001
 21
-441.02387150069319
 31
0.0
  0
LINE
  8
0
  6
DASHED2
 62
               4
  5
296
 10
109.1289727457347
 20
-449.55000000000041
 30
0.0
 11
109.1289727457347
 21
-441.02387150069319
 31
0.0
  0
ARC
  8
0
  6
DASHED2
 62
               4
  5
297
 10
123.81551362713299
 20
-444.52373158411638
 30
0.0
 40
4.5737315841157447
 50
49.92557966164631
 51
130.07442033838743
  0
ARC
  8
0
  6
DASHED2
 62
               4
  5
298
 10
106.18448637286707
 20
-444.52373158411638
 30
0.0
 40
4.5737315841157686
 50
49.92557966164631
 51
130.07442033838743
  0
ARC
  8
0
  6
DASHED2
 62
               4
  5
299
 10
115.00000000000017
 20
-456.53585826952076
 30
0.0
 40
16.58585826952007
 50
69.269184858581539
 51
110.73081514145206
  0
LINE
  8
0
  6
DASHED2
 62
               4
  5
29A
 10
126.76000000000175
 20
-452.7500000000008
 30
0.0
 11
126.76000000000175
 21
-461.27612849930802
 31
0.0
  0
LINE
  8
0
  6
DASHED2
 62
               4
  5
29B
 10
120.87102725426735
 20
-461.27612849930802
 30
0.0
 11
120.87102725426735
 21
-452.7500000000008
 31
0.0
  0
LINE
  8
0
  6
DASHED2
 62
               4
  5
29C
 10
123.81551362713441
 20
-462.35000000000059
 30
0.0
 11
106.18448637286878
 21
-462.35000000000059
 31
0.0
  0
LINE
  8
0
  6
DASHED2
 62
               4
  5
29D
 10
103.24000000000143
 20
-452.7500000000008
 30
0.0
 11
103.24000000000143
 21
-461.27612849930802
 31
0.0
  0
LINE
  8
0
  6
DASHED2
 62
               4
  5
29E
 10
109.12897274573584
 20
-452.7500000000008
 30
0.0
 11
109.12897274573584
 21
-461.27612849930802
 31
0.0
  0
ARC
  8
0
  6
DASHED2
 62
               4
  5
29F
 10
123.81551362713441
 20
-457.77626841588517
 30
0.0
 40
4.5737315841157447
 50
229.92557966167928
 51
310.07442033842091
  0
ARC
  8
0
  6
DASHED2
 62
               4
  5
2A0
 10
106.18448637286878
 20
-457.77626841588517
 30
0.0
 40
4.5737315841157686
 50
229.92557966167928
 51
310.0744203384204
  0
ARC
  8
0
  6
DASHED2
 62
               4
  5
2A1
 10
115.00000000000159
 20
-445.76414173048067
 30
0.0
 40
16.58585826952007
 50
249.26918485861538
 51
290.73081514148589
  0
LINE
  8
0
  6
DASHED2
 62
               4
  5
2A2
 10
121.00000000000011
 20
-462.35000000000059
 30
0.0
 11
121.0000000000004
 21
-472.8693662423251
 31
0.0
  0
LINE
  8
0
  6
DASHED2
 62
               4
  5
2A3
 10
109.00000000000023
 20
-462.35000000000059
 30
0.0
 11
109.00000000000023
 21
-472.86936624232521
 31
0.0
  0
LINE
  8
0
  6
DASHED2
 62
               4
  5
2A4
 10
119.80000000000035
 20
-474.0693662423256
 30
0.0
 11
110.20000000000027
 21
-474.0693662423256
 31
0.0
  0
LINE
  8
0
  6
DASHED2
 62
               4
  5
2A5
 10
121.0000000000004
 20
-472.8693662423251
 30
0.0
 11
119.80000000000035
 21
-474.0693662423256
 31
0.0
  0
LINE
  8
0
  6
DASHED2
 62
               4
  5
2A6
 10
109.00000000000023
 20
-472.86936624232521
 30
0.0
 11
110.20000000000027
 21
-474.0693662423256
 31
0.0
  0
LINE
  8
0
  6
DASHED2
 62
               4
  5
2A7
 10
120.99999999999983
 20
-344.93642052407063
 30
0.0
 11
121.00000000000011
 21
-440.55000000000018
 31
0.0
  0
LINE
  8
0
  6
DASHED2
 62
               4
  5
2A8
 10
108.99999999999994
 20
-344.93642052407063
 30
0.0
 11
109.00000000000023
 21
-440.55000000000041
 31
0.0
  0
LINE
  8
0
  6
DASHED2
 62
               4
  5
2A9
 10
108.99999999999994
 20
-344.93642052407063
 30
0.0
 11
120.99999999999983
 21
-344.93642052407063
 31
0.0
  0
LINE
  8
0
  6
DASHED2
 62
               4
  5
2AA
 10
-545.00000000000205
 20
-470.00000000000068
 30
0.0
 11
-545.00000000000148
 21
-524.99999999999955
 31
0.0
  0
LINE
  8
0
  6
DASHED2
 62
               4
  5
2AB
 10
-545.00000000000205
 20
-470.00000000000068
 30
0.0
 11
-499.99999999999977
 21
-469.9999999999992
 31
0.0
  0
LINE
  8
0
  6
DASHED2
 62
               4
  5
2AC
 10
-454.99999999999665
 20
-469.99999999999966
 30
0.0
 11
-499.99999999999864
 21
-469.9999999999992
 31
0.0
  0
LINE
  8
0
  6
DASHED2
 62
               4
  5
2AD
 10
-454.99999999999665
 20
-469.99999999999966
 30
0.0
 11
-454.99999999999608
 21
-524.99999999999852
 31
0.0
  0
LINE
  8
0
  6
DASHED2
 62
               4
  5
2AE
 10
-511.76000000000033
 20
-449.55000000000075
 30
0.0
 11
-511.76000000000033
 21
-441.02387150069353
 31
0.0
  0
LINE
  8
0
  6
DASHED2
 62
               4
  5
2AF
 10
-505.87102725426587
 20
-441.02387150069353
 30
0.0
 11
-505.87102725426587
 21
-449.55000000000075
 31
0.0
  0
LINE
  8
0
  6
DASHED2
 62
               4
  5
2B0
 10
-508.81551362713287
 20
-439.95000000000061
 30
0.0
 11
-491.1844863728669
 21
-439.95000000000061
 31
0.0
  0
LINE
  8
0
  6
DASHED2
 62
               4
  5
2B1
 10
-488.2399999999999
 20
-449.55000000000075
 30
0.0
 11
-488.2399999999999
 21
-441.02387150069353
 31
0.0
  0
LINE
  8
0
  6
DASHED2
 62
               4
  5
2B2
 10
-494.12897274573459
 20
-449.55000000000075
 30
0.0
 11
-494.12897274573459
 21
-441.02387150069353
 31
0.0
  0
ARC
  8
0
  6
DASHED2
 62
               4
  5
2B3
 10
-508.81551362713287
 20
-444.5237315841166
 30
0.0
 40
4.5737315841157447
 50
49.925579661612304
 51
130.07442033835341
  0
ARC
  8
0
  6
DASHED2
 62
               4
  5
2B4
 10
-491.1844863728669
 20
-444.5237315841166
 30
0.0
 40
4.5737315841157686
 50
49.925579661612304
 51
130.07442033835341
  0
ARC
  8
0
  6
DASHED2
 62
               4
  5
2B5
 10
-500.00000000000011
 20
-456.5358582695211
 30
0.0
 40
16.58585826952007
 50
69.269184858547646
 51
110.73081514141818
  0
LINE
  8
0
  6
DASHED2
 62
               4
  5
2B6
 10
-511.7600000000017
 20
-452.75000000000114
 30
0.0
 11
-511.7600000000017
 21
-461.27612849930836
 31
0.0
  0
LINE
  8
0
  6
DASHED2
 62
               4
  5
2B7
 10
-505.87102725426723
 20
-461.27612849930836
 30
0.0
 11
-505.87102725426723
 21
-452.75000000000114
 31
0.0
  0
LINE
  8
0
  6
DASHED2
 62
               4
  5
2B8
 10
-508.81551362713424
 20
-462.35000000000093
 30
0.0
 11
-491.18448637286872
 21
-462.35000000000093
 31
0.0
  0
LINE
  8
0
  6
DASHED2
 62
               4
  5
2B9
 10
-488.24000000000126
 20
-452.75000000000114
 30
0.0
 11
-488.24000000000126
 21
-461.27612849930836
 31
0.0
  0
LINE
  8
0
  6
DASHED2
 62
               4
  5
2BA
 10
-494.12897274573572
 20
-452.75000000000114
 30
0.0
 11
-494.12897274573572
 21
-461.27612849930836
 31
0.0
  0
ARC
  8
0
  6
DASHED2
 62
               4
  5
2BB
 10
-508.81551362713424
 20
-457.77626841588551
 30
0.0
 40
4.5737315841157447
 50
229.92557966157796
 51
310.07442033831961
  0
ARC
  8
0
  6
DASHED2
 62
               4
  5
2BC
 10
-491.18448637286872
 20
-457.77626841588551
 30
0.0
 40
4.5737315841157686
 50
229.92557966157852
 51
310.07442033831961
  0
ARC
  8
0
  6
DASHED2
 62
               4
  5
2BD
 10
-500.00000000000148
 20
-445.76414173048101
 30
0.0
 40
16.58585826952007
 50
249.26918485851303
 51
290.73081514138352
  0
LINE
  8
0
  6
DASHED2
 62
               4
  5
2BE
 10
-506.00000000000011
 20
-462.35000000000093
 30
0.0
 11
-506.00000000000011
 21
-472.86936624232487
 31
0.0
  0
LINE
  8
0
  6
DASHED2
 62
               4
  5
2BF
 10
-494.00000000000011
 20
-462.35000000000093
 30
0.0
 11
-494.00000000000011
 21
-472.86936624232487
 31
0.0
  0
LINE
  8
0
  6
DASHED2
 62
               4
  5
2C0
 10
-504.8000000000003
 20
-474.06936624232526
 30
0.0
 11
-495.20000000000016
 21
-474.06936624232526
 31
0.0
  0
LINE
  8
0
  6
DASHED2
 62
               4
  5
2C1
 10
-506.00000000000011
 20
-472.86936624232487
 30
0.0
 11
-504.8000000000003
 21
-474.06936624232526
 31
0.0
  0
LINE
  8
0
  6
DASHED2
 62
               4
  5
2C2
 10
-494.00000000000011
 20
-472.86936624232487
 30
0.0
 11
-495.20000000000016
 21
-474.06936624232526
 31
0.0
  0
LINE
  8
0
  6
DASHED2
 62
               4
  5
2C3
 10
-511.76000000000033
 20
-449.55000000000075
 30
0.0
 11
-488.2399999999999
 21
-449.55000000000075
 31
0.0
  0
LINE
  8
0
  6
DASHED2
 62
               4
  5
2C4
 10
-488.24000000000126
 20
-452.75000000000114
 30
0.0
 11
-511.7600000000017
 21
-452.75000000000114
 31
0.0
  0
LINE
  8
0
  6
DASHED2
 62
               4
  5
2C5
 10
-506.00000000000011
 20
-344.93642052407023
 30
0.0
 11
-506.00000000000011
 21
-439.95000000000061
 31
0.0
  0
LINE
  8
0
  6
DASHED2
 62
               4
  5
2C6
 10
-494.00000000000011
 20
-344.93642052407023
 30
0.0
 11
-494.00000000000011
 21
-439.95000000000061
 31
0.0
  0
LINE
  8
0
  6
DASHED2
 62
               4
  5
2C7
 10
-494.00000000000011
 20
-344.93642052407023
 30
0.0
 11
-506.00000000000011
 21
-344.93642052407023
 31
0.0
  0
LINE
  8
0
  6
DASHED2
 62
               4
  5
2C8
 10
455.5
 20
-459.99999999999955
 30
0.0
 11
544.5
 21
-459.99999999999955
 31
0.0
  0
LINE
  8
0
  6
DASHED2
 62
               4
  5
2C9
 10
544.5
 20
-394.99999999999955
 30
0.0
 11
544.5
 21
-459.99999999999955
 31
0.0
  0
LINE
  8
0
  6
DASHED2
 62
               4
  5
2CA
 10
455.5
 20
-395.09842774545064
 30
0.0
 11
455.5
 21
-459.99999999999955
 31
0.0
  0
LINE
  8
0
  6
DASHED2
 62
               4
  5
2CB
 10
454.99999999999795
 20
-470.00000000000063
 30
0.0
 11
454.99999999999852
 21
-524.99999999999955
 31
0.0
  0
LINE
  8
0
  6
DASHED2
 62
               4
  5
2CC
 10
454.99999999999795
 20
-470.00000000000063
 30
0.0
 11
500.00000000000023
 21
-469.99999999999915
 31
0.0
  0
LINE
  8
0
  6
DASHED2
 62
               4
  5
2CD
 10
545.00000000000341
 20
-469.9999999999996
 30
0.0
 11
500.00000000000136
 21
-469.99999999999915
 31
0.0
  0
LINE
  8
0
  6
DASHED2
 62
               4
  5
2CE
 10
545.00000000000341
 20
-469.9999999999996
 30
0.0
 11
545.00000000000387
 21
-524.99999999999841
 31
0.0
  0
LINE
  8
0
  6
DASHED2
 62
               4
  5
2CF
 10
488.23999999999967
 20
-449.55000000000069
 30
0.0
 11
488.23999999999967
 21
-441.02387150069347
 31
0.0
  0
LINE
  8
0
  6
DASHED2
 62
               4
  5
2D0
 10
494.12897274573413
 20
-441.02387150069347
 30
0.0
 11
494.12897274573413
 21
-449.55000000000069
 31
0.0
  0
LINE
  8
0
  6
DASHED2
 62
               4
  5
2D1
 10
491.18448637286713
 20
-439.95000000000056
 30
0.0
 11
508.8155136271331
 21
-439.95000000000056
 31
0.0
  0
LINE
  8
0
  6
DASHED2
 62
               4
  5
2D2
 10
511.7600000000001
 20
-449.55000000000069
 30
0.0
 11
511.7600000000001
 21
-441.02387150069347
 31
0.0
  0
LINE
  8
0
  6
DASHED2
 62
               4
  5
2D3
 10
505.87102725426541
 20
-449.55000000000069
 30
0.0
 11
505.87102725426541
 21
-441.02387150069347
 31
0.0
  0
ARC
  8
0
  6
DASHED2
 62
               4
  5
2D4
 10
491.18448637286713
 20
-444.52373158411655
 30
0.0
 40
4.5737315841157447
 50
49.925579661612304
 51
130.07442033835341
  0
ARC
  8
0
  6
DASHED2
 62
               4
  5
2D5
 10
508.8155136271331
 20
-444.52373158411655
 30
0.0
 40
4.5737315841157686
 50
49.925579661612304
 51
130.07442033835341
  0
ARC
  8
0
  6
DASHED2
 62
               4
  5
2D6
 10
499.99999999999989
 20
-456.53585826952104
 30
0.0
 40
16.58585826952007
 50
69.269184858547646
 51
110.73081514141818
  0
LINE
  8
0
  6
DASHED2
 62
               4
  5
2D7
 10
488.2399999999983
 20
-452.75000000000108
 30
0.0
 11
488.2399999999983
 21
-461.2761284993083
 31
0.0
  0
LINE
  8
0
  6
DASHED2
 62
               4
  5
2D8
 10
494.12897274573277
 20
-461.2761284993083
 30
0.0
 11
494.12897274573277
 21
-452.75000000000108
 31
0.0
  0
LINE
  8
0
  6
DASHED2
 62
               4
  5
2D9
 10
491.18448637286576
 20
-462.35000000000088
 30
0.0
 11
508.81551362713128
 21
-462.35000000000088
 31
0.0
  0
LINE
  8
0
  6
DASHED2
 62
               4
  5
2DA
 10
511.75999999999874
 20
-452.75000000000108
 30
0.0
 11
511.75999999999874
 21
-461.2761284993083
 31
0.0
  0
LINE
  8
0
  6
DASHED2
 62
               4
  5
2DB
 10
505.87102725426428
 20
-452.75000000000108
 30
0.0
 11
505.87102725426428
 21
-461.2761284993083
 31
0.0
  0
ARC
  8
0
  6
DASHED2
 62
               4
  5
2DC
 10
491.18448637286576
 20
-457.77626841588545
 30
0.0
 40
4.5737315841157447
 50
229.92557966157796
 51
310.07442033831961
  0
ARC
  8
0
  6
DASHED2
 62
               4
  5
2DD
 10
508.81551362713128
 20
-457.77626841588545
 30
0.0
 40
4.5737315841157686
 50
229.92557966157852
 51
310.07442033831961
  0
ARC
  8
0
  6
DASHED2
 62
               4
  5
2DE
 10
499.99999999999852
 20
-445.76414173048096
 30
0.0
 40
16.58585826952007
 50
249.26918485851303
 51
290.73081514138352
  0
LINE
  8
0
  6
DASHED2
 62
               4
  5
2DF
 10
493.99999999999989
 20
-462.35000000000088
 30
0.0
 11
493.99999999999989
 21
-472.86936624232482
 31
0.0
  0
LINE
  8
0
  6
DASHED2
 62
               4
  5
2E0
 10
505.99999999999989
 20
-462.35000000000088
 30
0.0
 11
505.99999999999989
 21
-472.86936624232482
 31
0.0
  0
LINE
  8
0
  6
DASHED2
 62
               4
  5
2E1
 10
495.1999999999997
 20
-474.0693662423252
 30
0.0
 11
504.79999999999984
 21
-474.0693662423252
 31
0.0
  0
LINE
  8
0
  6
DASHED2
 62
               4
  5
2E2
 10
493.99999999999989
 20
-472.86936624232482
 30
0.0
 11
495.1999999999997
 21
-474.0693662423252
 31
0.0
  0
LINE
  8
0
  6
DASHED2
 62
               4
  5
2E3
 10
505.99999999999989
 20
-472.86936624232482
 30
0.0
 11
504.79999999999984
 21
-474.0693662423252
 31
0.0
  0
LINE
  8
0
  6
DASHED2
 62
               4
  5
2E4
 10
488.23999999999967
 20
-449.55000000000069
 30
0.0
 11
511.7600000000001
 21
-449.55000000000069
 31
0.0
  0
LINE
  8
0
  6
DASHED2
 62
               4
  5
2E5
 10
511.75999999999874
 20
-452.75000000000108
 30
0.0
 11
488.2399999999983
 21
-452.75000000000108
 31
0.0
  0
LINE
  8
0
  6
DASHED2
 62
               4
  5
2E6
 10
493.99999999999989
 20
-344.93642052407017
 30
0.0
 11
493.99999999999989
 21
-439.95000000000056
 31
0.0
  0
LINE
  8
0
  6
DASHED2
 62
               4
  5
2E7
 10
505.99999999999989
 20
-344.93642052407017
 30
0.0
 11
505.99999999999989
 21
-439.95000000000056
 31
0.0
  0
LINE
  8
0
  6
DASHED2
 62
               4
  5
2E8
 10
505.99999999999989
 20
-344.93642052407017
 30
0.0
 11
493.99999999999989
 21
-344.93642052407017
 31
0.0
  0
LINE
  8
0
  6
DIVIDE
 62
               4
  5
2E9
 10
-44.499999999999034
 20
-607.18970531827904
 30
0.0
 11
-44.499999999999034
 21
-644.89310460365118
 31
0.0
  0
LINE
  8
0
  6
DIVIDE
 62
               4
  5
2EA
 10
44.500000000001876
 20
-615.07899317776162
 30
0.0
 11
44.500000000001876
 21
-644.89310460365016
 31
0.0
  0
LINE
  8
0
  6
DIVIDE
 62
               4
  5
2EB
 10
52.500000000001705
 20
-524.99999999999909
 30
0.0
 11
52.500000000001705
 21
-611.10395079345835
 31
0.0
  0
LINE
  8
0
  6
DIVIDE
 62
               4
  5
2EC
 10
-52.499999999999147
 20
-525.00000000000011
 30
0.0
 11
-52.499999999999147
 21
-611.10395079345926
 31
0.0
  0
ARC
  8
0
  6
DIVIDE
 62
               4
  5
2ED
 10
-26.249999999998579
 20
-653.89582634506996
 30
0.0
 40
50.201664446754734
 50
58.473623406651711
 51
121.5263765933481
  0
ARC
  8
0
  6
DIVIDE
 62
               4
  5
2EE
 10
26.249999999999147
 20
-568.31207524184833
 30
0.0
 40
50.201664446754734
 50
238.47362340665123
 51
301.52637659334755
  0
ARC
  8
0
  6
DIVIDE
 62
               4
  5
2EF
 10
-26.249999999998579
 20
-568.31207524184822
 30
0.0
 40
50.201664446754734
 50
238.47362340665111
 51
248.68262418372507
  0
ARC
  8
0
  6
DIVIDE
 62
               4
  5
2F0
 10
-22.249999999999659
 20
-678.22356630691161
 30
0.0
 40
40.074707451863929
 50
56.274610560473491
 51
123.72538943952613
  0
ARC
  8
0
  6
DIVIDE
 62
               4
  5
2F1
 10
-22.249999999999659
 20
-611.56264290039167
 30
0.0
 40
40.074707451863929
 50
236.27461056047306
 51
303.72538943952571
  0
ARC
  8
0
  6
DIVIDE
 62
               4
  5
2F2
 10
22.249999999999943
 20
-611.56264290039167
 30
0.0
 40
40.074707451863929
 50
236.27461056047318
 51
303.72538943952583
  0
LINE
  8
0
  6
DIVIDE
 62
               4
  5
2F3
 10
-544.49999999999909
 20
-607.18970531827847
 30
0.0
 11
-544.49999999999909
 21
-644.89310460365061
 31
0.0
  0
LINE
  8
0
  6
DIVIDE
 62
               4
  5
2F4
 10
-455.49999999999818
 20
-615.07899317776105
 30
0.0
 11
-455.49999999999818
 21
-644.89310460364959
 31
0.0
  0
LINE
  8
0
  6
DIVIDE
 62
               4
  5
2F5
 10
-447.49999999999835
 20
-524.99999999999852
 30
0.0
 11
-447.49999999999835
 21
-611.10395079345778
 31
0.0
  0
LINE
  8
0
  6
DIVIDE
 62
               4
  5
2F6
 10
-552.4999999999992
 20
-524.99999999999955
 30
0.0
 11
-552.4999999999992
 21
-611.10395079345869
 31
0.0
  0
ARC
  8
0
  6
DIVIDE
 62
               4
  5
2F7
 10
-526.24999999999864
 20
-653.89582634506939
 30
0.0
 40
50.201664446754734
 50
58.473623406651711
 51
121.5263765933481
  0
ARC
  8
0
  6
DIVIDE
 62
               4
  5
2F8
 10
-473.75000000000091
 20
-568.31207524184777
 30
0.0
 40
50.201664446754734
 50
238.47362340665123
 51
301.52637659334755
  0
ARC
  8
0
  6
DIVIDE
 62
               4
  5
2F9
 10
-526.24999999999864
 20
-568.31207524184765
 30
0.0
 40
50.201664446754734
 50
238.47362340665111
 51
248.68262418372507
  0
ARC
  8
0
  6
DIVIDE
 62
               4
  5
2FA
 10
-522.24999999999977
 20
-678.22356630691104
 30
0.0
 40
40.074707451863929
 50
56.274610560473491
 51
123.72538943952613
  0
ARC
  8
0
  6
DIVIDE
 62
               4
  5
2FB
 10
-522.24999999999977
 20
-611.5626429003911
 30
0.0
 40
40.074707451863929
 50
236.27461056047306
 51
303.72538943952571
  0
ARC
  8
0
  6
DIVIDE
 62
               4
  5
2FC
 10
-477.75000000000011
 20
-611.5626429003911
 30
0.0
 40
40.074707451863929
 50
236.27461056047318
 51
303.72538943952583
  0
LINE
  8
0
  6
DIVIDE
 62
               4
  5
2FD
 10
455.50000000000091
 20
-607.18970531827836
 30
0.0
 11
455.50000000000091
 21
-644.8931046036505
 31
0.0
  0
LINE
  8
0
  6
DIVIDE
 62
               4
  5
2FE
 10
544.50000000000182
 20
-615.07899317776105
 30
0.0
 11
544.50000000000182
 21
-644.89310460364959
 31
0.0
  0
LINE
  8
0
  6
DIVIDE
 62
               4
  5
2FF
 10
552.50000000000159
 20
-524.99999999999841
 30
0.0
 11
552.50000000000159
 21
-611.10395079345767
 31
0.0
  0
LINE
  8
0
  6
DIVIDE
 62
               4
  5
300
 10
447.5000000000008
 20
-524.99999999999955
 30
0.0
 11
447.5000000000008
 21
-611.10395079345858
 31
0.0
  0
ARC
  8
0
  6
DIVIDE
 62
               4
  5
301
 10
473.75000000000136
 20
-653.89582634506928
 30
0.0
 40
50.201664446754734
 50
58.473623406651711
 51
121.5263765933481
  0
ARC
  8
0
  6
DIVIDE
 62
               4
  5
302
 10
526.24999999999909
 20
-568.31207524184765
 30
0.0
 40
50.201664446754734
 50
238.47362340665123
 51
301.52637659334755
  0
ARC
  8
0
  6
DIVIDE
 62
               4
  5
303
 10
473.75000000000136
 20
-568.31207524184765
 30
0.0
 40
50.201664446754734
 50
238.47362340665111
 51
248.68262418372507
  0
ARC
  8
0
  6
DIVIDE
 62
               4
  5
304
 10
477.75000000000023
 20
-678.22356630691093
 30
0.0
 40
40.074707451863929
 50
56.274610560473491
 51
123.72538943952613
  0
ARC
  8
0
  6
DIVIDE
 62
               4
  5
305
 10
477.75000000000023
 20
-611.56264290039098
 30
0.0
 40
40.074707451863929
 50
236.27461056047306
 51
303.72538943952571
  0
ARC
  8
0
  6
DIVIDE
 62
               4
  5
306
 10
522.24999999999989
 20
-611.56264290039098
 30
0.0
 40
40.074707451863929
 50
236.27461056047318
 51
303.72538943952583
  0
LINE
  8
0
  6
CONTINUOUS
 62
               3
  5
307
 10
67.500000000000114
 20
76.343139364241779
 30
0.0
 11
67.500000000000114
 21
126.50923153671226
 31
0.0
  0
LINE
  8
0
  6
CONTINUOUS
 62
               3
  5
308
 10
-67.500000000000227
 20
76.343139364241779
 30
0.0
 11
-67.500000000000227
 21
126.50923153671226
 31
0.0
  0
LINE
  8
0
  6
CONTINUOUS
 62
               3
  5
309
 10
-81.923767177160698
 20
-64.58320362336417
 30
0.0
 11
-74.964466094067348
 21
-71.542504706457748
 31
0.0
  0
LINE
  8
0
  6
CONTINUOUS
 62
               3
  5
30A
 10
-50.500000000000227
 20
-293.99627986184748
 30
0.0
 11
-73.5
 21
-123.32964138146701
 31
0.0
  0
LINE
  8
0
  6
CONTINUOUS
 62
               3
  5
30B
 10
50.500000000000227
 20
-293.99627986184748
 30
0.0
 11
73.5
 21
-123.32964138146701
 31
0.0
  0
ARC
  8
0
  6
CONTINUOUS
 62
               3
  5
30C
 10
-78.5
 20
-75.078038612390515
 30
0.0
 40
5.0
 50
0.0
 51
45.000000000000114
  0
ARC
  8
0
  6
CONTINUOUS
 62
               3
  5
30D
 10
-83.337980739533805
 20
-65.997417185737163
 30
0.0
 40
2.0
 50
45.000000000000171
 51
79.629483768019369
  0
LINE
  8
0
  6
CONTINUOUS
 62
               3
  5
30E
 10
-50.500000000000227
 20
-293.99627986184748
 30
0.0
 11
-50.500000000000227
 21
-393.40000000000089
 31
0.0
  0
LINE
  8
0
  6
CONTINUOUS
 62
               3
  5
30F
 10
50.500000000000227
 20
-293.99627986184748
 30
0.0
 11
50.500000000000227
 21
-393.40000000000077
 31
0.0
  0
LINE
  8
0
  6
CONTINUOUS
 62
               3
  5
310
 10
-550.50000000000023
 20
-293.99627986184754
 30
0.0
 11
-550.50000000000023
 21
-394.9999999999996
 31
0.0
  0
LINE
  8
0
  6
CONTINUOUS
 62
               3
  5
311
 10
-449.49999999999977
 20
-293.99627986184754
 30
0.0
 11
-449.49999999999977
 21
-394.9999999999996
 31
0.0
  0
LINE
  8
0
  6
CONTINUOUS
 62
               3
  5
312
 10
-432.49999999999989
 20
76.343139364241722
 30
0.0
 11
-432.49999999999989
 21
126.50923153671221
 31
0.0
  0
LINE
  8
0
  6
CONTINUOUS
 62
               3
  5
313
 10
-567.50000000000023
 20
76.343139364241722
 30
0.0
 11
-567.50000000000023
 21
126.50923153671221
 31
0.0
  0
ARC
  8
0
  6
CONTINUOUS
 62
               3
  5
314
 10
-549.49999999999989
 20
58.679617631586382
 30
0.0
 40
24.0
 50
142.47648679788662
 51
179.9999999999996
  0
LINE
  8
0
  6
CONTINUOUS
 62
               3
  5
315
 10
-550.50000000000023
 20
-293.99627986184754
 30
0.0
 11
-573.5
 21
-123.32964138146707
 31
0.0
  0
LINE
  8
0
  6
CONTINUOUS
 62
               3
  5
316
 10
-449.49999999999977
 20
-293.99627986184754
 30
0.0
 11
-426.50000000000006
 21
-123.32964138146707
 31
0.0
  0
ARC
  8
0
  6
CONTINUOUS
 62
               3
  5
317
 10
-572.50000000000011
 20
76.343139364241722
 30
0.0
 40
5.0
 50
322.47648679788642
 51
359.9999999999992
  0
ARC
  8
0
  6
CONTINUOUS
 62
               3
  5
318
 10
-450.50000000000011
 20
58.679617631586382
 30
0.0
 40
24.0
 50
0.0000000000000148
 51
37.523513202112987
  0
ARC
  8
0
  6
CONTINUOUS
 62
               3
  5
319
 10
-427.49999999999989
 20
76.343139364241722
 30
0.0
 40
5.0
 50
179.9999999999996
 51
217.52351320211238
  0
LINE
  8
0
  6
CONTINUOUS
 62
               3
  5
31A
 10
567.56642277706567
 20
76.343139364241779
 30
0.0
 11
567.56642277706567
 21
126.50923153671226
 31
0.0
  0
LINE
  8
0
  6
CONTINUOUS
 62
               3
  5
31B
 10
432.56642277706533
 20
76.343139364241779
 30
0.0
 11
432.56642277706533
 21
126.50923153671226
 31
0.0
  0
ARC
  8
0
  6
CONTINUOUS
 62
               3
  5
31C
 10
450.56642277706567
 20
58.679617631586439
 30
0.0
 40
24.0
 50
142.47648679788662
 51
179.9999999999996
  0
LINE
  8
0
  6
CONTINUOUS
 62
               3
  5
31D
 10
449.56642277706533
 20
-293.99627986184748
 30
0.0
 11
426.56642277706555
 21
-123.32964138146701
 31
0.0
  0
LINE
  8
0
  6
CONTINUOUS
 62
               3
  5
31E
 10
550.56642277706578
 20
-293.99627986184748
 30
0.0
 11
573.56642277706555
 21
-123.32964138146701
 31
0.0
  0
ARC
  8
0
  6
CONTINUOUS
 62
               3
  5
31F
 10
427.56642277706544
 20
76.343139364241779
 30
0.0
 40
5.0
 50
322.47648679788642
 51
359.9999999999992
  0
ARC
  8
0
  6
CONTINUOUS
 62
               3
  5
320
 10
549.56642277706544
 20
58.679617631586439
 30
0.0
 40
24.0
 50
0.0000000000000148
 51
37.523513202112987
  0
ARC
  8
0
  6
CONTINUOUS
 62
               3
  5
321
 10
572.56642277706567
 20
76.343139364241779
 30
0.0
 40
5.0
 50
179.9999999999996
 51
217.52351320211238
  0
LINE
  8
0
  6
CONTINUOUS
 62
               3
  5
322
 10
449.56642277706533
 20
-293.99627986184748
 30
0.0
 11
449.56642277706533
 21
-394.99999999999955
 31
0.0
  0
LINE
  8
0
  6
CONTINUOUS
 62
               3
  5
323
 10
550.56642277706578
 20
-293.99627986184748
 30
0.0
 11
550.56642277706578
 21
-394.99999999999955
 31
0.0
  0
ARC
  8
0
  6
CONTINUOUS
 62
               3
  5
324
 10
49.499999999999886
 20
58.679617631586439
 30
0.0
 40
24.0
 50
0.0000000000000148
 51
37.523513202112987
  0
ARC
  8
0
  6
CONTINUOUS
 62
               3
  5
325
 10
72.500000000000114
 20
76.343139364241779
 30
0.0
 40
5.0
 50
179.9999999999996
 51
217.52351320211238
  0
LINE
  8
0
  6
CONTINUOUS
 62
               3
  5
326
 10
-118.0
 20
-61.920087502237834
 30
0.0
 11
-84.585713299107283
 21
-63.611035772821509
 31
0.0
  0
LINE
  8
0
  6
CONTINUOUS
 62
               3
  5
327
 10
-50.500000000000227
 20
-394.99999999999955
 30
0.0
 11
50.500000000000227
 21
-394.99999999999955
 31
0.0
  0
LINE
  8
0
  6
CONTINUOUS
 62
               3
  5
328
 10
-135.0000000000004
 20
-449.55000000000109
 30
0.0
 11
-135.0000000000004
 21
-451.15000000000111
 31
0.0
  0
LINE
  8
0
  6
CONTINUOUS
 62
               3
  5
329
 10
-135.0000000000004
 20
-452.75000000000102
 30
0.0
 11
-135.0000000000004
 21
-451.15000000000111
 31
0.0
  0
LINE
  8
0
  6
CONTINUOUS
 62
               3
  5
32A
 10
-78.750000000000284
 20
-448.05000000000064
 30
0.0
 11
-78.750000000000284
 21
-449.55000000000064
 31
0.0
  0
LINE
  8
0
  6
CONTINUOUS
 62
               3
  5
32B
 10
-78.750000000000284
 20
-452.75000000000091
 30
0.0
 11
-78.750000000000284
 21
-454.2500000000008
 31
0.0
  0
LINE
  8
0
  6
CONTINUOUS
 62
               3
  5
32C
 10
-49.499999999999034
 20
-525.00000000000011
 30
0.0
 11
-49.499999999999034
 21
-510.00000000000102
 31
0.0
  0
LINE
  8
0
  6
CONTINUOUS
 62
               3
  5
32D
 10
-52.499999999999147
 20
-525.00000000000011
 30
0.0
 11
52.500000000001705
 21
-524.99999999999909
 31
0.0
  0
ARC
  8
0
  6
CONTINUOUS
 62
               3
  5
32E
 10
-59.999999999999716
 20
-399.0000000000008
 30
0.0
 40
4.0
 50
89.999999999982236
 51
179.99999999996518
  0
ARC
  8
0
  6
CONTINUOUS
 62
               3
  5
32F
 10
-62.999999999999829
 20
-396.0000000000008
 30
0.0
 40
1.0000000000000004
 50
89.999999999981483
 51
179.99999999996524
  0
LINE
  8
0
  6
CONTINUOUS
 62
               3
  5
330
 10
-65.599999999999739
 20
-396.0000000000008
 30
0.0
 11
-65.599999999999739
 21
-448.55000000000064
 31
0.0
  0
LINE
  8
0
  6
CONTINUOUS
 62
               3
  5
331
 10
-64.000000000000057
 20
-396.0000000000008
 30
0.0
 11
-64.000000000000057
 21
-448.55000000000064
 31
0.0
  0
LINE
  8
0
  6
CONTINUOUS
 62
               3
  5
332
 10
-66.599999999999966
 20
-451.15000000000066
 30
0.0
 11
-135.0000000000004
 21
-451.15000000000111
 31
0.0
  0
LINE
  8
0
  6
CONTINUOUS
 62
               3
  5
333
 10
-66.599999999999966
 20
-449.55000000000064
 30
0.0
 11
-135.0000000000004
 21
-449.55000000000109
 31
0.0
  0
LINE
  8
0
  6
CONTINUOUS
 62
               3
  5
334
 10
-49.999999999999716
 20
-393.40000000000089
 30
0.0
 11
-62.999999999999829
 21
-393.40000000000089
 31
0.0
  0
LINE
  8
0
  6
CONTINUOUS
 62
               3
  5
335
 10
0.0000000000002842
 20
-394.99999999999977
 30
0.0
 11
-62.999999999999829
 21
-395.00000000000091
 31
0.0
  0
LINE
  8
0
  6
CONTINUOUS
 62
               3
  5
336
 10
-49.999999999999716
 20
-393.40000000000089
 30
0.0
 11
-49.999999999999716
 21
-395.00000000000068
 31
0.0
  0
LINE
  8
0
  6
CONTINUOUS
 62
               3
  5
337
 10
-49.99999999999801
 20
-511.60000000000082
 30
0.0
 11
-62.999999999999261
 21
-511.60000000000082
 31
0.0
  0
ARC
  8
0
  6
CONTINUOUS
 62
               3
  5
338
 10
-62.999999999997556
 20
-509.00000000000102
 30
0.0
 40
1.0000000000000004
 50
179.99999999996601
 51
269.99999999994748
  0
ARC
  8
0
  6
CONTINUOUS
 62
               3
  5
339
 10
-59.99999999999801
 20
-506.00000000000114
 30
0.0
 40
4.0
 50
179.99999999996601
 51
269.99999999994901
  0
LINE
  8
0
  6
CONTINUOUS
 62
               3
  5
33A
 10
-49.99999999999801
 20
-511.60000000000082
 30
0.0
 11
-49.99999999999801
 21
-510.00000000000102
 31
0.0
  0
LINE
  8
0
  6
CONTINUOUS
 62
               3
  5
33B
 10
-63.999999999997783
 20
-509.00000000000102
 30
0.0
 11
-64.000000000000625
 21
-453.75000000000057
 31
0.0
  0
LINE
  8
0
  6
CONTINUOUS
 62
               3
  5
33C
 10
0.0000000000014211
 20
-509.99999999999977
 30
0.0
 11
-62.999999999997556
 21
-510.00000000000102
 31
0.0
  0
LINE
  8
0
  6
CONTINUOUS
 62
               3
  5
33D
 10
0.0000000000014211
 20
-484.99999999999977
 30
0.0
 11
-63.999999999997783
 21
-485.00000000000091
 31
0.0
  0
LINE
  8
0
  6
CONTINUOUS
 62
               3
  5
33E
 10
-66.599999999999966
 20
-452.75000000000068
 30
0.0
 11
-135.0000000000004
 21
-452.75000000000102
 31
0.0
  0
LINE
  8
0
  6
CONTINUOUS
 62
               3
  5
33F
 10
-64.000000000000057
 20
-420.00000000000011
 30
0.0
 11
0.0000000000002842
 21
-419.99999999999977
 31
0.0
  0
LINE
  8
0
  6
CONTINUOUS
 62
               3
  5
340
 10
-60.999999999999943
 20
-420.00000000000011
 30
0.0
 11
-60.999999999998806
 21
-485.00000000000091
 31
0.0
  0
LINE
  8
0
  6
CONTINUOUS
 62
               3
  5
341
 10
-71.250000000000284
 20
-448.05000000000064
 30
0.0
 11
-78.750000000000284
 21
-448.05000000000064
 31
0.0
  0
LINE
  8
0
  6
CONTINUOUS
 62
               3
  5
342
 10
-71.250000000000284
 20
-454.25000000000068
 30
0.0
 11
-78.750000000000284
 21
-454.2500000000008
 31
0.0
  0
LINE
  8
0
  6
CONTINUOUS
 62
               3
  5
343
 10
-71.250000000000284
 20
-448.05000000000064
 30
0.0
 11
-71.250000000000284
 21
-449.55000000000064
 31
0.0
  0
LINE
  8
0
  6
CONTINUOUS
 62
               3
  5
344
 10
-71.250000000000284
 20
-452.75000000000068
 30
0.0
 11
-71.250000000000284
 21
-454.25000000000068
 31
0.0
  0
LINE
  8
0
  6
CONTINUOUS
 62
               3
  5
345
 10
0.0000000000002842
 20
-394.99999999999977
 30
0.0
 11
62.999999999999829
 21
-394.99999999999989
 31
0.0
  0
LINE
  8
0
  6
CONTINUOUS
 62
               3
  5
346
 10
0.0000000000014211
 20
-509.99999999999977
 30
0.0
 11
62.999999999999829
 21
-510.00000000000011
 31
0.0
  0
LINE
  8
0
  6
CONTINUOUS
 62
               3
  5
347
 10
0.0000000000014211
 20
-484.99999999999977
 30
0.0
 11
64.000000000000057
 21
-484.99999999999989
 31
0.0
  0
LINE
  8
0
  6
CONTINUOUS
 62
               3
  5
348
 10
64.000000000000057
 20
-419.99999999999909
 30
0.0
 11
0.0000000000002842
 21
-419.99999999999977
 31
0.0
  0
ARC
  8
0
  6
CONTINUOUS
 62
               3
  5
349
 10
-62.999999999999829
 20
-396.0000000000008
 30
0.0
 40
2.6000000000000001
 50
89.999999999999801
 51
179.9999999999996
  0
ARC
  8
0
  6
CONTINUOUS
 62
               3
  5
34A
 10
-66.599999999999966
 20
-448.55000000000064
 30
0.0
 40
2.6000000000000001
 50
269.99999999999937
 51
359.9999999999992
  0
ARC
  8
0
  6
CONTINUOUS
 62
               3
  5
34B
 10
-66.599999999999966
 20
-448.55000000000064
 30
0.0
 40
1.0
 50
269.99999999999937
 51
359.9999999999992
  0
ARC
  8
0
  6
CONTINUOUS
 62
               3
  5
34C
 10
-66.599999999999966
 20
-453.75000000000068
 30
0.0
 40
2.6000000000000001
 50
0.0000000000006647
 51
90.000000000000469
  0
ARC
  8
0
  6
CONTINUOUS
 62
               3
  5
34D
 10
-66.599999999999966
 20
-453.75000000000068
 30
0.0
 40
1.0
 50
0.0000000000006647
 51
90.000000000000469
  0
LINE
  8
0
  6
CONTINUOUS
 62
               3
  5
34E
 10
-65.59999999999917
 20
-509.00000000000102
 30
0.0
 11
-65.599999999999739
 21
-453.75000000000057
 31
0.0
  0
ARC
  8
0
  6
CONTINUOUS
 62
               3
  5
34F
 10
-62.999999999999261
 20
-509.00000000000102
 30
0.0
 40
2.6000000000000001
 50
179.9999999999996
 51
269.99999999999937
  0
LINE
  8
0
  6
CONTINUOUS
 62
               3
  5
350
 10
49.499999999999318
 20
-525.0
 30
0.0
 11
49.499999999999318
 21
-510.00000000000102
 31
0.0
  0
ARC
  8
0
  6
CONTINUOUS
 62
               3
  5
351
 10
59.999999999999716
 20
-399.0000000000008
 30
0.0
 40
4.0
 50
0.0000000000345138
 51
90.000000000017465
  0
ARC
  8
0
  6
CONTINUOUS
 62
               3
  5
352
 10
62.999999999999829
 20
-396.00000000000068
 30
0.0
 40
1.0000000000000004
 50
0.0000000000344629
 51
90.000000000018233
  0
LINE
  8
0
  6
CONTINUOUS
 62
               3
  5
353
 10
65.599999999999739
 20
-396.00000000000068
 30
0.0
 11
65.599999999999739
 21
-448.55000000000041
 31
0.0
  0
LINE
  8
0
  6
CONTINUOUS
 62
               3
  5
354
 10
64.000000000000057
 20
-396.00000000000068
 30
0.0
 11
64.000000000000057
 21
-448.55000000000041
 31
0.0
  0
LINE
  8
0
  6
CONTINUOUS
 62
               3
  5
355
 10
66.599999999999966
 20
-451.15000000000055
 30
0.0
 11
135.00000000000017
 21
-451.15000000000077
 31
0.0
  0
LINE
  8
0
  6
CONTINUOUS
 62
               3
  5
356
 10
66.599999999999966
 20
-449.55000000000052
 30
0.0
 11
135.00000000000017
 21
-449.55000000000086
 31
0.0
  0
LINE
  8
0
  6
CONTINUOUS
 62
               3
  5
357
 10
49.999999999999716
 20
-393.40000000000077
 30
0.0
 11
62.999999999999829
 21
-393.40000000000077
 31
0.0
  0
LINE
  8
0
  6
CONTINUOUS
 62
               3
  5
358
 10
49.999999999999716
 20
-393.40000000000077
 30
0.0
 11
49.999999999999716
 21
-395.00000000000057
 31
0.0
  0
LINE
  8
0
  6
CONTINUOUS
 62
               3
  5
359
 10
49.99999999999801
 20
-511.6000000000007
 30
0.0
 11
62.999999999999261
 21
-511.6000000000007
 31
0.0
  0
ARC
  8
0
  6
CONTINUOUS
 62
               3
  5
35A
 10
62.99999999999784
 20
-509.00000000000091
 30
0.0
 40
1.0000000000000004
 50
270.00000000005139
 51
360.00000000003286
  0
ARC
  8
0
  6
CONTINUOUS
 62
               3
  5
35B
 10
59.99999999999801
 20
-506.00000000000091
 30
0.0
 40
4.0
 50
270.00000000004985
 51
360.00000000003286
  0
LINE
  8
0
  6
CONTINUOUS
 62
               3
  5
35C
 10
49.99999999999801
 20
-511.6000000000007
 30
0.0
 11
49.99999999999801
 21
-510.00000000000102
 31
0.0
  0
LINE
  8
0
  6
CONTINUOUS
 62
               3
  5
35D
 10
63.999999999997783
 20
-509.00000000000091
 30
0.0
 11
64.000000000000625
 21
-453.75000000000045
 31
0.0
  0
LINE
  8
0
  6
CONTINUOUS
 62
               3
  5
35E
 10
66.599999999999966
 20
-452.75000000000045
 30
0.0
 11
135.00000000000017
 21
-452.7500000000008
 31
0.0
  0
LINE
  8
0
  6
CONTINUOUS
 62
               3
  5
35F
 10
60.999999999999943
 20
-420.0
 30
0.0
 11
60.999999999998806
 21
-485.00000000000068
 31
0.0
  0
LINE
  8
0
  6
CONTINUOUS
 62
               3
  5
360
 10
135.00000000000017
 20
-449.55000000000086
 30
0.0
 11
135.00000000000017
 21
-451.15000000000077
 31
0.0
  0
LINE
  8
0
  6
CONTINUOUS
 62
               3
  5
361
 10
135.00000000000017
 20
-452.7500000000008
 30
0.0
 11
135.00000000000017
 21
-451.15000000000077
 31
0.0
  0
LINE
  8
0
  6
CONTINUOUS
 62
               3
  5
362
 10
71.250000000000284
 20
-448.05000000000052
 30
0.0
 11
78.750000000000284
 21
-448.05000000000052
 31
0.0
  0
LINE
  8
0
  6
CONTINUOUS
 62
               3
  5
363
 10
71.250000000000284
 20
-454.25000000000057
 30
0.0
 11
78.750000000000284
 21
-454.25000000000068
 31
0.0
  0
LINE
  8
0
  6
CONTINUOUS
 62
               3
  5
364
 10
71.250000000000284
 20
-448.05000000000052
 30
0.0
 11
71.250000000000284
 21
-449.55000000000052
 31
0.0
  0
LINE
  8
0
  6
CONTINUOUS
 62
               3
  5
365
 10
71.250000000000284
 20
-452.75000000000045
 30
0.0
 11
71.250000000000284
 21
-454.25000000000057
 31
0.0
  0
LINE
  8
0
  6
CONTINUOUS
 62
               3
  5
366
 10
78.750000000000284
 20
-448.05000000000052
 30
0.0
 11
78.750000000000284
 21
-449.55000000000052
 31
0.0
  0
LINE
  8
0
  6
CONTINUOUS
 62
               3
  5
367
 10
78.750000000000284
 20
-452.7500000000008
 30
0.0
 11
78.750000000000284
 21
-454.25000000000068
 31
0.0
  0
ARC
  8
0
  6
CONTINUOUS
 62
               3
  5
368
 10
62.999999999999829
 20
-396.00000000000068
 30
0.0
 40
2.6000000000000001
 50
0.0000000000001059
 51
89.999999999999915
  0
ARC
  8
0
  6
CONTINUOUS
 62
               3
  5
369
 10
66.599999999999966
 20
-448.55000000000041
 30
0.0
 40
2.6000000000000001
 50
179.99999999999969
 51
269.99999999999949
  0
ARC
  8
0
  6
CONTINUOUS
 62
               3
  5
36A
 10
66.599999999999966
 20
-448.55000000000041
 30
0.0
 40
1.0
 50
179.99999999999969
 51
269.99999999999949
  0
ARC
  8
0
  6
CONTINUOUS
 62
               3
  5
36B
 10
66.599999999999966
 20
-453.75000000000057
 30
0.0
 40
2.6000000000000001
 50
89.999999999999233
 51
179.99999999999903
  0
ARC
  8
0
  6
CONTINUOUS
 62
               3
  5
36C
 10
66.599999999999966
 20
-453.75000000000057
 30
0.0
 40
1.0
 50
89.999999999999233
 51
179.99999999999903
  0
LINE
  8
0
  6
CONTINUOUS
 62
               3
  5
36D
 10
65.59999999999917
 20
-509.00000000000102
 30
0.0
 11
65.599999999999739
 21
-453.75000000000057
 31
0.0
  0
ARC
  8
0
  6
CONTINUOUS
 62
               3
  5
36E
 10
62.999999999999261
 20
-509.00000000000102
 30
0.0
 40
2.6000000000000001
 50
269.99999999999949
 51
359.99999999999932
  0
LINE
  8
0
  6
CONTINUOUS
 62
               3
  5
36F
 10
-552.4999999999992
 20
-524.99999999999955
 30
0.0
 11
-447.49999999999835
 21
-524.99999999999852
 31
0.0
  0
LINE
  8
0
  6
CONTINUOUS
 62
               3
  5
370
 10
-549.49999999999909
 20
-524.99999999999955
 30
0.0
 11
-549.49999999999909
 21
-510.00000000000045
 31
0.0
  0
LINE
  8
0
  6
CONTINUOUS
 62
               3
  5
371
 10
-450.50000000000074
 20
-524.99999999999943
 30
0.0
 11
-450.50000000000074
 21
-510.00000000000045
 31
0.0
  0
ARC
  8
0
  6
CONTINUOUS
 62
               3
  5
372
 10
-559.99999999999807
 20
-506.00000000000051
 30
0.0
 40
4.0
 50
179.99999999996601
 51
269.99999999994901
  0
LINE
  8
0
  6
CONTINUOUS
 62
               3
  5
373
 10
-563.99999999999807
 20
-506.00000000000051
 30
0.0
 11
-563.99999999999807
 21
-485.00000000000028
 31
0.0
  0
LINE
  8
0
  6
CONTINUOUS
 62
               3
  5
374
 10
-515.99999999999955
 20
-484.99999999999943
 30
0.0
 11
-563.99999999999784
 21
-485.00000000000028
 31
0.0
  0
LINE
  8
0
  6
CONTINUOUS
 62
               3
  5
375
 10
-515.99999999999955
 20
-509.99999999999932
 30
0.0
 11
-560.00000000000159
 21
-510.00000000000051
 31
0.0
  0
LINE
  8
0
  6
CONTINUOUS
 62
               3
  5
376
 10
-484.00000000000063
 20
-484.99999999999943
 30
0.0
 11
-436.00000000000227
 21
-485.00000000000028
 31
0.0
  0
LINE
  8
0
  6
CONTINUOUS
 62
               3
  5
377
 10
-484.00000000000063
 20
-509.99999999999932
 30
0.0
 11
-439.99999999999852
 21
-510.00000000000051
 31
0.0
  0
ARC
  8
0
  6
CONTINUOUS
 62
               3
  5
378
 10
-440.00000000000205
 20
-506.00000000000051
 30
0.0
 40
4.0
 50
270.00000000004979
 51
360.0000000000328
  0
LINE
  8
0
  6
CONTINUOUS
 62
               3
  5
379
 10
-436.00000000000205
 20
-506.00000000000051
 30
0.0
 11
-436.00000000000227
 21
-485.00000000000028
 31
0.0
  0
ARC
  8
0
  6
CONTINUOUS
 62
               3
  5
37A
 10
-560.00000000000023
 20
-399.00000000000023
 30
0.0
 40
4.0
 50
89.999999999982236
 51
179.99999999996518
  0
LINE
  8
0
  6
CONTINUOUS
 62
               3
  5
37B
 10
-564.00000000000023
 20
-398.99999999999784
 30
0.0
 11
-564.00000000000045
 21
-419.99999999999955
 31
0.0
  0
LINE
  8
0
  6
CONTINUOUS
 62
               3
  5
37C
 10
-515.99999999999955
 20
-394.99999999999937
 30
0.0
 11
-560.00000000000023
 21
-395.00000000000023
 31
0.0
  0
LINE
  8
0
  6
CONTINUOUS
 62
               3
  5
37D
 10
-564.00000000000045
 20
-419.99999999999955
 30
0.0
 11
-515.99999999999955
 21
-419.9999999999992
 31
0.0
  0
LINE
  8
0
  6
CONTINUOUS
 62
               3
  5
37E
 10
-483.99999999999898
 20
-394.99999999999915
 30
0.0
 11
-440.00000000000045
 21
-394.99999999999926
 31
0.0
  0
LINE
  8
0
  6
CONTINUOUS
 62
               3
  5
37F
 10
-436.00000000000034
 20
-419.99999999999858
 30
0.0
 11
-483.99999999999898
 21
-419.99999999999898
 31
0.0
  0
ARC
  8
0
  6
CONTINUOUS
 62
               3
  5
380
 10
-440.00000000000045
 20
-399.00000000000011
 30
0.0
 40
4.0
 50
0.0000000000345138
 51
90.000000000017465
  0
LINE
  8
0
  6
CONTINUOUS
 62
               3
  5
381
 10
-436.00000000000034
 20
-399.00000000000011
 30
0.0
 11
-436.00000000000034
 21
-419.99999999999858
 31
0.0
  0
LINE
  8
0
  6
CONTINUOUS
 62
               3
  5
382
 10
-561.00000000000045
 20
-419.99999999999955
 30
0.0
 11
-560.99999999999932
 21
-485.00000000000023
 31
0.0
  0
LINE
  8
0
  6
CONTINUOUS
 62
               3
  5
383
 10
-439.00000000000023
 20
-419.99999999999943
 30
0.0
 11
-439.00000000000125
 21
-485.00000000000011
 31
0.0
  0
LINE
  8
0
  6
CONTINUOUS
 62
               3
  5
384
 10
-515.99999999999955
 20
-511.59999999999934
 30
0.0
 11
-483.99999999999898
 21
-511.59999999999889
 31
0.0
  0
LINE
  8
0
  6
CONTINUOUS
 62
               3
  5
385
 10
-515.99999999999955
 20
-393.39999999999918
 30
0.0
 11
-515.99999999999955
 21
-511.59999999999934
 31
0.0
  0
LINE
  8
0
  6
CONTINUOUS
 62
               3
  5
386
 10
-483.99999999999898
 20
-511.59999999999889
 30
0.0
 11
-483.99999999999943
 21
-393.39999999999918
 31
0.0
  0
LINE
  8
0
  6
CONTINUOUS
 62
               3
  5
387
 10
-516.00000000000023
 20
-393.39999999999918
 30
0.0
 11
-484.00000000000011
 21
-393.39999999999918
 31
0.0
  0
LINE
  8
0
  6
CONTINUOUS
 62
               3
  5
388
 10
-515.99999999999955
 20
-451.15000000000055
 30
0.0
 11
-483.99999999999898
 21
-451.15000000000055
 31
0.0
  0
LINE
  8
0
  6
CONTINUOUS
 62
               3
  5
389
 10
-515.99999999999955
 20
-449.55000000000052
 30
0.0
 11
-483.99999999999898
 21
-449.55000000000052
 31
0.0
  0
LINE
  8
0
  6
CONTINUOUS
 62
               3
  5
38A
 10
-515.99999999999955
 20
-452.75000000000057
 30
0.0
 11
-483.99999999999898
 21
-452.75000000000057
 31
0.0
  0
LINE
  8
0
  6
CONTINUOUS
 62
               3
  5
38B
 10
447.5000000000008
 20
-524.99999999999955
 30
0.0
 11
552.50000000000159
 21
-524.99999999999841
 31
0.0
  0
LINE
  8
0
  6
CONTINUOUS
 62
               3
  5
38C
 10
450.50000000000091
 20
-524.99999999999955
 30
0.0
 11
450.50000000000091
 21
-510.0000000000004
 31
0.0
  0
LINE
  8
0
  6
CONTINUOUS
 62
               3
  5
38D
 10
549.49999999999932
 20
-524.99999999999932
 30
0.0
 11
549.49999999999932
 21
-510.0000000000004
 31
0.0
  0
ARC
  8
0
  6
CONTINUOUS
 62
               3
  5
38E
 10
440.00000000000193
 20
-506.00000000000045
 30
0.0
 40
4.0
 50
179.99999999996601
 51
269.99999999994901
  0
LINE
  8
0
  6
CONTINUOUS
 62
               3
  5
38F
 10
436.00000000000193
 20
-506.00000000000045
 30
0.0
 11
436.00000000000193
 21
-485.00000000000023
 31
0.0
  0
LINE
  8
0
  6
CONTINUOUS
 62
               3
  5
390
 10
484.00000000000045
 20
-484.99999999999937
 30
0.0
 11
436.00000000000216
 21
-485.00000000000023
 31
0.0
  0
LINE
  8
0
  6
CONTINUOUS
 62
               3
  5
391
 10
484.00000000000045
 20
-509.99999999999926
 30
0.0
 11
439.99999999999841
 21
-510.00000000000045
 31
0.0
  0
LINE
  8
0
  6
CONTINUOUS
 62
               3
  5
392
 10
515.99999999999932
 20
-484.99999999999937
 30
0.0
 11
563.99999999999773
 21
-485.00000000000023
 31
0.0
  0
LINE
  8
0
  6
CONTINUOUS
 62
               3
  5
393
 10
515.99999999999932
 20
-509.99999999999926
 30
0.0
 11
560.00000000000148
 21
-510.00000000000045
 31
0.0
  0
ARC
  8
0
  6
CONTINUOUS
 62
               3
  5
394
 10
559.99999999999795
 20
-506.00000000000045
 30
0.0
 40
4.0
 50
270.00000000004979
 51
360.0000000000328
  0
LINE
  8
0
  6
CONTINUOUS
 62
               3
  5
395
 10
563.99999999999795
 20
-506.00000000000045
 30
0.0
 11
563.99999999999773
 21
-485.00000000000023
 31
0.0
  0
ARC
  8
0
  6
CONTINUOUS
 62
               3
  5
396
 10
439.99999999999977
 20
-399.00000000000017
 30
0.0
 40
4.0
 50
89.999999999982236
 51
179.99999999996518
  0
LINE
  8
0
  6
CONTINUOUS
 62
               3
  5
397
 10
435.99999999999977
 20
-398.99999999999778
 30
0.0
 11
435.99999999999955
 21
-419.99999999999949
 31
0.0
  0
LINE
  8
0
  6
CONTINUOUS
 62
               3
  5
398
 10
484.00000000000045
 20
-394.99999999999932
 30
0.0
 11
439.99999999999977
 21
-395.00000000000017
 31
0.0
  0
LINE
  8
0
  6
CONTINUOUS
 62
               3
  5
399
 10
435.99999999999955
 20
-419.99999999999949
 30
0.0
 11
484.00000000000045
 21
-419.99999999999915
 31
0.0
  0
LINE
  8
0
  6
CONTINUOUS
 62
               3
  5
39A
 10
516.00000000000102
 20
-394.99999999999909
 30
0.0
 11
559.99999999999955
 21
-394.9999999999992
 31
0.0
  0
LINE
  8
0
  6
CONTINUOUS
 62
               3
  5
39B
 10
563.99999999999966
 20
-419.99999999999852
 30
0.0
 11
516.00000000000102
 21
-419.99999999999892
 31
0.0
  0
ARC
  8
0
  6
CONTINUOUS
 62
               3
  5
39C
 10
559.99999999999955
 20
-399.00000000000006
 30
0.0
 40
4.0
 50
0.0000000000345138
 51
90.000000000017465
  0
LINE
  8
0
  6
CONTINUOUS
 62
               3
  5
39D
 10
563.99999999999966
 20
-399.00000000000006
 30
0.0
 11
563.99999999999966
 21
-419.99999999999852
 31
0.0
  0
LINE
  8
0
  6
CONTINUOUS
 62
               3
  5
39E
 10
438.99999999999955
 20
-419.99999999999949
 30
0.0
 11
439.00000000000068
 21
-485.00000000000017
 31
0.0
  0
LINE
  8
0
  6
CONTINUOUS
 62
               3
  5
39F
 10
560.99999999999977
 20
-419.99999999999937
 30
0.0
 11
560.99999999999875
 21
-485.00000000000006
 31
0.0
  0
LINE
  8
0
  6
CONTINUOUS
 62
               3
  5
3A0
 10
484.00000000000045
 20
-511.59999999999928
 30
0.0
 11
516.00000000000102
 21
-511.59999999999883
 31
0.0
  0
LINE
  8
0
  6
CONTINUOUS
 62
               3
  5
3A1
 10
484.00000000000045
 20
-393.39999999999912
 30
0.0
 11
484.00000000000045
 21
-511.59999999999928
 31
0.0
  0
LINE
  8
0
  6
CONTINUOUS
 62
               3
  5
3A2
 10
516.00000000000102
 20
-511.59999999999883
 30
0.0
 11
516.00000000000057
 21
-393.39999999999912
 31
0.0
  0
LINE
  8
0
  6
CONTINUOUS
 62
               3
  5
3A3
 10
483.99999999999977
 20
-393.39999999999912
 30
0.0
 11
515.99999999999989
 21
-393.39999999999912
 31
0.0
  0
LINE
  8
0
  6
CONTINUOUS
 62
               3
  5
3A4
 10
484.00000000000045
 20
-451.15000000000049
 30
0.0
 11
516.00000000000102
 21
-451.15000000000049
 31
0.0
  0
LINE
  8
0
  6
CONTINUOUS
 62
               3
  5
3A5
 10
484.00000000000045
 20
-449.55000000000047
 30
0.0
 11
516.00000000000102
 21
-449.55000000000047
 31
0.0
  0
LINE
  8
0
  6
CONTINUOUS
 62
               3
  5
3A6
 10
484.00000000000045
 20
-452.75000000000051
 30
0.0
 11
516.00000000000102
 21
-452.75000000000051
 31
0.0
  0
LINE
  8
0
  6
CONTINUOUS
 62
               3
  5
3A7
 10
-117.66607844660295
 20
448.84042727640349
 30
0.0
 11
-38.818399461010799
 21
446.08700565358708
 31
0.0
  0
LINE
  8
0
  6
CONTINUOUS
 62
               3
  5
3A8
 10
-118.0000000000018
 20
448.84042727640349
 30
0.0
 11
-118.0000000000018
 21
457.35726920053776
 31
0.0
  0
LINE
  8
0
  6
CONTINUOUS
 62
               3
  5
3A9
 10
-118.0000000000018
 20
457.35726920053793
 30
0.0
 11
-118.0000000000018
 21
568.14791192599967
 31
0.0
  0
LINE
  8
0
  6
CONTINUOUS
 62
               3
  5
3AA
 10
-117.66607844660295
 20
568.15957272359424
 30
0.0
 11
-38.818399461010799
 21
570.91299434641041
 31
0.0
  0
ARC
  8
0
  6
CONTINUOUS
 62
               3
  5
3AB
 10
-49.499999999999773
 20
58.679617631586552
 30
0.0
 40
24.0
 50
142.47648679788571
 51
173.54536552563749
  0
LINE
  8
0
  6
CONTINUOUS
 62
               3
  5
3AC
 10
-77.97300740549413
 20
57.795685307842746
 30
0.0
 11
-117.99999999999986
 21
56.397911926001711
 31
0.0
  0
LINE
  8
0
  6
CONTINUOUS
 62
               3
  5
3AD
 10
-117.99999999999986
 20
-54.392730799460708
 30
0.0
 11
-117.99999999999986
 21
56.397911926001711
 31
0.0
  0
ARC
  8
0
  6
CONTINUOUS
 62
               3
  5
3AE
 10
-78.147075035268614
 20
62.780330042420246
 30
0.0
 40
5.0
 50
271.99999999999989
 51
343.70736505070437
  0
ARC
  8
0
  6
CONTINUOUS
 62
               3
  5
3AF
 10
-72.499999999999744
 20
76.343139364242347
 30
0.0
 40
5.0
 50
322.47648679788472
 51
359.9999999999992
  0
LINE
  8
0
  6
CONTINUOUS
 62
               3
  5
3B0
 10
-117.99999999999986
 20
-54.392730799460423
 30
0.0
 11
-118.0
 21
-61.920087502237834
 31
0.0
  0
ARC
  8
0
  6
CONTINUOUS
 62
               3
  5
3B1
 10
-0.4838501072182737
 20
510.3020222157453
 30
0.0
 40
76.375634498080188
 50
254.81932855955753
 51
285.18067144044119
  0
ARC
  8
0
  6
CONTINUOUS
 62
               3
  5
3B2
 10
-2.3594846052984622
 20
508.42638771766531
 30
0.0
 40
76.375634498080188
 50
344.81932855955733
 51
375.18067144044102
  0
ARC
  8
0
  6
CONTINUOUS
 62
               3
  5
3B3
 10
-0.4838501072182453
 20
506.55075321958509
 30
0.0
 40
76.375634498080188
 50
74.819328559557945
 51
105.18067144044161
  0
ARC
  8
0
  6
CONTINUOUS
 62
               3
  5
3B4
 10
1.3917843908618863
 20
508.42638771766531
 30
0.0
 40
76.375634498080188
 50
164.81932855955776
 51
195.18067144044142
  0
CIRCLE
  8
0
  6
CONTINUOUS
 62
               3
  5
3B5
 10
-0.0000000000017621
 20
508.49999999999898
 30
0.0
 40
61.000000000000007
  0
ARC
  8
0
  6
CONTINUOUS
 62
               3
  5
3B6
 10
-66.887967650623253
 20
542.42638771766519
 30
0.0
 40
14.0
 50
269.99999999999937
 51
333.10532426411618
  0
ARC
  8
0
  6
CONTINUOUS
 62
               3
  5
3B7
 10
-66.813089630950614
 20
474.42638771766536
 30
0.0
 40
14.0
 50
27.020857876222816
 51
89.999999999999801
  0
ARC
  8
0
  6
CONTINUOUS
 62
               3
  5
3B8
 10
-34.483850107218302
 20
441.89771714285496
 30
0.0
 40
14.0
 50
0.0
 51
62.626786597645228
  0
ARC
  8
0
  6
CONTINUOUS
 62
               3
  5
3B9
 10
33.516149892781698
 20
441.40553155166509
 30
0.0
 40
14.0
 50
116.54381150033591
 51
179.9999999999996
  0
ARC
  8
0
  6
CONTINUOUS
 62
               3
  5
3BA
 10
66.813089630947061
 20
474.42638771766531
 30
0.0
 40
14.0
 50
89.999999999999801
 51
152.97914212377682
  0
ARC
  8
0
  6
CONTINUOUS
 62
               3
  5
3BB
 10
66.887967650619728
 20
542.42638771766519
 30
0.0
 40
14.0
 50
206.8946757358826
 51
269.99999999999937
  0
ARC
  8
0
  6
CONTINUOUS
 62
               3
  5
3BC
 10
33.516149892781812
 20
575.5944684483328
 30
0.0
 40
14.0
 50
179.9999999999996
 51
243.45618849966294
  0
ARC
  8
0
  6
CONTINUOUS
 62
               3
  5
3BD
 10
-34.483850107218188
 20
575.10228285714311
 30
0.0
 40
14.0
 50
297.37321340235388
 51
359.9999999999992
  0
LINE
  8
0
  6
CONTINUOUS
 62
               3
  5
3BE
 10
-66.887967650623253
 20
528.42638771766531
 30
0.0
 11
-72.318713809763096
 21
528.42638771766531
 31
0.0
  0
LINE
  8
0
  6
CONTINUOUS
 62
               3
  5
3BF
 10
-66.887967650623324
 20
488.42638771766485
 30
0.0
 11
-72.318713809763167
 21
488.42638771766485
 31
0.0
  0
LINE
  8
0
  6
CONTINUOUS
 62
               3
  5
3C0
 10
65.920267436187231
 20
528.42638771766485
 30
0.0
 11
71.351013595327075
 21
528.42638771766474
 31
0.0
  0
LINE
  8
0
  6
CONTINUOUS
 62
               3
  5
3C1
 10
65.920267436187004
 20
488.42638771766434
 30
0.0
 11
71.351013595326847
 21
488.42638771766428
 31
0.0
  0
LINE
  8
0
  6
CONTINUOUS
 62
               3
  5
3C2
 10
-20.483850107218075
 20
442.02227017426009
 30
0.0
 11
-20.483850107218075
 21
436.59152401512029
 31
0.0
  0
LINE
  8
0
  6
CONTINUOUS
 62
               3
  5
3C3
 10
19.51614989278238
 20
442.02227017426003
 30
0.0
 11
19.51614989278238
 21
436.59152401512017
 31
0.0
  0
ARC
  8
0
  6
CONTINUOUS
 62
               3
  5
3C4
 10
-40.786625181408098
 20
575.79059424694367
 30
0.0
 40
5.0
 50
272.00000000000017
 51
300.89131288648821
  0
ARC
  8
0
  6
CONTINUOUS
 62
               3
  5
3C5
 10
-0.4838501072183021
 20
508.57361228233265
 30
0.0
 40
73.5
 50
239.10868711351
 51
254.60179884255683
  0
ARC
  8
0
  6
CONTINUOUS
 62
               3
  5
3C6
 10
-0.4838501072183021
 20
508.57361228233265
 30
0.0
 40
73.5
 50
285.7897939448851
 51
344.21020605511438
  0
ARC
  8
0
  6
CONTINUOUS
 62
               3
  5
3C7
 10
-0.4838501072183021
 20
508.42638771766531
 30
0.0
 40
73.5
 50
15.789793944884746
 51
73.817854963407555
  0
ARC
  8
0
  6
CONTINUOUS
 62
               3
  5
3C8
 10
-0.4838501072183021
 20
508.42638771766531
 30
0.0
 40
73.5
 50
105.39820115744224
 51
120.89131288648917
  0
LINE
  8
0
  6
CONTINUOUS
 62
               3
  5
3C9
 10
-425.43357722293445
 20
145.08730192372974
 30
0.0
 11
-425.43357722293445
 21
140.08730192372974
 31
0.0
  0
LINE
  8
0
  6
CONTINUOUS
 62
               3
  5
3CA
 10
-425.43357722293445
 20
145.08730192372974
 30
0.0
 11
-438.93357722293433
 21
155.0000000000004
 31
0.0
  0
LINE
  8
0
  6
CONTINUOUS
 62
               3
  5
3CB
 10
-560.93357722293422
 20
155.0000000000004
 30
0.0
 11
-438.93357722293433
 21
155.0000000000004
 31
0.0
  0
LINE
  8
0
  6
CONTINUOUS
 62
               3
  5
3CC
 10
-574.49999999999977
 20
145.08730192372974
 30
0.0
 11
-574.49999999999977
 21
140.08730192372974
 31
0.0
  0
LINE
  8
0
  6
CONTINUOUS
 62
               3
  5
3CD
 10
-574.49999999999977
 20
145.08730192372974
 30
0.0
 11
-560.99999999999977
 21
155.0000000000004
 31
0.0
  0
ARC
  8
0
  6
CONTINUOUS
 62
               3
  5
3CE
 10
-574.50000000000023
 20
133.08303511363798
 30
0.0
 40
7.0
 50
0.0
 51
87.999999999999886
  0
ARC
  8
0
  6
CONTINUOUS
 62
               3
  5
3CF
 10
-425.43357722293433
 20
133.083035113638
 30
0.0
 40
7.0
 50
91.999999999999716
 51
179.9999999999996
  0
LINE
  8
0
  6
CONTINUOUS
 62
               3
  5
3D0
 10
-567.50000000000023
 20
133.08303511363798
 30
0.0
 11
-567.50000000000023
 21
126.50923153671221
 31
0.0
  0
LINE
  8
0
  6
CONTINUOUS
 62
               3
  5
3D1
 10
-432.43357722293433
 20
133.083035113638
 30
0.0
 11
-432.49999999999989
 21
126.50923153671221
 31
0.0
  0
LINE
  8
0
  6
CONTINUOUS
 62
               3
  5
3D2
 10
74.566422777065554
 20
145.0873019237298
 30
0.0
 11
74.566422777065554
 21
140.0873019237298
 31
0.0
  0
LINE
  8
0
  6
CONTINUOUS
 62
               3
  5
3D3
 10
74.566422777065554
 20
145.0873019237298
 30
0.0
 11
61.066422777065668
 21
155.00000000000045
 31
0.0
  0
LINE
  8
0
  6
CONTINUOUS
 62
               3
  5
3D4
 10
-60.933577222934218
 20
155.00000000000045
 30
0.0
 11
61.066422777065668
 21
155.00000000000045
 31
0.0
  0
LINE
  8
0
  6
CONTINUOUS
 62
               3
  5
3D5
 10
-74.499999999999773
 20
145.0873019237298
 30
0.0
 11
-74.499999999999773
 21
140.0873019237298
 31
0.0
  0
LINE
  8
0
  6
CONTINUOUS
 62
               3
  5
3D6
 10
-74.499999999999773
 20
145.0873019237298
 30
0.0
 11
-60.999999999999773
 21
155.00000000000045
 31
0.0
  0
ARC
  8
0
  6
CONTINUOUS
 62
               3
  5
3D7
 10
-74.500000000000227
 20
133.08303511363803
 30
0.0
 40
7.0
 50
0.0
 51
87.999999999999886
  0
ARC
  8
0
  6
CONTINUOUS
 62
               3
  5
3D8
 10
74.566422777065668
 20
133.08303511363806
 30
0.0
 40
7.0
 50
91.999999999999716
 51
179.9999999999996
  0
LINE
  8
0
  6
CONTINUOUS
 62
               3
  5
3D9
 10
-67.500000000000227
 20
133.08303511363803
 30
0.0
 11
-67.500000000000227
 21
126.50923153671226
 31
0.0
  0
LINE
  8
0
  6
CONTINUOUS
 62
               3
  5
3DA
 10
67.566422777065668
 20
133.08303511363806
 30
0.0
 11
67.500000000000114
 21
126.50923153671226
 31
0.0
  0
LINE
  8
0
  6
CONTINUOUS
 62
               3
  5
3DB
 10
574.56642277706555
 20
145.0873019237298
 30
0.0
 11
574.56642277706555
 21
140.0873019237298
 31
0.0
  0
LINE
  8
0
  6
CONTINUOUS
 62
               3
  5
3DC
 10
574.56642277706555
 20
145.0873019237298
 30
0.0
 11
561.06642277706567
 21
155.00000000000045
 31
0.0
  0
LINE
  8
0
  6
CONTINUOUS
 62
               3
  5
3DD
 10
439.06642277706578
 20
155.00000000000045
 30
0.0
 11
561.06642277706567
 21
155.00000000000045
 31
0.0
  0
LINE
  8
0
  6
CONTINUOUS
 62
               3
  5
3DE
 10
425.50000000000023
 20
145.0873019237298
 30
0.0
 11
425.50000000000023
 21
140.0873019237298
 31
0.0
  0
LINE
  8
0
  6
CONTINUOUS
 62
               3
  5
3DF
 10
425.50000000000023
 20
145.0873019237298
 30
0.0
 11
439.00000000000023
 21
155.00000000000045
 31
0.0
  0
ARC
  8
0
  6
CONTINUOUS
 62
               3
  5
3E0
 10
425.49999999999977
 20
133.08303511363803
 30
0.0
 40
7.0
 50
0.0
 51
87.999999999999886
  0
ARC
  8
0
  6
CONTINUOUS
 62
               3
  5
3E1
 10
574.56642277706567
 20
133.08303511363806
 30
0.0
 40
7.0
 50
91.999999999999716
 51
179.9999999999996
  0
LINE
  8
0
  6
CONTINUOUS
 62
               3
  5
3E2
 10
432.49999999999977
 20
133.08303511363803
 30
0.0
 11
432.49999999999977
 21
126.50923153671226
 31
0.0
  0
LINE
  8
0
  6
CONTINUOUS
 62
               3
  5
3E3
 10
567.56642277706567
 20
133.08303511363806
 30
0.0
 11
567.50000000000011
 21
126.50923153671226
 31
0.0
  0
LINE
  8
0
  6
DASHED2
 62
               3
  5
3E4
 10
-126.76000000000056
 20
-449.55000000000064
 30
0.0
 11
-103.24000000000024
 21
-449.55000000000064
 31
0.0
  0
LINE
  8
0
  6
DASHED2
 62
               3
  5
3E5
 10
-103.24000000000166
 20
-452.75000000000091
 30
0.0
 11
-126.76000000000198
 21
-452.75000000000091
 31
0.0
  0
LINE
  8
0
  6
DASHED2
 62
               3
  5
3E6
 10
126.76000000000033
 20
-449.55000000000041
 30
0.0
 11
103.24000000000001
 21
-449.55000000000041
 31
0.0
  0
LINE
  8
0
  6
DASHED2
 62
               3
  5
3E7
 10
103.24000000000143
 20
-452.7500000000008
 30
0.0
 11
126.76000000000175
 21
-452.7500000000008
 31
0.0
  0
INSERT
  8
0
  6
CONTINUOUS
  5
3E8
  2
GROUP_1
 10
0.0
 20
0.0
 30
0.0
  0
INSERT
  8
0
  6
CONTINUOUS
  5
3E9
  2
GROUP_2
 10
0.0
 20
0.0
 30
0.0
  0
INSERT
  8
0
  6
CONTINUOUS
  5
3EA
  2
GROUP_3
 10
0.0
 20
0.0
 30
0.0
  0
INSERT
  8
0
  6
CONTINUOUS
  5
3EB
  2
GROUP_4
 10
0.0
 20
0.0
 30
0.0
  0
INSERT
  8
0
  6
CONTINUOUS
  5
3EC
  2
GROUP_5
 10
0.0
 20
0.0
 30
0.0
  0
INSERT
  8
0
  6
CONTINUOUS
  5
3ED
  2
GROUP_6
 10
0.0
 20
0.0
 30
0.0
  0
INSERT
  8
0
  6
CONTINUOUS
  5
3EE
  2
GROUP_7
 10
0.0
 20
0.0
 30
0.0
  0
ENDSEC
  0
EOF
