  0
SECTION
  2
HEADER
  9
$ACADVER
  1
AC1009
  9
$INSBASE
 10
0.0
 20
0.0
 30
0.0
  9
$EXTMIN
 10
-782.01799736827718
 20
-1177.0940943123824
 30
0.0
  9
$EXTMAX
 10
457.95998677668308
 20
1177.0940943123824
 30
0.0
  9
$LIMMIN
 10
-820.76730937280718
 20
-1250.6624752069063
  9
$LIMMAX
 10
496.70929878121308
 20
1250.6624752069063
  9
$ORTHOMODE
 70
               0
  9
$REGENMODE
 70
               1
  9
$FILLMODE
 70
               1
  9
$QTEXTMODE
 70
               0
  9
$MIRRTEXT
 70
               1
  9
$DRAGMODE
 70
               2
  9
$LTSCALE
 40
1.0
  9
$OSMODE
 70
               0
  9
$ATTMODE
 70
               1
  9
$TEXTSIZE
 40
0.2
  9
$TRACEWID
 40
0.05
  9
$TEXTSTYLE
  7
STANDARD
  9
$CLAYER
  8
0
  9
$CELTYPE
  6
CONTINUOUS
  9
$CECOLOR
 62
             256
  9
$DIMSCALE
 40
1.0
  9
$DIMASZ
 40
0.18
  9
$DIMEXO
 40
0.0625
  9
$DIMDLI
 40
0.38
  9
$DIMRND
 40
0.0
  9
$DIMDLE
 40
0.0
  9
$DIMEXE
 40
0.18
  9
$DIMTP
 40
0.0
  9
$DIMTM
 40
0.0
  9
$DIMTXT
 40
0.18
  9
$DIMCEN
 40
0.09
  9
$DIMTSZ
 40
0.0
  9
$DIMTOL
 70
               0
  9
$DIMLIM
 70
               0
  9
$DIMTIH
 70
               1
  9
$DIMTOH
 70
               1
  9
$DIMSE1
 70
               0
  9
$DIMSE2
 70
               0
  9
$DIMTAD
 70
               0
  9
$DIMZIN
 70
               0
  9
$DIMBLK
  1

  9
$DIMASO
 70
               1
  9
$DIMSHO
 70
               1
  9
$DIMPOST
  1

  9
$DIMAPOST
  1

  9
$DIMALT
 70
               0
  9
$DIMALTD
 70
               2
  9
$DIMALTF
 40
25.399999999999999
  9
$DIMLFAC
 40
1.0
  9
$DIMTOFL
 70
               0
  9
$DIMTVP
 40
0.0
  9
$DIMTIX
 70
               0
  9
$DIMSOXD
 70
               0
  9
$DIMSAH
 70
               0
  9
$DIMBLK1
  1

  9
$DIMBLK2
  1

  9
$DIMSTYLE
  2
STANDARD
  9
$DIMCLRD
 70
               0
  9
$DIMCLRE
 70
               0
  9
$DIMCLRT
 70
               0
  9
$DIMTFAC
 40
1.0
  9
$DIMGAP
 40
0.09
  9
$LUNITS
 70
               2
  9
$LUPREC
 70
               4
  9
$AXISMODE
 70
               0
  9
$AXISUNIT
 10
0.0
 20
0.0
  9
$SKETCHINC
 40
0.1
  9
$FILLETRAD
 40
0.0
  9
$AUNITS
 70
               0
  9
$AUPREC
 70
               0
  9
$MENU
  1
acad
  9
$ELEVATION
 40
0.0
  9
$PELEVATION
 40
0.0
  9
$THICKNESS
 40
0.0
  9
$LIMCHECK
 70
               0
  9
$BLIPMODE
 70
               1
  9
$CHAMFERA
 40
0.0
  9
$CHAMFERB
 40
0.0
  9
$SKPOLY
 70
               0
  9
$TDCREATE
 40
0.000000000
  9
$TDUPDATE
 40
0.000000000
  9
$TDINDWG
 40
0.0000000000
  9
$TDUSRTIMER
 40
0.0000000000
  9
$USRTIMER
 70
               1
  9
$ANGBASE
 50
0.0
  9
$ANGDIR
 70
               0
  9
$PDMODE
 70
               0
  9
$PDSIZE
 40
1.0
  9
$PLINEWID
 40
0.0
  9
$COORDS
 70
               1
  9
$SPLFRAME
 70
               0
  9
$SPLINETYPE
 70
               6
  9
$SPLINESEGS
 70
               8
  9
$ATTDIA
 70
               0
  9
$ATTREQ
 70
               1
  9
$HANDLING
 70
               1
  9
$HANDSEED
  5
518
  9
$SURFTAB1
 70
               6
  9
$SURFTAB2
 70
               6
  9
$SURFTYPE
 70
               6
  9
$SURFU
 70
               6
  9
$SURFV
 70
               6
  9
$UCSNAME
  2

  9
$UCSORG
 10
0.0
 20
0.0
 30
0.0
  9
$UCSXDIR
 10
1.0
 20
0.0
 30
0.0
  9
$UCSYDIR
 10
0.0
 20
1.0
 30
0.0
  9
$PUCSNAME
  2

  9
$PUCSORG
 10
0.0
 20
0.0
 30
0.0
  9
$PUCSXDIR
 10
1.0
 20
0.0
 30
0.0
  9
$PUCSYDIR
 10
0.0
 20
1.0
 30
0.0
  9
$USERI1
 70
               0
  9
$USERI2
 70
               0
  9
$USERI3
 70
               0
  9
$USERI4
 70
               0
  9
$USERI5
 70
               0
  9
$USERR1
 40
0.0
  9
$USERR2
 40
0.0
  9
$USERR3
 40
0.0
  9
$USERR4
 40
0.0
  9
$USERR5
 40
0.0
  9
$WORLDVIEW
 70
               1
  9
$SHADEDGE
 70
               3
  9
$SHADEDIF
 70
              70
  9
$TILEMODE
 70
               1
  9
$MAXACTVP
 70
              16
  9
$PINSBASE
 10
0.0
 20
0.0
 30
0.0
  9
$PLIMCHECK
 70
               0
  9
$PEXTMIN
 10
1.0000000000000000E+20
 20
1.0000000000000000E+20
 30
1.0000000000000000E+20
  9
$PEXTMAX
 10
-1.0000000000000000E+20
 20
-1.0000000000000000E+20
 30
-1.0000000000000000E+20
  9
$PLIMMIN
 10
0.0
 20
0.0
  9
$PLIMMAX
 10
12.0
 20
9.0
  9
$UNITMODE
 70
               0
  9
$VISRETAIN
 70
               0
  9
$PLINEGEN
 70
               1
  9
$PSLTSCALE
 70
               0
  9
$TREEDEPTH
 70
            3020
  9
$DWGCODEPAGE
  3
dos932
  0
ENDSEC
  0
SECTION
  2
TABLES
  0
TABLE
  2
VPORT
 70
               1
  0
VPORT
  2
*ACTIVE
 70
               0
 10
0.0
 20
0.0
 11
1.0
 21
1.0
 12
-162.02900529579705
 22
0.0
 13
0.0
 23
0.0
 14
1.0
 24
1.0
 15
0.0
 25
0.0
 16
0.0
 26
0.0
 36
1.0
 17
0.0
 27
0.0
 37
0.0
 40
2501.3249504138125
 41
0.5267114966154479
 42
50.0
 43
0.0
 44
0.0
 50
0.0
 51
0.0
 71
               0
 72
             100
 73
               1
 74
               1
 75
               0
 76
               0
 77
               0
 78
               0
  0
ENDTAB
  0
TABLE
  2
LTYPE
 70
              26
  0
LTYPE
  2
CONTINUOUS
 70
               0
  3
Solid line
 72
              65
 73
               0
 40
0.0
  0
LTYPE
  2
HIDDENX2
 70
               0
  3
CADPAC FUSION LINETYPE
 72
              65
 73
               2
 40
47.560000000000002
 49
35.670000000000002
 49
-11.890000000000001
  0
LTYPE
  2
HIDDEN
 70
               0
  3
CADPAC FUSION LINETYPE
 72
              65
 73
               2
 40
35.670000000000002
 49
23.780000000000001
 49
-11.890000000000001
  0
LTYPE
  2
HIDDEN2
 70
               0
  3
CADPAC FUSION LINETYPE
 72
              65
 73
               2
 40
29.725000000000001
 49
17.835000000000001
 49
-11.890000000000001
  0
LTYPE
  2
DASHED
 70
               0
  3
CADPAC FUSION LINETYPE
 72
              65
 73
               2
 40
35.670000000000002
 49
23.780000000000001
 49
-11.890000000000001
  0
LTYPE
  2
DASHED2
 70
               0
  3
CADPAC FUSION LINETYPE
 72
              65
 73
               2
 40
26.752500000000001
 49
17.835000000000001
 49
-8.9175000000000004
  0
LTYPE
  2
DASHEDX2
 70
               0
  3
CADPAC FUSION LINETYPE
 72
              65
 73
               2
 40
53.505000000000003
 49
35.670000000000002
 49
-17.835000000000001
  0
LTYPE
  2
DOTX2
 70
               0
  3
CADPAC FUSION LINETYPE
 72
              65
 73
               2
 40
14.862500000000001
 49
0.0
 49
-14.862500000000001
  0
LTYPE
  2
DOT
 70
               0
  3
CADPAC FUSION LINETYPE
 72
              65
 73
               2
 40
11.890000000000001
 49
0.0
 49
-11.890000000000001
  0
LTYPE
  2
DOTS
 70
               0
  3
CADPAC FUSION LINETYPE
 72
              65
 73
               2
 40
11.890000000000001
 49
0.0
 49
-11.890000000000001
  0
LTYPE
  2
DOT2
 70
               0
  3
CADPAC FUSION LINETYPE
 72
              65
 73
               2
 40
8.9175000000000004
 49
0.0
 49
-8.9175000000000004
  0
LTYPE
  2
CENTERX2
 70
               0
  3
CADPAC FUSION LINETYPE
 72
              65
 73
               4
 40
71.340000000000003
 49
29.725000000000001
 49
-14.862500000000001
 49
11.890000000000001
 49
-14.862500000000001
  0
LTYPE
  2
CENTER
 70
               0
  3
CADPAC FUSION LINETYPE
 72
              65
 73
               4
 40
54.694000000000003
 49
23.780000000000001
 49
-11.890000000000001
 49
7.1340000000000003
 49
-11.890000000000001
  0
LTYPE
  2
CENTER2
 70
               0
  3
CADPAC FUSION LINETYPE
 72
              65
 73
               4
 40
38.048000000000002
 49
17.835000000000001
 49
-8.9175000000000004
 49
2.3780000000000001
 49
-8.9175000000000004
  0
LTYPE
  2
DASHDOTX2
 70
               0
  3
CADPAC FUSION LINETYPE
 72
              65
 73
               4
 40
59.450000000000003
 49
29.725000000000001
 49
-14.862500000000001
 49
0.0
 49
-14.862500000000001
  0
LTYPE
  2
DASHDOT
 70
               0
  3
CADPAC FUSION LINETYPE
 72
              65
 73
               4
 40
47.560000000000002
 49
23.780000000000001
 49
-11.890000000000001
 49
0.0
 49
-11.890000000000001
  0
LTYPE
  2
DASHDOT2
 70
               0
  3
CADPAC FUSION LINETYPE
 72
              65
 73
               4
 40
35.670000000000002
 49
17.835000000000001
 49
-8.9175000000000004
 49
0.0
 49
-8.9175000000000004
  0
LTYPE
  2
DIVIDEX2
 70
               0
  3
CADPAC FUSION LINETYPE
 72
              65
 73
               6
 40
74.3125
 49
29.725000000000001
 49
-14.862500000000001
 49
0.0
 49
-14.862500000000001
 49
0.0
 49
-14.862500000000001
  0
LTYPE
  2
DIVIDE
 70
               0
  3
CADPAC FUSION LINETYPE
 72
              65
 73
               6
 40
59.450000000000003
 49
23.780000000000001
 49
-11.890000000000001
 49
0.0
 49
-11.890000000000001
 49
0.0
 49
-11.890000000000001
  0
LTYPE
  2
DIVIDE2
 70
               0
  3
CADPAC FUSION LINETYPE
 72
              65
 73
               6
 40
44.587500000000006
 49
17.835000000000001
 49
-8.9175000000000004
 49
0.0
 49
-8.9175000000000004
 49
0.0
 49
-8.9175000000000004
  0
LTYPE
  2
BORDERX2
 70
               0
  3
CADPAC FUSION LINETYPE
 72
              65
 73
               6
 40
104.03750000000001
 49
29.725000000000001
 49
-14.862500000000001
 49
29.725000000000001
 49
-14.862500000000001
 49
0.0
 49
-14.862500000000001
  0
LTYPE
  2
BORDER
 70
               0
  3
CADPAC FUSION LINETYPE
 72
              65
 73
               6
 40
83.230000000000004
 49
23.780000000000001
 49
-11.890000000000001
 49
23.780000000000001
 49
-11.890000000000001
 49
0.0
 49
-11.890000000000001
  0
LTYPE
  2
BORDER2
 70
               0
  3
CADPAC FUSION LINETYPE
 72
              65
 73
               6
 40
62.422499999999999
 49
17.835000000000001
 49
-8.9175000000000004
 49
17.835000000000001
 49
-8.9175000000000004
 49
0.0
 49
-8.9175000000000004
  0
LTYPE
  2
PHANTOMX2
 70
               0
  3
CADPAC FUSION LINETYPE
 72
              65
 73
               6
 40
89.175000000000011
 49
29.725000000000001
 49
-11.890000000000001
 49
11.890000000000001
 49
-11.890000000000001
 49
11.890000000000001
 49
-11.890000000000001
  0
LTYPE
  2
PHANTOM
 70
               0
  3
CADPAC FUSION LINETYPE
 72
              65
 73
               6
 40
73.718000000000004
 49
23.780000000000001
 49
-11.890000000000001
 49
7.1340000000000003
 49
-11.890000000000001
 49
7.1340000000000003
 49
-11.890000000000001
  0
LTYPE
  2
PHANTOM2
 70
               0
  3
CADPAC FUSION LINETYPE
 72
              65
 73
               6
 40
63.017000000000003
 49
17.835000000000001
 49
-11.890000000000001
 49
4.7560000000000002
 49
-11.890000000000001
 49
4.7560000000000002
 49
-11.890000000000001
  0
ENDTAB
  0
TABLE
  2
LAYER
 70
             256
  0
LAYER
  2
0
 70
               0
 62
               7
  6
CONTINUOUS
  0
LAYER
  2
LAYER001
 70
               0
 62
               7
  6
CONTINUOUS
  0
LAYER
  2
LAYER002
 70
               0
 62
               7
  6
CONTINUOUS
  0
LAYER
  2
LAYER003
 70
               0
 62
               7
  6
CONTINUOUS
  0
LAYER
  2
LAYER004
 70
               0
 62
               7
  6
CONTINUOUS
  0
LAYER
  2
LAYER005
 70
               0
 62
               7
  6
CONTINUOUS
  0
LAYER
  2
LAYER006
 70
               0
 62
               7
  6
CONTINUOUS
  0
LAYER
  2
LAYER007
 70
               0
 62
               7
  6
CONTINUOUS
  0
LAYER
  2
LAYER008
 70
               0
 62
               7
  6
CONTINUOUS
  0
LAYER
  2
LAYER009
 70
               0
 62
               7
  6
CONTINUOUS
  0
LAYER
  2
LAYER010
 70
               0
 62
               7
  6
CONTINUOUS
  0
LAYER
  2
LAYER011
 70
               0
 62
               7
  6
CONTINUOUS
  0
LAYER
  2
LAYER012
 70
               0
 62
               7
  6
CONTINUOUS
  0
LAYER
  2
LAYER013
 70
               0
 62
               7
  6
CONTINUOUS
  0
LAYER
  2
LAYER014
 70
               0
 62
               7
  6
CONTINUOUS
  0
LAYER
  2
LAYER015
 70
               0
 62
               7
  6
CONTINUOUS
  0
LAYER
  2
LAYER016
 70
               0
 62
               7
  6
CONTINUOUS
  0
LAYER
  2
LAYER017
 70
               0
 62
               7
  6
CONTINUOUS
  0
LAYER
  2
LAYER018
 70
               0
 62
               7
  6
CONTINUOUS
  0
LAYER
  2
LAYER019
 70
               0
 62
               7
  6
CONTINUOUS
  0
LAYER
  2
LAYER020
 70
               0
 62
               7
  6
CONTINUOUS
  0
LAYER
  2
LAYER021
 70
               0
 62
               7
  6
CONTINUOUS
  0
LAYER
  2
LAYER022
 70
               0
 62
               7
  6
CONTINUOUS
  0
LAYER
  2
LAYER023
 70
               0
 62
               7
  6
CONTINUOUS
  0
LAYER
  2
LAYER024
 70
               0
 62
               7
  6
CONTINUOUS
  0
LAYER
  2
LAYER025
 70
               0
 62
               7
  6
CONTINUOUS
  0
LAYER
  2
LAYER026
 70
               0
 62
               7
  6
CONTINUOUS
  0
LAYER
  2
LAYER027
 70
               0
 62
               7
  6
CONTINUOUS
  0
LAYER
  2
LAYER028
 70
               0
 62
               7
  6
CONTINUOUS
  0
LAYER
  2
LAYER029
 70
               0
 62
               7
  6
CONTINUOUS
  0
LAYER
  2
LAYER030
 70
               0
 62
               7
  6
CONTINUOUS
  0
LAYER
  2
LAYER031
 70
               0
 62
               7
  6
CONTINUOUS
  0
LAYER
  2
LAYER032
 70
               0
 62
               7
  6
CONTINUOUS
  0
LAYER
  2
LAYER033
 70
               0
 62
               7
  6
CONTINUOUS
  0
LAYER
  2
LAYER034
 70
               0
 62
               7
  6
CONTINUOUS
  0
LAYER
  2
LAYER035
 70
               0
 62
               7
  6
CONTINUOUS
  0
LAYER
  2
LAYER036
 70
               0
 62
               7
  6
CONTINUOUS
  0
LAYER
  2
LAYER037
 70
               0
 62
               7
  6
CONTINUOUS
  0
LAYER
  2
LAYER038
 70
               0
 62
               7
  6
CONTINUOUS
  0
LAYER
  2
LAYER039
 70
               0
 62
               7
  6
CONTINUOUS
  0
LAYER
  2
LAYER040
 70
               0
 62
               7
  6
CONTINUOUS
  0
LAYER
  2
LAYER041
 70
               0
 62
               7
  6
CONTINUOUS
  0
LAYER
  2
LAYER042
 70
               0
 62
               7
  6
CONTINUOUS
  0
LAYER
  2
LAYER043
 70
               0
 62
               7
  6
CONTINUOUS
  0
LAYER
  2
LAYER044
 70
               0
 62
               7
  6
CONTINUOUS
  0
LAYER
  2
LAYER045
 70
               0
 62
               7
  6
CONTINUOUS
  0
LAYER
  2
LAYER046
 70
               0
 62
               7
  6
CONTINUOUS
  0
LAYER
  2
LAYER047
 70
               0
 62
               7
  6
CONTINUOUS
  0
LAYER
  2
LAYER048
 70
               0
 62
               7
  6
CONTINUOUS
  0
LAYER
  2
LAYER049
 70
               0
 62
               7
  6
CONTINUOUS
  0
LAYER
  2
LAYER050
 70
               0
 62
               7
  6
CONTINUOUS
  0
LAYER
  2
LAYER051
 70
               0
 62
               7
  6
CONTINUOUS
  0
LAYER
  2
LAYER052
 70
               0
 62
               7
  6
CONTINUOUS
  0
LAYER
  2
LAYER053
 70
               0
 62
               7
  6
CONTINUOUS
  0
LAYER
  2
LAYER054
 70
               0
 62
               7
  6
CONTINUOUS
  0
LAYER
  2
LAYER055
 70
               0
 62
               7
  6
CONTINUOUS
  0
LAYER
  2
LAYER056
 70
               0
 62
               7
  6
CONTINUOUS
  0
LAYER
  2
LAYER057
 70
               0
 62
               7
  6
CONTINUOUS
  0
LAYER
  2
LAYER058
 70
               0
 62
               7
  6
CONTINUOUS
  0
LAYER
  2
LAYER059
 70
               0
 62
               7
  6
CONTINUOUS
  0
LAYER
  2
LAYER060
 70
               0
 62
               7
  6
CONTINUOUS
  0
LAYER
  2
LAYER061
 70
               0
 62
               7
  6
CONTINUOUS
  0
LAYER
  2
LAYER062
 70
               0
 62
               7
  6
CONTINUOUS
  0
LAYER
  2
LAYER063
 70
               0
 62
               7
  6
CONTINUOUS
  0
LAYER
  2
LAYER064
 70
               0
 62
               7
  6
CONTINUOUS
  0
LAYER
  2
LAYER065
 70
               0
 62
               7
  6
CONTINUOUS
  0
LAYER
  2
LAYER066
 70
               0
 62
               7
  6
CONTINUOUS
  0
LAYER
  2
LAYER067
 70
               0
 62
               7
  6
CONTINUOUS
  0
LAYER
  2
LAYER068
 70
               0
 62
               7
  6
CONTINUOUS
  0
LAYER
  2
LAYER069
 70
               0
 62
               7
  6
CONTINUOUS
  0
LAYER
  2
LAYER070
 70
               0
 62
               7
  6
CONTINUOUS
  0
LAYER
  2
LAYER071
 70
               0
 62
               7
  6
CONTINUOUS
  0
LAYER
  2
LAYER072
 70
               0
 62
               7
  6
CONTINUOUS
  0
LAYER
  2
LAYER073
 70
               0
 62
               7
  6
CONTINUOUS
  0
LAYER
  2
LAYER074
 70
               0
 62
               7
  6
CONTINUOUS
  0
LAYER
  2
LAYER075
 70
               0
 62
               7
  6
CONTINUOUS
  0
LAYER
  2
LAYER076
 70
               0
 62
               7
  6
CONTINUOUS
  0
LAYER
  2
LAYER077
 70
               0
 62
               7
  6
CONTINUOUS
  0
LAYER
  2
LAYER078
 70
               0
 62
               7
  6
CONTINUOUS
  0
LAYER
  2
LAYER079
 70
               0
 62
               7
  6
CONTINUOUS
  0
LAYER
  2
LAYER080
 70
               0
 62
               7
  6
CONTINUOUS
  0
LAYER
  2
LAYER081
 70
               0
 62
               7
  6
CONTINUOUS
  0
LAYER
  2
LAYER082
 70
               0
 62
               7
  6
CONTINUOUS
  0
LAYER
  2
LAYER083
 70
               0
 62
               7
  6
CONTINUOUS
  0
LAYER
  2
LAYER084
 70
               0
 62
               7
  6
CONTINUOUS
  0
LAYER
  2
LAYER085
 70
               0
 62
               7
  6
CONTINUOUS
  0
LAYER
  2
LAYER086
 70
               0
 62
               7
  6
CONTINUOUS
  0
LAYER
  2
LAYER087
 70
               0
 62
               7
  6
CONTINUOUS
  0
LAYER
  2
LAYER088
 70
               0
 62
               7
  6
CONTINUOUS
  0
LAYER
  2
LAYER089
 70
               0
 62
               7
  6
CONTINUOUS
  0
LAYER
  2
LAYER090
 70
               0
 62
               7
  6
CONTINUOUS
  0
LAYER
  2
LAYER091
 70
               0
 62
               7
  6
CONTINUOUS
  0
LAYER
  2
LAYER092
 70
               0
 62
               7
  6
CONTINUOUS
  0
LAYER
  2
LAYER093
 70
               0
 62
               7
  6
CONTINUOUS
  0
LAYER
  2
LAYER094
 70
               0
 62
               7
  6
CONTINUOUS
  0
LAYER
  2
LAYER095
 70
               0
 62
               7
  6
CONTINUOUS
  0
LAYER
  2
LAYER096
 70
               0
 62
               7
  6
CONTINUOUS
  0
LAYER
  2
LAYER097
 70
               0
 62
               7
  6
CONTINUOUS
  0
LAYER
  2
LAYER098
 70
               0
 62
               7
  6
CONTINUOUS
  0
LAYER
  2
LAYER099
 70
               0
 62
               7
  6
CONTINUOUS
  0
LAYER
  2
LAYER100
 70
               0
 62
               7
  6
CONTINUOUS
  0
LAYER
  2
LAYER101
 70
               0
 62
               7
  6
CONTINUOUS
  0
LAYER
  2
LAYER102
 70
               0
 62
               7
  6
CONTINUOUS
  0
LAYER
  2
LAYER103
 70
               0
 62
               7
  6
CONTINUOUS
  0
LAYER
  2
LAYER104
 70
               0
 62
               7
  6
CONTINUOUS
  0
LAYER
  2
LAYER105
 70
               0
 62
               7
  6
CONTINUOUS
  0
LAYER
  2
LAYER106
 70
               0
 62
               7
  6
CONTINUOUS
  0
LAYER
  2
LAYER107
 70
               0
 62
               7
  6
CONTINUOUS
  0
LAYER
  2
LAYER108
 70
               0
 62
               7
  6
CONTINUOUS
  0
LAYER
  2
LAYER109
 70
               0
 62
               7
  6
CONTINUOUS
  0
LAYER
  2
LAYER110
 70
               0
 62
               7
  6
CONTINUOUS
  0
LAYER
  2
LAYER111
 70
               0
 62
               7
  6
CONTINUOUS
  0
LAYER
  2
LAYER112
 70
               0
 62
               7
  6
CONTINUOUS
  0
LAYER
  2
LAYER113
 70
               0
 62
               7
  6
CONTINUOUS
  0
LAYER
  2
LAYER114
 70
               0
 62
               7
  6
CONTINUOUS
  0
LAYER
  2
LAYER115
 70
               0
 62
               7
  6
CONTINUOUS
  0
LAYER
  2
LAYER116
 70
               0
 62
               7
  6
CONTINUOUS
  0
LAYER
  2
LAYER117
 70
               0
 62
               7
  6
CONTINUOUS
  0
LAYER
  2
LAYER118
 70
               0
 62
               7
  6
CONTINUOUS
  0
LAYER
  2
LAYER119
 70
               0
 62
               7
  6
CONTINUOUS
  0
LAYER
  2
LAYER120
 70
               0
 62
               7
  6
CONTINUOUS
  0
LAYER
  2
LAYER121
 70
               0
 62
               7
  6
CONTINUOUS
  0
LAYER
  2
LAYER122
 70
               0
 62
               7
  6
CONTINUOUS
  0
LAYER
  2
LAYER123
 70
               0
 62
               7
  6
CONTINUOUS
  0
LAYER
  2
LAYER124
 70
               0
 62
               7
  6
CONTINUOUS
  0
LAYER
  2
LAYER125
 70
               0
 62
               7
  6
CONTINUOUS
  0
LAYER
  2
LAYER126
 70
               0
 62
               7
  6
CONTINUOUS
  0
LAYER
  2
LAYER127
 70
               0
 62
               7
  6
CONTINUOUS
  0
LAYER
  2
LAYER128
 70
               0
 62
               7
  6
CONTINUOUS
  0
LAYER
  2
LAYER129
 70
               0
 62
               7
  6
CONTINUOUS
  0
LAYER
  2
LAYER130
 70
               0
 62
               7
  6
CONTINUOUS
  0
LAYER
  2
LAYER131
 70
               0
 62
               7
  6
CONTINUOUS
  0
LAYER
  2
LAYER132
 70
               0
 62
               7
  6
CONTINUOUS
  0
LAYER
  2
LAYER133
 70
               0
 62
               7
  6
CONTINUOUS
  0
LAYER
  2
LAYER134
 70
               0
 62
               7
  6
CONTINUOUS
  0
LAYER
  2
LAYER135
 70
               0
 62
               7
  6
CONTINUOUS
  0
LAYER
  2
LAYER136
 70
               0
 62
               7
  6
CONTINUOUS
  0
LAYER
  2
LAYER137
 70
               0
 62
               7
  6
CONTINUOUS
  0
LAYER
  2
LAYER138
 70
               0
 62
               7
  6
CONTINUOUS
  0
LAYER
  2
LAYER139
 70
               0
 62
               7
  6
CONTINUOUS
  0
LAYER
  2
LAYER140
 70
               0
 62
               7
  6
CONTINUOUS
  0
LAYER
  2
LAYER141
 70
               0
 62
               7
  6
CONTINUOUS
  0
LAYER
  2
LAYER142
 70
               0
 62
               7
  6
CONTINUOUS
  0
LAYER
  2
LAYER143
 70
               0
 62
               7
  6
CONTINUOUS
  0
LAYER
  2
LAYER144
 70
               0
 62
               7
  6
CONTINUOUS
  0
LAYER
  2
LAYER145
 70
               0
 62
               7
  6
CONTINUOUS
  0
LAYER
  2
LAYER146
 70
               0
 62
               7
  6
CONTINUOUS
  0
LAYER
  2
LAYER147
 70
               0
 62
               7
  6
CONTINUOUS
  0
LAYER
  2
LAYER148
 70
               0
 62
               7
  6
CONTINUOUS
  0
LAYER
  2
LAYER149
 70
               0
 62
               7
  6
CONTINUOUS
  0
LAYER
  2
LAYER150
 70
               0
 62
               7
  6
CONTINUOUS
  0
LAYER
  2
LAYER151
 70
               0
 62
               7
  6
CONTINUOUS
  0
LAYER
  2
LAYER152
 70
               0
 62
               7
  6
CONTINUOUS
  0
LAYER
  2
LAYER153
 70
               0
 62
               7
  6
CONTINUOUS
  0
LAYER
  2
LAYER154
 70
               0
 62
               7
  6
CONTINUOUS
  0
LAYER
  2
LAYER155
 70
               0
 62
               7
  6
CONTINUOUS
  0
LAYER
  2
LAYER156
 70
               0
 62
               7
  6
CONTINUOUS
  0
LAYER
  2
LAYER157
 70
               0
 62
               7
  6
CONTINUOUS
  0
LAYER
  2
LAYER158
 70
               0
 62
               7
  6
CONTINUOUS
  0
LAYER
  2
LAYER159
 70
               0
 62
               7
  6
CONTINUOUS
  0
LAYER
  2
LAYER160
 70
               0
 62
               7
  6
CONTINUOUS
  0
LAYER
  2
LAYER161
 70
               0
 62
               7
  6
CONTINUOUS
  0
LAYER
  2
LAYER162
 70
               0
 62
               7
  6
CONTINUOUS
  0
LAYER
  2
LAYER163
 70
               0
 62
               7
  6
CONTINUOUS
  0
LAYER
  2
LAYER164
 70
               0
 62
               7
  6
CONTINUOUS
  0
LAYER
  2
LAYER165
 70
               0
 62
               7
  6
CONTINUOUS
  0
LAYER
  2
LAYER166
 70
               0
 62
               7
  6
CONTINUOUS
  0
LAYER
  2
LAYER167
 70
               0
 62
               7
  6
CONTINUOUS
  0
LAYER
  2
LAYER168
 70
               0
 62
               7
  6
CONTINUOUS
  0
LAYER
  2
LAYER169
 70
               0
 62
               7
  6
CONTINUOUS
  0
LAYER
  2
LAYER170
 70
               0
 62
               7
  6
CONTINUOUS
  0
LAYER
  2
LAYER171
 70
               0
 62
               7
  6
CONTINUOUS
  0
LAYER
  2
LAYER172
 70
               0
 62
               7
  6
CONTINUOUS
  0
LAYER
  2
LAYER173
 70
               0
 62
               7
  6
CONTINUOUS
  0
LAYER
  2
LAYER174
 70
               0
 62
               7
  6
CONTINUOUS
  0
LAYER
  2
LAYER175
 70
               0
 62
               7
  6
CONTINUOUS
  0
LAYER
  2
LAYER176
 70
               0
 62
               7
  6
CONTINUOUS
  0
LAYER
  2
LAYER177
 70
               0
 62
               7
  6
CONTINUOUS
  0
LAYER
  2
LAYER178
 70
               0
 62
               7
  6
CONTINUOUS
  0
LAYER
  2
LAYER179
 70
               0
 62
               7
  6
CONTINUOUS
  0
LAYER
  2
LAYER180
 70
               0
 62
               7
  6
CONTINUOUS
  0
LAYER
  2
LAYER181
 70
               0
 62
               7
  6
CONTINUOUS
  0
LAYER
  2
LAYER182
 70
               0
 62
               7
  6
CONTINUOUS
  0
LAYER
  2
LAYER183
 70
               0
 62
               7
  6
CONTINUOUS
  0
LAYER
  2
LAYER184
 70
               0
 62
               7
  6
CONTINUOUS
  0
LAYER
  2
LAYER185
 70
               0
 62
               7
  6
CONTINUOUS
  0
LAYER
  2
LAYER186
 70
               0
 62
               7
  6
CONTINUOUS
  0
LAYER
  2
LAYER187
 70
               0
 62
               7
  6
CONTINUOUS
  0
LAYER
  2
LAYER188
 70
               0
 62
               7
  6
CONTINUOUS
  0
LAYER
  2
LAYER189
 70
               0
 62
               7
  6
CONTINUOUS
  0
LAYER
  2
LAYER190
 70
               0
 62
               7
  6
CONTINUOUS
  0
LAYER
  2
LAYER191
 70
               0
 62
               7
  6
CONTINUOUS
  0
LAYER
  2
LAYER192
 70
               0
 62
               7
  6
CONTINUOUS
  0
LAYER
  2
LAYER193
 70
               0
 62
               7
  6
CONTINUOUS
  0
LAYER
  2
LAYER194
 70
               0
 62
               7
  6
CONTINUOUS
  0
LAYER
  2
LAYER195
 70
               0
 62
               7
  6
CONTINUOUS
  0
LAYER
  2
LAYER196
 70
               0
 62
               7
  6
CONTINUOUS
  0
LAYER
  2
LAYER197
 70
               0
 62
               7
  6
CONTINUOUS
  0
LAYER
  2
LAYER198
 70
               0
 62
               7
  6
CONTINUOUS
  0
LAYER
  2
LAYER199
 70
               0
 62
               7
  6
CONTINUOUS
  0
LAYER
  2
LAYER200
 70
               0
 62
               7
  6
CONTINUOUS
  0
LAYER
  2
LAYER201
 70
               0
 62
               7
  6
CONTINUOUS
  0
LAYER
  2
LAYER202
 70
               0
 62
               7
  6
CONTINUOUS
  0
LAYER
  2
LAYER203
 70
               0
 62
               7
  6
CONTINUOUS
  0
LAYER
  2
LAYER204
 70
               0
 62
               7
  6
CONTINUOUS
  0
LAYER
  2
LAYER205
 70
               0
 62
               7
  6
CONTINUOUS
  0
LAYER
  2
LAYER206
 70
               0
 62
               7
  6
CONTINUOUS
  0
LAYER
  2
LAYER207
 70
               0
 62
               7
  6
CONTINUOUS
  0
LAYER
  2
LAYER208
 70
               0
 62
               7
  6
CONTINUOUS
  0
LAYER
  2
LAYER209
 70
               0
 62
               7
  6
CONTINUOUS
  0
LAYER
  2
LAYER210
 70
               0
 62
               7
  6
CONTINUOUS
  0
LAYER
  2
LAYER211
 70
               0
 62
               7
  6
CONTINUOUS
  0
LAYER
  2
LAYER212
 70
               0
 62
               7
  6
CONTINUOUS
  0
LAYER
  2
LAYER213
 70
               0
 62
               7
  6
CONTINUOUS
  0
LAYER
  2
LAYER214
 70
               0
 62
               7
  6
CONTINUOUS
  0
LAYER
  2
LAYER215
 70
               0
 62
               7
  6
CONTINUOUS
  0
LAYER
  2
LAYER216
 70
               0
 62
               7
  6
CONTINUOUS
  0
LAYER
  2
LAYER217
 70
               0
 62
               7
  6
CONTINUOUS
  0
LAYER
  2
LAYER218
 70
               0
 62
               7
  6
CONTINUOUS
  0
LAYER
  2
LAYER219
 70
               0
 62
               7
  6
CONTINUOUS
  0
LAYER
  2
LAYER220
 70
               0
 62
               7
  6
CONTINUOUS
  0
LAYER
  2
LAYER221
 70
               0
 62
               7
  6
CONTINUOUS
  0
LAYER
  2
LAYER222
 70
               0
 62
               7
  6
CONTINUOUS
  0
LAYER
  2
LAYER223
 70
               0
 62
               7
  6
CONTINUOUS
  0
LAYER
  2
LAYER224
 70
               0
 62
               7
  6
CONTINUOUS
  0
LAYER
  2
LAYER225
 70
               0
 62
               7
  6
CONTINUOUS
  0
LAYER
  2
LAYER226
 70
               0
 62
               7
  6
CONTINUOUS
  0
LAYER
  2
LAYER227
 70
               0
 62
               7
  6
CONTINUOUS
  0
LAYER
  2
LAYER228
 70
               0
 62
               7
  6
CONTINUOUS
  0
LAYER
  2
LAYER229
 70
               0
 62
               7
  6
CONTINUOUS
  0
LAYER
  2
LAYER230
 70
               0
 62
               7
  6
CONTINUOUS
  0
LAYER
  2
LAYER231
 70
               0
 62
               7
  6
CONTINUOUS
  0
LAYER
  2
LAYER232
 70
               0
 62
               7
  6
CONTINUOUS
  0
LAYER
  2
LAYER233
 70
               0
 62
               7
  6
CONTINUOUS
  0
LAYER
  2
LAYER234
 70
               0
 62
               7
  6
CONTINUOUS
  0
LAYER
  2
LAYER235
 70
               0
 62
               7
  6
CONTINUOUS
  0
LAYER
  2
LAYER236
 70
               0
 62
               7
  6
CONTINUOUS
  0
LAYER
  2
LAYER237
 70
               0
 62
               7
  6
CONTINUOUS
  0
LAYER
  2
LAYER238
 70
               0
 62
               7
  6
CONTINUOUS
  0
LAYER
  2
LAYER239
 70
               0
 62
               7
  6
CONTINUOUS
  0
LAYER
  2
LAYER240
 70
               0
 62
               7
  6
CONTINUOUS
  0
LAYER
  2
LAYER241
 70
               0
 62
               7
  6
CONTINUOUS
  0
LAYER
  2
LAYER242
 70
               0
 62
               7
  6
CONTINUOUS
  0
LAYER
  2
LAYER243
 70
               0
 62
               7
  6
CONTINUOUS
  0
LAYER
  2
LAYER244
 70
               0
 62
               7
  6
CONTINUOUS
  0
LAYER
  2
LAYER245
 70
               0
 62
               7
  6
CONTINUOUS
  0
LAYER
  2
LAYER246
 70
               0
 62
               7
  6
CONTINUOUS
  0
LAYER
  2
LAYER247
 70
               0
 62
               7
  6
CONTINUOUS
  0
LAYER
  2
LAYER248
 70
               0
 62
               7
  6
CONTINUOUS
  0
LAYER
  2
LAYER249
 70
               0
 62
               7
  6
CONTINUOUS
  0
LAYER
  2
LAYER250
 70
               0
 62
               7
  6
CONTINUOUS
  0
LAYER
  2
LAYER251
 70
               0
 62
               7
  6
CONTINUOUS
  0
LAYER
  2
LAYER252
 70
               0
 62
               7
  6
CONTINUOUS
  0
LAYER
  2
LAYER253
 70
               0
 62
               7
  6
CONTINUOUS
  0
LAYER
  2
LAYER254
 70
               0
 62
               7
  6
CONTINUOUS
  0
LAYER
  2
LAYER255
 70
               0
 62
               7
  6
CONTINUOUS
  0
ENDTAB
  0
TABLE
  2
STYLE
 70
               1
  0
STYLE
  2
STANDARD
 70
               0
 40
0.0
 41
0.8
 50
0.0
 71
               0
 42
40.0
  3
MS PGothic.ttf
  4

  0
ENDTAB
  0
TABLE
  2
VIEW
 70
               0
  0
VIEW
  2
QQQQ
 70
               0
 40
2501.3249504138125
 10
-162.02900529579705
 20
0.0
 41
1317.4766081540201
 11
0.0
 21
0.0
 31
1.0
 12
100.0
 22
100.0
 32
0.0
 42
50.0
 43
0.0
 44
0.0
 50
0.0
 71
               0
  0
ENDTAB
  0
TABLE
  2
UCS
 70
               0
  0
ENDTAB
  0
TABLE
  2
APPID
 70
               1
  0
APPID
  2
ACAD
 70
               0
  0
ENDTAB
  0
TABLE
  2
DIMSTYLE
 70
               1
  0
DIMSTYLE
  2
STANDARD
 70
               0
  3

  4

  5

  6

  7

 40
1.0
 41
0.18
 42
0.0625
 43
0.38
 44
0.18
 45
0.0
 46
0.0
 47
0.0
 48
0.0
140
0.18
141
0.09
142
0.0
143
25.399999999999999
144
1.0
145
0.0
146
1.0
147
0.09
 71
               0
 72
               0
 73
               1
 74
               1
 75
               0
 76
               0
 77
               0
 78
               0
170
               0
171
               2
172
               0
173
               0
174
               0
175
               0
176
               0
177
               0
178
               0
  0
ENDTAB
  0
ENDSEC
  0
SECTION
  2
BLOCKS
  0
BLOCK
  8
0
  5
13C
  2
GROUP_1
 70
               0
 10
0.0
 20
0.0
 30
0.0
  3
GROUP_1
  0
LINE
  8
0
  6
CONTINUOUS
 62
               4
  5
13D
 10
-249.27968455096004
 20
332.92636405773254
 30
0.0
 11
-127.38480407755412
 21
454.82124453113857
 31
0.0
  0
LINE
  8
0
  6
CONTINUOUS
 62
               4
  5
13E
 10
-257.17226690395125
 20
395.74445980532738
 30
0.0
 11
-198.09548217814006
 21
454.82124453113857
 31
0.0
  0
LINE
  8
0
  6
CONTINUOUS
 62
               4
  5
13F
 10
-219.9597277382303
 20
220.82496466929052
 30
0.0
 11
-119.65457855043985
 21
321.13011385708108
 31
0.0
  0
LINE
  8
0
  6
CONTINUOUS
 62
               4
  5
140
 10
-149.24904963764436
 20
220.82496466929052
 30
0.0
 11
-130.66820771576772
 21
239.40580659116711
 31
0.0
  0
ENDBLK
  8
0
  5
141
  0
BLOCK
  8
0
  5
142
  2
GROUP_2
 70
               0
 10
0.0
 20
0.0
 30
0.0
  3
GROUP_2
  0
LINE
  8
0
  6
CONTINUOUS
 62
               4
  5
143
 10
-749.27968455096016
 20
332.92636405773248
 30
0.0
 11
-627.38480407755412
 21
454.82124453113852
 31
0.0
  0
LINE
  8
0
  6
CONTINUOUS
 62
               4
  5
144
 10
-757.17226690395125
 20
395.74445980532732
 30
0.0
 11
-698.09548217814006
 21
454.82124453113852
 31
0.0
  0
LINE
  8
0
  6
CONTINUOUS
 62
               4
  5
145
 10
-719.9597277382303
 20
220.82496466929047
 30
0.0
 11
-619.65457855043974
 21
321.13011385708103
 31
0.0
  0
LINE
  8
0
  6
CONTINUOUS
 62
               4
  5
146
 10
-649.24904963764448
 20
220.82496466929047
 30
0.0
 11
-630.66820771576772
 21
239.40580659116705
 31
0.0
  0
ENDBLK
  8
0
  5
147
  0
BLOCK
  8
0
  5
148
  2
GROUP_3
 70
               0
 10
0.0
 20
0.0
 30
0.0
  3
GROUP_3
  0
LINE
  8
0
  6
CONTINUOUS
 62
               3
  5
149
 10
-757.17226690395114
 20
573.50086216272439
 30
0.0
 11
-757.17226690395125
 21
391.49160314967094
 31
0.0
  0
ENDBLK
  8
0
  5
14A
  0
BLOCK
  8
0
  5
14B
  2
GROUP_4
 70
               0
 10
0.0
 20
0.0
 30
0.0
  3
GROUP_4
  0
LINE
  8
0
  6
CONTINUOUS
 62
               3
  5
14C
 10
-110.17226690395137
 20
573.50086216272439
 30
0.0
 11
-110.17226690395125
 21
391.49160314967122
 31
0.0
  0
ENDBLK
  8
0
  5
14D
  0
BLOCK
  8
0
  5
14E
  2
GROUP_5
 70
               0
 10
0.0
 20
0.0
 30
0.0
  3
GROUP_5
  0
LINE
  8
0
  6
CONTINUOUS
 62
               4
  5
14F
 10
250.7867382261054
 20
332.92636405773254
 30
0.0
 11
372.68161869951143
 21
454.82124453113857
 31
0.0
  0
LINE
  8
0
  6
CONTINUOUS
 62
               4
  5
150
 10
242.8941558731143
 20
395.74445980532738
 30
0.0
 11
301.97094059892549
 21
454.82124453113857
 31
0.0
  0
LINE
  8
0
  6
CONTINUOUS
 62
               4
  5
151
 10
280.10669503883526
 20
220.82496466929052
 30
0.0
 11
380.4118442266257
 21
321.13011385708108
 31
0.0
  0
LINE
  8
0
  6
CONTINUOUS
 62
               4
  5
152
 10
350.81737313942119
 20
220.82496466929052
 30
0.0
 11
369.39821506129772
 21
239.40580659116711
 31
0.0
  0
ENDBLK
  8
0
  5
153
  0
BLOCK
  8
0
  5
154
  2
GROUP_6
 70
               0
 10
0.0
 20
0.0
 30
0.0
  3
GROUP_6
  0
LINE
  8
0
  6
CONTINUOUS
 62
               3
  5
155
 10
389.89415587311419
 20
573.50086216272439
 30
0.0
 11
389.8941558731143
 21
391.49160314967122
 31
0.0
  0
ENDBLK
  8
0
  5
156
  0
ENDSEC
  0
SECTION
  2
ENTITIES
  0
LINE
  8
0
  6
DASHDOT
 62
               4
  5
157
 10
316.32773309604875
 20
714.74866757589905
 30
0.0
 11
316.3277330960488
 21
-214.55082754093348
 31
0.0
  0
LINE
  8
0
  6
DASHDOT
 62
               4
  5
158
 10
-683.67226690395125
 20
714.74866757589893
 30
0.0
 11
-683.67226690395114
 21
-214.55082754093371
 31
0.0
  0
LINE
  8
0
  6
DASHDOT
 62
               4
  5
159
 10
-183.67226690395373
 20
840.82124453113352
 30
0.0
 11
-183.67226690395262
 21
1131.8212445311369
 31
0.0
  0
LINE
  8
0
  6
DASHDOT
 62
               4
  5
15A
 10
-366.17226690395336
 20
1023.321244531137
 30
0.0
 11
-78.172266903955915
 21
1023.3212445311364
 31
0.0
  0
LINE
  8
0
  6
DASHDOT
 62
               4
  5
15B
 10
-183.67226690395125
 20
714.74866757589905
 30
0.0
 11
-183.67226690395114
 21
-214.55082754093371
 31
0.0
  0
LINE
  8
0
  6
DASHDOT
 62
               4
  5
15C
 10
-298.67226690395165
 20
175.81134652914324
 30
0.0
 11
-298.67226690395165
 21
11.432984909652816
 31
0.0
  0
LINE
  8
0
  6
DASHDOT
 62
               4
  5
15D
 10
-68.672266903951083
 20
175.81134652914346
 30
0.0
 11
-68.672266903951083
 21
11.43298490965293
 31
0.0
  0
LINE
  8
0
  6
DASHDOT
 62
               4
  5
15E
 10
-246.9423890152957
 20
511.3212445311384
 30
0.0
 11
-120.81719511144672
 21
511.3212445311384
 31
0.0
  0
LINE
  8
0
  6
DASHDOT
 62
               4
  5
15F
 10
239.32773309604897
 20
511.32124453113931
 30
0.0
 11
158.82773309604886
 21
511.32124453113897
 31
0.0
  0
LINE
  8
0
  6
DASHDOT
 62
               4
  5
160
 10
-606.67226690395137
 20
511.3212445311392
 30
0.0
 11
-526.17226690395137
 21
511.32124453113886
 31
0.0
  0
LINE
  8
0
  6
DASHDOT
 62
               4
  5
161
 10
-260.67226690395103
 20
511.32124453113931
 30
0.0
 11
-341.17226690395114
 21
511.32124453113897
 31
0.0
  0
LINE
  8
0
  6
DASHDOT
 62
               4
  5
162
 10
-746.9423890152957
 20
511.3212445311384
 30
0.0
 11
-620.81719511144672
 21
511.3212445311384
 31
0.0
  0
LINE
  8
0
  6
DASHDOT
 62
               4
  5
163
 10
-283.67226690395114
 20
-675.05082754093371
 30
0.0
 11
-283.67226690395108
 21
-559.05082754093371
 31
0.0
  0
LINE
  8
0
  6
DASHDOT
 62
               4
  5
164
 10
-341.67226690395108
 20
-617.05082754093371
 30
0.0
 11
-225.67226690395108
 21
-617.05082754093371
 31
0.0
  0
LINE
  8
0
  6
DASHDOT
 62
               4
  5
165
 10
-333.67226690395108
 20
-625.05082754093371
 30
0.0
 11
-233.67226690395108
 21
-625.05082754093371
 31
0.0
  0
LINE
  8
0
  6
DASHDOT
 62
               4
  5
166
 10
-447.59849516054004
 20
-625.05082754093371
 30
0.0
 11
-382.12919934047068
 21
-625.05082754093371
 31
0.0
  0
LINE
  8
0
  6
DASHDOT
 62
               4
  5
167
 10
-506.17226690395108
 20
-617.05082754093371
 30
0.0
 11
-407.572266903951
 21
-617.05082754093371
 31
0.0
  0
LINE
  8
0
  6
DASHDOT
 62
               4
  5
168
 10
-119.74603864736216
 20
-625.05082754093394
 30
0.0
 11
-185.21533446743149
 21
-625.05082754093371
 31
0.0
  0
LINE
  8
0
  6
DASHDOT
 62
               4
  5
169
 10
-61.172266903951083
 20
-617.05082754093394
 30
0.0
 11
-159.77226690395116
 21
-617.05082754093371
 31
0.0
  0
LINE
  8
0
  6
DASHDOT
 62
               4
  5
16A
 10
-283.67226690395114
 20
-394.55082754093371
 30
0.0
 11
-283.67226690395114
 21
-518.59389510441417
 31
0.0
  0
LINE
  8
0
  6
DASHDOT
 62
               4
  5
16B
 10
325.6142563123567
 20
-470.01458745033335
 30
0.0
 11
325.6142563123567
 21
-740.5613742501597
 31
0.0
  0
LINE
  8
0
  6
DASHDOT
 62
               4
  5
16C
 10
163.61425631235682
 20
-578.51458745033335
 30
0.0
 11
434.11425631235693
 21
-578.51458745033335
 31
0.0
  0
LINE
  8
0
  6
DASHDOT
 62
               4
  5
16D
 10
325.6142563123567
 20
-769.11458745033349
 30
0.0
 11
325.6142563123567
 21
-645.51458745033312
 31
0.0
  0
LINE
  8
0
  6
DASHDOT
 62
               4
  5
16E
 10
125.61425631235693
 20
-578.51458745033312
 30
0.0
 11
258.61425631235693
 21
-578.51458745033312
 31
0.0
  0
LINE
  8
0
  6
DASHDOT
 62
               4
  5
16F
 10
394.13948108758143
 20
-1053.0140211989178
 30
0.0
 11
163.88564301892848
 21
-1053.0140211989178
 31
0.0
  0
LINE
  8
0
  6
DASHDOT
 62
               4
  5
170
 10
325.6142563123567
 20
-867.0140211989177
 30
0.0
 11
325.6142563123567
 21
-1118.0140211989178
 31
0.0
  0
LINE
  8
0
  6
DASHDOT
 62
               4
  5
171
 10
275.6142563123567
 20
-1067.5140211989178
 30
0.0
 11
375.61425631235693
 21
-1067.5140211989178
 31
0.0
  0
LINE
  8
0
  6
DASHDOT
 62
               4
  5
172
 10
125.6142563123567
 20
-1059.5140211989178
 30
0.0
 11
200.01425631235668
 21
-1059.5140211989178
 31
0.0
  0
LINE
  8
0
  6
CONTINUOUS
 62
               4
  5
173
 10
-229.17226690395125
 20
220.82496466929052
 30
0.0
 11
-248.67226690395125
 21
391.9742681282558
 31
0.0
  0
LINE
  8
0
  6
CONTINUOUS
 62
               4
  5
174
 10
-248.67226690395125
 20
443.26402119891912
 30
0.0
 11
-248.67226690395125
 21
391.9742681282558
 31
0.0
  0
LINE
  8
0
  6
CONTINUOUS
 62
               4
  5
175
 10
-116.67226690395137
 20
391.86069989800052
 30
0.0
 11
-135.90049130360262
 21
223.09674026963893
 31
0.0
  0
LINE
  8
0
  6
CONTINUOUS
 62
               4
  5
176
 10
-119.17226690395137
 20
392.00266018582005
 30
0.0
 11
-138.67550177030091
 21
220.82496466929052
 31
0.0
  0
LINE
  8
0
  6
CONTINUOUS
 62
               4
  5
177
 10
-116.92226690395114
 20
391.87489592678259
 30
0.0
 11
-136.17799235027269
 21
222.86956270960388
 31
0.0
  0
LINE
  8
0
  6
CONTINUOUS
 62
               4
  5
178
 10
-248.67226690395125
 20
391.9742681282558
 30
0.0
 11
-119.17550177030148
 21
391.9742681282558
 31
0.0
  0
LINE
  8
0
  6
CONTINUOUS
 62
               4
  5
179
 10
-310.67226690395103
 20
460.74280065710303
 30
0.0
 11
-264.36241922762417
 21
459.12562514120003
 31
0.0
  0
ARC
  8
0
  6
CONTINUOUS
 62
               4
  5
17A
 10
-264.53691671113722
 20
454.12867100610487
 30
0.0
 40
4.9999999999999991
 50
44.999999999981867
 51
87.999999999965198
  0
ARC
  8
0
  6
CONTINUOUS
 62
               4
  5
17B
 10
-253.67226690395125
 20
443.26402119891912
 30
0.0
 40
4.9999999999999991
 50
0.0
 51
44.999999999982812
  0
LINE
  8
0
  6
CONTINUOUS
 62
               4
  5
17C
 10
-138.17226690395137
 20
220.82496466929052
 30
0.0
 11
-135.90049130360262
 21
223.09674026963893
 31
0.0
  0
LINE
  8
0
  6
CONTINUOUS
 62
               4
  5
17D
 10
-138.67550177030103
 20
220.82496466928995
 30
0.0
 11
-135.90049130360262
 21
223.09674026963893
 31
0.0
  0
LINE
  8
0
  6
CONTINUOUS
 62
               4
  5
17E
 10
-242.67226690395103
 20
649.53883065371042
 30
0.0
 11
-242.67226690395103
 21
587.99223890891403
 31
0.0
  0
LINE
  8
0
  6
CONTINUOUS
 62
               4
  5
17F
 10
-258.15842242430529
 20
454.82124453113857
 30
0.0
 11
-109.18611138359717
 21
454.82124453113857
 31
0.0
  0
LINE
  8
0
  6
CONTINUOUS
 62
               4
  5
180
 10
-234.17226690395148
 20
220.82496466929052
 30
0.0
 11
-133.17226690395125
 21
220.82496466929052
 31
0.0
  0
LINE
  8
0
  6
CONTINUOUS
 62
               4
  5
181
 10
-258.15842242430529
 20
454.82124453113857
 30
0.0
 11
-250.13673299801906
 21
446.79955510485212
 31
0.0
  0
LINE
  8
0
  6
CONTINUOUS
 62
               4
  5
182
 10
-261.00138280520389
 20
457.66420491203718
 30
0.0
 11
-258.15842242430529
 21
454.82124453113857
 31
0.0
  0
LINE
  8
0
  6
CONTINUOUS
 62
               4
  5
183
 10
-110.17226690395125
 20
401.32310360415568
 30
0.0
 11
-240.88202964728282
 21
270.61334086082388
 31
0.0
  0
LINE
  8
0
  6
CONTINUOUS
 62
               4
  5
184
 10
-229.17226690395171
 20
155.91500357345404
 30
0.0
 11
-229.17226690395125
 21
220.82496466929041
 31
0.0
  0
LINE
  8
0
  6
CONTINUOUS
 62
               4
  5
185
 10
-138.1722669039508
 20
155.91500357345404
 30
0.0
 11
-138.17226690395137
 21
220.82496466929041
 31
0.0
  0
LINE
  8
0
  6
CONTINUOUS
 62
               4
  5
186
 10
-734.17226690395148
 20
220.82496466929047
 30
0.0
 11
-633.17226690395125
 21
220.82496466929047
 31
0.0
  0
LINE
  8
0
  6
CONTINUOUS
 62
               4
  5
187
 10
-729.17226690395182
 20
155.91500357345399
 30
0.0
 11
-729.17226690395125
 21
220.82496466929035
 31
0.0
  0
LINE
  8
0
  6
CONTINUOUS
 62
               4
  5
188
 10
-638.17226690395091
 20
155.91500357345399
 30
0.0
 11
-638.17226690395137
 21
220.82496466929035
 31
0.0
  0
LINE
  8
0
  6
CONTINUOUS
 62
               4
  5
189
 10
-729.17226690395125
 20
220.82496466929047
 30
0.0
 11
-748.67226690395125
 21
391.97426812825574
 31
0.0
  0
LINE
  8
0
  6
CONTINUOUS
 62
               4
  5
18A
 10
-748.67226690395125
 20
454.82124453113852
 30
0.0
 11
-748.67226690395125
 21
391.97426812825574
 31
0.0
  0
LINE
  8
0
  6
CONTINUOUS
 62
               4
  5
18B
 10
-748.67226690395125
 20
391.97426812825574
 30
0.0
 11
-619.17550177030148
 21
391.97426812825574
 31
0.0
  0
LINE
  8
0
  6
CONTINUOUS
 62
               4
  5
18C
 10
-748.67226690395125
 20
573.50086216272439
 30
0.0
 11
-748.67226690395125
 21
459.8212445311384
 31
0.0
  0
LINE
  8
0
  6
CONTINUOUS
 62
               4
  5
18D
 10
-742.67226690395103
 20
649.53883065371031
 30
0.0
 11
-742.67226690395103
 21
587.99223890891403
 31
0.0
  0
ARC
  8
0
  6
CONTINUOUS
 62
               4
  5
18E
 10
-747.67226690395103
 20
587.99223890891403
 30
0.0
 40
5.0
 50
315.01704217206628
 51
359.99999999986176
  0
ARC
  8
0
  6
CONTINUOUS
 62
               4
  5
18F
 10
-733.17226690395114
 20
573.50086216272439
 30
0.0
 40
15.5
 50
135.01704217213495
 51
179.99999999993085
  0
LINE
  8
0
  6
CONTINUOUS
 62
               4
  5
190
 10
-757.17226690395125
 20
454.82124453113852
 30
0.0
 11
-610.17226690395125
 21
454.82124453113852
 31
0.0
  0
LINE
  8
0
  6
CONTINUOUS
 62
               4
  5
191
 10
-610.17226690395125
 20
401.32310360415562
 30
0.0
 11
-740.88202964728282
 21
270.61334086082383
 31
0.0
  0
ARC
  8
0
  6
CONTINUOUS
 62
               4
  5
192
 10
-748.67226690395125
 20
457.3212445311384
 30
0.0
 40
2.4999999999999996
 50
89.999999999963322
 51
269.99999999989518
  0
LINE
  8
0
  6
CONTINUOUS
 62
               4
  5
193
 10
-638.17226690395125
 20
220.82496466929047
 30
0.0
 11
-618.67226690395125
 21
391.97426812825574
 31
0.0
  0
ARC
  8
0
  6
CONTINUOUS
 62
               4
  5
194
 10
-706.17226690395069
 20
457.3212445311384
 30
0.0
 40
2.4999999999999996
 50
269.99999999989518
 51
449.99999999982703
  0
ARC
  8
0
  6
CONTINUOUS
 62
               4
  5
195
 10
-661.17226690395069
 20
457.3212445311384
 30
0.0
 40
2.4999999999999996
 50
89.999999999965937
 51
269.99999999989518
  0
LINE
  8
0
  6
CONTINUOUS
 62
               4
  5
196
 10
-748.67226690395125
 20
459.8212445311384
 30
0.0
 11
-706.17226690395069
 21
459.8212445311384
 31
0.0
  0
LINE
  8
0
  6
CONTINUOUS
 62
               4
  5
197
 10
-661.17226690395069
 20
459.8212445311384
 30
0.0
 11
-618.67226690395125
 21
459.8212445311384
 31
0.0
  0
LINE
  8
0
  6
CONTINUOUS
 62
               4
  5
198
 10
270.89415587311373
 20
155.91500357345404
 30
0.0
 11
270.8941558731143
 21
220.82496466929041
 31
0.0
  0
LINE
  8
0
  6
CONTINUOUS
 62
               4
  5
199
 10
361.89415587311476
 20
155.91500357345404
 30
0.0
 11
361.8941558731143
 21
220.82496466929041
 31
0.0
  0
LINE
  8
0
  6
CONTINUOUS
 62
               4
  5
19A
 10
-237.67226690395125
 20
585.74831087664097
 30
0.0
 11
-129.14046418987948
 21
585.74831087664097
 31
0.0
  0
LINE
  8
0
  6
CONTINUOUS
 62
               4
  5
19B
 10
-203.67226690395324
 20
951.48638082859202
 30
0.0
 11
-203.67226690395324
 21
965.93694278254634
 31
0.0
  0
LINE
  8
0
  6
CONTINUOUS
 62
               4
  5
19C
 10
-163.67226690395324
 20
965.60108644535558
 30
0.0
 11
-163.67226690395324
 21
951.48638082859202
 31
0.0
  0
LINE
  8
0
  6
CONTINUOUS
 62
               4
  5
19D
 10
-111.83740320140845
 20
1003.321244531137
 30
0.0
 11
-125.58589870995038
 21
1003.321244531137
 31
0.0
  0
LINE
  8
0
  6
CONTINUOUS
 62
               4
  5
19E
 10
-125.53480396523031
 20
1043.3212445311369
 30
0.0
 11
-111.83740320140845
 21
1043.3212445311369
 31
0.0
  0
LINE
  8
0
  6
CONTINUOUS
 62
               4
  5
19F
 10
-163.67226690395313
 20
1095.1561082336821
 30
0.0
 11
-163.67226690395313
 21
1081.1886271815856
 31
0.0
  0
LINE
  8
0
  6
CONTINUOUS
 62
               4
  5
1A0
 10
-203.67226690395313
 20
1080.8527708443949
 30
0.0
 11
-203.67226690395313
 21
1095.1561082336821
 31
0.0
  0
LINE
  8
0
  6
CONTINUOUS
 62
               4
  5
1A1
 10
-255.50713060649804
 20
1043.3212445311369
 30
0.0
 11
-240.8420296282431
 21
1043.3212445311369
 31
0.0
  0
LINE
  8
0
  6
CONTINUOUS
 62
               4
  5
1A2
 10
-240.79093488352299
 20
1003.321244531137
 30
0.0
 11
-255.50713060649804
 21
1003.321244531137
 31
0.0
  0
ARC
  8
0
  6
CONTINUOUS
 62
               4
  5
1A3
 10
-183.67226690395324
 20
1023.321244531137
 30
0.0
 40
65.0
 50
287.92021313928154
 51
342.07978686047613
  0
ARC
  8
0
  6
CONTINUOUS
 62
               4
  5
1A4
 10
-183.67226690395324
 20
1023.321244531137
 30
0.0
 40
65.0
 50
197.92021313931622
 51
252.07978686051084
  0
ARC
  8
0
  6
CONTINUOUS
 62
               4
  5
1A5
 10
-183.67226690395319
 20
1023.321244531137
 30
0.0
 40
67.499999999999957
 50
107.23528525704663
 51
127.09319305907385
  0
ARC
  8
0
  6
CONTINUOUS
 62
               4
  5
1A6
 10
-183.67226690395324
 20
1023.321244531137
 30
0.0
 40
65.0
 50
17.920213139385403
 51
72.079786860579873
  0
ARC
  8
0
  6
CONTINUOUS
 62
               4
  5
1A7
 10
-183.67226690395324
 20
1023.321244531137
 30
0.0
 40
65.0
 50
107.92021313935072
 51
162.07978686054543
  0
CIRCLE
  8
0
  6
CONTINUOUS
 62
               4
  5
1A8
 10
-183.67226690395302
 20
1023.321244531137
 30
0.0
 40
47.0
  0
CIRCLE
  8
0
  6
CONTINUOUS
 62
               4
  5
1A9
 10
-183.67226690395131
 20
1023.3212445311386
 30
0.0
 40
40.5
  0
LINE
  8
0
  6
CONTINUOUS
 62
               4
  5
1AA
 10
-159.23380394138294
 20
1040.6272164757661
 30
0.0
 11
-201.88935321610816
 21
1059.4928876552135
 31
0.0
  0
ARC
  8
0
  6
CONTINUOUS
 62
               4
  5
1AB
 10
-153.40067905323326
 20
1053.8159943212718
 30
0.0
 40
14.421137507799237
 50
246.14118011756537
 51
295.69436237349942
  0
LINE
  8
0
  6
CONTINUOUS
 62
               4
  5
1AC
 10
-728.17226690395194
 20
154.91500357345404
 30
0.0
 11
-729.17226690395171
 21
155.91500357345399
 31
0.0
  0
LINE
  8
0
  6
CONTINUOUS
 62
               4
  5
1AD
 10
-639.1722669039508
 20
154.91500357345404
 30
0.0
 11
-638.1722669039508
 21
155.91500357345399
 31
0.0
  0
LINE
  8
0
  6
CONTINUOUS
 62
               4
  5
1AE
 10
-728.17226690395194
 20
154.91500357345404
 30
0.0
 11
-639.1722669039508
 21
154.91500357345404
 31
0.0
  0
LINE
  8
0
  6
CONTINUOUS
 62
               4
  5
1AF
 10
-638.1722669039508
 20
155.91500357345399
 30
0.0
 11
-729.17226690395171
 21
155.91500357345399
 31
0.0
  0
LINE
  8
0
  6
CONTINUOUS
 62
               4
  5
1B0
 10
-728.17226690395125
 20
119.8212445311384
 30
0.0
 11
-728.17226690395125
 21
154.91500357345404
 31
0.0
  0
LINE
  8
0
  6
CONTINUOUS
 62
               4
  5
1B1
 10
-639.17226690395125
 20
119.8212445311384
 30
0.0
 11
-639.17226690395125
 21
154.91500357345404
 31
0.0
  0
LINE
  8
0
  6
CONTINUOUS
 62
               4
  5
1B2
 10
-228.17226690395194
 20
154.9150035734541
 30
0.0
 11
-229.17226690395171
 21
155.91500357345404
 31
0.0
  0
LINE
  8
0
  6
CONTINUOUS
 62
               4
  5
1B3
 10
-139.1722669039508
 20
154.9150035734541
 30
0.0
 11
-138.1722669039508
 21
155.91500357345404
 31
0.0
  0
LINE
  8
0
  6
CONTINUOUS
 62
               4
  5
1B4
 10
-228.17226690395194
 20
154.9150035734541
 30
0.0
 11
-139.1722669039508
 21
154.9150035734541
 31
0.0
  0
LINE
  8
0
  6
CONTINUOUS
 62
               4
  5
1B5
 10
-138.1722669039508
 20
155.91500357345404
 30
0.0
 11
-229.17226690395171
 21
155.91500357345404
 31
0.0
  0
LINE
  8
0
  6
CONTINUOUS
 62
               4
  5
1B6
 10
-228.17226690395125
 20
119.82124453113846
 30
0.0
 11
-228.17226690395125
 21
154.9150035734541
 31
0.0
  0
LINE
  8
0
  6
CONTINUOUS
 62
               4
  5
1B7
 10
-139.17226690395125
 20
119.82124453113846
 30
0.0
 11
-139.17226690395125
 21
154.9150035734541
 31
0.0
  0
LINE
  8
0
  6
CONTINUOUS
 62
               4
  5
1B8
 10
-258.67226690395154
 20
58.926022743814485
 30
0.0
 11
-258.67226690395154
 21
68.800308950870374
 31
0.0
  0
LINE
  8
0
  6
CONTINUOUS
 62
               4
  5
1B9
 10
-236.67226690395108
 20
-35.178755468862107
 30
0.0
 11
-130.67226690394858
 21
-35.178755468861311
 31
0.0
  0
LINE
  8
0
  6
CONTINUOUS
 62
               4
  5
1BA
 10
-108.67226690395097
 20
58.926022743814599
 30
0.0
 11
-108.67226690395097
 21
68.800308950870487
 31
0.0
  0
LINE
  8
0
  6
CONTINUOUS
 62
               4
  5
1BB
 10
-736.67226690395114
 20
-35.178755468861539
 30
0.0
 11
-630.67226690394864
 21
-35.178755468860743
 31
0.0
  0
LINE
  8
0
  6
CONTINUOUS
 62
               4
  5
1BC
 10
271.82773309604806
 20
154.9150035734541
 30
0.0
 11
270.82773309604829
 21
155.91500357345404
 31
0.0
  0
LINE
  8
0
  6
CONTINUOUS
 62
               4
  5
1BD
 10
360.8277330960492
 20
154.9150035734541
 30
0.0
 11
361.8277330960492
 21
155.91500357345404
 31
0.0
  0
LINE
  8
0
  6
CONTINUOUS
 62
               4
  5
1BE
 10
271.82773309604806
 20
154.9150035734541
 30
0.0
 11
360.8277330960492
 21
154.9150035734541
 31
0.0
  0
LINE
  8
0
  6
CONTINUOUS
 62
               4
  5
1BF
 10
361.8277330960492
 20
155.91500357345404
 30
0.0
 11
270.82773309604829
 21
155.91500357345404
 31
0.0
  0
LINE
  8
0
  6
CONTINUOUS
 62
               4
  5
1C0
 10
271.82773309604875
 20
119.82124453113846
 30
0.0
 11
271.82773309604875
 21
154.9150035734541
 31
0.0
  0
LINE
  8
0
  6
CONTINUOUS
 62
               4
  5
1C1
 10
360.82773309604875
 20
119.82124453113846
 30
0.0
 11
360.82773309604875
 21
154.9150035734541
 31
0.0
  0
LINE
  8
0
  6
CONTINUOUS
 62
               4
  5
1C2
 10
263.32773309604886
 20
-35.178755468861539
 30
0.0
 11
369.32773309605136
 21
-35.178755468860629
 31
0.0
  0
LINE
  8
0
  6
CONTINUOUS
 62
               4
  5
1C3
 10
-241.7306613456644
 20
970.08530674100734
 30
0.0
 11
-310.67226690395296
 21
972.49280065710161
 31
0.0
  0
LINE
  8
0
  6
CONTINUOUS
 62
               4
  5
1C4
 10
-313.67226690395307
 20
974.82124453113681
 30
0.0
 11
-313.00071077798884
 21
974.82124453113681
 31
0.0
  0
LINE
  8
0
  6
CONTINUOUS
 62
               4
  5
1C5
 10
-310.67226690395296
 20
972.49280065710161
 30
0.0
 11
-313.00071077798884
 21
974.82124453113681
 31
0.0
  0
LINE
  8
0
  6
CONTINUOUS
 62
               4
  5
1C6
 10
-313.67226690395307
 20
1071.8212445311369
 30
0.0
 11
-313.00071077798884
 21
1071.8212445311369
 31
0.0
  0
LINE
  8
0
  6
CONTINUOUS
 62
               4
  5
1C7
 10
-310.67226690395296
 20
1074.1496884051726
 30
0.0
 11
-313.00071077798884
 21
1071.8212445311369
 31
0.0
  0
LINE
  8
0
  6
CONTINUOUS
 62
               4
  5
1C8
 10
-313.00071077798884
 20
1071.8212445311369
 30
0.0
 11
-313.00071077798884
 21
974.82124453113681
 31
0.0
  0
LINE
  8
0
  6
CONTINUOUS
 62
               4
  5
1C9
 10
-310.67226690395296
 20
972.49280065710161
 30
0.0
 11
-310.67226690395296
 21
1074.1496884051726
 31
0.0
  0
LINE
  8
0
  6
CONTINUOUS
 62
               4
  5
1CA
 10
-318.67226690395307
 20
1071.6496884051726
 30
0.0
 11
-318.67226690395307
 21
974.99280065710161
 31
0.0
  0
LINE
  8
0
  6
CONTINUOUS
 62
               4
  5
1CB
 10
-313.67226690395307
 20
972.49280065710161
 30
0.0
 11
-313.67226690395307
 21
1074.1496884051726
 31
0.0
  0
LINE
  8
0
  6
CONTINUOUS
 62
               4
  5
1CC
 10
-313.67226690395307
 20
1074.1496884051726
 30
0.0
 11
-316.17226690395307
 21
1074.1496884051726
 31
0.0
  0
LINE
  8
0
  6
CONTINUOUS
 62
               4
  5
1CD
 10
-313.67226690395307
 20
972.49280065710161
 30
0.0
 11
-316.17226690395307
 21
972.49280065710161
 31
0.0
  0
ARC
  8
0
  6
CONTINUOUS
 62
               4
  5
1CE
 10
-316.17226690395307
 20
974.99280065710161
 30
0.0
 40
2.5
 50
179.99999999993187
 51
269.99999999989649
  0
ARC
  8
0
  6
CONTINUOUS
 62
               4
  5
1CF
 10
-316.17226690395307
 20
1071.6496884051726
 30
0.0
 40
2.5
 50
89.999999999965937
 51
179.99999999993187
  0
LINE
  8
0
  6
CONTINUOUS
 62
               4
  5
1D0
 10
-219.85245933776838
 20
1077.3211859704766
 30
0.0
 11
-310.67226690395296
 21
1074.1496884051726
 31
0.0
  0
LINE
  8
0
  6
CONTINUOUS
 62
               4
  5
1D1
 10
-248.67226690395114
 20
573.50086216272462
 30
0.0
 11
-248.67226690395114
 21
569.39321998769788
 31
0.0
  0
ARC
  8
0
  6
CONTINUOUS
 62
               4
  5
1D2
 10
-247.67226690395097
 20
587.99223890891426
 30
0.0
 40
5.0
 50
315.01704217206668
 51
359.99999999986176
  0
ARC
  8
0
  6
CONTINUOUS
 62
               4
  5
1D3
 10
-233.17226690395103
 20
573.50086216272462
 30
0.0
 40
15.5
 50
135.01704217213489
 51
179.99999999993085
  0
LINE
  8
0
  6
CONTINUOUS
 62
               4
  5
1D4
 10
-313.67226690395114
 20
560.07124453113829
 30
0.0
 11
-313.00071077798691
 21
560.07124453113829
 31
0.0
  0
LINE
  8
0
  6
CONTINUOUS
 62
               4
  5
1D5
 10
-310.67226690395103
 20
562.39968840517417
 30
0.0
 11
-313.00071077798691
 21
560.07124453113829
 31
0.0
  0
LINE
  8
0
  6
CONTINUOUS
 62
               4
  5
1D6
 10
-310.67226690395103
 20
562.39968840517417
 30
0.0
 11
-253.49776942043889
 21
564.39626585260226
 31
0.0
  0
ARC
  8
0
  6
CONTINUOUS
 62
               4
  5
1D7
 10
-253.67226690395171
 20
569.39321998769788
 30
0.0
 40
5.0
 50
271.99999999989387
 51
359.99999999986159
  0
LINE
  8
0
  6
CONTINUOUS
 62
               4
  5
1D8
 10
-313.67226690395114
 20
562.39968840517417
 30
0.0
 11
-316.17226690395114
 21
562.39968840517417
 31
0.0
  0
ARC
  8
0
  6
CONTINUOUS
 62
               4
  5
1D9
 10
-316.17226690395114
 20
559.89968840517417
 30
0.0
 40
2.5
 50
89.999999999965937
 51
179.99999999993088
  0
LINE
  8
0
  6
CONTINUOUS
 62
               4
  5
1DA
 10
-310.67226690395103
 20
460.74280065710315
 30
0.0
 11
-310.67226690395103
 21
546.89968840517395
 31
0.0
  0
LINE
  8
0
  6
CONTINUOUS
 62
               4
  5
1DB
 10
-313.00071077798663
 20
544.57124453113875
 30
0.0
 11
-313.00071077798663
 21
463.07124453113869
 31
0.0
  0
LINE
  8
0
  6
CONTINUOUS
 62
               4
  5
1DC
 10
-318.67226690395114
 20
544.39968840517417
 30
0.0
 11
-318.67226690395114
 21
463.24280065710315
 31
0.0
  0
LINE
  8
0
  6
CONTINUOUS
 62
               4
  5
1DD
 10
-313.67226690395114
 20
460.74280065710315
 30
0.0
 11
-313.67226690395114
 21
546.89968840517417
 31
0.0
  0
LINE
  8
0
  6
CONTINUOUS
 62
               4
  5
1DE
 10
-310.67226690395103
 20
460.74280065710315
 30
0.0
 11
-310.67226690395103
 21
562.39968840517417
 31
0.0
  0
LINE
  8
0
  6
CONTINUOUS
 62
               4
  5
1DF
 10
-313.67226690395114
 20
463.07124453113869
 30
0.0
 11
-313.00071077798663
 21
463.07124453113869
 31
0.0
  0
LINE
  8
0
  6
CONTINUOUS
 62
               4
  5
1E0
 10
-310.67226690395103
 20
460.74280065710315
 30
0.0
 11
-313.00071077798663
 21
463.07124453113869
 31
0.0
  0
LINE
  8
0
  6
CONTINUOUS
 62
               4
  5
1E1
 10
-313.00071077798691
 20
560.07124453113829
 30
0.0
 11
-313.00071077798663
 21
463.07124453113869
 31
0.0
  0
LINE
  8
0
  6
CONTINUOUS
 62
               4
  5
1E2
 10
-318.67226690395114
 20
559.89968840517417
 30
0.0
 11
-318.67226690395114
 21
463.24280065710315
 31
0.0
  0
LINE
  8
0
  6
CONTINUOUS
 62
               4
  5
1E3
 10
-313.67226690395114
 20
460.74280065710315
 30
0.0
 11
-313.67226690395114
 21
562.39968840517417
 31
0.0
  0
LINE
  8
0
  6
CONTINUOUS
 62
               4
  5
1E4
 10
-313.67226690395114
 20
460.74280065710315
 30
0.0
 11
-316.17226690395114
 21
460.74280065710315
 31
0.0
  0
ARC
  8
0
  6
CONTINUOUS
 62
               4
  5
1E5
 10
-316.17226690395114
 20
463.24280065710315
 30
0.0
 40
2.5
 50
179.99999999993085
 51
269.99999999989649
  0
LINE
  8
0
  6
CONTINUOUS
 62
               4
  5
1E6
 10
-236.90820469408141
 20
965.26285008942432
 30
0.0
 11
-234.50071077798924
 21
896.32124453113443
 31
0.0
  0
LINE
  8
0
  6
CONTINUOUS
 62
               4
  5
1E7
 10
-232.17226690395404
 20
893.3212445311342
 30
0.0
 11
-232.17226690395404
 21
893.99280065709854
 31
0.0
  0
LINE
  8
0
  6
CONTINUOUS
 62
               4
  5
1E8
 10
-234.50071077798924
 20
896.32124453113443
 30
0.0
 11
-232.17226690395404
 21
893.99280065709854
 31
0.0
  0
LINE
  8
0
  6
CONTINUOUS
 62
               4
  5
1E9
 10
-135.1722669039541
 20
893.32124453113352
 30
0.0
 11
-135.1722669039541
 21
893.99280065709763
 31
0.0
  0
LINE
  8
0
  6
CONTINUOUS
 62
               4
  5
1EA
 10
-132.8438230299181
 20
896.32124453113352
 30
0.0
 11
-135.1722669039541
 21
893.99280065709763
 31
0.0
  0
LINE
  8
0
  6
CONTINUOUS
 62
               4
  5
1EB
 10
-135.17226690395387
 20
893.99280065709763
 30
0.0
 11
-232.17226690395404
 21
893.99280065709854
 31
0.0
  0
LINE
  8
0
  6
CONTINUOUS
 62
               4
  5
1EC
 10
-234.50071077798924
 20
896.32124453113443
 30
0.0
 11
-132.8438230299181
 21
896.32124453113352
 31
0.0
  0
LINE
  8
0
  6
CONTINUOUS
 62
               4
  5
1ED
 10
-135.34382302991821
 20
888.32124453113352
 30
0.0
 11
-232.0007107779893
 21
888.3212445311342
 31
0.0
  0
LINE
  8
0
  6
CONTINUOUS
 62
               4
  5
1EE
 10
-234.50071077798924
 20
893.3212445311342
 30
0.0
 11
-132.84382302991821
 21
893.32124453113352
 31
0.0
  0
LINE
  8
0
  6
CONTINUOUS
 62
               4
  5
1EF
 10
-132.84382302991821
 20
893.32124453113352
 30
0.0
 11
-132.84382302991821
 21
890.82124453113352
 31
0.0
  0
LINE
  8
0
  6
CONTINUOUS
 62
               4
  5
1F0
 10
-234.50071077798924
 20
893.3212445311342
 30
0.0
 11
-234.5007107779893
 21
890.8212445311342
 31
0.0
  0
ARC
  8
0
  6
CONTINUOUS
 62
               4
  5
1F1
 10
-232.0007107779893
 20
890.8212445311342
 30
0.0
 40
2.5
 50
179.99999999993057
 51
269.99999999989586
  0
ARC
  8
0
  6
CONTINUOUS
 62
               4
  5
1F2
 10
-135.34382302991821
 20
890.82124453113352
 30
0.0
 40
2.5
 50
269.99999999989586
 51
359.99999999986107
  0
LINE
  8
0
  6
CONTINUOUS
 62
               4
  5
1F3
 10
-129.67232546461366
 20
987.14105209731815
 30
0.0
 11
-132.8438230299181
 21
896.32124453113352
 31
0.0
  0
ARC
  8
0
  6
CONTINUOUS
 62
               4
  5
1F4
 10
-183.67226690395287
 20
1023.321244531137
 30
0.0
 40
67.499999999999957
 50
17.235285257081191
 51
72.76471474288374
  0
ARC
  8
0
  6
CONTINUOUS
 62
               4
  5
1F5
 10
-183.67226690395287
 20
1023.321244531137
 30
0.0
 40
67.499999999999957
 50
322.90680694075292
 51
342.76471474278031
  0
ARC
  8
0
  6
CONTINUOUS
 62
               4
  5
1F6
 10
-241.90515882917691
 20
965.0883526059115
 30
0.0
 40
5.0
 50
2.000000000002343
 51
87.999999999966334
  0
ARC
  8
0
  6
CONTINUOUS
 62
               4
  5
1F7
 10
-118.67226690395125
 20
457.32124453113846
 30
0.0
 40
2.4999999999999996
 50
269.99999999989649
 51
449.99999999982703
  0
LINE
  8
0
  6
CONTINUOUS
 62
               4
  5
1F8
 10
-119.17226690395137
 20
454.82124453113846
 30
0.0
 11
-119.17226690395137
 21
392.00266018582005
 31
0.0
  0
LINE
  8
0
  6
CONTINUOUS
 62
               4
  5
1F9
 10
-119.17550177030148
 20
391.9742681282558
 30
0.0
 11
-116.67226690395137
 21
391.86069989800052
 31
0.0
  0
LINE
  8
0
  6
CONTINUOUS
 62
               4
  5
1FA
 10
-116.67226690395137
 20
510.0261011353453
 30
0.0
 11
-116.67226690395137
 21
458.82124453113857
 31
0.0
  0
LINE
  8
0
  6
CONTINUOUS
 62
               4
  5
1FB
 10
-118.67226690395125
 20
512.45307199005811
 30
0.0
 11
-118.67226690395137
 21
571.50086216272462
 31
0.0
  0
LINE
  8
0
  6
CONTINUOUS
 62
               4
  5
1FC
 10
-116.67226690395137
 20
454.82124453113857
 30
0.0
 11
-116.67226690395137
 21
455.82124453113869
 31
0.0
  0
LINE
  8
0
  6
CONTINUOUS
 62
               4
  5
1FD
 10
-116.67226690395137
 20
454.82124453113857
 30
0.0
 11
-116.67226690395137
 21
391.86069989800052
 31
0.0
  0
LINE
  8
0
  6
CONTINUOUS
 62
               4
  5
1FE
 10
-116.92226690395114
 20
454.82124453113857
 30
0.0
 11
-116.92226690395114
 21
391.87489592678259
 31
0.0
  0
LINE
  8
0
  6
CONTINUOUS
 62
               4
  5
1FF
 10
-117.25805334157781
 20
582.40703096876541
 30
0.0
 11
-124.08648046632425
 21
589.23545809351162
 31
0.0
  0
ARC
  8
0
  6
CONTINUOUS
 62
               4
  5
200
 10
-118.67226690395103
 20
580.99281740639208
 30
0.0
 40
2.0
 50
0.0
 51
44.999999999982627
  0
ARC
  8
0
  6
CONTINUOUS
 62
               4
  5
201
 10
-122.67226690395114
 20
590.64967165588473
 30
0.0
 40
2.0
 50
179.99999999993119
 51
224.99999999991343
  0
LINE
  8
0
  6
CONTINUOUS
 62
               4
  5
202
 10
-118.67226690395125
 20
459.82124453113835
 30
0.0
 11
-118.67226690395103
 21
573.50086216272462
 31
0.0
  0
LINE
  8
0
  6
CONTINUOUS
 62
               4
  5
203
 10
-116.67226690395103
 20
580.99281740639208
 30
0.0
 11
-116.67226690395103
 21
458.82124453113801
 31
0.0
  0
ARC
  8
0
  6
CONTINUOUS
 62
               4
  5
204
 10
-119.67226690395114
 20
587.99223890891426
 30
0.0
 40
5.0
 50
179.99999999993088
 51
224.98295782772564
  0
ARC
  8
0
  6
CONTINUOUS
 62
               4
  5
205
 10
-122.67226690395114
 20
590.64967165588473
 30
0.0
 40
2.0
 50
179.99999999993119
 51
224.99999999991343
  0
ARC
  8
0
  6
CONTINUOUS
 62
               4
  5
206
 10
-134.17226690395103
 20
573.50086216272462
 30
0.0
 40
15.5
 50
0.0
 51
44.982957827796071
  0
LINE
  8
0
  6
CONTINUOUS
 62
               4
  5
207
 10
-124.67226690395114
 20
649.53883065371042
 30
0.0
 11
-124.67226690395114
 21
587.99223890891426
 31
0.0
  0
LINE
  8
0
  6
CONTINUOUS
 62
               4
  5
208
 10
265.89415587311407
 20
220.82496466929052
 30
0.0
 11
366.8941558731143
 21
220.82496466929052
 31
0.0
  0
LINE
  8
0
  6
CONTINUOUS
 62
               4
  5
209
 10
270.8941558731143
 20
220.82496466929052
 30
0.0
 11
251.3941558731143
 21
391.9742681282558
 31
0.0
  0
ARC
  8
0
  6
CONTINUOUS
 62
               4
  5
20A
 10
381.3941558731143
 20
457.32124453113846
 30
0.0
 40
2.4999999999999996
 50
269.99999999989518
 51
449.99999999982703
  0
LINE
  8
0
  6
CONTINUOUS
 62
               4
  5
20B
 10
380.89092100676407
 20
391.9742681282558
 30
0.0
 11
383.39415587311419
 21
391.86069989800052
 31
0.0
  0
LINE
  8
0
  6
CONTINUOUS
 62
               4
  5
20C
 10
251.3941558731143
 20
391.9742681282558
 30
0.0
 11
380.89092100676407
 21
391.9742681282558
 31
0.0
  0
LINE
  8
0
  6
CONTINUOUS
 62
               4
  5
20D
 10
390.8941558731143
 20
654.90854645486775
 30
0.0
 11
380.21965838960182
 21
654.53578478880581
 31
0.0
  0
ARC
  8
0
  6
CONTINUOUS
 62
               4
  5
20E
 10
380.3941558731143
 20
649.53883065371042
 30
0.0
 40
5.0
 50
91.999999999965638
 51
179.99999999993088
  0
LINE
  8
0
  6
CONTINUOUS
 62
               4
  5
20F
 10
255.88217978513262
 20
653.12124453113825
 30
0.0
 11
376.90613196109621
 21
653.12124453113825
 31
0.0
  0
LINE
  8
0
  6
CONTINUOUS
 62
               4
  5
210
 10
296.39415587311441
 20
653.12124453113825
 30
0.0
 11
296.39415587311441
 21
669.82124453113852
 31
0.0
  0
LINE
  8
0
  6
CONTINUOUS
 62
               4
  5
211
 10
336.39415587311453
 20
669.82124453113852
 30
0.0
 11
336.39415587311453
 21
653.12124453113825
 31
0.0
  0
LINE
  8
0
  6
CONTINUOUS
 62
               4
  5
212
 10
296.39415587311441
 20
659.90854645486775
 30
0.0
 11
336.39415587311453
 21
659.90854645486775
 31
0.0
  0
LINE
  8
0
  6
CONTINUOUS
 62
               4
  5
213
 10
336.39415587311453
 20
654.90854645486775
 30
0.0
 11
296.39415587311441
 21
654.90854645486775
 31
0.0
  0
LINE
  8
0
  6
CONTINUOUS
 62
               4
  5
214
 10
377.39415587311441
 20
669.82124453113852
 30
0.0
 11
377.39415587311441
 21
653.53883065371019
 31
0.0
  0
LINE
  8
0
  6
CONTINUOUS
 62
               4
  5
215
 10
375.39415587311441
 20
649.53883065371042
 30
0.0
 11
375.39415587311441
 21
585.99223890891403
 31
0.0
  0
LINE
  8
0
  6
CONTINUOUS
 62
               4
  5
216
 10
242.8941558731143
 20
454.82124453113857
 30
0.0
 11
389.8941558731143
 21
454.82124453113857
 31
0.0
  0
LINE
  8
0
  6
CONTINUOUS
 62
               4
  5
217
 10
389.8941558731143
 20
401.32310360415568
 30
0.0
 11
259.18439312978273
 21
270.61334086082388
 31
0.0
  0
LINE
  8
0
  6
CONTINUOUS
 62
               4
  5
218
 10
381.3941558731143
 20
573.50086216272439
 30
0.0
 11
381.3941558731143
 21
459.82124453113846
 31
0.0
  0
ARC
  8
0
  6
CONTINUOUS
 62
               4
  5
219
 10
380.39415587311407
 20
587.99223890891403
 30
0.0
 40
5.0
 50
179.99999999993088
 51
224.98295782772618
  0
ARC
  8
0
  6
CONTINUOUS
 62
               4
  5
21A
 10
365.89415587311419
 20
573.50086216272439
 30
0.0
 40
15.5
 50
0.0
 51
44.982957827796071
  0
LINE
  8
0
  6
CONTINUOUS
 62
               4
  5
21B
 10
361.8941558731143
 20
220.82496466929052
 30
0.0
 11
381.3941558731143
 21
391.9742681282558
 31
0.0
  0
LINE
  8
0
  6
CONTINUOUS
 62
               4
  5
21C
 10
381.3941558731143
 20
454.82124453113857
 30
0.0
 11
381.3941558731143
 21
391.9742681282558
 31
0.0
  0
LINE
  8
0
  6
CONTINUOUS
 62
               4
  5
21D
 10
251.3941558731143
 20
459.82124453113846
 30
0.0
 11
308.2660885626334
 21
459.82124453113846
 31
0.0
  0
LINE
  8
0
  6
CONTINUOUS
 62
               4
  5
21E
 10
324.54473309604884
 20
459.82124453113846
 30
0.0
 11
381.3941558731143
 21
459.82124453113846
 31
0.0
  0
LINE
  8
0
  6
CONTINUOUS
 62
               4
  5
21F
 10
322.32773309604829
 20
458.73532437960512
 30
0.0
 11
310.32773309604841
 21
458.73532437960512
 31
0.0
  0
ARC
  8
0
  6
CONTINUOUS
 62
               4
  5
220
 10
308.2660885626334
 20
457.32124453113846
 30
0.0
 40
2.4999999999999996
 50
34.446185822130779
 51
89.999999999965937
  0
ARC
  8
0
  6
CONTINUOUS
 62
               4
  5
221
 10
324.38937762946387
 20
457.32124453113846
 30
0.0
 40
2.4999999999999996
 50
89.999999999965937
 51
145.55381417779992
  0
LINE
  8
0
  6
CONTINUOUS
 62
               4
  5
222
 10
322.32773309604829
 20
455.90716468267209
 30
0.0
 11
310.32773309604841
 21
455.90716468267209
 31
0.0
  0
ARC
  8
0
  6
CONTINUOUS
 62
               4
  5
223
 10
308.2660885626334
 20
457.32124453113846
 30
0.0
 40
2.4999999999999996
 50
269.99999999989518
 51
325.5538141777306
  0
ARC
  8
0
  6
CONTINUOUS
 62
               4
  5
224
 10
324.38937762946387
 20
457.32124453113846
 30
0.0
 40
2.4999999999999996
 50
214.44618582206144
 51
269.99999999989518
  0
LINE
  8
0
  6
CONTINUOUS
 62
               4
  5
225
 10
308.11073309604853
 20
575.21265712378818
 30
0.0
 11
308.11073309604842
 21
459.82124453113846
 31
0.0
  0
LINE
  8
0
  6
CONTINUOUS
 62
               4
  5
226
 10
324.54473309604839
 20
575.21265712378818
 30
0.0
 11
324.54473309604884
 21
459.82124453113846
 31
0.0
  0
LINE
  8
0
  6
CONTINUOUS
 62
               4
  5
227
 10
322.32773309604829
 20
458.90716468267192
 30
0.0
 11
322.32773309604841
 21
585.74831087664097
 31
0.0
  0
LINE
  8
0
  6
CONTINUOUS
 62
               4
  5
228
 10
310.32773309604841
 20
585.74831087664097
 30
0.0
 11
310.32773309604841
 21
458.90716468267192
 31
0.0
  0
LINE
  8
0
  6
CONTINUOUS
 62
               4
  5
229
 10
324.54473309604828
 20
454.82124453113846
 30
0.0
 11
324.38937762946387
 21
454.82124453113846
 31
0.0
  0
LINE
  8
0
  6
CONTINUOUS
 62
               4
  5
22A
 10
324.54473309604884
 20
459.82124453113846
 30
0.0
 11
324.38937762946387
 21
459.82124453113846
 31
0.0
  0
LINE
  8
0
  6
CONTINUOUS
 62
               4
  5
22B
 10
308.11073309604842
 20
459.82124453113846
 30
0.0
 11
308.2660885626334
 21
459.82124453113846
 31
0.0
  0
LINE
  8
0
  6
CONTINUOUS
 62
               4
  5
22C
 10
308.11073309604842
 20
454.82124453113846
 30
0.0
 11
308.2660885626334
 21
454.82124453113846
 31
0.0
  0
LINE
  8
0
  6
CONTINUOUS
 62
               4
  5
22D
 10
308.11073309604842
 20
454.82124453113846
 30
0.0
 11
308.11073309604842
 21
220.82496466929052
 31
0.0
  0
LINE
  8
0
  6
CONTINUOUS
 62
               4
  5
22E
 10
324.54473309604828
 20
454.82124453113846
 30
0.0
 11
324.54473309604828
 21
220.82496466929052
 31
0.0
  0
LINE
  8
0
  6
CONTINUOUS
 62
               4
  5
22F
 10
310.32773309604841
 20
455.90716468267209
 30
0.0
 11
310.32773309604841
 21
223.0967402696395
 31
0.0
  0
LINE
  8
0
  6
CONTINUOUS
 62
               4
  5
230
 10
322.32773309604829
 20
223.0967402696395
 30
0.0
 11
322.32773309604829
 21
455.90716468267209
 31
0.0
  0
LINE
  8
0
  6
CONTINUOUS
 62
               4
  5
231
 10
324.54473309604828
 20
391.97426812825574
 30
0.0
 11
308.11073309604842
 21
391.97426812825574
 31
0.0
  0
LINE
  8
0
  6
CONTINUOUS
 62
               4
  5
232
 10
310.32773309604841
 20
223.0967402696395
 30
0.0
 11
322.32773309604829
 21
223.0967402696395
 31
0.0
  0
LINE
  8
0
  6
CONTINUOUS
 62
               4
  5
233
 10
308.11073309604842
 20
220.82496466929052
 30
0.0
 11
310.32773309604841
 21
223.0967402696395
 31
0.0
  0
LINE
  8
0
  6
CONTINUOUS
 62
               4
  5
234
 10
322.32773309604829
 20
223.0967402696395
 30
0.0
 11
324.54473309604828
 21
220.82496466929052
 31
0.0
  0
ARC
  8
0
  6
CONTINUOUS
 62
               4
  5
235
 10
290.54376728408261
 20
575.21265712378818
 30
0.0
 40
17.566965811965957
 50
0.0
 51
36.851448659216778
  0
LINE
  8
0
  6
CONTINUOUS
 62
               4
  5
236
 10
328.05473309604895
 20
590.74831087664097
 30
0.0
 11
304.60073309604854
 21
590.74831087664097
 31
0.0
  0
ARC
  8
0
  6
CONTINUOUS
 62
               4
  5
237
 10
342.11169890801432
 20
575.21265712378818
 30
0.0
 40
17.566965811965957
 50
143.14855134071399
 51
179.99999999993082
  0
LINE
  8
0
  6
CONTINUOUS
 62
               4
  5
238
 10
304.60073309604854
 20
585.74831087664097
 30
0.0
 11
304.60073309604854
 21
590.74831087664097
 31
0.0
  0
LINE
  8
0
  6
CONTINUOUS
 62
               4
  5
239
 10
328.05473309604895
 20
585.74831087664097
 30
0.0
 11
328.05473309604895
 21
590.74831087664097
 31
0.0
  0
LINE
  8
0
  6
CONTINUOUS
 62
               4
  5
23A
 10
304.60073309604854
 20
590.74831087664097
 30
0.0
 11
310.32773309604852
 21
585.74831087664097
 31
0.0
  0
LINE
  8
0
  6
CONTINUOUS
 62
               4
  5
23B
 10
322.32773309604841
 20
585.74831087664097
 30
0.0
 11
328.05473309604895
 21
590.74831087664097
 31
0.0
  0
LINE
  8
0
  6
CONTINUOUS
 62
               4
  5
23C
 10
310.32773309604841
 20
585.74831087664097
 30
0.0
 11
322.32773309604829
 21
585.74831087664097
 31
0.0
  0
LINE
  8
0
  6
CONTINUOUS
 62
               4
  5
23D
 10
262.32773309604886
 20
585.74831087664097
 30
0.0
 11
304.60073309604854
 21
585.74831087664097
 31
0.0
  0
LINE
  8
0
  6
CONTINUOUS
 62
               4
  5
23E
 10
328.05473309604895
 20
585.74831087664097
 30
0.0
 11
370.85953581012052
 21
585.74831087664097
 31
0.0
  0
CIRCLE
  8
0
  6
CONTINUOUS
 62
               4
  5
23F
 10
-183.67226690395069
 20
511.3212445311384
 30
0.0
 40
50.75
  0
ARC
  8
0
  6
CONTINUOUS
 62
               4
  5
240
 10
-248.67226690395125
 20
457.32124453113846
 30
0.0
 40
2.4999999999999996
 50
89.999999999965283
 51
269.99999999989649
  0
ARC
  8
0
  6
CONTINUOUS
 62
               4
  5
241
 10
-206.17226690395069
 20
457.32124453113846
 30
0.0
 40
2.4999999999999996
 50
269.99999999989626
 51
449.99999999982691
  0
ARC
  8
0
  6
CONTINUOUS
 62
               4
  5
242
 10
-161.17226690395069
 20
457.32124453113846
 30
0.0
 40
2.4999999999999996
 50
89.999999999965439
 51
269.99999999989626
  0
LINE
  8
0
  6
CONTINUOUS
 62
               4
  5
243
 10
-248.67226690395125
 20
459.82124453113846
 30
0.0
 11
-206.17226690395069
 21
459.82124453113846
 31
0.0
  0
LINE
  8
0
  6
CONTINUOUS
 62
               4
  5
244
 10
-161.17226690395069
 20
459.82124453113846
 30
0.0
 11
-118.67226690395125
 21
459.82124453113846
 31
0.0
  0
LINE
  8
0
  6
CONTINUOUS
 62
               4
  5
245
 10
251.32773309604875
 20
443.26402119891912
 30
0.0
 11
251.32773309604875
 21
391.9742681282558
 31
0.0
  0
LINE
  8
0
  6
CONTINUOUS
 62
               4
  5
246
 10
189.32773309604897
 20
460.74280065710303
 30
0.0
 11
235.63758077237583
 21
459.12562514120003
 31
0.0
  0
ARC
  8
0
  6
CONTINUOUS
 62
               4
  5
247
 10
235.46308328886278
 20
454.12867100610487
 30
0.0
 40
4.9999999999999991
 50
44.99999999998181
 51
87.999999999964871
  0
ARC
  8
0
  6
CONTINUOUS
 62
               4
  5
248
 10
246.32773309604875
 20
443.26402119891912
 30
0.0
 40
4.9999999999999991
 50
0.0
 51
44.999999999982755
  0
LINE
  8
0
  6
CONTINUOUS
 62
               4
  5
249
 10
241.82773309604897
 20
654.90854645486775
 30
0.0
 11
252.50223057956157
 21
654.53578478880581
 31
0.0
  0
ARC
  8
0
  6
CONTINUOUS
 62
               4
  5
24A
 10
252.32773309604897
 20
649.53883065371042
 30
0.0
 40
5.0
 50
0.0
 51
87.99999999996551
  0
LINE
  8
0
  6
CONTINUOUS
 62
               4
  5
24B
 10
255.32773309604897
 20
669.82124453113852
 30
0.0
 11
255.32773309604897
 21
653.53883065371019
 31
0.0
  0
LINE
  8
0
  6
CONTINUOUS
 62
               4
  5
24C
 10
257.32773309604897
 20
649.53883065371042
 30
0.0
 11
257.32773309604897
 21
587.99223890891403
 31
0.0
  0
LINE
  8
0
  6
CONTINUOUS
 62
               4
  5
24D
 10
241.84157757569471
 20
454.82124453113857
 30
0.0
 11
249.86326700198094
 21
446.79955510485212
 31
0.0
  0
LINE
  8
0
  6
CONTINUOUS
 62
               4
  5
24E
 10
238.99861719479611
 20
457.66420491203718
 30
0.0
 11
241.84157757569471
 21
454.82124453113857
 31
0.0
  0
LINE
  8
0
  6
CONTINUOUS
 62
               4
  5
24F
 10
251.32773309604886
 20
573.50086216272462
 30
0.0
 11
251.32773309604886
 21
569.39321998769788
 31
0.0
  0
ARC
  8
0
  6
CONTINUOUS
 62
               4
  5
250
 10
252.32773309604903
 20
587.99223890891426
 30
0.0
 40
5.0
 50
315.01704217206674
 51
359.99999999986176
  0
ARC
  8
0
  6
CONTINUOUS
 62
               4
  5
251
 10
266.82773309604897
 20
573.50086216272462
 30
0.0
 40
15.5
 50
135.01704217213481
 51
179.99999999993085
  0
LINE
  8
0
  6
CONTINUOUS
 62
               4
  5
252
 10
186.32773309604886
 20
560.07124453113829
 30
0.0
 11
186.99928922201309
 21
560.07124453113829
 31
0.0
  0
LINE
  8
0
  6
CONTINUOUS
 62
               4
  5
253
 10
189.32773309604897
 20
562.39968840517417
 30
0.0
 11
186.99928922201309
 21
560.07124453113829
 31
0.0
  0
LINE
  8
0
  6
CONTINUOUS
 62
               4
  5
254
 10
189.32773309604897
 20
562.39968840517417
 30
0.0
 11
246.50223057956111
 21
564.39626585260226
 31
0.0
  0
ARC
  8
0
  6
CONTINUOUS
 62
               4
  5
255
 10
246.32773309604829
 20
569.39321998769788
 30
0.0
 40
5.0
 50
271.99999999989353
 51
359.99999999986159
  0
LINE
  8
0
  6
CONTINUOUS
 62
               4
  5
256
 10
186.32773309604886
 20
562.39968840517417
 30
0.0
 11
183.82773309604886
 21
562.39968840517417
 31
0.0
  0
ARC
  8
0
  6
CONTINUOUS
 62
               4
  5
257
 10
183.82773309604886
 20
559.89968840517417
 30
0.0
 40
2.5
 50
89.999999999965937
 51
179.99999999993088
  0
LINE
  8
0
  6
CONTINUOUS
 62
               4
  5
258
 10
189.32773309604897
 20
460.74280065710315
 30
0.0
 11
189.32773309604897
 21
546.89968840517395
 31
0.0
  0
LINE
  8
0
  6
CONTINUOUS
 62
               4
  5
259
 10
186.99928922201337
 20
544.57124453113875
 30
0.0
 11
186.99928922201337
 21
463.07124453113869
 31
0.0
  0
LINE
  8
0
  6
CONTINUOUS
 62
               4
  5
25A
 10
181.32773309604886
 20
544.39968840517417
 30
0.0
 11
181.32773309604886
 21
463.24280065710315
 31
0.0
  0
LINE
  8
0
  6
CONTINUOUS
 62
               4
  5
25B
 10
186.32773309604886
 20
460.74280065710315
 30
0.0
 11
186.32773309604886
 21
546.89968840517417
 31
0.0
  0
LINE
  8
0
  6
CONTINUOUS
 62
               4
  5
25C
 10
189.32773309604897
 20
460.74280065710315
 30
0.0
 11
189.32773309604897
 21
562.39968840517417
 31
0.0
  0
LINE
  8
0
  6
CONTINUOUS
 62
               4
  5
25D
 10
186.32773309604886
 20
463.07124453113869
 30
0.0
 11
186.99928922201337
 21
463.07124453113869
 31
0.0
  0
LINE
  8
0
  6
CONTINUOUS
 62
               4
  5
25E
 10
189.32773309604897
 20
460.74280065710315
 30
0.0
 11
186.99928922201337
 21
463.07124453113869
 31
0.0
  0
LINE
  8
0
  6
CONTINUOUS
 62
               4
  5
25F
 10
186.99928922201309
 20
560.07124453113829
 30
0.0
 11
186.99928922201337
 21
463.07124453113869
 31
0.0
  0
LINE
  8
0
  6
CONTINUOUS
 62
               4
  5
260
 10
181.32773309604886
 20
559.89968840517417
 30
0.0
 11
181.32773309604886
 21
463.24280065710315
 31
0.0
  0
LINE
  8
0
  6
CONTINUOUS
 62
               4
  5
261
 10
186.32773309604886
 20
460.74280065710315
 30
0.0
 11
186.32773309604886
 21
562.39968840517417
 31
0.0
  0
LINE
  8
0
  6
CONTINUOUS
 62
               4
  5
262
 10
186.32773309604886
 20
460.74280065710315
 30
0.0
 11
183.82773309604886
 21
460.74280065710315
 31
0.0
  0
ARC
  8
0
  6
CONTINUOUS
 62
               4
  5
263
 10
183.82773309604886
 20
463.24280065710315
 30
0.0
 40
2.5
 50
179.99999999993085
 51
269.99999999989518
  0
ARC
  8
0
  6
CONTINUOUS
 62
               4
  5
264
 10
251.32773309604875
 20
457.32124453113846
 30
0.0
 40
2.4999999999999996
 50
89.999999999965937
 51
269.99999999989518
  0
LINE
  8
0
  6
CONTINUOUS
 62
               4
  5
265
 10
-618.67226690395125
 20
443.26402119891912
 30
0.0
 11
-618.67226690395125
 21
391.9742681282558
 31
0.0
  0
LINE
  8
0
  6
CONTINUOUS
 62
               4
  5
266
 10
-556.67226690395148
 20
460.74280065710303
 30
0.0
 11
-602.98211458027833
 21
459.12562514120003
 31
0.0
  0
ARC
  8
0
  6
CONTINUOUS
 62
               4
  5
267
 10
-602.80761709676528
 20
454.12867100610487
 30
0.0
 40
4.9999999999999991
 50
91.999999999965652
 51
134.9999999999487
  0
ARC
  8
0
  6
CONTINUOUS
 62
               4
  5
268
 10
-613.67226690395125
 20
443.26402119891912
 30
0.0
 40
4.9999999999999991
 50
134.99999999994779
 51
179.99999999993085
  0
LINE
  8
0
  6
CONTINUOUS
 62
               4
  5
269
 10
-624.67226690395148
 20
649.53883065371042
 30
0.0
 11
-624.67226690395148
 21
587.99223890891403
 31
0.0
  0
LINE
  8
0
  6
CONTINUOUS
 62
               4
  5
26A
 10
-609.18611138359722
 20
454.82124453113857
 30
0.0
 11
-617.20780080988345
 21
446.79955510485212
 31
0.0
  0
LINE
  8
0
  6
CONTINUOUS
 62
               4
  5
26B
 10
-606.34315100269862
 20
457.66420491203718
 30
0.0
 11
-609.18611138359722
 21
454.82124453113857
 31
0.0
  0
LINE
  8
0
  6
CONTINUOUS
 62
               4
  5
26C
 10
-618.67226690395137
 20
573.50086216272462
 30
0.0
 11
-618.67226690395137
 21
569.39321998769788
 31
0.0
  0
ARC
  8
0
  6
CONTINUOUS
 62
               4
  5
26D
 10
-619.67226690395159
 20
587.99223890891426
 30
0.0
 40
5.0
 50
179.99999999993088
 51
224.9829578277257
  0
ARC
  8
0
  6
CONTINUOUS
 62
               4
  5
26E
 10
-634.17226690395148
 20
573.50086216272462
 30
0.0
 40
15.5
 50
359.99999999986164
 51
404.98295782765751
  0
LINE
  8
0
  6
CONTINUOUS
 62
               4
  5
26F
 10
-553.67226690395137
 20
560.07124453113829
 30
0.0
 11
-554.3438230299156
 21
560.07124453113829
 31
0.0
  0
LINE
  8
0
  6
CONTINUOUS
 62
               4
  5
270
 10
-556.67226690395148
 20
562.39968840517417
 30
0.0
 11
-554.3438230299156
 21
560.07124453113829
 31
0.0
  0
LINE
  8
0
  6
CONTINUOUS
 62
               4
  5
271
 10
-556.67226690395148
 20
562.39968840517417
 30
0.0
 11
-613.84676438746362
 21
564.39626585260226
 31
0.0
  0
ARC
  8
0
  6
CONTINUOUS
 62
               4
  5
272
 10
-613.6722669039508
 20
569.39321998769788
 30
0.0
 40
5.0
 50
179.99999999993088
 51
267.99999999989797
  0
LINE
  8
0
  6
CONTINUOUS
 62
               4
  5
273
 10
-553.67226690395137
 20
562.39968840517417
 30
0.0
 11
-551.17226690395137
 21
562.39968840517417
 31
0.0
  0
ARC
  8
0
  6
CONTINUOUS
 62
               4
  5
274
 10
-551.17226690395137
 20
559.89968840517417
 30
0.0
 40
2.5
 50
359.99999999986176
 51
449.99999999982703
  0
LINE
  8
0
  6
CONTINUOUS
 62
               4
  5
275
 10
-556.67226690395148
 20
460.74280065710315
 30
0.0
 11
-556.67226690395148
 21
562.39968840517417
 31
0.0
  0
LINE
  8
0
  6
CONTINUOUS
 62
               4
  5
276
 10
-553.67226690395137
 20
463.07124453113869
 30
0.0
 11
-554.34382302991594
 21
463.07124453113869
 31
0.0
  0
LINE
  8
0
  6
CONTINUOUS
 62
               4
  5
277
 10
-556.67226690395148
 20
460.74280065710315
 30
0.0
 11
-554.34382302991594
 21
463.07124453113869
 31
0.0
  0
LINE
  8
0
  6
CONTINUOUS
 62
               4
  5
278
 10
-554.3438230299156
 20
560.07124453113829
 30
0.0
 11
-554.34382302991594
 21
463.07124453113869
 31
0.0
  0
LINE
  8
0
  6
CONTINUOUS
 62
               4
  5
279
 10
-548.67226690395137
 20
559.89968840517417
 30
0.0
 11
-548.67226690395137
 21
463.24280065710315
 31
0.0
  0
LINE
  8
0
  6
CONTINUOUS
 62
               4
  5
27A
 10
-553.67226690395137
 20
460.74280065710315
 30
0.0
 11
-553.67226690395137
 21
562.39968840517417
 31
0.0
  0
LINE
  8
0
  6
CONTINUOUS
 62
               4
  5
27B
 10
-553.67226690395137
 20
460.74280065710315
 30
0.0
 11
-551.17226690395137
 21
460.74280065710315
 31
0.0
  0
ARC
  8
0
  6
CONTINUOUS
 62
               4
  5
27C
 10
-551.17226690395137
 20
463.24280065710315
 30
0.0
 40
2.5
 50
269.99999999989518
 51
359.9999999998617
  0
ARC
  8
0
  6
CONTINUOUS
 62
               4
  5
27D
 10
-618.67226690395125
 20
457.32124453113846
 30
0.0
 40
2.4999999999999996
 50
269.99999999989518
 51
449.99999999982703
  0
LINE
  8
0
  6
CONTINUOUS
 62
               4
  5
27E
 10
-202.752688807043
 20
537.32124453113829
 30
0.0
 11
-164.59184500085848
 21
537.32124453113829
 31
0.0
  0
CIRCLE
  8
0
  6
CONTINUOUS
 62
               4
  5
27F
 10
-183.67226690395125
 20
511.3212445311384
 30
0.0
 40
41.849999999999994
  0
CIRCLE
  8
0
  6
CONTINUOUS
 62
               4
  5
280
 10
-183.67226690395125
 20
511.3212445311384
 30
0.0
 40
40.75
  0
CIRCLE
  8
0
  6
CONTINUOUS
 62
               4
  5
281
 10
-183.67226690395069
 20
511.3212445311384
 30
0.0
 40
36.399999999999999
  0
CIRCLE
  8
0
  6
CONTINUOUS
 62
               4
  5
282
 10
-183.67226690395069
 20
511.3212445311384
 30
0.0
 40
32.25
  0
LINE
  8
0
  6
CONTINUOUS
 62
               4
  5
283
 10
-210.71910128433626
 20
484.27441015075294
 30
0.0
 11
-212.48686823730304
 21
482.5066431977865
 31
0.0
  0
LINE
  8
0
  6
CONTINUOUS
 62
               4
  5
284
 10
-156.62543252357216
 20
484.27441015074612
 30
0.0
 11
-154.85766557059992
 21
482.50664319778593
 31
0.0
  0
ARC
  8
0
  6
CONTINUOUS
 62
               4
  5
285
 10
-183.67226690395069
 20
511.3212445311384
 30
0.0
 40
38.25
 50
224.99999999990445
 51
314.99999999986443
  0
LINE
  8
0
  6
CONTINUOUS
 62
               4
  5
286
 10
-737.67226690395125
 20
585.74831087664086
 30
0.0
 11
-629.14046418987948
 21
585.74831087664086
 31
0.0
  0
LINE
  8
0
  6
CONTINUOUS
 62
               4
  5
287
 10
-702.752688807043
 20
537.32124453113829
 30
0.0
 11
-664.59184500085848
 21
537.32124453113829
 31
0.0
  0
CIRCLE
  8
0
  6
CONTINUOUS
 62
               4
  5
288
 10
-683.67226690395125
 20
511.3212445311384
 30
0.0
 40
41.849999999999994
  0
CIRCLE
  8
0
  6
CONTINUOUS
 62
               4
  5
289
 10
-683.67226690395125
 20
511.3212445311384
 30
0.0
 40
40.75
  0
CIRCLE
  8
0
  6
CONTINUOUS
 62
               4
  5
28A
 10
-683.67226690395069
 20
511.3212445311384
 30
0.0
 40
36.399999999999999
  0
CIRCLE
  8
0
  6
CONTINUOUS
 62
               4
  5
28B
 10
-683.67226690395069
 20
511.3212445311384
 30
0.0
 40
32.25
  0
LINE
  8
0
  6
CONTINUOUS
 62
               4
  5
28C
 10
-710.71910128433626
 20
484.27441015075294
 30
0.0
 11
-712.48686823730304
 21
482.5066431977865
 31
0.0
  0
LINE
  8
0
  6
CONTINUOUS
 62
               4
  5
28D
 10
-656.62543252357216
 20
484.27441015074612
 30
0.0
 11
-654.85766557059992
 21
482.50664319778593
 31
0.0
  0
ARC
  8
0
  6
CONTINUOUS
 62
               4
  5
28E
 10
-683.67226690395069
 20
511.3212445311384
 30
0.0
 40
38.25
 50
224.9999999999045
 51
314.99999999986443
  0
CIRCLE
  8
0
  6
CONTINUOUS
 62
               4
  5
28F
 10
-683.67226690395069
 20
511.3212445311384
 30
0.0
 40
50.75
  0
LINE
  8
0
  6
CONTINUOUS
 62
               4
  5
290
 10
-109.1058441268857
 20
654.90854645486775
 30
0.0
 11
-119.78034161039818
 21
654.53578478880581
 31
0.0
  0
ARC
  8
0
  6
CONTINUOUS
 62
               4
  5
291
 10
-119.6058441268857
 20
649.53883065371042
 30
0.0
 40
5.0
 50
91.999999999965084
 51
179.99999999993088
  0
LINE
  8
0
  6
CONTINUOUS
 62
               4
  5
292
 10
-244.11782021486738
 20
653.12124453113825
 30
0.0
 11
-123.09386803890379
 21
653.12124453113825
 31
0.0
  0
LINE
  8
0
  6
CONTINUOUS
 62
               4
  5
293
 10
-203.60584412688559
 20
653.12124453113825
 30
0.0
 11
-203.60584412688559
 21
669.82124453113852
 31
0.0
  0
LINE
  8
0
  6
CONTINUOUS
 62
               4
  5
294
 10
-163.60584412688547
 20
669.82124453113852
 30
0.0
 11
-163.60584412688547
 21
653.12124453113825
 31
0.0
  0
LINE
  8
0
  6
CONTINUOUS
 62
               4
  5
295
 10
-203.60584412688559
 20
659.90854645486775
 30
0.0
 11
-163.60584412688547
 21
659.90854645486775
 31
0.0
  0
LINE
  8
0
  6
CONTINUOUS
 62
               4
  5
296
 10
-163.60584412688547
 20
654.90854645486775
 30
0.0
 11
-203.60584412688559
 21
654.90854645486775
 31
0.0
  0
LINE
  8
0
  6
CONTINUOUS
 62
               4
  5
297
 10
-122.60584412688559
 20
669.82124453113852
 30
0.0
 11
-122.60584412688559
 21
653.53883065371019
 31
0.0
  0
LINE
  8
0
  6
CONTINUOUS
 62
               4
  5
298
 10
-258.17226690395103
 20
654.90854645486775
 30
0.0
 11
-247.49776942043843
 21
654.53578478880581
 31
0.0
  0
ARC
  8
0
  6
CONTINUOUS
 62
               4
  5
299
 10
-247.67226690395103
 20
649.53883065371042
 30
0.0
 40
5.0
 50
0.0
 51
87.999999999965766
  0
LINE
  8
0
  6
CONTINUOUS
 62
               4
  5
29A
 10
-244.67226690395103
 20
669.82124453113852
 30
0.0
 11
-244.67226690395103
 21
653.53883065371019
 31
0.0
  0
LINE
  8
0
  6
CONTINUOUS
 62
               4
  5
29B
 10
-609.1058441268857
 20
654.90854645486775
 30
0.0
 11
-619.78034161039818
 21
654.5357847888057
 31
0.0
  0
ARC
  8
0
  6
CONTINUOUS
 62
               4
  5
29C
 10
-619.6058441268857
 20
649.53883065371031
 30
0.0
 40
5.0
 50
91.999999999964984
 51
179.99999999993088
  0
LINE
  8
0
  6
CONTINUOUS
 62
               4
  5
29D
 10
-744.11782021486738
 20
653.12124453113825
 30
0.0
 11
-623.09386803890379
 21
653.12124453113825
 31
0.0
  0
LINE
  8
0
  6
CONTINUOUS
 62
               4
  5
29E
 10
-703.60584412688559
 20
653.12124453113825
 30
0.0
 11
-703.60584412688559
 21
669.8212445311384
 31
0.0
  0
LINE
  8
0
  6
CONTINUOUS
 62
               4
  5
29F
 10
-663.60584412688547
 20
669.8212445311384
 30
0.0
 11
-663.60584412688547
 21
653.12124453113825
 31
0.0
  0
LINE
  8
0
  6
CONTINUOUS
 62
               4
  5
2A0
 10
-703.60584412688559
 20
659.90854645486775
 30
0.0
 11
-663.60584412688547
 21
659.90854645486775
 31
0.0
  0
LINE
  8
0
  6
CONTINUOUS
 62
               4
  5
2A1
 10
-663.60584412688547
 20
654.90854645486775
 30
0.0
 11
-703.60584412688559
 21
654.90854645486775
 31
0.0
  0
LINE
  8
0
  6
CONTINUOUS
 62
               4
  5
2A2
 10
-622.60584412688559
 20
669.8212445311384
 30
0.0
 11
-622.60584412688559
 21
653.53883065371019
 31
0.0
  0
LINE
  8
0
  6
CONTINUOUS
 62
               4
  5
2A3
 10
-758.17226690395103
 20
654.90854645486775
 30
0.0
 11
-747.49776942043843
 21
654.5357847888057
 31
0.0
  0
ARC
  8
0
  6
CONTINUOUS
 62
               4
  5
2A4
 10
-747.67226690395103
 20
649.53883065371031
 30
0.0
 40
5.0
 50
0.0
 51
87.999999999966178
  0
LINE
  8
0
  6
CONTINUOUS
 62
               4
  5
2A5
 10
-744.67226690395103
 20
669.8212445311384
 30
0.0
 11
-744.67226690395103
 21
653.53883065371019
 31
0.0
  0
POINT
  8
0
  6
CONTINUOUS
 62
               4
  5
2A6
 10
-428.17226690395097
 20
-566.05082754093348
 30
0.0
  0
POINT
  8
0
  6
CONTINUOUS
 62
               4
  5
2A7
 10
-139.17226690395114
 20
-566.05082754093371
 30
0.0
  0
POINT
  8
0
  6
CONTINUOUS
 62
               4
  5
2A8
 10
-232.67226690395097
 20
-472.55082754093394
 30
0.0
  0
POINT
  8
0
  6
CONTINUOUS
 62
               4
  5
2A9
 10
370.1142563123567
 20
-722.91458745033344
 30
0.0
  0
POINT
  8
0
  6
CONTINUOUS
 62
               4
  5
2AA
 10
181.21425631235684
 20
-623.01458745033312
 30
0.0
  0
LINE
  8
0
  6
CONTINUOUS
 62
               4
  5
2AB
 10
402.61425631235659
 20
-983.47836744606491
 30
0.0
 11
397.61425631235659
 21
-978.47836744606491
 31
0.0
  0
ARC
  8
0
  6
CONTINUOUS
 62
               4
  5
2AC
 10
380.11425631235659
 20
-994.0140211989177
 30
0.0
 40
19.999999999999996
 50
0.0
 51
31.788330617021131
  0
LINE
  8
0
  6
CONTINUOUS
 62
               4
  5
2AD
 10
397.11425631235704
 20
-983.47836744606491
 30
0.0
 11
397.11425631235704
 21
-978.47836744606445
 31
0.0
  0
LINE
  8
0
  6
CONTINUOUS
 62
               4
  5
2AE
 10
397.61425631235659
 20
-978.47836744606491
 30
0.0
 11
397.11425631235704
 21
-978.47836744606491
 31
0.0
  0
LINE
  8
0
  6
CONTINUOUS
 62
               4
  5
2AF
 10
402.36425631235682
 20
-983.72836744606491
 30
0.0
 11
397.11425631235704
 21
-978.47836744606491
 31
0.0
  0
LINE
  8
0
  6
CONTINUOUS
 62
               4
  5
2B0
 10
402.36425631235682
 20
-983.72836744606491
 30
0.0
 11
402.61425631235659
 21
-983.47836744606491
 31
0.0
  0
LINE
  8
0
  6
CONTINUOUS
 62
               4
  5
2B1
 10
402.61425631235659
 20
-983.47836744606491
 30
0.0
 11
402.61425631235659
 21
-1114.1670447960346
 31
0.0
  0
LINE
  8
0
  6
CONTINUOUS
 62
               4
  5
2B2
 10
402.36425631235682
 20
-983.72836744606491
 30
0.0
 11
402.36425631235682
 21
-1113.8816876888991
 31
0.0
  0
LINE
  8
0
  6
CONTINUOUS
 62
               4
  5
2B3
 10
400.11425631235659
 20
-993.86099760180048
 30
0.0
 11
400.11425631235659
 21
-1113.0140211989178
 31
0.0
  0
POINT
  8
0
  6
CONTINUOUS
 62
               4
  5
2B4
 10
181.21425631235672
 20
-1008.5140211989177
 30
0.0
  0
LINE
  8
0
  6
DASHED2
 62
               4
  5
2B5
 10
-228.17226690395125
 20
604.82124453113852
 30
0.0
 11
-139.17226690395125
 21
604.82124453113852
 31
0.0
  0
LINE
  8
0
  6
DASHED2
 62
               4
  5
2B6
 10
-728.17226690395125
 20
604.8212445311384
 30
0.0
 11
-639.17226690395125
 21
604.8212445311384
 31
0.0
  0
LINE
  8
0
  6
DASHED2
 62
               4
  5
2B7
 10
-728.17226690395125
 20
54.821244531138404
 30
0.0
 11
-639.17226690395125
 21
54.821244531138404
 31
0.0
  0
LINE
  8
0
  6
DASHED2
 62
               4
  5
2B8
 10
-639.17226690395125
 20
119.8212445311384
 30
0.0
 11
-639.17226690395125
 21
54.821244531138404
 31
0.0
  0
LINE
  8
0
  6
DASHED2
 62
               4
  5
2B9
 10
-728.17226690395125
 20
119.72281678568731
 30
0.0
 11
-728.17226690395125
 21
54.821244531138404
 31
0.0
  0
LINE
  8
0
  6
DASHED2
 62
               4
  5
2BA
 10
-228.17226690395125
 20
54.821244531138461
 30
0.0
 11
-139.17226690395125
 21
54.821244531138461
 31
0.0
  0
LINE
  8
0
  6
DASHED2
 62
               4
  5
2BB
 10
-139.17226690395125
 20
119.82124453113846
 30
0.0
 11
-139.17226690395125
 21
54.821244531138461
 31
0.0
  0
LINE
  8
0
  6
DASHED2
 62
               4
  5
2BC
 10
-228.17226690395125
 20
119.72281678568737
 30
0.0
 11
-228.17226690395125
 21
54.821244531138461
 31
0.0
  0
LINE
  8
0
  6
DASHED2
 62
               4
  5
2BD
 10
-310.43226690395181
 20
65.27124453113737
 30
0.0
 11
-310.43226690395181
 21
73.797373030444476
 31
0.0
  0
LINE
  8
0
  6
DASHED2
 62
               4
  5
2BE
 10
-304.54329415821741
 20
73.797373030444476
 30
0.0
 11
-304.54329415821741
 21
65.27124453113737
 31
0.0
  0
LINE
  8
0
  6
DASHED2
 62
               4
  5
2BF
 10
-307.48778053108447
 20
74.871244531137506
 30
0.0
 11
-289.85675327681855
 21
74.871244531137506
 31
0.0
  0
LINE
  8
0
  6
DASHED2
 62
               4
  5
2C0
 10
-286.91226690395149
 20
65.27124453113737
 30
0.0
 11
-286.91226690395149
 21
73.797373030444476
 31
0.0
  0
LINE
  8
0
  6
DASHED2
 62
               4
  5
2C1
 10
-292.80123964968618
 20
65.27124453113737
 30
0.0
 11
-292.80123964968618
 21
73.797373030444476
 31
0.0
  0
ARC
  8
0
  6
DASHED2
 62
               4
  5
2C2
 10
-307.48778053108447
 20
70.297512947021517
 30
0.0
 40
4.5737315841157447
 50
49.925579661593176
 51
130.07442033830344
  0
ARC
  8
0
  6
DASHED2
 62
               4
  5
2C3
 10
-289.85675327681855
 20
70.297512947021517
 30
0.0
 40
4.5737315841157686
 50
49.925579661593304
 51
130.07442033830372
  0
ARC
  8
0
  6
DASHED2
 62
               4
  5
2C4
 10
-298.67226690395165
 20
58.28538626161702
 30
0.0
 40
16.58585826952007
 50
69.269184858521172
 51
110.73081514137587
  0
LINE
  8
0
  6
DASHED2
 62
               4
  5
2C5
 10
-310.43226690395323
 20
62.071244531137097
 30
0.0
 11
-310.43226690395323
 21
53.545116031829878
 31
0.0
  0
LINE
  8
0
  6
DASHED2
 62
               4
  5
2C6
 10
-304.54329415821883
 20
53.545116031829878
 30
0.0
 11
-304.54329415821883
 21
62.071244531137097
 31
0.0
  0
LINE
  8
0
  6
DASHED2
 62
               4
  5
2C7
 10
-307.48778053108589
 20
52.471244531137302
 30
0.0
 11
-289.85675327682026
 21
52.471244531137302
 31
0.0
  0
LINE
  8
0
  6
DASHED2
 62
               4
  5
2C8
 10
-286.91226690395291
 20
62.071244531137097
 30
0.0
 11
-286.91226690395291
 21
53.545116031829878
 31
0.0
  0
LINE
  8
0
  6
DASHED2
 62
               4
  5
2C9
 10
-292.80123964968732
 20
62.071244531137097
 30
0.0
 11
-292.80123964968732
 21
53.545116031829878
 31
0.0
  0
ARC
  8
0
  6
DASHED2
 62
               4
  5
2CA
 10
-307.48778053108589
 20
57.044976115252723
 30
0.0
 40
4.5737315841157447
 50
229.92557966149033
 51
310.07442033820121
  0
ARC
  8
0
  6
DASHED2
 62
               4
  5
2CB
 10
-289.85675327682026
 20
57.044976115252723
 30
0.0
 40
4.5737315841157686
 50
229.92557966149064
 51
310.07442033820121
  0
ARC
  8
0
  6
DASHED2
 62
               4
  5
2CC
 10
-298.67226690395307
 20
69.057102800657219
 30
0.0
 40
16.58585826952007
 50
249.26918485841776
 51
290.73081514127233
  0
LINE
  8
0
  6
DASHED2
 62
               4
  5
2CD
 10
-304.67226690395159
 20
52.471244531137302
 30
0.0
 11
-304.67226690395159
 21
41.951878288812566
 31
0.0
  0
LINE
  8
0
  6
DASHED2
 62
               4
  5
2CE
 10
-292.67226690395171
 20
52.471244531137302
 30
0.0
 11
-292.67226690395171
 21
41.951878288812566
 31
0.0
  0
LINE
  8
0
  6
DASHED2
 62
               4
  5
2CF
 10
-303.47226690395183
 20
40.751878288812293
 30
0.0
 11
-293.87226690395175
 21
40.751878288812293
 31
0.0
  0
LINE
  8
0
  6
DASHED2
 62
               4
  5
2D0
 10
-304.67226690395159
 20
41.951878288812566
 30
0.0
 11
-303.47226690395183
 21
40.751878288812293
 31
0.0
  0
LINE
  8
0
  6
DASHED2
 62
               4
  5
2D1
 10
-292.67226690395171
 20
41.951878288812566
 30
0.0
 11
-293.87226690395175
 21
40.751878288812293
 31
0.0
  0
LINE
  8
0
  6
DASHED2
 62
               4
  5
2D2
 10
-304.67226690395159
 20
169.88482400706715
 30
0.0
 11
-304.67226690395159
 21
74.271244531137484
 31
0.0
  0
LINE
  8
0
  6
DASHED2
 62
               4
  5
2D3
 10
-292.67226690395171
 20
169.88482400706715
 30
0.0
 11
-292.67226690395171
 21
74.271244531137484
 31
0.0
  0
LINE
  8
0
  6
DASHED2
 62
               4
  5
2D4
 10
-292.67226690395171
 20
169.88482400706715
 30
0.0
 11
-304.67226690395159
 21
169.88482400706715
 31
0.0
  0
LINE
  8
0
  6
DASHED2
 62
               4
  5
2D5
 10
-228.67226690395324
 20
44.821244531136756
 30
0.0
 11
-228.67226690395267
 21
-10.178755468862107
 31
0.0
  0
LINE
  8
0
  6
DASHED2
 62
               4
  5
2D6
 10
-228.67226690395324
 20
44.821244531136756
 30
0.0
 11
-183.67226690395097
 21
44.821244531138234
 31
0.0
  0
LINE
  8
0
  6
DASHED2
 62
               4
  5
2D7
 10
-138.67226690394784
 20
44.821244531137779
 30
0.0
 11
-183.67226690394983
 21
44.821244531138234
 31
0.0
  0
LINE
  8
0
  6
DASHED2
 62
               4
  5
2D8
 10
-138.67226690394784
 20
44.821244531137779
 30
0.0
 11
-138.67226690394727
 21
-10.178755468861084
 31
0.0
  0
LINE
  8
0
  6
DASHED2
 62
               4
  5
2D9
 10
-56.912266903950922
 20
65.271244531137597
 30
0.0
 11
-56.912266903950922
 21
73.797373030444817
 31
0.0
  0
LINE
  8
0
  6
DASHED2
 62
               4
  5
2DA
 10
-62.801239649685328
 20
73.797373030444817
 30
0.0
 11
-62.801239649685328
 21
65.271244531137597
 31
0.0
  0
LINE
  8
0
  6
DASHED2
 62
               4
  5
2DB
 10
-59.856753276818267
 20
74.871244531137734
 30
0.0
 11
-77.487780531084184
 21
74.871244531137734
 31
0.0
  0
LINE
  8
0
  6
DASHED2
 62
               4
  5
2DC
 10
-80.432266903951245
 20
65.271244531137597
 30
0.0
 11
-80.432266903951245
 21
73.797373030444817
 31
0.0
  0
LINE
  8
0
  6
DASHED2
 62
               4
  5
2DD
 10
-74.543294158216554
 20
65.271244531137597
 30
0.0
 11
-74.543294158216554
 21
73.797373030444817
 31
0.0
  0
ARC
  8
0
  6
DASHED2
 62
               4
  5
2DE
 10
-59.856753276818267
 20
70.29751294702163
 30
0.0
 40
4.5737315841157447
 50
49.925579661626948
 51
130.07442033833783
  0
ARC
  8
0
  6
DASHED2
 62
               4
  5
2DF
 10
-77.487780531084184
 20
70.29751294702163
 30
0.0
 40
4.5737315841157686
 50
49.925579661627133
 51
130.07442033833769
  0
ARC
  8
0
  6
DASHED2
 62
               4
  5
2E0
 10
-68.672266903951083
 20
58.285386261617248
 30
0.0
 40
16.58585826952007
 50
69.269184858555064
 51
110.73081514140972
  0
LINE
  8
0
  6
DASHED2
 62
               4
  5
2E1
 10
-56.912266903949501
 20
62.071244531137211
 30
0.0
 11
-56.912266903949501
 21
53.545116031829991
 31
0.0
  0
LINE
  8
0
  6
DASHED2
 62
               4
  5
2E2
 10
-62.801239649683907
 20
53.545116031829991
 30
0.0
 11
-62.801239649683907
 21
62.071244531137211
 31
0.0
  0
LINE
  8
0
  6
DASHED2
 62
               4
  5
2E3
 10
-59.856753276816846
 20
52.471244531137415
 30
0.0
 11
-77.487780531082478
 21
52.471244531137415
 31
0.0
  0
LINE
  8
0
  6
DASHED2
 62
               4
  5
2E4
 10
-80.432266903949824
 20
62.071244531137211
 30
0.0
 11
-80.432266903949824
 21
53.545116031829991
 31
0.0
  0
LINE
  8
0
  6
DASHED2
 62
               4
  5
2E5
 10
-74.543294158215417
 20
62.071244531137211
 30
0.0
 11
-74.543294158215417
 21
53.545116031829991
 31
0.0
  0
ARC
  8
0
  6
DASHED2
 62
               4
  5
2E6
 10
-59.856753276816846
 20
57.044976115252837
 30
0.0
 40
4.5737315841157447
 50
229.92557966159103
 51
310.0744203383025
  0
ARC
  8
0
  6
DASHED2
 62
               4
  5
2E7
 10
-77.487780531082478
 20
57.044976115252837
 30
0.0
 40
4.5737315841157686
 50
229.92557966159166
 51
310.07442033830188
  0
ARC
  8
0
  6
DASHED2
 62
               4
  5
2E8
 10
-68.672266903949662
 20
69.057102800657333
 30
0.0
 40
16.58585826952007
 50
249.26918485852016
 51
290.73081514137476
  0
LINE
  8
0
  6
DASHED2
 62
               4
  5
2E9
 10
-62.67226690395114
 20
52.471244531137415
 30
0.0
 11
-62.672266903950856
 21
41.951878288812907
 31
0.0
  0
LINE
  8
0
  6
DASHED2
 62
               4
  5
2EA
 10
-74.672266903951027
 20
52.471244531137415
 30
0.0
 11
-74.672266903951027
 21
41.951878288812793
 31
0.0
  0
LINE
  8
0
  6
DASHED2
 62
               4
  5
2EB
 10
-63.872266903950901
 20
40.751878288812406
 30
0.0
 11
-73.472266903950981
 21
40.751878288812406
 31
0.0
  0
LINE
  8
0
  6
DASHED2
 62
               4
  5
2EC
 10
-62.672266903950856
 20
41.951878288812907
 30
0.0
 11
-63.872266903950901
 21
40.751878288812406
 31
0.0
  0
LINE
  8
0
  6
DASHED2
 62
               4
  5
2ED
 10
-74.672266903951027
 20
41.951878288812793
 30
0.0
 11
-73.472266903950981
 21
40.751878288812406
 31
0.0
  0
LINE
  8
0
  6
DASHED2
 62
               4
  5
2EE
 10
-62.672266903951424
 20
169.88482400706738
 30
0.0
 11
-62.67226690395114
 21
74.271244531137825
 31
0.0
  0
LINE
  8
0
  6
DASHED2
 62
               4
  5
2EF
 10
-74.672266903951311
 20
169.88482400706738
 30
0.0
 11
-74.672266903951027
 21
74.271244531137597
 31
0.0
  0
LINE
  8
0
  6
DASHED2
 62
               4
  5
2F0
 10
-74.672266903951311
 20
169.88482400706738
 30
0.0
 11
-62.672266903951424
 21
169.88482400706738
 31
0.0
  0
LINE
  8
0
  6
DASHED2
 62
               4
  5
2F1
 10
-728.6722669039533
 20
44.821244531137324
 30
0.0
 11
-728.67226690395273
 21
-10.178755468861539
 31
0.0
  0
LINE
  8
0
  6
DASHED2
 62
               4
  5
2F2
 10
-728.6722669039533
 20
44.821244531137324
 30
0.0
 11
-683.67226690395103
 21
44.821244531138802
 31
0.0
  0
LINE
  8
0
  6
DASHED2
 62
               4
  5
2F3
 10
-638.67226690394796
 20
44.821244531138348
 30
0.0
 11
-683.67226690394989
 21
44.821244531138802
 31
0.0
  0
LINE
  8
0
  6
DASHED2
 62
               4
  5
2F4
 10
-638.67226690394796
 20
44.821244531138348
 30
0.0
 11
-638.67226690394727
 21
-10.178755468860516
 31
0.0
  0
LINE
  8
0
  6
DASHED2
 62
               4
  5
2F5
 10
-695.43226690395159
 20
65.271244531137256
 30
0.0
 11
-695.43226690395159
 21
73.797373030444476
 31
0.0
  0
LINE
  8
0
  6
DASHED2
 62
               4
  5
2F6
 10
-689.54329415821712
 20
73.797373030444476
 30
0.0
 11
-689.54329415821712
 21
65.271244531137256
 31
0.0
  0
LINE
  8
0
  6
DASHED2
 62
               4
  5
2F7
 10
-692.48778053108413
 20
74.871244531137393
 30
0.0
 11
-674.85675327681815
 21
74.871244531137393
 31
0.0
  0
LINE
  8
0
  6
DASHED2
 62
               4
  5
2F8
 10
-671.91226690395115
 20
65.271244531137256
 30
0.0
 11
-671.91226690395115
 21
73.797373030444476
 31
0.0
  0
LINE
  8
0
  6
DASHED2
 62
               4
  5
2F9
 10
-677.80123964968584
 20
65.271244531137256
 30
0.0
 11
-677.80123964968584
 21
73.797373030444476
 31
0.0
  0
ARC
  8
0
  6
DASHED2
 62
               4
  5
2FA
 10
-692.48778053108413
 20
70.297512947021403
 30
0.0
 40
4.5737315841157447
 50
49.925579661593176
 51
130.07442033830333
  0
ARC
  8
0
  6
DASHED2
 62
               4
  5
2FB
 10
-674.85675327681815
 20
70.297512947021403
 30
0.0
 40
4.5737315841157686
 50
49.925579661593176
 51
130.07442033830387
  0
ARC
  8
0
  6
DASHED2
 62
               4
  5
2FC
 10
-683.67226690395137
 20
58.285386261616907
 30
0.0
 40
16.58585826952007
 50
69.269184858521257
 51
110.73081514137587
  0
LINE
  8
0
  6
DASHED2
 62
               4
  5
2FD
 10
-695.43226690395295
 20
62.07124453113687
 30
0.0
 11
-695.43226690395295
 21
53.54511603182965
 31
0.0
  0
LINE
  8
0
  6
DASHED2
 62
               4
  5
2FE
 10
-689.54329415821849
 20
53.54511603182965
 30
0.0
 11
-689.54329415821849
 21
62.07124453113687
 31
0.0
  0
LINE
  8
0
  6
DASHED2
 62
               4
  5
2FF
 10
-692.48778053108549
 20
52.471244531137074
 30
0.0
 11
-674.85675327681997
 21
52.471244531137074
 31
0.0
  0
LINE
  8
0
  6
DASHED2
 62
               4
  5
300
 10
-671.91226690395251
 20
62.07124453113687
 30
0.0
 11
-671.91226690395251
 21
53.54511603182965
 31
0.0
  0
LINE
  8
0
  6
DASHED2
 62
               4
  5
301
 10
-677.80123964968698
 20
62.07124453113687
 30
0.0
 11
-677.80123964968698
 21
53.54511603182965
 31
0.0
  0
ARC
  8
0
  6
DASHED2
 62
               4
  5
302
 10
-692.48778053108549
 20
57.044976115252496
 30
0.0
 40
4.5737315841157447
 50
229.92557966149019
 51
310.07442033820132
  0
ARC
  8
0
  6
DASHED2
 62
               4
  5
303
 10
-674.85675327681997
 20
57.044976115252496
 30
0.0
 40
4.5737315841157686
 50
229.92557966149019
 51
310.07442033820035
  0
ARC
  8
0
  6
DASHED2
 62
               4
  5
304
 10
-683.67226690395273
 20
69.057102800656992
 30
0.0
 40
16.58585826952007
 50
249.26918485841776
 51
290.73081514127233
  0
LINE
  8
0
  6
DASHED2
 62
               4
  5
305
 10
-689.67226690395137
 20
52.471244531137074
 30
0.0
 11
-689.67226690395137
 21
41.951878288813134
 31
0.0
  0
LINE
  8
0
  6
DASHED2
 62
               4
  5
306
 10
-677.67226690395137
 20
52.471244531137074
 30
0.0
 11
-677.67226690395137
 21
41.951878288813134
 31
0.0
  0
LINE
  8
0
  6
DASHED2
 62
               4
  5
307
 10
-688.47226690395155
 20
40.751878288812748
 30
0.0
 11
-678.87226690395141
 21
40.751878288812748
 31
0.0
  0
LINE
  8
0
  6
DASHED2
 62
               4
  5
308
 10
-689.67226690395137
 20
41.951878288813134
 30
0.0
 11
-688.47226690395155
 21
40.751878288812748
 31
0.0
  0
LINE
  8
0
  6
DASHED2
 62
               4
  5
309
 10
-677.67226690395137
 20
41.951878288813134
 30
0.0
 11
-678.87226690395141
 21
40.751878288812748
 31
0.0
  0
LINE
  8
0
  6
DASHED2
 62
               4
  5
30A
 10
-695.43226690395159
 20
65.271244531137256
 30
0.0
 11
-671.91226690395115
 21
65.271244531137256
 31
0.0
  0
LINE
  8
0
  6
DASHED2
 62
               4
  5
30B
 10
-671.91226690395251
 20
62.07124453113687
 30
0.0
 11
-695.43226690395295
 21
62.07124453113687
 31
0.0
  0
LINE
  8
0
  6
DASHED2
 62
               4
  5
30C
 10
-689.67226690395137
 20
169.88482400706778
 30
0.0
 11
-689.67226690395137
 21
74.871244531137393
 31
0.0
  0
LINE
  8
0
  6
DASHED2
 62
               4
  5
30D
 10
-677.67226690395137
 20
169.88482400706778
 30
0.0
 11
-677.67226690395137
 21
74.871244531137393
 31
0.0
  0
LINE
  8
0
  6
DASHED2
 62
               4
  5
30E
 10
-677.67226690395137
 20
169.88482400706778
 30
0.0
 11
-689.67226690395137
 21
169.88482400706778
 31
0.0
  0
LINE
  8
0
  6
DASHED2
 62
               4
  5
30F
 10
271.82773309604875
 20
54.821244531138461
 30
0.0
 11
360.82773309604875
 21
54.821244531138461
 31
0.0
  0
LINE
  8
0
  6
DASHED2
 62
               4
  5
310
 10
360.82773309604875
 20
119.82124453113846
 30
0.0
 11
360.82773309604875
 21
54.821244531138461
 31
0.0
  0
LINE
  8
0
  6
DASHED2
 62
               4
  5
311
 10
271.82773309604875
 20
119.72281678568737
 30
0.0
 11
271.82773309604875
 21
54.821244531138461
 31
0.0
  0
LINE
  8
0
  6
DASHED2
 62
               4
  5
312
 10
271.3277330960467
 20
44.821244531137381
 30
0.0
 11
271.32773309604727
 21
-10.178755468861539
 31
0.0
  0
LINE
  8
0
  6
DASHED2
 62
               4
  5
313
 10
271.3277330960467
 20
44.821244531137381
 30
0.0
 11
316.32773309604897
 21
44.821244531138859
 31
0.0
  0
LINE
  8
0
  6
DASHED2
 62
               4
  5
314
 10
361.32773309605216
 20
44.821244531138404
 30
0.0
 11
316.32773309605011
 21
44.821244531138859
 31
0.0
  0
LINE
  8
0
  6
DASHED2
 62
               4
  5
315
 10
361.32773309605216
 20
44.821244531138404
 30
0.0
 11
361.32773309605261
 21
-10.178755468860402
 31
0.0
  0
LINE
  8
0
  6
DASHED2
 62
               4
  5
316
 10
304.56773309604841
 20
65.271244531137313
 30
0.0
 11
304.56773309604841
 21
73.797373030444533
 31
0.0
  0
LINE
  8
0
  6
DASHED2
 62
               4
  5
317
 10
310.45670584178288
 20
73.797373030444533
 30
0.0
 11
310.45670584178288
 21
65.271244531137313
 31
0.0
  0
LINE
  8
0
  6
DASHED2
 62
               4
  5
318
 10
307.51221946891587
 20
74.871244531137449
 30
0.0
 11
325.14324672318185
 21
74.871244531137449
 31
0.0
  0
LINE
  8
0
  6
DASHED2
 62
               4
  5
319
 10
328.08773309604885
 20
65.271244531137313
 30
0.0
 11
328.08773309604885
 21
73.797373030444533
 31
0.0
  0
LINE
  8
0
  6
DASHED2
 62
               4
  5
31A
 10
322.19876035031416
 20
65.271244531137313
 30
0.0
 11
322.19876035031416
 21
73.797373030444533
 31
0.0
  0
ARC
  8
0
  6
DASHED2
 62
               4
  5
31B
 10
307.51221946891587
 20
70.29751294702146
 30
0.0
 40
4.5737315841157447
 50
49.925579661593176
 51
130.07442033830333
  0
ARC
  8
0
  6
DASHED2
 62
               4
  5
31C
 10
325.14324672318185
 20
70.29751294702146
 30
0.0
 40
4.5737315841157686
 50
49.925579661593176
 51
130.07442033830387
  0
ARC
  8
0
  6
DASHED2
 62
               4
  5
31D
 10
316.32773309604863
 20
58.285386261616964
 30
0.0
 40
16.58585826952007
 50
69.269184858521257
 51
110.73081514137587
  0
LINE
  8
0
  6
DASHED2
 62
               4
  5
31E
 10
304.56773309604705
 20
62.071244531136927
 30
0.0
 11
304.56773309604705
 21
53.545116031829707
 31
0.0
  0
LINE
  8
0
  6
DASHED2
 62
               4
  5
31F
 10
310.45670584178151
 20
53.545116031829707
 30
0.0
 11
310.45670584178151
 21
62.071244531136927
 31
0.0
  0
LINE
  8
0
  6
DASHED2
 62
               4
  5
320
 10
307.51221946891451
 20
52.471244531137131
 30
0.0
 11
325.14324672318003
 21
52.471244531137131
 31
0.0
  0
LINE
  8
0
  6
DASHED2
 62
               4
  5
321
 10
328.08773309604749
 20
62.071244531136927
 30
0.0
 11
328.08773309604749
 21
53.545116031829707
 31
0.0
  0
LINE
  8
0
  6
DASHED2
 62
               4
  5
322
 10
322.19876035031302
 20
62.071244531136927
 30
0.0
 11
322.19876035031302
 21
53.545116031829707
 31
0.0
  0
ARC
  8
0
  6
DASHED2
 62
               4
  5
323
 10
307.51221946891451
 20
57.044976115252553
 30
0.0
 40
4.5737315841157447
 50
229.92557966149019
 51
310.07442033820132
  0
ARC
  8
0
  6
DASHED2
 62
               4
  5
324
 10
325.14324672318003
 20
57.044976115252553
 30
0.0
 40
4.5737315841157686
 50
229.92557966149019
 51
310.07442033820035
  0
ARC
  8
0
  6
DASHED2
 62
               4
  5
325
 10
316.32773309604727
 20
69.057102800657049
 30
0.0
 40
16.58585826952007
 50
249.26918485841776
 51
290.73081514127233
  0
LINE
  8
0
  6
DASHED2
 62
               4
  5
326
 10
310.32773309604863
 20
52.471244531137131
 30
0.0
 11
310.32773309604863
 21
41.951878288813191
 31
0.0
  0
LINE
  8
0
  6
DASHED2
 62
               4
  5
327
 10
322.32773309604863
 20
52.471244531137131
 30
0.0
 11
322.32773309604863
 21
41.951878288813191
 31
0.0
  0
LINE
  8
0
  6
DASHED2
 62
               4
  5
328
 10
311.52773309604845
 20
40.751878288812804
 30
0.0
 11
321.12773309604859
 21
40.751878288812804
 31
0.0
  0
LINE
  8
0
  6
DASHED2
 62
               4
  5
329
 10
310.32773309604863
 20
41.951878288813191
 30
0.0
 11
311.52773309604845
 21
40.751878288812804
 31
0.0
  0
LINE
  8
0
  6
DASHED2
 62
               4
  5
32A
 10
322.32773309604863
 20
41.951878288813191
 30
0.0
 11
321.12773309604859
 21
40.751878288812804
 31
0.0
  0
LINE
  8
0
  6
DASHED2
 62
               4
  5
32B
 10
304.56773309604841
 20
65.271244531137313
 30
0.0
 11
328.08773309604885
 21
65.271244531137313
 31
0.0
  0
LINE
  8
0
  6
DASHED2
 62
               4
  5
32C
 10
328.08773309604749
 20
62.071244531136927
 30
0.0
 11
304.56773309604705
 21
62.071244531136927
 31
0.0
  0
LINE
  8
0
  6
DASHED2
 62
               4
  5
32D
 10
310.32773309604863
 20
169.88482400706783
 30
0.0
 11
310.32773309604863
 21
74.871244531137449
 31
0.0
  0
LINE
  8
0
  6
DASHED2
 62
               4
  5
32E
 10
322.32773309604863
 20
169.88482400706783
 30
0.0
 11
322.32773309604863
 21
74.871244531137449
 31
0.0
  0
LINE
  8
0
  6
DASHED2
 62
               4
  5
32F
 10
322.32773309604863
 20
169.88482400706783
 30
0.0
 11
310.32773309604863
 21
169.88482400706783
 31
0.0
  0
LINE
  8
0
  6
DASHED2
 62
               4
  5
330
 10
271.8941558731143
 20
604.82124453113852
 30
0.0
 11
360.8941558731143
 21
604.82124453113852
 31
0.0
  0
LINE
  8
0
  6
DASHED2
 62
               4
  5
331
 10
268.61425631235682
 20
-952.0140211989177
 30
0.0
 11
382.61425631235659
 21
-952.0140211989177
 31
0.0
  0
LINE
  8
0
  6
DIVIDE
 62
               4
  5
332
 10
-228.17226690395029
 20
-92.368460787141089
 30
0.0
 11
-228.17226690395029
 21
-130.07186007251323
 31
0.0
  0
LINE
  8
0
  6
DIVIDE
 62
               4
  5
333
 10
-139.17226690394938
 20
-100.25774864662355
 30
0.0
 11
-139.17226690394938
 21
-130.0718600725121
 31
0.0
  0
LINE
  8
0
  6
DIVIDE
 62
               4
  5
334
 10
-131.17226690394955
 20
-10.178755468861084
 30
0.0
 11
-131.17226690394955
 21
-96.282706262320403
 31
0.0
  0
LINE
  8
0
  6
DIVIDE
 62
               4
  5
335
 10
-236.1722669039504
 20
-10.178755468862107
 30
0.0
 11
-236.1722669039504
 21
-96.282706262321312
 31
0.0
  0
ARC
  8
0
  6
DIVIDE
 62
               4
  5
336
 10
-209.92226690394983
 20
-139.07458181393201
 30
0.0
 40
50.201664446754734
 50
58.473623406629336
 51
121.52637659330166
  0
ARC
  8
0
  6
DIVIDE
 62
               4
  5
337
 10
-157.42226690395211
 20
-53.490830710710384
 30
0.0
 40
50.201664446754734
 50
238.47362340656002
 51
301.52637659323238
  0
ARC
  8
0
  6
DIVIDE
 62
               4
  5
338
 10
-209.92226690394983
 20
-53.490830710710156
 30
0.0
 40
50.201664446754734
 50
238.47362340655994
 51
248.68262418362997
  0
ARC
  8
0
  6
DIVIDE
 62
               4
  5
339
 10
-205.92226690395091
 20
-163.40232177577366
 30
0.0
 40
40.074707451863929
 50
56.274610560451919
 51
123.72538943947879
  0
ARC
  8
0
  6
DIVIDE
 62
               4
  5
33A
 10
-205.92226690395091
 20
-96.741398369253716
 30
0.0
 40
40.074707451863929
 50
236.27461056038285
 51
303.7253894394097
  0
ARC
  8
0
  6
DIVIDE
 62
               4
  5
33B
 10
-161.42226690395131
 20
-96.741398369253716
 30
0.0
 40
40.074707451863929
 50
236.27461056038291
 51
303.7253894394097
  0
LINE
  8
0
  6
DIVIDE
 62
               4
  5
33C
 10
-728.17226690395034
 20
-92.368460787140407
 30
0.0
 11
-728.17226690395034
 21
-130.07186007251255
 31
0.0
  0
LINE
  8
0
  6
DIVIDE
 62
               4
  5
33D
 10
-639.17226690394943
 20
-100.2577486466231
 30
0.0
 11
-639.17226690394943
 21
-130.07186007251164
 31
0.0
  0
LINE
  8
0
  6
DIVIDE
 62
               4
  5
33E
 10
-631.17226690394955
 20
-10.178755468860516
 30
0.0
 11
-631.17226690394955
 21
-96.282706262319721
 31
0.0
  0
LINE
  8
0
  6
DIVIDE
 62
               4
  5
33F
 10
-736.17226690395046
 20
-10.178755468861539
 30
0.0
 11
-736.17226690395046
 21
-96.28270626232063
 31
0.0
  0
ARC
  8
0
  6
DIVIDE
 62
               4
  5
340
 10
-709.92226690394989
 20
-139.07458181393133
 30
0.0
 40
50.201664446754734
 50
58.473623406629351
 51
121.52637659330169
  0
ARC
  8
0
  6
DIVIDE
 62
               4
  5
341
 10
-657.42226690395216
 20
-53.490830710709702
 30
0.0
 40
50.201664446754734
 50
238.47362340656002
 51
301.52637659323238
  0
ARC
  8
0
  6
DIVIDE
 62
               4
  5
342
 10
-709.92226690394989
 20
-53.490830710709702
 30
0.0
 40
50.201664446754734
 50
238.47362340655997
 51
248.68262418363003
  0
ARC
  8
0
  6
DIVIDE
 62
               4
  5
343
 10
-705.92226690395103
 20
-163.40232177577298
 30
0.0
 40
40.074707451863929
 50
56.274610560451904
 51
123.72538943947882
  0
ARC
  8
0
  6
DIVIDE
 62
               4
  5
344
 10
-705.92226690395103
 20
-96.741398369253034
 30
0.0
 40
40.074707451863929
 50
236.2746105603828
 51
303.7253894394097
  0
ARC
  8
0
  6
DIVIDE
 62
               4
  5
345
 10
-661.42226690395137
 20
-96.741398369253034
 30
0.0
 40
40.074707451863929
 50
236.27461056038285
 51
303.72538943940981
  0
LINE
  8
0
  6
DIVIDE
 62
               4
  5
346
 10
271.82773309604966
 20
-92.368460787140407
 30
0.0
 11
271.82773309604966
 21
-130.07186007251255
 31
0.0
  0
LINE
  8
0
  6
DIVIDE
 62
               4
  5
347
 10
360.82773309605057
 20
-100.2577486466231
 30
0.0
 11
360.82773309605057
 21
-130.07186007251164
 31
0.0
  0
LINE
  8
0
  6
DIVIDE
 62
               4
  5
348
 10
368.82773309605034
 20
-10.178755468860402
 30
0.0
 11
368.82773309605034
 21
-96.282706262319721
 31
0.0
  0
LINE
  8
0
  6
DIVIDE
 62
               4
  5
349
 10
263.82773309604954
 20
-10.178755468861539
 30
0.0
 11
263.82773309604954
 21
-96.28270626232063
 31
0.0
  0
ARC
  8
0
  6
DIVIDE
 62
               4
  5
34A
 10
290.07773309605011
 20
-139.07458181393133
 30
0.0
 40
50.201664446754734
 50
58.473623406629351
 51
121.52637659330163
  0
ARC
  8
0
  6
DIVIDE
 62
               4
  5
34B
 10
342.57773309604784
 20
-53.490830710709702
 30
0.0
 40
50.201664446754734
 50
238.47362340656002
 51
301.52637659323238
  0
ARC
  8
0
  6
DIVIDE
 62
               4
  5
34C
 10
290.07773309605011
 20
-53.490830710709702
 30
0.0
 40
50.201664446754734
 50
238.47362340656002
 51
248.68262418363003
  0
ARC
  8
0
  6
DIVIDE
 62
               4
  5
34D
 10
294.07773309604897
 20
-163.40232177577298
 30
0.0
 40
40.074707451863929
 50
56.274610560451904
 51
123.72538943947882
  0
ARC
  8
0
  6
DIVIDE
 62
               4
  5
34E
 10
294.07773309604897
 20
-96.741398369253034
 30
0.0
 40
40.074707451863929
 50
236.2746105603828
 51
303.7253894394097
  0
ARC
  8
0
  6
DIVIDE
 62
               4
  5
34F
 10
338.57773309604863
 20
-96.741398369253034
 30
0.0
 40
40.074707451863929
 50
236.27461056038285
 51
303.7253894394097
  0
CIRCLE
  8
0
  6
DASHED
 62
               4
  5
350
 10
-283.67226690395114
 20
-617.05082754093371
 30
0.0
 40
33.5
  0
LINE
  8
0
  6
CONTINUOUS
 62
               3
  5
351
 10
-251.17226690395148
 20
591.16438389537984
 30
0.0
 11
-251.17226690395148
 21
641.33047606785021
 31
0.0
  0
LINE
  8
0
  6
CONTINUOUS
 62
               3
  5
352
 10
-265.93380721521231
 20
450.5758140418742
 30
0.0
 11
-258.6367329980186
 21
443.27873982468026
 31
0.0
  0
LINE
  8
0
  6
CONTINUOUS
 62
               3
  5
353
 10
-234.17226690395148
 20
220.82496466929052
 30
0.0
 11
-257.17226690395125
 21
391.49160314967099
 31
0.0
  0
LINE
  8
0
  6
CONTINUOUS
 62
               3
  5
354
 10
-133.17226690395103
 20
220.82496466929052
 30
0.0
 11
-110.17226690395125
 21
391.49160314967099
 31
0.0
  0
ARC
  8
0
  6
CONTINUOUS
 62
               3
  5
355
 10
-262.17226690395125
 20
439.74320591874749
 30
0.0
 40
5.0
 50
0.0
 51
44.999999999983046
  0
LINE
  8
0
  6
CONTINUOUS
 62
               3
  5
356
 10
-234.17226690395148
 20
220.82496466929052
 30
0.0
 11
-234.17226690395148
 21
121.42124453113712
 31
0.0
  0
LINE
  8
0
  6
CONTINUOUS
 62
               3
  5
357
 10
-133.17226690395103
 20
220.82496466929052
 30
0.0
 11
-133.17226690395103
 21
121.42124453113723
 31
0.0
  0
LINE
  8
0
  6
CONTINUOUS
 62
               3
  5
358
 10
-734.17226690395148
 20
220.82496466929047
 30
0.0
 11
-734.17226690395148
 21
119.8212445311384
 31
0.0
  0
LINE
  8
0
  6
CONTINUOUS
 62
               3
  5
359
 10
-633.17226690395103
 20
220.82496466929047
 30
0.0
 11
-633.17226690395103
 21
119.8212445311384
 31
0.0
  0
LINE
  8
0
  6
CONTINUOUS
 62
               3
  5
35A
 10
-751.17226690395148
 20
591.16438389537973
 30
0.0
 11
-751.17226690395148
 21
641.33047606785021
 31
0.0
  0
ARC
  8
0
  6
CONTINUOUS
 62
               3
  5
35B
 10
-733.17226690395114
 20
573.50086216272439
 30
0.0
 40
24.0
 50
142.47648679783222
 51
179.99999999993085
  0
LINE
  8
0
  6
CONTINUOUS
 62
               3
  5
35C
 10
-734.17226690395148
 20
220.82496466929047
 30
0.0
 11
-757.17226690395125
 21
391.49160314967094
 31
0.0
  0
LINE
  8
0
  6
CONTINUOUS
 62
               3
  5
35D
 10
-633.17226690395103
 20
220.82496466929047
 30
0.0
 11
-610.17226690395137
 21
391.49160314967094
 31
0.0
  0
ARC
  8
0
  6
CONTINUOUS
 62
               3
  5
35E
 10
-756.17226690395137
 20
591.16438389537973
 30
0.0
 40
5.0
 50
322.4764867977633
 51
359.99999999986176
  0
LINE
  8
0
  6
CONTINUOUS
 62
               3
  5
35F
 10
265.89415587311407
 20
220.82496466929052
 30
0.0
 11
265.89415587311407
 21
119.82124453113846
 31
0.0
  0
LINE
  8
0
  6
CONTINUOUS
 62
               3
  5
360
 10
366.89415587311453
 20
220.82496466929052
 30
0.0
 11
366.89415587311453
 21
119.82124453113846
 31
0.0
  0
LINE
  8
0
  6
CONTINUOUS
 62
               3
  5
361
 10
-301.67226690395125
 20
452.90115702890017
 30
0.0
 11
-267.2469390311648
 21
451.15904446633544
 31
0.0
  0
ARC
  8
0
  6
CONTINUOUS
 62
               3
  5
362
 10
-183.67226690395321
 20
1025.1968790292171
 30
0.0
 40
76.375634498080188
 50
254.81932855946019
 51
285.18067144033222
  0
ARC
  8
0
  6
CONTINUOUS
 62
               3
  5
363
 10
-185.5479014020334
 20
1023.321244531137
 30
0.0
 40
76.375634498080188
 50
344.81932855942557
 51
375.1806714402976
  0
ARC
  8
0
  6
CONTINUOUS
 62
               3
  5
364
 10
-183.67226690395319
 20
1021.4456100330568
 30
0.0
 40
76.375634498080188
 50
74.819328559529367
 51
105.18067144040144
  0
ARC
  8
0
  6
CONTINUOUS
 62
               3
  5
365
 10
-181.79663240587305
 20
1023.321244531137
 30
0.0
 40
76.375634498080188
 50
164.81932855949469
 51
195.18067144036684
  0
CIRCLE
  8
0
  6
CONTINUOUS
 62
               3
  5
366
 10
-183.1884167967367
 20
1023.3948568134707
 30
0.0
 40
61.000000000000007
  0
LINE
  8
0
  6
CONTINUOUS
 62
               3
  5
367
 10
-234.17226690395148
 20
119.82124453113846
 30
0.0
 11
-133.17226690395103
 21
119.82124453113846
 31
0.0
  0
LINE
  8
0
  6
CONTINUOUS
 62
               3
  5
368
 10
-318.67226690395165
 20
65.271244531136915
 30
0.0
 11
-318.67226690395165
 21
63.671244531136892
 31
0.0
  0
LINE
  8
0
  6
CONTINUOUS
 62
               3
  5
369
 10
-318.67226690395165
 20
62.071244531136983
 30
0.0
 11
-318.67226690395165
 21
63.671244531136892
 31
0.0
  0
LINE
  8
0
  6
CONTINUOUS
 62
               3
  5
36A
 10
-262.42226690395154
 20
66.77124453113737
 30
0.0
 11
-262.42226690395154
 21
65.27124453113737
 31
0.0
  0
LINE
  8
0
  6
CONTINUOUS
 62
               3
  5
36B
 10
-262.42226690395154
 20
62.071244531137097
 30
0.0
 11
-262.42226690395154
 21
60.571244531137211
 31
0.0
  0
LINE
  8
0
  6
CONTINUOUS
 62
               3
  5
36C
 10
-233.17226690395029
 20
-10.178755468862107
 30
0.0
 11
-233.17226690395029
 21
4.8212445311369834
 31
0.0
  0
LINE
  8
0
  6
CONTINUOUS
 62
               3
  5
36D
 10
-236.1722669039504
 20
-10.178755468862107
 30
0.0
 11
-131.17226690394955
 21
-10.178755468861084
 31
0.0
  0
ARC
  8
0
  6
CONTINUOUS
 62
               3
  5
36E
 10
-243.67226690395097
 20
115.82124453113721
 30
0.0
 40
4.0
 50
89.999999999947789
 51
179.9999999998962
  0
ARC
  8
0
  6
CONTINUOUS
 62
               3
  5
36F
 10
-246.67226690395108
 20
118.82124453113721
 30
0.0
 40
1.0000000000000004
 50
89.999999999947278
 51
179.99999999989538
  0
LINE
  8
0
  6
CONTINUOUS
 62
               3
  5
370
 10
-249.27226690395099
 20
118.82124453113721
 30
0.0
 11
-249.27226690395099
 21
66.27124453113737
 31
0.0
  0
LINE
  8
0
  6
CONTINUOUS
 62
               3
  5
371
 10
-247.67226690395131
 20
118.82124453113721
 30
0.0
 11
-247.67226690395131
 21
66.27124453113737
 31
0.0
  0
LINE
  8
0
  6
CONTINUOUS
 62
               3
  5
372
 10
-250.27226690395122
 20
63.671244531137347
 30
0.0
 11
-318.67226690395165
 21
63.671244531136892
 31
0.0
  0
LINE
  8
0
  6
CONTINUOUS
 62
               3
  5
373
 10
-250.27226690395122
 20
65.27124453113737
 30
0.0
 11
-318.67226690395165
 21
65.271244531136915
 31
0.0
  0
LINE
  8
0
  6
CONTINUOUS
 62
               3
  5
374
 10
-233.67226690395097
 20
121.42124453113712
 30
0.0
 11
-246.67226690395108
 21
121.42124453113712
 31
0.0
  0
LINE
  8
0
  6
CONTINUOUS
 62
               3
  5
375
 10
-183.67226690395097
 20
119.82124453113823
 30
0.0
 11
-246.67226690395108
 21
119.8212445311371
 31
0.0
  0
LINE
  8
0
  6
CONTINUOUS
 62
               3
  5
376
 10
-233.67226690395097
 20
121.42124453113712
 30
0.0
 11
-233.67226690395097
 21
119.82124453113732
 31
0.0
  0
LINE
  8
0
  6
CONTINUOUS
 62
               3
  5
377
 10
-233.67226690394926
 20
3.221244531137188
 30
0.0
 11
-246.67226690395051
 21
3.221244531137188
 31
0.0
  0
ARC
  8
0
  6
CONTINUOUS
 62
               3
  5
378
 10
-246.67226690394881
 20
5.8212445311369834
 30
0.0
 40
1.0000000000000004
 50
179.99999999989538
 51
269.99999999984431
  0
ARC
  8
0
  6
CONTINUOUS
 62
               3
  5
379
 10
-243.67226690394926
 20
8.8212445311368697
 30
0.0
 40
4.0
 50
179.999999999897
 51
269.99999999984584
  0
LINE
  8
0
  6
CONTINUOUS
 62
               3
  5
37A
 10
-233.67226690394926
 20
3.221244531137188
 30
0.0
 11
-233.67226690394926
 21
4.8212445311369834
 31
0.0
  0
LINE
  8
0
  6
CONTINUOUS
 62
               3
  5
37B
 10
-247.67226690394904
 20
5.8212445311369834
 30
0.0
 11
-247.67226690395188
 21
61.071244531137438
 31
0.0
  0
LINE
  8
0
  6
CONTINUOUS
 62
               3
  5
37C
 10
-183.67226690394983
 20
4.8212445311382339
 30
0.0
 11
-246.67226690394881
 21
4.8212445311369834
 31
0.0
  0
LINE
  8
0
  6
CONTINUOUS
 62
               3
  5
37D
 10
-183.67226690394983
 20
29.821244531138234
 30
0.0
 11
-247.67226690394904
 21
29.821244531137097
 31
0.0
  0
LINE
  8
0
  6
CONTINUOUS
 62
               3
  5
37E
 10
-250.27226690395122
 20
62.071244531137324
 30
0.0
 11
-318.67226690395165
 21
62.071244531136983
 31
0.0
  0
LINE
  8
0
  6
CONTINUOUS
 62
               3
  5
37F
 10
-247.67226690395131
 20
94.821244531137893
 30
0.0
 11
-183.67226690395097
 21
94.821244531138234
 31
0.0
  0
LINE
  8
0
  6
CONTINUOUS
 62
               3
  5
380
 10
-244.6722669039512
 20
94.821244531137893
 30
0.0
 11
-244.67226690395006
 21
29.821244531137097
 31
0.0
  0
LINE
  8
0
  6
CONTINUOUS
 62
               3
  5
381
 10
-254.92226690395154
 20
66.77124453113737
 30
0.0
 11
-262.42226690395154
 21
66.77124453113737
 31
0.0
  0
LINE
  8
0
  6
CONTINUOUS
 62
               3
  5
382
 10
-254.92226690395154
 20
60.571244531137324
 30
0.0
 11
-262.42226690395154
 21
60.571244531137211
 31
0.0
  0
LINE
  8
0
  6
CONTINUOUS
 62
               3
  5
383
 10
-254.92226690395154
 20
66.77124453113737
 30
0.0
 11
-254.92226690395154
 21
65.27124453113737
 31
0.0
  0
LINE
  8
0
  6
CONTINUOUS
 62
               3
  5
384
 10
-254.92226690395154
 20
62.071244531137324
 30
0.0
 11
-254.92226690395154
 21
60.571244531137324
 31
0.0
  0
LINE
  8
0
  6
CONTINUOUS
 62
               3
  5
385
 10
-183.67226690395097
 20
119.82124453113823
 30
0.0
 11
-120.67226690395142
 21
119.82124453113812
 31
0.0
  0
LINE
  8
0
  6
CONTINUOUS
 62
               3
  5
386
 10
-183.67226690394983
 20
4.8212445311382339
 30
0.0
 11
-120.67226690395142
 21
4.8212445311378929
 31
0.0
  0
LINE
  8
0
  6
CONTINUOUS
 62
               3
  5
387
 10
-183.67226690394983
 20
29.821244531138234
 30
0.0
 11
-119.6722669039512
 21
29.82124453113812
 31
0.0
  0
LINE
  8
0
  6
CONTINUOUS
 62
               3
  5
388
 10
-119.6722669039512
 20
94.821244531138916
 30
0.0
 11
-183.67226690395097
 21
94.821244531138234
 31
0.0
  0
ARC
  8
0
  6
CONTINUOUS
 62
               3
  5
389
 10
-246.67226690395108
 20
118.82124453113721
 30
0.0
 40
2.6000000000000001
 50
89.999999999965354
 51
179.99999999993196
  0
ARC
  8
0
  6
CONTINUOUS
 62
               3
  5
38A
 10
-250.27226690395122
 20
66.27124453113737
 30
0.0
 40
2.6000000000000001
 50
269.99999999989603
 51
359.99999999986142
  0
ARC
  8
0
  6
CONTINUOUS
 62
               3
  5
38B
 10
-250.27226690395122
 20
66.27124453113737
 30
0.0
 40
1.0
 50
269.99999999989683
 51
359.99999999986238
  0
ARC
  8
0
  6
CONTINUOUS
 62
               3
  5
38C
 10
-250.27226690395122
 20
61.071244531137324
 30
0.0
 40
2.6000000000000001
 50
0.0000000000012526
 51
89.999999999965979
  0
ARC
  8
0
  6
CONTINUOUS
 62
               3
  5
38D
 10
-250.27226690395122
 20
61.071244531137324
 30
0.0
 40
1.0
 50
0.0
 51
89.99999999996642
  0
LINE
  8
0
  6
CONTINUOUS
 62
               3
  5
38E
 10
-249.27226690395042
 20
5.8212445311369834
 30
0.0
 11
-249.27226690395099
 21
61.071244531137438
 31
0.0
  0
ARC
  8
0
  6
CONTINUOUS
 62
               3
  5
38F
 10
-246.67226690395051
 20
5.8212445311369834
 30
0.0
 40
2.6000000000000001
 50
179.99999999993196
 51
269.9999999998962
  0
LINE
  8
0
  6
CONTINUOUS
 62
               3
  5
390
 10
-134.17226690395194
 20
-10.178755468861993
 30
0.0
 11
-134.17226690395194
 21
4.8212445311369834
 31
0.0
  0
ARC
  8
0
  6
CONTINUOUS
 62
               3
  5
391
 10
-123.67226690395154
 20
115.82124453113721
 30
0.0
 40
4.0
 50
0.0000000000341973
 51
89.999999999983103
  0
ARC
  8
0
  6
CONTINUOUS
 62
               3
  5
392
 10
-120.67226690395142
 20
118.82124453113732
 30
0.0
 40
1.0000000000000004
 50
0.0000000000358258
 51
89.999999999983928
  0
LINE
  8
0
  6
CONTINUOUS
 62
               3
  5
393
 10
-118.07226690395152
 20
118.82124453113732
 30
0.0
 11
-118.07226690395152
 21
66.271244531137597
 31
0.0
  0
LINE
  8
0
  6
CONTINUOUS
 62
               3
  5
394
 10
-119.6722669039512
 20
118.82124453113732
 30
0.0
 11
-119.6722669039512
 21
66.271244531137597
 31
0.0
  0
LINE
  8
0
  6
CONTINUOUS
 62
               3
  5
395
 10
-117.07226690395129
 20
63.671244531137461
 30
0.0
 11
-48.672266903951083
 21
63.671244531137233
 31
0.0
  0
LINE
  8
0
  6
CONTINUOUS
 62
               3
  5
396
 10
-117.07226690395129
 20
65.271244531137484
 30
0.0
 11
-48.672266903951083
 21
65.271244531137143
 31
0.0
  0
LINE
  8
0
  6
CONTINUOUS
 62
               3
  5
397
 10
-133.67226690395154
 20
121.42124453113723
 30
0.0
 11
-120.67226690395142
 21
121.42124453113723
 31
0.0
  0
LINE
  8
0
  6
CONTINUOUS
 62
               3
  5
398
 10
-133.67226690395154
 20
121.42124453113723
 30
0.0
 11
-133.67226690395154
 21
119.82124453113744
 31
0.0
  0
LINE
  8
0
  6
CONTINUOUS
 62
               3
  5
399
 10
-133.67226690395324
 20
3.2212445311373017
 30
0.0
 11
-120.67226690395199
 21
3.2212445311373017
 31
0.0
  0
ARC
  8
0
  6
CONTINUOUS
 62
               3
  5
39A
 10
-120.67226690395341
 20
5.8212445311370971
 30
0.0
 40
1.0000000000000004
 50
269.9999999999481
 51
359.99999999989495
  0
ARC
  8
0
  6
CONTINUOUS
 62
               3
  5
39B
 10
-123.67226690395324
 20
8.8212445311370971
 30
0.0
 40
4.0
 50
269.99999999994668
 51
359.99999999989581
  0
LINE
  8
0
  6
CONTINUOUS
 62
               3
  5
39C
 10
-133.67226690395324
 20
3.2212445311373017
 30
0.0
 11
-133.67226690395324
 21
4.8212445311369834
 31
0.0
  0
LINE
  8
0
  6
CONTINUOUS
 62
               3
  5
39D
 10
-119.67226690395347
 20
5.8212445311370971
 30
0.0
 11
-119.67226690395063
 21
61.071244531137552
 31
0.0
  0
LINE
  8
0
  6
CONTINUOUS
 62
               3
  5
39E
 10
-117.07226690395129
 20
62.071244531137552
 30
0.0
 11
-48.672266903951083
 21
62.071244531137211
 31
0.0
  0
LINE
  8
0
  6
CONTINUOUS
 62
               3
  5
39F
 10
-122.67226690395131
 20
94.821244531138007
 30
0.0
 11
-122.67226690395245
 21
29.821244531137324
 31
0.0
  0
LINE
  8
0
  6
CONTINUOUS
 62
               3
  5
3A0
 10
-48.672266903951083
 20
65.271244531137143
 30
0.0
 11
-48.672266903951083
 21
63.671244531137233
 31
0.0
  0
LINE
  8
0
  6
CONTINUOUS
 62
               3
  5
3A1
 10
-48.672266903951083
 20
62.071244531137211
 30
0.0
 11
-48.672266903951083
 21
63.671244531137233
 31
0.0
  0
LINE
  8
0
  6
CONTINUOUS
 62
               3
  5
3A2
 10
-112.42226690395097
 20
66.771244531137484
 30
0.0
 11
-104.92226690395097
 21
66.771244531137484
 31
0.0
  0
LINE
  8
0
  6
CONTINUOUS
 62
               3
  5
3A3
 10
-112.42226690395097
 20
60.571244531137438
 30
0.0
 11
-104.92226690395097
 21
60.571244531137324
 31
0.0
  0
LINE
  8
0
  6
CONTINUOUS
 62
               3
  5
3A4
 10
-112.42226690395097
 20
66.771244531137484
 30
0.0
 11
-112.42226690395097
 21
65.271244531137484
 31
0.0
  0
LINE
  8
0
  6
CONTINUOUS
 62
               3
  5
3A5
 10
-112.42226690395097
 20
62.071244531137552
 30
0.0
 11
-112.42226690395097
 21
60.571244531137438
 31
0.0
  0
LINE
  8
0
  6
CONTINUOUS
 62
               3
  5
3A6
 10
-104.92226690395097
 20
66.771244531137484
 30
0.0
 11
-104.92226690395097
 21
65.271244531137484
 31
0.0
  0
LINE
  8
0
  6
CONTINUOUS
 62
               3
  5
3A7
 10
-104.92226690395097
 20
62.071244531137211
 30
0.0
 11
-104.92226690395097
 21
60.571244531137324
 31
0.0
  0
ARC
  8
0
  6
CONTINUOUS
 62
               3
  5
3A8
 10
-120.67226690395142
 20
118.82124453113732
 30
0.0
 40
2.6000000000000001
 50
0.0
 51
89.99999999996551
  0
ARC
  8
0
  6
CONTINUOUS
 62
               3
  5
3A9
 10
-117.07226690395129
 20
66.271244531137597
 30
0.0
 40
2.6000000000000001
 50
179.99999999993196
 51
269.99999999989637
  0
ARC
  8
0
  6
CONTINUOUS
 62
               3
  5
3AA
 10
-117.07226690395129
 20
66.271244531137597
 30
0.0
 40
1.0
 50
179.99999999992795
 51
269.99999999989683
  0
ARC
  8
0
  6
CONTINUOUS
 62
               3
  5
3AB
 10
-117.07226690395129
 20
61.071244531137438
 30
0.0
 40
2.6000000000000001
 50
89.999999999964729
 51
179.99999999993071
  0
ARC
  8
0
  6
CONTINUOUS
 62
               3
  5
3AC
 10
-117.07226690395129
 20
61.071244531137438
 30
0.0
 40
1.0
 50
89.999999999964786
 51
179.99999999992795
  0
LINE
  8
0
  6
CONTINUOUS
 62
               3
  5
3AD
 10
-118.07226690395208
 20
5.8212445311369834
 30
0.0
 11
-118.07226690395152
 21
61.071244531137438
 31
0.0
  0
ARC
  8
0
  6
CONTINUOUS
 62
               3
  5
3AE
 10
-120.67226690395199
 20
5.8212445311369834
 30
0.0
 40
2.6000000000000001
 50
269.9999999998962
 51
359.99999999986142
  0
LINE
  8
0
  6
CONTINUOUS
 62
               3
  5
3AF
 10
-736.17226690395046
 20
-10.178755468861539
 30
0.0
 11
-631.17226690394955
 21
-10.178755468860516
 31
0.0
  0
LINE
  8
0
  6
CONTINUOUS
 62
               3
  5
3B0
 10
-733.17226690395034
 20
-10.178755468861539
 30
0.0
 11
-733.17226690395034
 21
4.8212445311375518
 31
0.0
  0
LINE
  8
0
  6
CONTINUOUS
 62
               3
  5
3B1
 10
-634.17226690395205
 20
-10.178755468861425
 30
0.0
 11
-634.17226690395205
 21
4.8212445311375518
 31
0.0
  0
ARC
  8
0
  6
CONTINUOUS
 62
               3
  5
3B2
 10
-743.67226690394932
 20
8.821244531137495
 30
0.0
 40
4.0
 50
179.999999999897
 51
269.9999999998447
  0
LINE
  8
0
  6
CONTINUOUS
 62
               3
  5
3B3
 10
-747.67226690394932
 20
8.821244531137495
 30
0.0
 11
-747.67226690394932
 21
29.821244531137722
 31
0.0
  0
LINE
  8
0
  6
CONTINUOUS
 62
               3
  5
3B4
 10
-699.6722669039508
 20
29.821244531138575
 30
0.0
 11
-747.67226690394909
 21
29.821244531137722
 31
0.0
  0
LINE
  8
0
  6
CONTINUOUS
 62
               3
  5
3B5
 10
-699.6722669039508
 20
4.8212445311386887
 30
0.0
 11
-743.67226690395285
 21
4.821244531137495
 31
0.0
  0
LINE
  8
0
  6
CONTINUOUS
 62
               3
  5
3B6
 10
-667.67226690395182
 20
29.821244531138575
 30
0.0
 11
-619.67226690395353
 21
29.821244531137722
 31
0.0
  0
LINE
  8
0
  6
CONTINUOUS
 62
               3
  5
3B7
 10
-667.67226690395182
 20
4.8212445311386887
 30
0.0
 11
-623.67226690394978
 21
4.821244531137495
 31
0.0
  0
ARC
  8
0
  6
CONTINUOUS
 62
               3
  5
3B8
 10
-623.6722669039533
 20
8.821244531137495
 30
0.0
 40
4.0
 50
269.99999999994731
 51
359.99999999989581
  0
LINE
  8
0
  6
CONTINUOUS
 62
               3
  5
3B9
 10
-619.6722669039533
 20
8.821244531137495
 30
0.0
 11
-619.67226690395353
 21
29.821244531137722
 31
0.0
  0
ARC
  8
0
  6
CONTINUOUS
 62
               3
  5
3BA
 10
-743.67226690395148
 20
115.82124453113778
 30
0.0
 40
4.0
 50
89.99999999994769
 51
179.9999999998962
  0
LINE
  8
0
  6
CONTINUOUS
 62
               3
  5
3BB
 10
-747.67226690395148
 20
115.82124453114017
 30
0.0
 11
-747.67226690395171
 21
94.821244531138461
 31
0.0
  0
LINE
  8
0
  6
CONTINUOUS
 62
               3
  5
3BC
 10
-699.6722669039508
 20
119.82124453113863
 30
0.0
 11
-743.67226690395148
 21
119.82124453113778
 31
0.0
  0
LINE
  8
0
  6
CONTINUOUS
 62
               3
  5
3BD
 10
-747.67226690395171
 20
94.821244531138461
 30
0.0
 11
-699.6722669039508
 21
94.821244531138802
 31
0.0
  0
LINE
  8
0
  6
CONTINUOUS
 62
               3
  5
3BE
 10
-667.67226690395023
 20
119.82124453113886
 30
0.0
 11
-623.67226690395171
 21
119.82124453113875
 31
0.0
  0
LINE
  8
0
  6
CONTINUOUS
 62
               3
  5
3BF
 10
-619.67226690395159
 20
94.821244531139428
 30
0.0
 11
-667.67226690395023
 21
94.82124453113903
 31
0.0
  0
ARC
  8
0
  6
CONTINUOUS
 62
               3
  5
3C0
 10
-623.67226690395171
 20
115.82124453113789
 30
0.0
 40
4.0
 50
0.0000000000341973
 51
89.999999999983515
  0
LINE
  8
0
  6
CONTINUOUS
 62
               3
  5
3C1
 10
-619.67226690395159
 20
115.82124453113789
 30
0.0
 11
-619.67226690395159
 21
94.821244531139428
 31
0.0
  0
LINE
  8
0
  6
CONTINUOUS
 62
               3
  5
3C2
 10
-744.67226690395171
 20
94.821244531138461
 30
0.0
 11
-744.67226690395057
 21
29.821244531137779
 31
0.0
  0
LINE
  8
0
  6
CONTINUOUS
 62
               3
  5
3C3
 10
-622.67226690395148
 20
94.821244531138575
 30
0.0
 11
-622.6722669039525
 21
29.821244531137893
 31
0.0
  0
LINE
  8
0
  6
CONTINUOUS
 62
               3
  5
3C4
 10
-699.6722669039508
 20
3.2212445311386659
 30
0.0
 11
-667.67226690395023
 21
3.2212445311391207
 31
0.0
  0
LINE
  8
0
  6
CONTINUOUS
 62
               3
  5
3C5
 10
-699.6722669039508
 20
121.42124453113883
 30
0.0
 11
-699.6722669039508
 21
3.2212445311386659
 31
0.0
  0
LINE
  8
0
  6
CONTINUOUS
 62
               3
  5
3C6
 10
-667.67226690395023
 20
3.2212445311391207
 30
0.0
 11
-667.67226690395069
 21
121.42124453113883
 31
0.0
  0
LINE
  8
0
  6
CONTINUOUS
 62
               3
  5
3C7
 10
-699.67226690395148
 20
121.42124453113883
 30
0.0
 11
-667.67226690395137
 21
121.42124453113883
 31
0.0
  0
LINE
  8
0
  6
CONTINUOUS
 62
               3
  5
3C8
 10
-699.6722669039508
 20
63.671244531137461
 30
0.0
 11
-667.67226690395023
 21
63.671244531137461
 31
0.0
  0
LINE
  8
0
  6
CONTINUOUS
 62
               3
  5
3C9
 10
-699.6722669039508
 20
65.271244531137484
 30
0.0
 11
-667.67226690395023
 21
65.271244531137484
 31
0.0
  0
LINE
  8
0
  6
CONTINUOUS
 62
               3
  5
3CA
 10
-699.6722669039508
 20
62.071244531137438
 30
0.0
 11
-667.67226690395023
 21
62.071244531137438
 31
0.0
  0
LINE
  8
0
  6
CONTINUOUS
 62
               3
  5
3CB
 10
263.82773309604954
 20
-10.178755468861539
 30
0.0
 11
368.82773309605034
 21
-10.178755468860402
 31
0.0
  0
LINE
  8
0
  6
CONTINUOUS
 62
               3
  5
3CC
 10
266.82773309604966
 20
-10.178755468861539
 30
0.0
 11
266.82773309604966
 21
4.8212445311376086
 31
0.0
  0
LINE
  8
0
  6
CONTINUOUS
 62
               3
  5
3CD
 10
365.82773309604806
 20
-10.178755468861311
 30
0.0
 11
365.82773309604806
 21
4.8212445311376086
 31
0.0
  0
ARC
  8
0
  6
CONTINUOUS
 62
               3
  5
3CE
 10
256.32773309605068
 20
8.8212445311375518
 30
0.0
 40
4.0
 50
179.999999999897
 51
269.9999999998463
  0
LINE
  8
0
  6
CONTINUOUS
 62
               3
  5
3CF
 10
252.32773309605068
 20
8.8212445311375518
 30
0.0
 11
252.32773309605068
 21
29.821244531137779
 31
0.0
  0
LINE
  8
0
  6
CONTINUOUS
 62
               3
  5
3D0
 10
300.3277330960492
 20
29.821244531138632
 30
0.0
 11
252.32773309605091
 21
29.821244531137779
 31
0.0
  0
LINE
  8
0
  6
CONTINUOUS
 62
               3
  5
3D1
 10
300.3277330960492
 20
4.8212445311387455
 30
0.0
 11
256.32773309604715
 21
4.8212445311375518
 31
0.0
  0
LINE
  8
0
  6
CONTINUOUS
 62
               3
  5
3D2
 10
332.32773309604806
 20
29.821244531138632
 30
0.0
 11
380.32773309604647
 21
29.821244531137779
 31
0.0
  0
LINE
  8
0
  6
CONTINUOUS
 62
               3
  5
3D3
 10
332.32773309604806
 20
4.8212445311387455
 30
0.0
 11
376.32773309605022
 21
4.8212445311375518
 31
0.0
  0
ARC
  8
0
  6
CONTINUOUS
 62
               3
  5
3D4
 10
376.3277330960467
 20
8.8212445311375518
 30
0.0
 40
4.0
 50
269.99999999994566
 51
359.99999999989581
  0
LINE
  8
0
  6
CONTINUOUS
 62
               3
  5
3D5
 10
380.3277330960467
 20
8.8212445311375518
 30
0.0
 11
380.32773309604647
 21
29.821244531137779
 31
0.0
  0
ARC
  8
0
  6
CONTINUOUS
 62
               3
  5
3D6
 10
256.32773309604852
 20
115.82124453113784
 30
0.0
 40
4.0
 50
89.99999999994769
 51
179.9999999998962
  0
LINE
  8
0
  6
CONTINUOUS
 62
               3
  5
3D7
 10
252.32773309604852
 20
115.82124453114022
 30
0.0
 11
252.32773309604829
 21
94.821244531138518
 31
0.0
  0
LINE
  8
0
  6
CONTINUOUS
 62
               3
  5
3D8
 10
300.3277330960492
 20
119.82124453113869
 30
0.0
 11
256.32773309604852
 21
119.82124453113784
 31
0.0
  0
LINE
  8
0
  6
CONTINUOUS
 62
               3
  5
3D9
 10
252.32773309604829
 20
94.821244531138518
 30
0.0
 11
300.3277330960492
 21
94.821244531138859
 31
0.0
  0
LINE
  8
0
  6
CONTINUOUS
 62
               3
  5
3DA
 10
332.32773309604977
 20
119.82124453113892
 30
0.0
 11
376.32773309604829
 21
119.8212445311388
 31
0.0
  0
LINE
  8
0
  6
CONTINUOUS
 62
               3
  5
3DB
 10
380.32773309604841
 20
94.821244531139484
 30
0.0
 11
332.32773309604977
 21
94.821244531139087
 31
0.0
  0
ARC
  8
0
  6
CONTINUOUS
 62
               3
  5
3DC
 10
376.32773309604829
 20
115.82124453113795
 30
0.0
 40
4.0
 50
0.0000000000341973
 51
89.999999999981881
  0
LINE
  8
0
  6
CONTINUOUS
 62
               3
  5
3DD
 10
380.32773309604841
 20
115.82124453113795
 30
0.0
 11
380.32773309604841
 21
94.821244531139484
 31
0.0
  0
LINE
  8
0
  6
CONTINUOUS
 62
               3
  5
3DE
 10
255.32773309604829
 20
94.821244531138518
 30
0.0
 11
255.32773309604943
 21
29.821244531137836
 31
0.0
  0
LINE
  8
0
  6
CONTINUOUS
 62
               3
  5
3DF
 10
377.32773309604852
 20
94.821244531138632
 30
0.0
 11
377.3277330960475
 21
29.82124453113795
 31
0.0
  0
LINE
  8
0
  6
CONTINUOUS
 62
               3
  5
3E0
 10
300.3277330960492
 20
3.2212445311387228
 30
0.0
 11
332.32773309604977
 21
3.2212445311391775
 31
0.0
  0
LINE
  8
0
  6
CONTINUOUS
 62
               3
  5
3E1
 10
300.3277330960492
 20
121.42124453113888
 30
0.0
 11
300.3277330960492
 21
3.2212445311387228
 31
0.0
  0
LINE
  8
0
  6
CONTINUOUS
 62
               3
  5
3E2
 10
332.32773309604977
 20
3.2212445311391775
 30
0.0
 11
332.32773309604931
 21
121.42124453113888
 31
0.0
  0
LINE
  8
0
  6
CONTINUOUS
 62
               3
  5
3E3
 10
300.32773309604852
 20
121.42124453113888
 30
0.0
 11
332.32773309604863
 21
121.42124453113888
 31
0.0
  0
LINE
  8
0
  6
CONTINUOUS
 62
               3
  5
3E4
 10
300.3277330960492
 20
63.671244531137518
 30
0.0
 11
332.32773309604977
 21
63.671244531137518
 31
0.0
  0
LINE
  8
0
  6
CONTINUOUS
 62
               3
  5
3E5
 10
300.3277330960492
 20
65.27124453113754
 30
0.0
 11
332.32773309604977
 21
65.27124453113754
 31
0.0
  0
LINE
  8
0
  6
CONTINUOUS
 62
               3
  5
3E6
 10
300.3277330960492
 20
62.071244531137495
 30
0.0
 11
332.32773309604977
 21
62.071244531137495
 31
0.0
  0
LINE
  8
0
  6
CONTINUOUS
 62
               3
  5
3E7
 10
-301.33834535055422
 20
963.66167180754155
 30
0.0
 11
-249.94885676435038
 21
961.86711132232313
 31
0.0
  0
LINE
  8
0
  6
CONTINUOUS
 62
               3
  5
3E8
 10
-301.67226690395307
 20
963.66167180754155
 30
0.0
 11
-301.67226690395307
 21
972.17851373167571
 31
0.0
  0
LINE
  8
0
  6
CONTINUOUS
 62
               3
  5
3E9
 10
-301.67226690395307
 20
1082.9808172547323
 30
0.0
 11
-301.67226690395307
 21
972.17851373167559
 31
0.0
  0
LINE
  8
0
  6
CONTINUOUS
 62
               3
  5
3EA
 10
-301.33834535055422
 20
1082.9808172547323
 30
0.0
 11
-223.80054449463046
 21
1085.6884969253197
 31
0.0
  0
ARC
  8
0
  6
CONTINUOUS
 62
               3
  5
3EB
 10
-233.17226690395103
 20
573.50086216272462
 30
0.0
 40
24.0
 50
142.47648679783126
 51
173.54536552557119
  0
LINE
  8
0
  6
CONTINUOUS
 62
               3
  5
3EC
 10
-261.64527430944537
 20
572.6169298389807
 30
0.0
 11
-301.67226690395114
 21
571.21915645713966
 31
0.0
  0
LINE
  8
0
  6
CONTINUOUS
 62
               3
  5
3ED
 10
-301.67226690395114
 20
460.4285137316773
 30
0.0
 11
-301.67226690395114
 21
571.21915645713966
 31
0.0
  0
ARC
  8
0
  6
CONTINUOUS
 62
               3
  5
3EE
 10
-261.81934193921984
 20
577.60157457355831
 30
0.0
 40
5.0
 50
271.99999999989598
 51
343.70736505057295
  0
ARC
  8
0
  6
CONTINUOUS
 62
               3
  5
3EF
 10
-256.17226690395103
 20
591.1643838953803
 30
0.0
 40
5.0
 50
322.47648679776131
 51
359.99999999986176
  0
LINE
  8
0
  6
CONTINUOUS
 62
               3
  5
3F0
 10
-301.67226690395114
 20
460.42851373167758
 30
0.0
 11
-301.67226690395125
 21
452.90115702890017
 31
0.0
  0
LINE
  8
0
  6
CONTINUOUS
 62
               3
  5
3F1
 10
-243.33183962754936
 20
905.32124453113431
 30
0.0
 11
-132.5295361044931
 21
905.32124453113352
 31
0.0
  0
LINE
  8
0
  6
CONTINUOUS
 62
               3
  5
3F2
 10
-124.01269418035861
 20
905.3212445311334
 30
0.0
 11
-132.5295361044931
 21
905.32124453113352
 31
0.0
  0
LINE
  8
0
  6
CONTINUOUS
 62
               3
  5
3F3
 10
-124.01269418035861
 20
905.65516608453231
 30
0.0
 11
-121.30501450976999
 21
983.19296694046545
 31
0.0
  0
LINE
  8
0
  6
CONTINUOUS
 62
               3
  5
3F4
 10
-243.33183962754936
 20
905.65516608453322
 30
0.0
 11
-245.1264001127675
 21
957.04465467074033
 31
0.0
  0
LINE
  8
0
  6
CONTINUOUS
 62
               3
  5
3F5
 10
-257.17226690395125
 20
439.74320591874749
 30
0.0
 11
-257.17226690395125
 21
391.49160314967099
 31
0.0
  0
ARC
  8
0
  6
CONTINUOUS
 62
               3
  5
3F6
 10
-267.34802077758542
 20
449.16160047950115
 30
0.0
 40
2.0
 50
44.99999999998213
 51
87.102987033048336
  0
ARC
  8
0
  6
CONTINUOUS
 62
               3
  5
3F7
 10
-250.12335424786295
 20
956.87015718722762
 30
0.0
 40
5.0
 50
2.0000000000003868
 51
87.999999999965368
  0
LINE
  8
0
  6
CONTINUOUS
 62
               3
  5
3F8
 10
-116.17226690395114
 20
591.16438389537984
 30
0.0
 11
-116.17226690395114
 21
641.33047606785021
 31
0.0
  0
ARC
  8
0
  6
CONTINUOUS
 62
               3
  5
3F9
 10
-134.17226690395137
 20
573.50086216272439
 30
0.0
 40
24.0
 50
0.0000000000000339
 51
37.523513202098634
  0
ARC
  8
0
  6
CONTINUOUS
 62
               3
  5
3FA
 10
-111.17226690395114
 20
591.16438389537984
 30
0.0
 40
5.0
 50
179.99999999993088
 51
217.52351320202925
  0
LINE
  8
0
  6
CONTINUOUS
 62
               3
  5
3FB
 10
390.8941558731143
 20
659.90854645486775
 30
0.0
 11
390.8941558731143
 21
654.90854645486775
 31
0.0
  0
LINE
  8
0
  6
CONTINUOUS
 62
               3
  5
3FC
 10
390.8941558731143
 20
659.90854645486775
 30
0.0
 11
377.39415587311441
 21
669.82124453113852
 31
0.0
  0
LINE
  8
0
  6
CONTINUOUS
 62
               3
  5
3FD
 10
255.39415587311453
 20
669.82124453113852
 30
0.0
 11
377.39415587311441
 21
669.82124453113852
 31
0.0
  0
LINE
  8
0
  6
CONTINUOUS
 62
               3
  5
3FE
 10
383.89415587311441
 20
591.16438389537984
 30
0.0
 11
383.89415587311441
 21
647.90427964477612
 31
0.0
  0
LINE
  8
0
  6
CONTINUOUS
 62
               3
  5
3FF
 10
265.89415587311407
 20
220.82496466929052
 30
0.0
 11
242.8941558731143
 21
391.49160314967099
 31
0.0
  0
LINE
  8
0
  6
CONTINUOUS
 62
               3
  5
400
 10
366.89415587311453
 20
220.82496466929052
 30
0.0
 11
389.8941558731143
 21
391.49160314967099
 31
0.0
  0
ARC
  8
0
  6
CONTINUOUS
 62
               3
  5
401
 10
365.89415587311419
 20
573.50086216272439
 30
0.0
 40
24.0
 50
0.0000000000000339
 51
37.523513202098663
  0
ARC
  8
0
  6
CONTINUOUS
 62
               3
  5
402
 10
388.89415587311441
 20
591.16438389537984
 30
0.0
 40
5.0
 50
179.99999999993088
 51
217.52351320202965
  0
LINE
  8
0
  6
CONTINUOUS
 62
               3
  5
403
 10
241.82773309604897
 20
659.90854645486775
 30
0.0
 11
241.82773309604897
 21
654.90854645486775
 31
0.0
  0
LINE
  8
0
  6
CONTINUOUS
 62
               3
  5
404
 10
241.82773309604897
 20
659.90854645486775
 30
0.0
 11
255.32773309604897
 21
669.82124453113852
 31
0.0
  0
LINE
  8
0
  6
CONTINUOUS
 62
               3
  5
405
 10
248.82773309604852
 20
591.16438389537984
 30
0.0
 11
248.82773309604852
 21
647.90427964477601
 31
0.0
  0
LINE
  8
0
  6
CONTINUOUS
 62
               3
  5
406
 10
234.06619278478769
 20
450.5758140418742
 30
0.0
 11
241.3632670019814
 21
443.27873982468026
 31
0.0
  0
ARC
  8
0
  6
CONTINUOUS
 62
               3
  5
407
 10
237.82773309604875
 20
439.74320591874749
 30
0.0
 40
5.0
 50
0.0
 51
44.999999999982812
  0
LINE
  8
0
  6
CONTINUOUS
 62
               3
  5
408
 10
198.32773309604875
 20
452.90115702890017
 30
0.0
 11
232.7530609688352
 21
451.15904446633544
 31
0.0
  0
ARC
  8
0
  6
CONTINUOUS
 62
               3
  5
409
 10
266.82773309604897
 20
573.50086216272462
 30
0.0
 40
24.0
 50
142.47648679783137
 51
173.54536552557119
  0
LINE
  8
0
  6
CONTINUOUS
 62
               3
  5
40A
 10
238.35472569055463
 20
572.6169298389807
 30
0.0
 11
198.32773309604886
 21
571.21915645713966
 31
0.0
  0
LINE
  8
0
  6
CONTINUOUS
 62
               3
  5
40B
 10
198.32773309604886
 20
460.4285137316773
 30
0.0
 11
198.32773309604886
 21
571.21915645713966
 31
0.0
  0
ARC
  8
0
  6
CONTINUOUS
 62
               3
  5
40C
 10
238.18065806078016
 20
577.60157457355831
 30
0.0
 40
5.0
 50
271.99999999989552
 51
343.70736505057283
  0
ARC
  8
0
  6
CONTINUOUS
 62
               3
  5
40D
 10
243.82773309604897
 20
591.1643838953803
 30
0.0
 40
5.0
 50
322.4764867977612
 51
359.99999999986176
  0
LINE
  8
0
  6
CONTINUOUS
 62
               3
  5
40E
 10
198.32773309604886
 20
460.42851373167758
 30
0.0
 11
198.32773309604875
 21
452.90115702890017
 31
0.0
  0
LINE
  8
0
  6
CONTINUOUS
 62
               3
  5
40F
 10
242.82773309604875
 20
439.74320591874749
 30
0.0
 11
242.82773309604875
 21
391.49160314967099
 31
0.0
  0
ARC
  8
0
  6
CONTINUOUS
 62
               3
  5
410
 10
232.65197922241458
 20
449.16160047950115
 30
0.0
 40
2.0
 50
44.999999999981405
 51
87.102987033049146
  0
LINE
  8
0
  6
CONTINUOUS
 62
               3
  5
411
 10
-616.17226690395103
 20
591.16438389537984
 30
0.0
 11
-616.17226690395103
 21
641.33047606785021
 31
0.0
  0
LINE
  8
0
  6
CONTINUOUS
 62
               3
  5
412
 10
-601.41072659269025
 20
450.5758140418742
 30
0.0
 11
-608.70780080988391
 21
443.27873982468026
 31
0.0
  0
ARC
  8
0
  6
CONTINUOUS
 62
               3
  5
413
 10
-605.17226690395125
 20
439.74320591874749
 30
0.0
 40
5.0
 50
134.9999999999477
 51
179.99999999993085
  0
LINE
  8
0
  6
CONTINUOUS
 62
               3
  5
414
 10
-565.67226690395125
 20
452.90115702890017
 30
0.0
 11
-600.09759477673765
 21
451.15904446633544
 31
0.0
  0
ARC
  8
0
  6
CONTINUOUS
 62
               3
  5
415
 10
-634.17226690395148
 20
573.50086216272462
 30
0.0
 40
24.0
 50
6.4546344743596604
 51
37.523513202099586
  0
LINE
  8
0
  6
CONTINUOUS
 62
               3
  5
416
 10
-605.6992594984572
 20
572.6169298389807
 30
0.0
 11
-565.67226690395137
 21
571.21915645713966
 31
0.0
  0
LINE
  8
0
  6
CONTINUOUS
 62
               3
  5
417
 10
-565.67226690395137
 20
460.4285137316773
 30
0.0
 11
-565.67226690395137
 21
571.21915645713966
 31
0.0
  0
ARC
  8
0
  6
CONTINUOUS
 62
               3
  5
418
 10
-605.52519186868267
 20
577.60157457355831
 30
0.0
 40
5.0
 50
196.29263494921946
 51
267.99999999989603
  0
ARC
  8
0
  6
CONTINUOUS
 62
               3
  5
419
 10
-611.17226690395148
 20
591.1643838953803
 30
0.0
 40
5.0
 50
179.99999999993088
 51
217.52351320203107
  0
LINE
  8
0
  6
CONTINUOUS
 62
               3
  5
41A
 10
-565.67226690395137
 20
460.42851373167758
 30
0.0
 11
-565.67226690395125
 21
452.90115702890017
 31
0.0
  0
LINE
  8
0
  6
CONTINUOUS
 62
               3
  5
41B
 10
-610.17226690395125
 20
439.74320591874749
 30
0.0
 11
-610.17226690395125
 21
391.49160314967099
 31
0.0
  0
ARC
  8
0
  6
CONTINUOUS
 62
               3
  5
41C
 10
-599.99651303031715
 20
449.16160047950109
 30
0.0
 40
2.0
 50
92.897012966881974
 51
134.99999999994918
  0
ARC
  8
0
  6
CONTINUOUS
 62
               3
  5
41D
 10
-250.07638444735818
 20
1057.3212445311369
 30
0.0
 40
14.0
 50
269.9999999998962
 51
333.1053242639889
  0
ARC
  8
0
  6
CONTINUOUS
 62
               3
  5
41E
 10
-250.00150642768557
 20
989.32124453113704
 30
0.0
 40
14.0
 50
27.020857876212592
 51
89.999999999965368
  0
ARC
  8
0
  6
CONTINUOUS
 62
               3
  5
41F
 10
-217.67226690395324
 20
956.79257395632658
 30
0.0
 40
14.0
 50
0.0
 51
62.626786597621326
  0
ARC
  8
0
  6
CONTINUOUS
 62
               3
  5
420
 10
-149.67226690395324
 20
956.30038836513677
 30
0.0
 40
14.0
 50
116.54381150029138
 51
179.99999999993074
  0
ARC
  8
0
  6
CONTINUOUS
 62
               3
  5
421
 10
-116.37532716578788
 20
989.32124453113704
 30
0.0
 40
14.0
 50
89.999999999965368
 51
152.9791421237185
  0
ARC
  8
0
  6
CONTINUOUS
 62
               3
  5
422
 10
-116.30044914611521
 20
1057.3212445311369
 30
0.0
 40
14.0
 50
206.89467573580339
 51
269.9999999998962
  0
ARC
  8
0
  6
CONTINUOUS
 62
               3
  5
423
 10
-149.67226690395313
 20
1090.4893252618044
 30
0.0
 40
14.0
 50
179.99999999993074
 51
243.45618849956989
  0
ARC
  8
0
  6
CONTINUOUS
 62
               3
  5
424
 10
-217.67226690395313
 20
1089.9971396706146
 30
0.0
 40
14.0
 50
297.3732134022402
 51
359.99999999986147
  0
LINE
  8
0
  6
CONTINUOUS
 62
               3
  5
425
 10
-250.07638444735818
 20
1043.3212445311369
 30
0.0
 11
-255.50713060649804
 21
1043.3212445311369
 31
0.0
  0
LINE
  8
0
  6
CONTINUOUS
 62
               3
  5
426
 10
-250.07638444735827
 20
1003.3212445311366
 30
0.0
 11
-255.50713060649809
 21
1003.3212445311366
 31
0.0
  0
LINE
  8
0
  6
CONTINUOUS
 62
               3
  5
427
 10
-117.26814936054771
 20
1043.3212445311365
 30
0.0
 11
-111.83740320140787
 21
1043.3212445311365
 31
0.0
  0
LINE
  8
0
  6
CONTINUOUS
 62
               3
  5
428
 10
-117.26814936054794
 20
1003.321244531136
 30
0.0
 11
-111.83740320140809
 21
1003.3212445311359
 31
0.0
  0
LINE
  8
0
  6
CONTINUOUS
 62
               3
  5
429
 10
-203.67226690395302
 20
956.91712698773176
 30
0.0
 11
-203.67226690395302
 21
951.48638082859202
 31
0.0
  0
LINE
  8
0
  6
CONTINUOUS
 62
               3
  5
42A
 10
-163.67226690395256
 20
956.91712698773176
 30
0.0
 11
-163.67226690395256
 21
951.48638082859179
 31
0.0
  0
ARC
  8
0
  6
CONTINUOUS
 62
               3
  5
42B
 10
-183.67226690395324
 20
1023.321244531137
 30
0.0
 40
73.5
 50
329.1086871133877
 51
344.21020605498165
  0
ARC
  8
0
  6
CONTINUOUS
 62
               3
  5
42C
 10
-183.67226690395324
 20
1023.321244531137
 30
0.0
 40
73.5
 50
15.789793944878669
 51
120.89131288644298
  0
ARC
  8
0
  6
CONTINUOUS
 62
               3
  5
42D
 10
-223.97504197814305
 20
1090.6854510604153
 30
0.0
 40
5.0
 50
271.9999999998962
 51
300.89131288637321
  0
ARC
  8
0
  6
CONTINUOUS
 62
               3
  5
42E
 10
-116.30806037467453
 20
983.01846945695286
 30
0.0
 40
5.0
 50
149.10868711345702
 51
177.99999999993076
  0
ARC
  8
0
  6
CONTINUOUS
 62
               3
  5
42F
 10
241.82773309604852
 20
647.90427964477601
 30
0.0
 40
7.0
 50
0.0
 51
87.999999999966363
  0
ARC
  8
0
  6
CONTINUOUS
 62
               3
  5
430
 10
390.89415587311441
 20
647.90427964477612
 30
0.0
 40
7.0
 50
91.999999999964345
 51
179.99999999993074
  0
LINE
  8
0
  6
CONTINUOUS
 62
               3
  5
431
 10
-109.1058441268857
 20
659.90854645486775
 30
0.0
 11
-109.1058441268857
 21
654.90854645486775
 31
0.0
  0
LINE
  8
0
  6
CONTINUOUS
 62
               3
  5
432
 10
-109.1058441268857
 20
659.90854645486775
 30
0.0
 11
-122.60584412688559
 21
669.82124453113852
 31
0.0
  0
LINE
  8
0
  6
CONTINUOUS
 62
               3
  5
433
 10
-244.60584412688547
 20
669.82124453113852
 30
0.0
 11
-122.60584412688559
 21
669.82124453113852
 31
0.0
  0
LINE
  8
0
  6
CONTINUOUS
 62
               3
  5
434
 10
-258.17226690395103
 20
659.90854645486775
 30
0.0
 11
-258.17226690395103
 21
654.90854645486775
 31
0.0
  0
LINE
  8
0
  6
CONTINUOUS
 62
               3
  5
435
 10
-258.17226690395103
 20
659.90854645486775
 30
0.0
 11
-244.67226690395103
 21
669.82124453113852
 31
0.0
  0
ARC
  8
0
  6
CONTINUOUS
 62
               3
  5
436
 10
-258.17226690395148
 20
647.90427964477601
 30
0.0
 40
7.0
 50
0.0
 51
87.999999999966363
  0
ARC
  8
0
  6
CONTINUOUS
 62
               3
  5
437
 10
-109.10584412688559
 20
647.90427964477612
 30
0.0
 40
7.0
 50
91.999999999964572
 51
179.99999999993074
  0
LINE
  8
0
  6
CONTINUOUS
 62
               3
  5
438
 10
-251.17226690395148
 20
647.90427964477601
 30
0.0
 11
-251.17226690395148
 21
641.33047606785021
 31
0.0
  0
LINE
  8
0
  6
CONTINUOUS
 62
               3
  5
439
 10
-116.10584412688559
 20
647.90427964477612
 30
0.0
 11
-116.17226690395114
 21
641.33047606785021
 31
0.0
  0
LINE
  8
0
  6
CONTINUOUS
 62
               3
  5
43A
 10
-609.1058441268857
 20
659.90854645486775
 30
0.0
 11
-609.1058441268857
 21
654.90854645486775
 31
0.0
  0
LINE
  8
0
  6
CONTINUOUS
 62
               3
  5
43B
 10
-609.1058441268857
 20
659.90854645486775
 30
0.0
 11
-622.60584412688559
 21
669.8212445311384
 31
0.0
  0
LINE
  8
0
  6
CONTINUOUS
 62
               3
  5
43C
 10
-744.60584412688547
 20
669.8212445311384
 30
0.0
 11
-622.60584412688559
 21
669.8212445311384
 31
0.0
  0
LINE
  8
0
  6
CONTINUOUS
 62
               3
  5
43D
 10
-758.17226690395103
 20
659.90854645486775
 30
0.0
 11
-758.17226690395103
 21
654.90854645486775
 31
0.0
  0
LINE
  8
0
  6
CONTINUOUS
 62
               3
  5
43E
 10
-758.17226690395103
 20
659.90854645486775
 30
0.0
 11
-744.67226690395103
 21
669.8212445311384
 31
0.0
  0
ARC
  8
0
  6
CONTINUOUS
 62
               3
  5
43F
 10
-758.17226690395148
 20
647.90427964477601
 30
0.0
 40
7.0
 50
0.0
 51
87.999999999966363
  0
ARC
  8
0
  6
CONTINUOUS
 62
               3
  5
440
 10
-609.10584412688559
 20
647.90427964477601
 30
0.0
 40
7.0
 50
91.999999999964345
 51
179.99999999993074
  0
LINE
  8
0
  6
CONTINUOUS
 62
               3
  5
441
 10
-751.17226690395148
 20
647.90427964477601
 30
0.0
 11
-751.17226690395148
 21
641.33047606785021
 31
0.0
  0
LINE
  8
0
  6
CONTINUOUS
 62
               3
  5
442
 10
-616.10584412688559
 20
647.90427964477601
 30
0.0
 11
-616.17226690395114
 21
641.33047606785021
 31
0.0
  0
CIRCLE
  8
0
  6
CONTINUOUS
 62
               3
  5
443
 10
325.6142563123567
 20
-578.51458745033335
 30
0.0
 40
75.0
  0
CIRCLE
  8
0
  6
CONTINUOUS
 62
               3
  5
444
 10
325.6142563123567
 20
-578.51458745033335
 30
0.0
 40
52.5
  0
LINE
  8
0
  6
CONTINUOUS
 62
               3
  5
445
 10
239.40375811173146
 20
-558.51458745033335
 30
0.0
 11
253.33009483835133
 21
-558.51458745033335
 31
0.0
  0
LINE
  8
0
  6
CONTINUOUS
 62
               3
  5
446
 10
253.33009483835133
 20
-598.51458745033335
 30
0.0
 11
239.40375811173146
 21
-598.51458745033335
 31
0.0
  0
ARC
  8
0
  6
CONTINUOUS
 62
               3
  5
447
 10
325.6142563123567
 20
-578.51458745033335
 30
0.0
 40
88.5
 50
166.93897588503955
 51
193.06102411461561
  0
LINE
  8
0
  6
CONTINUOUS
 62
               3
  5
448
 10
305.6142563123567
 20
-664.72508565095825
 30
0.0
 11
305.6142563123567
 21
-650.79874892433838
 31
0.0
  0
LINE
  8
0
  6
CONTINUOUS
 62
               3
  5
449
 10
345.6142563123567
 20
-650.79874892433838
 30
0.0
 11
345.6142563123567
 21
-664.72508565095825
 31
0.0
  0
ARC
  8
0
  6
CONTINUOUS
 62
               3
  5
44A
 10
325.6142563123567
 20
-578.51458745033335
 30
0.0
 40
88.5
 50
256.93897588495338
 51
283.06102411452952
  0
LINE
  8
0
  6
CONTINUOUS
 62
               3
  5
44B
 10
411.82475451298137
 20
-598.51458745033335
 30
0.0
 11
397.89841778636094
 21
-598.51458745033335
 31
0.0
  0
LINE
  8
0
  6
CONTINUOUS
 62
               3
  5
44C
 10
397.89841778636094
 20
-558.51458745033335
 30
0.0
 11
411.82475451298137
 21
-558.51458745033335
 31
0.0
  0
ARC
  8
0
  6
CONTINUOUS
 62
               3
  5
44D
 10
325.6142563123567
 20
-578.51458745033335
 30
0.0
 40
88.5
 50
346.93897588486726
 51
373.06102411444323
  0
LINE
  8
0
  6
CONTINUOUS
 62
               3
  5
44E
 10
345.6142563123567
 20
-492.30408924970777
 30
0.0
 11
345.6142563123567
 21
-506.23042597632832
 31
0.0
  0
LINE
  8
0
  6
CONTINUOUS
 62
               3
  5
44F
 10
305.6142563123567
 20
-506.23042597632832
 30
0.0
 11
305.6142563123567
 21
-492.30408924970777
 31
0.0
  0
ARC
  8
0
  6
CONTINUOUS
 62
               3
  5
450
 10
325.6142563123567
 20
-578.51458745033335
 30
0.0
 40
88.5
 50
76.938975885125757
 51
103.06102411470188
  0
LINE
  8
0
  6
CONTINUOUS
 62
               3
  5
451
 10
277.94613279149564
 20
-600.51458745033381
 30
0.0
 11
373.28237983321662
 21
-600.51458745033381
 31
0.0
  0
ARC
  8
0
  6
CONTINUOUS
 62
               3
  5
452
 10
338.11786796173783
 20
-569.80818982271433
 30
0.0
 40
54.763804151667173
 50
141.38591763670254
 51
145.15009542081481
  0
ARC
  8
0
  6
CONTINUOUS
 62
               3
  5
453
 10
325.6142563123567
 20
-578.51458745033335
 30
0.0
 40
51.5
 50
334.71098847313715
 51
410.95932736324704
  0
ARC
  8
0
  6
CONTINUOUS
 62
               3
  5
454
 10
325.6142563123567
 20
-578.51458745033335
 30
0.0
 40
51.5
 50
129.04067263623628
 51
205.28901152634572
  0
ARC
  8
0
  6
CONTINUOUS
 62
               3
  5
455
 10
325.6142563123567
 20
-578.51458745033335
 30
0.0
 40
77.5
 50
104.95524831654288
 51
128.57288309091018
  0
ARC
  8
0
  6
CONTINUOUS
 62
               3
  5
456
 10
325.6142563123567
 20
-578.51458745033335
 30
0.0
 40
77.5
 50
14.955248316628946
 51
75.044751683284815
  0
ARC
  8
0
  6
CONTINUOUS
 62
               3
  5
457
 10
325.6142563123567
 20
-578.51458745033335
 30
0.0
 40
77.5
 50
321.42711690865843
 51
345.04475168302622
  0
LINE
  8
0
  6
CONTINUOUS
 62
               3
  5
458
 10
185.6142563123567
 20
-633.51458745033335
 30
0.0
 11
186.28581243832093
 21
-633.51458745033335
 31
0.0
  0
LINE
  8
0
  6
CONTINUOUS
 62
               3
  5
459
 10
188.78581243832139
 20
-636.01458745033335
 30
0.0
 11
186.28581243832093
 21
-633.51458745033335
 31
0.0
  0
LINE
  8
0
  6
CONTINUOUS
 62
               3
  5
45A
 10
185.6142563123567
 20
-523.51458745033335
 30
0.0
 11
186.28581243832093
 21
-523.51458745033335
 31
0.0
  0
LINE
  8
0
  6
CONTINUOUS
 62
               3
  5
45B
 10
188.78581243832093
 20
-521.01458745033335
 30
0.0
 11
186.28581243832093
 21
-523.51458745033335
 31
0.0
  0
LINE
  8
0
  6
CONTINUOUS
 62
               3
  5
45C
 10
186.28581243832093
 20
-523.51458745033335
 30
0.0
 11
186.28581243832093
 21
-633.51458745033335
 31
0.0
  0
LINE
  8
0
  6
CONTINUOUS
 62
               3
  5
45D
 10
280.12392052597875
 20
-517.82499043199175
 30
0.0
 11
188.78581243832093
 21
-521.01458745033335
 31
0.0
  0
LINE
  8
0
  6
CONTINUOUS
 62
               3
  5
45E
 10
260.77778459580566
 20
-638.52860251530103
 30
0.0
 11
188.7858124383215
 21
-636.01458745033335
 31
0.0
  0
LINE
  8
0
  6
CONTINUOUS
 62
               3
  5
45F
 10
180.6142563123567
 20
-523.68614357629747
 30
0.0
 11
180.6142563123567
 21
-633.61458745033326
 31
0.0
  0
LINE
  8
0
  6
CONTINUOUS
 62
               3
  5
460
 10
185.6142563123567
 20
-636.11458745033326
 30
0.0
 11
185.6142563123567
 21
-520.91458745033322
 31
0.0
  0
LINE
  8
0
  6
CONTINUOUS
 62
               3
  5
461
 10
185.6142563123567
 20
-520.91458745033322
 30
0.0
 11
183.1142563123567
 21
-520.91458745033322
 31
0.0
  0
LINE
  8
0
  6
CONTINUOUS
 62
               3
  5
462
 10
185.6142563123567
 20
-636.11458745033326
 30
0.0
 11
183.1142563123567
 21
-636.11458745033326
 31
0.0
  0
ARC
  8
0
  6
CONTINUOUS
 62
               3
  5
463
 10
183.1142563123567
 20
-633.61458745033326
 30
0.0
 40
2.5
 50
179.99999999982765
 51
269.99999999974017
  0
ARC
  8
0
  6
CONTINUOUS
 62
               3
  5
464
 10
183.1142563123567
 20
-523.41458745033322
 30
0.0
 40
2.5
 50
89.999999999915119
 51
179.99999999982765
  0
LINE
  8
0
  6
CONTINUOUS
 62
               3
  5
465
 10
293.1758531457391
 20
-538.51458745033358
 30
0.0
 11
325.6142563123567
 21
-538.51458745033358
 31
0.0
  0
LINE
  8
0
  6
CONTINUOUS
 62
               3
  5
466
 10
325.6142563123567
 20
-538.51458745033358
 30
0.0
 11
359.61793258419539
 21
-538.51458745033358
 31
0.0
  0
LINE
  8
0
  6
CONTINUOUS
 62
               3
  5
467
 10
188.78581243832139
 20
-636.01458745033335
 30
0.0
 11
188.78581243832093
 21
-521.01458745033335
 31
0.0
  0
ARC
  8
0
  6
CONTINUOUS
 62
               3
  5
468
 10
279.94942304246626
 20
-512.82803629689613
 30
0.0
 40
5.0
 50
271.99999999973971
 51
304.80675787013547
  0
LINE
  8
0
  6
CONTINUOUS
 62
               3
  5
469
 10
380.61425631235659
 20
-718.51458745033335
 30
0.0
 11
380.61425631235659
 21
-717.84303132436901
 31
0.0
  0
LINE
  8
0
  6
CONTINUOUS
 62
               3
  5
46A
 10
383.11425631235659
 20
-715.34303132436855
 30
0.0
 11
380.61425631235659
 21
-717.84303132436901
 31
0.0
  0
LINE
  8
0
  6
CONTINUOUS
 62
               3
  5
46B
 10
270.61425631235659
 20
-718.51458745033335
 30
0.0
 11
270.61425631235659
 21
-717.84303132436901
 31
0.0
  0
LINE
  8
0
  6
CONTINUOUS
 62
               3
  5
46C
 10
268.11425631235659
 20
-715.34303132436901
 30
0.0
 11
270.61425631235659
 21
-717.84303132436901
 31
0.0
  0
LINE
  8
0
  6
CONTINUOUS
 62
               3
  5
46D
 10
270.61425631235659
 20
-717.84303132436901
 30
0.0
 11
380.61425631235659
 21
-717.84303132436901
 31
0.0
  0
LINE
  8
0
  6
CONTINUOUS
 62
               3
  5
46E
 10
270.7858124383207
 20
-723.51458745033335
 30
0.0
 11
380.71425631235661
 21
-723.51458745033335
 31
0.0
  0
LINE
  8
0
  6
CONTINUOUS
 62
               3
  5
46F
 10
383.21425631235661
 20
-718.51458745033335
 30
0.0
 11
268.01425631235657
 21
-718.51458745033335
 31
0.0
  0
LINE
  8
0
  6
CONTINUOUS
 62
               3
  5
470
 10
268.01425631235657
 20
-718.51458745033335
 30
0.0
 11
268.01425631235657
 21
-721.01458745033335
 31
0.0
  0
LINE
  8
0
  6
CONTINUOUS
 62
               3
  5
471
 10
383.21425631235661
 20
-718.51458745033335
 30
0.0
 11
383.21425631235661
 21
-721.01458745033335
 31
0.0
  0
ARC
  8
0
  6
CONTINUOUS
 62
               3
  5
472
 10
380.71425631235661
 20
-721.01458745033335
 30
0.0
 40
2.5
 50
269.99999999974142
 51
359.9999999996553
  0
ARC
  8
0
  6
CONTINUOUS
 62
               3
  5
473
 10
270.51425631235657
 20
-721.01458745033335
 30
0.0
 40
2.5
 50
179.99999999982242
 51
269.99999999974142
  0
LINE
  8
0
  6
CONTINUOUS
 62
               3
  5
474
 10
383.11425631235659
 20
-715.34303132436855
 30
0.0
 11
268.11425631235659
 21
-715.34303132436901
 31
0.0
  0
LINE
  8
0
  6
CONTINUOUS
 62
               3
  5
475
 10
386.30385333069773
 20
-624.00492323671176
 30
0.0
 11
383.11425631235659
 21
-715.34303132436855
 31
0.0
  0
ARC
  8
0
  6
CONTINUOUS
 62
               3
  5
476
 10
391.30080746579324
 20
-624.17942072022436
 30
0.0
 40
5.0
 50
145.19324212943334
 51
177.9999999998291
  0
LINE
  8
0
  6
CONTINUOUS
 62
               3
  5
477
 10
265.60024124738857
 20
-643.35105916688428
 30
0.0
 11
268.11425631235659
 21
-715.34303132436901
 31
0.0
  0
ARC
  8
0
  6
CONTINUOUS
 62
               3
  5
478
 10
260.60328711229317
 20
-643.52555665039642
 30
0.0
 40
5.0
 50
1.9999999999958187
 51
87.999999999915318
  0
CIRCLE
  8
0
  6
CONTINUOUS
 62
               3
  5
479
 10
325.6142563123567
 20
-578.51458745033335
 30
0.0
 40
59.0
  0
LINE
  8
0
  6
CONTINUOUS
 62
               3
  5
47A
 10
250.6142563123567
 20
-887.0140211989177
 30
0.0
 11
400.6142563123567
 21
-887.0140211989177
 31
0.0
  0
LINE
  8
0
  6
CONTINUOUS
 62
               3
  5
47B
 10
237.11425631235647
 20
-897.0140211989177
 30
0.0
 11
237.11425631235647
 21
-904.01402119891725
 31
0.0
  0
LINE
  8
0
  6
CONTINUOUS
 62
               3
  5
47C
 10
237.11425631235647
 20
-897.0140211989177
 30
0.0
 11
250.6142563123567
 21
-887.0140211989177
 31
0.0
  0
ARC
  8
0
  6
CONTINUOUS
 62
               3
  5
47D
 10
248.61425631235682
 20
-908.59659689387297
 30
0.0
 40
4.9999999999999991
 50
0.0
 51
66.421821521734969
  0
LINE
  8
0
  6
CONTINUOUS
 62
               3
  5
47E
 10
237.11425631235647
 20
-904.01402119891725
 30
0.0
 11
414.11425631235636
 21
-904.01402119891725
 31
0.0
  0
ARC
  8
0
  6
CONTINUOUS
 62
               3
  5
47F
 10
270.6142563123567
 20
-994.0140211989177
 30
0.0
 40
19.999999999999996
 50
148.21166938280612
 51
167.26981986152714
  0
LINE
  8
0
  6
CONTINUOUS
 62
               3
  5
480
 10
253.61425631235682
 20
-908.59659689387297
 30
0.0
 11
253.61425631235682
 21
-983.47836744606491
 31
0.0
  0
LINE
  8
0
  6
CONTINUOUS
 62
               3
  5
481
 10
397.61425631235659
 20
-978.47836744606445
 30
0.0
 11
397.61425631235659
 21
-908.59659689387297
 31
0.0
  0
LINE
  8
0
  6
CONTINUOUS
 62
               3
  5
482
 10
253.61425631235682
 20
-983.47836744606491
 30
0.0
 11
397.11425631235704
 21
-983.47836744606491
 31
0.0
  0
LINE
  8
0
  6
CONTINUOUS
 62
               3
  5
483
 10
305.6142563123567
 20
-904.01402119891725
 30
0.0
 11
305.6142563123567
 21
-887.0140211989177
 31
0.0
  0
LINE
  8
0
  6
CONTINUOUS
 62
               3
  5
484
 10
345.6142563123567
 20
-887.0140211989177
 30
0.0
 11
345.6142563123567
 21
-904.01402119891725
 31
0.0
  0
LINE
  8
0
  6
CONTINUOUS
 62
               3
  5
485
 10
305.6142563123567
 20
-897.0140211989177
 30
0.0
 11
345.6142563123567
 21
-897.0140211989177
 31
0.0
  0
LINE
  8
0
  6
CONTINUOUS
 62
               3
  5
486
 10
253.33009483835133
 20
-887.0140211989177
 30
0.0
 11
253.33009483835133
 21
-904.01402119891725
 31
0.0
  0
LINE
  8
0
  6
CONTINUOUS
 62
               3
  5
487
 10
239.40375811173146
 20
-897.0140211989177
 30
0.0
 11
239.40375811173146
 21
-904.01402119891725
 31
0.0
  0
LINE
  8
0
  6
CONTINUOUS
 62
               3
  5
488
 10
237.11425631235647
 20
-897.0140211989177
 30
0.0
 11
239.40375811173146
 21
-897.0140211989177
 31
0.0
  0
LINE
  8
0
  6
CONTINUOUS
 62
               3
  5
489
 10
239.40375811173146
 20
-897.0140211989177
 30
0.0
 11
253.33009483835133
 21
-887.0140211989177
 31
0.0
  0
LINE
  8
0
  6
CONTINUOUS
 62
               3
  5
48A
 10
414.11425631235636
 20
-897.0140211989177
 30
0.0
 11
414.11425631235636
 21
-904.01402119891725
 31
0.0
  0
LINE
  8
0
  6
CONTINUOUS
 62
               3
  5
48B
 10
414.11425631235636
 20
-897.0140211989177
 30
0.0
 11
400.6142563123567
 21
-887.0140211989177
 31
0.0
  0
ARC
  8
0
  6
CONTINUOUS
 62
               3
  5
48C
 10
402.61425631235659
 20
-908.59659689387297
 30
0.0
 40
4.9999999999999991
 50
113.57817847809247
 51
179.99999999982765
  0
LINE
  8
0
  6
CONTINUOUS
 62
               3
  5
48D
 10
397.89841778636094
 20
-887.0140211989177
 30
0.0
 11
397.89841778636094
 21
-904.01402119891725
 31
0.0
  0
LINE
  8
0
  6
CONTINUOUS
 62
               3
  5
48E
 10
411.82475451298194
 20
-897.0140211989177
 30
0.0
 11
411.82475451298194
 21
-904.01402119891725
 31
0.0
  0
LINE
  8
0
  6
CONTINUOUS
 62
               3
  5
48F
 10
414.11425631235636
 20
-897.0140211989177
 30
0.0
 11
411.82475451298194
 21
-897.0140211989177
 31
0.0
  0
LINE
  8
0
  6
CONTINUOUS
 62
               3
  5
490
 10
411.82475451298194
 20
-897.0140211989177
 30
0.0
 11
397.89841778636094
 21
-887.0140211989177
 31
0.0
  0
ARC
  8
0
  6
CONTINUOUS
 62
               3
  5
491
 10
260.6142563123567
 20
-1115.5140211989178
 30
0.0
 40
2.4999999999999996
 50
89.999999999913825
 51
269.99999999974142
  0
ARC
  8
0
  6
CONTINUOUS
 62
               3
  5
492
 10
400.6142563123567
 20
-1115.5140211989178
 30
0.0
 40
2.4999999999999996
 50
269.99999999974142
 51
449.99999999956907
  0
LINE
  8
0
  6
CONTINUOUS
 62
               3
  5
493
 10
185.6142563123567
 20
-1108.0140211989178
 30
0.0
 11
186.28581243832105
 21
-1108.0140211989178
 31
0.0
  0
LINE
  8
0
  6
CONTINUOUS
 62
               3
  5
494
 10
188.78581243832116
 20
-1110.5140211989169
 30
0.0
 11
186.28581243832105
 21
-1108.0140211989178
 31
0.0
  0
LINE
  8
0
  6
CONTINUOUS
 62
               3
  5
495
 10
188.78581243832195
 20
-1110.5140211989178
 30
0.0
 11
230.95092269459929
 21
-1111.986459294772
 31
0.0
  0
LINE
  8
0
  6
CONTINUOUS
 62
               3
  5
496
 10
249.14979021828924
 20
-1128.2857106252036
 30
0.0
 11
234.31195911701946
 21
-1113.4478795239343
 31
0.0
  0
ARC
  8
0
  6
CONTINUOUS
 62
               3
  5
497
 10
245.6142563123567
 20
-1131.8212445311369
 30
0.0
 40
4.9999999999999991
 50
0.0
 51
44.999999999957062
  0
LINE
  8
0
  6
CONTINUOUS
 62
               3
  5
498
 10
185.6142563123567
 20
-998.0140211989177
 30
0.0
 11
186.28581243832105
 21
-998.0140211989177
 31
0.0
  0
LINE
  8
0
  6
CONTINUOUS
 62
               3
  5
499
 10
188.78581243832116
 20
-995.5140211989177
 30
0.0
 11
186.28581243832105
 21
-998.0140211989177
 31
0.0
  0
LINE
  8
0
  6
CONTINUOUS
 62
               3
  5
49A
 10
188.78581243832105
 20
-995.5140211989177
 30
0.0
 11
246.40328864049536
 21
-993.50197459376534
 31
0.0
  0
LINE
  8
0
  6
CONTINUOUS
 62
               3
  5
49B
 10
186.28581243832105
 20
-998.0140211989177
 30
0.0
 11
186.28581243832105
 21
-1108.0140211989178
 31
0.0
  0
LINE
  8
0
  6
CONTINUOUS
 62
               3
  5
49C
 10
185.6142563123567
 20
-1110.6140211989177
 30
0.0
 11
185.6142563123567
 21
-995.41402119891779
 31
0.0
  0
LINE
  8
0
  6
CONTINUOUS
 62
               3
  5
49D
 10
185.6142563123567
 20
-995.41402119891779
 30
0.0
 11
183.1142563123567
 21
-995.41402119891779
 31
0.0
  0
ARC
  8
0
  6
CONTINUOUS
 62
               3
  5
49E
 10
183.1142563123567
 20
-997.91402119891779
 30
0.0
 40
2.5
 50
89.999999999915119
 51
179.99999999982242
  0
LINE
  8
0
  6
CONTINUOUS
 62
               3
  5
49F
 10
180.6142563123567
 20
-997.91402119891779
 30
0.0
 11
180.6142563123567
 21
-1108.1140211989177
 31
0.0
  0
LINE
  8
0
  6
CONTINUOUS
 62
               3
  5
4A0
 10
185.6142563123567
 20
-1110.6140211989177
 30
0.0
 11
183.1142563123567
 21
-1110.6140211989177
 31
0.0
  0
ARC
  8
0
  6
CONTINUOUS
 62
               3
  5
4A1
 10
183.1142563123567
 20
-1108.1140211989177
 30
0.0
 40
2.5
 50
179.99999999982242
 51
269.99999999974017
  0
LINE
  8
0
  6
CONTINUOUS
 62
               3
  5
4A2
 10
188.78581243832116
 20
-995.5140211989177
 30
0.0
 11
188.78581243832195
 21
-1110.5140211989178
 31
0.0
  0
ARC
  8
0
  6
CONTINUOUS
 62
               3
  5
4A3
 10
230.7764252110868
 20
-1116.9834134298671
 30
0.0
 40
5.0
 50
44.999999999958909
 51
87.999999999915318
  0
ARC
  8
0
  6
CONTINUOUS
 62
               3
  5
4A4
 10
246.22879115698288
 20
-988.50502045866995
 30
0.0
 40
5.0
 50
271.99999999973971
 51
347.26981986135308
  0
CIRCLE
  8
0
  6
CONTINUOUS
 62
               3
  5
4A5
 10
325.6142563123567
 20
-1053.0140211989178
 30
0.0
 40
48.5
  0
CIRCLE
  8
0
  6
CONTINUOUS
 62
               3
  5
4A6
 10
325.6142563123567
 20
-1053.0140211989178
 30
0.0
 40
47.299999999999997
  0
LINE
  8
0
  6
CONTINUOUS
 62
               3
  5
4A7
 10
293.79445115896215
 20
-1084.8338263523124
 30
0.0
 11
292.16810556223299
 21
-1086.4601719490415
 31
0.0
  0
LINE
  8
0
  6
CONTINUOUS
 62
               3
  5
4A8
 10
357.43406146575137
 20
-1084.8338263523124
 30
0.0
 11
359.06040706248041
 21
-1086.4601719490415
 31
0.0
  0
ARC
  8
0
  6
CONTINUOUS
 62
               3
  5
4A9
 10
325.6142563123567
 20
-1053.0140211989178
 30
0.0
 40
45.0
 50
224.99999999978439
 51
314.9999999996985
  0
CIRCLE
  8
0
  6
CONTINUOUS
 62
               3
  5
4AA
 10
325.6142563123567
 20
-1053.0140211989178
 30
0.0
 40
57.600000000000001
  0
ARC
  8
0
  6
CONTINUOUS
 62
               3
  5
4AB
 10
303.11425631235727
 20
-1115.5140211989178
 30
0.0
 40
2.4999999999999996
 50
269.99999999974142
 51
449.99999999956907
  0
ARC
  8
0
  6
CONTINUOUS
 62
               3
  5
4AC
 10
348.11425631235727
 20
-1115.5140211989178
 30
0.0
 40
2.4999999999999996
 50
89.999999999911211
 51
269.99999999974142
  0
LINE
  8
0
  6
CONTINUOUS
 62
               3
  5
4AD
 10
260.6142563123567
 20
-1118.0140211989178
 30
0.0
 11
303.11425631235727
 21
-1118.0140211989178
 31
0.0
  0
LINE
  8
0
  6
CONTINUOUS
 62
               3
  5
4AE
 10
260.6142563123567
 20
-1113.0140211989178
 30
0.0
 11
303.11425631235727
 21
-1113.0140211989178
 31
0.0
  0
LINE
  8
0
  6
CONTINUOUS
 62
               3
  5
4AF
 10
348.11425631235727
 20
-1113.0140211989178
 30
0.0
 11
400.6142563123567
 21
-1113.0140211989178
 31
0.0
  0
LINE
  8
0
  6
CONTINUOUS
 62
               3
  5
4B0
 10
348.11425631235727
 20
-1118.0140211989178
 30
0.0
 11
400.6142563123567
 21
-1118.0140211989178
 31
0.0
  0
LINE
  8
0
  6
DASHED2
 62
               3
  5
4B1
 10
-310.43226690395181
 20
65.27124453113737
 30
0.0
 11
-286.91226690395149
 21
65.27124453113737
 31
0.0
  0
LINE
  8
0
  6
DASHED2
 62
               3
  5
4B2
 10
-286.91226690395291
 20
62.071244531137097
 30
0.0
 11
-310.43226690395323
 21
62.071244531137097
 31
0.0
  0
LINE
  8
0
  6
DASHED2
 62
               3
  5
4B3
 10
-56.912266903950922
 20
65.271244531137597
 30
0.0
 11
-80.432266903951245
 21
65.271244531137597
 31
0.0
  0
LINE
  8
0
  6
DASHED2
 62
               3
  5
4B4
 10
-80.432266903949824
 20
62.071244531137211
 30
0.0
 11
-56.912266903949501
 21
62.071244531137211
 31
0.0
  0
INSERT
  8
0
  6
CONTINUOUS
  5
4B5
  2
GROUP_1
 10
0.0
 20
0.0
 30
0.0
  0
INSERT
  8
0
  6
CONTINUOUS
  5
4B6
  2
GROUP_2
 10
0.0
 20
0.0
 30
0.0
  0
INSERT
  8
0
  6
CONTINUOUS
  5
4B7
  2
GROUP_3
 10
0.0
 20
0.0
 30
0.0
  0
INSERT
  8
0
  6
CONTINUOUS
  5
4B8
  2
GROUP_4
 10
0.0
 20
0.0
 30
0.0
  0
INSERT
  8
0
  6
CONTINUOUS
  5
4B9
  2
GROUP_5
 10
0.0
 20
0.0
 30
0.0
  0
INSERT
  8
0
  6
CONTINUOUS
  5
4BA
  2
GROUP_6
 10
0.0
 20
0.0
 30
0.0
  0
POINT
  8
0
  6
CONTINUOUS
 62
               5
  5
4BB
 10
-283.67226690395108
 20
-610.55082754093371
 30
0.0
  0
POINT
  8
0
  6
CONTINUOUS
 62
               5
  5
4BC
 10
-456.90233841391131
 20
-611.84162161582242
 30
0.0
  0
POINT
  8
0
  6
CONTINUOUS
 62
               5
  5
4BD
 10
-110.4421953939908
 20
-611.84162161582265
 30
0.0
  0
POINT
  8
0
  6
CONTINUOUS
 62
               5
  5
4BE
 10
-278.46306097884002
 20
-443.82075603097348
 30
0.0
  0
POINT
  8
0
  6
CONTINUOUS
 62
               5
  5
4BF
 10
209.34432782231715
 20
-577.22379337544419
 30
0.0
  0
POINT
  8
0
  6
CONTINUOUS
 62
               5
  5
4C0
 10
209.34432782231704
 20
-1054.3048152738065
 30
0.0
  0
CIRCLE
  8
0
  6
CONTINUOUS
 62
               7
  5
4C1
 10
-283.67226690395108
 20
-617.05082754093371
 30
0.0
 40
38.0
  0
LINE
  8
0
  6
CONTINUOUS
 62
               7
  5
4C2
 10
-428.17226690395097
 20
-579.05082754093348
 30
0.0
 11
-428.17226690395108
 21
-655.04559142025903
 31
0.0
  0
LINE
  8
0
  6
CONTINUOUS
 62
               7
  5
4C3
 10
-428.17226690395097
 20
-566.05082754093348
 30
0.0
 11
-427.572266903951
 21
-566.05082754093348
 31
0.0
  0
LINE
  8
0
  6
CONTINUOUS
 62
               7
  5
4C4
 10
-486.17226690395108
 20
-654.05082754093348
 30
0.0
 11
-486.17226690395108
 21
-580.05082754093348
 31
0.0
  0
LINE
  8
0
  6
CONTINUOUS
 62
               7
  5
4C5
 10
-428.17226690395108
 20
-655.05082754093348
 30
0.0
 11
-403.572266903951
 21
-655.05082754093348
 31
0.0
  0
LINE
  8
0
  6
CONTINUOUS
 62
               7
  5
4C6
 10
-486.17226690395108
 20
-654.05082754093348
 30
0.0
 11
-485.17226690395108
 21
-655.05082754093348
 31
0.0
  0
LINE
  8
0
  6
CONTINUOUS
 62
               7
  5
4C7
 10
-485.17226690395108
 20
-579.05082754093348
 30
0.0
 11
-428.17226690395097
 21
-579.05082754093348
 31
0.0
  0
LINE
  8
0
  6
CONTINUOUS
 62
               7
  5
4C8
 10
-393.17226690395108
 20
-654.05082754093348
 30
0.0
 11
-394.17226690395108
 21
-655.05082754093348
 31
0.0
  0
CIRCLE
  8
0
  6
CONTINUOUS
 62
               7
  5
4C9
 10
-283.67226690395114
 20
-625.05082754093371
 30
0.0
 40
30.0
  0
CIRCLE
  8
0
  6
CONTINUOUS
 62
               7
  5
4CA
 10
-283.67226690395114
 20
-625.05082754093371
 30
0.0
 40
0.1981604108525852
  0
CIRCLE
  8
0
  6
CONTINUOUS
 62
               7
  5
4CB
 10
-283.67226690395114
 20
-625.05082754093371
 30
0.0
 40
25.5
  0
LINE
  8
0
  6
CONTINUOUS
 62
               7
  5
4CC
 10
-402.572266903951
 20
-654.05082754093348
 30
0.0
 11
-402.572266903951
 21
-596.05082754093371
 31
0.0
  0
LINE
  8
0
  6
CONTINUOUS
 62
               7
  5
4CD
 10
-428.17226690395097
 20
-595.05082754093371
 30
0.0
 11
-403.572266903951
 21
-595.05082754093371
 31
0.0
  0
LINE
  8
0
  6
CONTINUOUS
 62
               7
  5
4CE
 10
-428.17226690395108
 20
-655.04559142025903
 30
0.0
 11
-485.17226690395108
 21
-655.05082754093348
 31
0.0
  0
LINE
  8
0
  6
CONTINUOUS
 62
               7
  5
4CF
 10
-485.17226690395108
 20
-579.05082754093348
 30
0.0
 11
-486.17226690395108
 21
-580.05082754093348
 31
0.0
  0
LINE
  8
0
  6
CONTINUOUS
 62
               7
  5
4D0
 10
-403.572266903951
 20
-595.05082754093371
 30
0.0
 11
-402.572266903951
 21
-596.05082754093371
 31
0.0
  0
LINE
  8
0
  6
CONTINUOUS
 62
               7
  5
4D1
 10
-402.572266903951
 20
-654.05082754093348
 30
0.0
 11
-403.572266903951
 21
-655.05082754093348
 31
0.0
  0
LINE
  8
0
  6
CONTINUOUS
 62
               7
  5
4D2
 10
-139.17226690395114
 20
-579.05082754093371
 30
0.0
 11
-139.17226690395117
 21
-655.04559142025926
 31
0.0
  0
LINE
  8
0
  6
CONTINUOUS
 62
               7
  5
4D3
 10
-139.17226690395114
 20
-566.05082754093371
 30
0.0
 11
-139.77226690395111
 21
-566.05082754093371
 31
0.0
  0
LINE
  8
0
  6
CONTINUOUS
 62
               7
  5
4D4
 10
-81.17226690395114
 20
-654.05082754093371
 30
0.0
 11
-81.172266903951055
 21
-580.05082754093371
 31
0.0
  0
LINE
  8
0
  6
CONTINUOUS
 62
               7
  5
4D5
 10
-139.17226690395117
 20
-655.05082754093371
 30
0.0
 11
-163.77226690395122
 21
-655.05082754093371
 31
0.0
  0
LINE
  8
0
  6
CONTINUOUS
 62
               7
  5
4D6
 10
-81.17226690395114
 20
-654.05082754093371
 30
0.0
 11
-82.17226690395114
 21
-655.05082754093371
 31
0.0
  0
LINE
  8
0
  6
CONTINUOUS
 62
               7
  5
4D7
 10
-82.172266903951055
 20
-579.05082754093371
 30
0.0
 11
-139.17226690395114
 21
-579.05082754093371
 31
0.0
  0
LINE
  8
0
  6
CONTINUOUS
 62
               7
  5
4D8
 10
-174.17226690395114
 20
-654.05082754093371
 30
0.0
 11
-173.17226690395114
 21
-655.05082754093371
 31
0.0
  0
LINE
  8
0
  6
CONTINUOUS
 62
               7
  5
4D9
 10
-164.77226690395122
 20
-654.05082754093371
 30
0.0
 11
-164.77226690395116
 21
-596.05082754093394
 31
0.0
  0
LINE
  8
0
  6
CONTINUOUS
 62
               7
  5
4DA
 10
-139.17226690395117
 20
-595.05082754093394
 30
0.0
 11
-163.77226690395116
 21
-595.05082754093394
 31
0.0
  0
LINE
  8
0
  6
CONTINUOUS
 62
               7
  5
4DB
 10
-139.17226690395117
 20
-655.04559142025926
 30
0.0
 11
-82.17226690395114
 21
-655.05082754093371
 31
0.0
  0
LINE
  8
0
  6
CONTINUOUS
 62
               7
  5
4DC
 10
-82.172266903951055
 20
-579.05082754093371
 30
0.0
 11
-81.172266903951055
 21
-580.05082754093371
 31
0.0
  0
LINE
  8
0
  6
CONTINUOUS
 62
               7
  5
4DD
 10
-163.77226690395116
 20
-595.05082754093394
 30
0.0
 11
-164.77226690395116
 21
-596.05082754093394
 31
0.0
  0
LINE
  8
0
  6
CONTINUOUS
 62
               7
  5
4DE
 10
-164.77226690395122
 20
-654.05082754093371
 30
0.0
 11
-163.77226690395122
 21
-655.05082754093371
 31
0.0
  0
LINE
  8
0
  6
CONTINUOUS
 62
               7
  5
4DF
 10
-245.67226690395097
 20
-472.55082754093394
 30
0.0
 11
-321.66703078327652
 21
-472.55082754093371
 31
0.0
  0
LINE
  8
0
  6
CONTINUOUS
 62
               7
  5
4E0
 10
-232.67226690395097
 20
-471.9508275409338
 30
0.0
 11
-232.67226690395097
 21
-472.55082754093394
 31
0.0
  0
LINE
  8
0
  6
CONTINUOUS
 62
               7
  5
4E1
 10
-320.67226690395091
 20
-414.55082754093371
 30
0.0
 11
-246.67226690395091
 21
-414.55082754093371
 31
0.0
  0
LINE
  8
0
  6
CONTINUOUS
 62
               7
  5
4E2
 10
-313.67226690395097
 20
-472.55082754093371
 30
0.0
 11
-313.67226690395097
 21
-497.15082754093385
 31
0.0
  0
LINE
  8
0
  6
CONTINUOUS
 62
               7
  5
4E3
 10
-320.67226690395091
 20
-414.55082754093371
 30
0.0
 11
-321.67226690395091
 21
-415.55082754093371
 31
0.0
  0
LINE
  8
0
  6
CONTINUOUS
 62
               7
  5
4E4
 10
-245.67226690395091
 20
-415.55082754093371
 30
0.0
 11
-245.67226690395097
 21
-472.55082754093394
 31
0.0
  0
LINE
  8
0
  6
CONTINUOUS
 62
               7
  5
4E5
 10
-312.67226690395103
 20
-507.55082754093371
 30
0.0
 11
-313.67226690395103
 21
-506.55082754093371
 31
0.0
  0
LINE
  8
0
  6
CONTINUOUS
 62
               7
  5
4E6
 10
-312.67226690395097
 20
-498.15082754093385
 30
0.0
 11
-254.67226690395114
 21
-498.15082754093385
 31
0.0
  0
LINE
  8
0
  6
CONTINUOUS
 62
               7
  5
4E7
 10
-253.67226690395114
 20
-472.55082754093394
 30
0.0
 11
-253.67226690395114
 21
-497.15082754093385
 31
0.0
  0
LINE
  8
0
  6
CONTINUOUS
 62
               7
  5
4E8
 10
-321.66703078327652
 20
-472.55082754093371
 30
0.0
 11
-321.67226690395091
 21
-415.55082754093371
 31
0.0
  0
LINE
  8
0
  6
CONTINUOUS
 62
               7
  5
4E9
 10
-245.67226690395091
 20
-415.55082754093371
 30
0.0
 11
-246.67226690395091
 21
-414.55082754093371
 31
0.0
  0
LINE
  8
0
  6
CONTINUOUS
 62
               7
  5
4EA
 10
-253.67226690395114
 20
-497.15082754093385
 30
0.0
 11
-254.67226690395114
 21
-498.15082754093385
 31
0.0
  0
LINE
  8
0
  6
CONTINUOUS
 62
               7
  5
4EB
 10
-312.67226690395097
 20
-498.15082754093385
 30
0.0
 11
-313.67226690395097
 21
-497.15082754093385
 31
0.0
  0
LINE
  8
0
  6
CONTINUOUS
 62
               7
  5
4EC
 10
296.6142563123567
 20
-749.11458745033326
 30
0.0
 11
354.6142563123567
 21
-749.11458745033326
 31
0.0
  0
LINE
  8
0
  6
CONTINUOUS
 62
               7
  5
4ED
 10
370.1142563123567
 20
-723.51458745033335
 30
0.0
 11
281.1142563123567
 21
-723.51458745033335
 31
0.0
  0
LINE
  8
0
  6
CONTINUOUS
 62
               7
  5
4EE
 10
370.1142563123567
 20
-722.91458745033344
 30
0.0
 11
370.1142563123567
 21
-723.51458745033335
 31
0.0
  0
LINE
  8
0
  6
CONTINUOUS
 62
               7
  5
4EF
 10
282.1142563123567
 20
-665.51458745033312
 30
0.0
 11
369.1142563123567
 21
-665.51458745033312
 31
0.0
  0
LINE
  8
0
  6
CONTINUOUS
 62
               7
  5
4F0
 10
370.1142563123567
 20
-723.38013570485293
 30
0.0
 11
370.1142563123567
 21
-666.51458745033312
 31
0.0
  0
LINE
  8
0
  6
CONTINUOUS
 62
               7
  5
4F1
 10
295.6142563123567
 20
-748.11458745033326
 30
0.0
 11
295.6142563123567
 21
-723.51458745033335
 31
0.0
  0
LINE
  8
0
  6
CONTINUOUS
 62
               7
  5
4F2
 10
355.6142563123567
 20
-748.11458745033326
 30
0.0
 11
355.6142563123567
 21
-723.51458745033335
 31
0.0
  0
LINE
  8
0
  6
CONTINUOUS
 62
               7
  5
4F3
 10
355.6142563123567
 20
-748.11458745033326
 30
0.0
 11
354.6142563123567
 21
-749.11458745033326
 31
0.0
  0
LINE
  8
0
  6
CONTINUOUS
 62
               7
  5
4F4
 10
370.1142563123567
 20
-666.51458745033312
 30
0.0
 11
369.1142563123567
 21
-665.51458745033312
 31
0.0
  0
LINE
  8
0
  6
CONTINUOUS
 62
               7
  5
4F5
 10
296.6142563123567
 20
-749.11458745033326
 30
0.0
 11
295.6142563123567
 21
-748.11458745033326
 31
0.0
  0
LINE
  8
0
  6
CONTINUOUS
 62
               7
  5
4F6
 10
282.1142563123567
 20
-665.51458745033312
 30
0.0
 11
281.1142563123567
 21
-666.51458745033312
 31
0.0
  0
LINE
  8
0
  6
CONTINUOUS
 62
               7
  5
4F7
 10
281.1142563123567
 20
-723.38013570485293
 30
0.0
 11
281.1142563123567
 21
-666.51458745033312
 31
0.0
  0
LINE
  8
0
  6
CONTINUOUS
 62
               7
  5
4F8
 10
180.6142563123567
 20
-623.01458745033312
 30
0.0
 11
180.61425631235693
 21
-534.01982357100758
 31
0.0
  0
LINE
  8
0
  6
CONTINUOUS
 62
               7
  5
4F9
 10
181.21425631235684
 20
-623.01458745033312
 30
0.0
 11
180.6142563123567
 21
-623.01458745033312
 31
0.0
  0
LINE
  8
0
  6
CONTINUOUS
 62
               7
  5
4FA
 10
145.61425631235693
 20
-541.51458745033312
 30
0.0
 11
145.6142563123567
 21
-615.51458745033312
 31
0.0
  0
LINE
  8
0
  6
CONTINUOUS
 62
               7
  5
4FB
 10
238.61425631235693
 20
-535.01458745033335
 30
0.0
 11
238.6142563123567
 21
-622.01458745033312
 31
0.0
  0
LINE
  8
0
  6
CONTINUOUS
 62
               7
  5
4FC
 10
180.6142563123567
 20
-623.01458745033312
 30
0.0
 11
237.6142563123567
 21
-623.01458745033312
 31
0.0
  0
LINE
  8
0
  6
CONTINUOUS
 62
               7
  5
4FD
 10
146.61425631235693
 20
-540.51458745033312
 30
0.0
 11
180.61425631235693
 21
-540.51458745033312
 31
0.0
  0
LINE
  8
0
  6
CONTINUOUS
 62
               7
  5
4FE
 10
237.6142563123567
 20
-623.01458745033312
 30
0.0
 11
238.6142563123567
 21
-622.01458745033312
 31
0.0
  0
LINE
  8
0
  6
CONTINUOUS
 62
               7
  5
4FF
 10
238.61425631235693
 20
-535.01458745033335
 30
0.0
 11
237.61425631235693
 21
-534.01458745033335
 31
0.0
  0
LINE
  8
0
  6
CONTINUOUS
 62
               7
  5
500
 10
146.6142563123567
 20
-616.51458745033312
 30
0.0
 11
180.61425631235693
 21
-616.51458745033312
 31
0.0
  0
LINE
  8
0
  6
CONTINUOUS
 62
               7
  5
501
 10
146.6142563123567
 20
-616.51458745033312
 30
0.0
 11
145.6142563123567
 21
-615.51458745033312
 31
0.0
  0
LINE
  8
0
  6
CONTINUOUS
 62
               7
  5
502
 10
145.61425631235693
 20
-541.51458745033312
 30
0.0
 11
146.61425631235693
 21
-540.51458745033312
 31
0.0
  0
LINE
  8
0
  6
CONTINUOUS
 62
               7
  5
503
 10
180.61425631235693
 20
-534.01458745033312
 30
0.0
 11
237.61425631235693
 21
-534.01458745033312
 31
0.0
  0
CIRCLE
  8
0
  6
CONTINUOUS
 62
               7
  5
504
 10
325.6142563123567
 20
-1067.5140211989178
 30
0.0
 40
25.5
  0
CIRCLE
  8
0
  6
CONTINUOUS
 62
               7
  5
505
 10
325.6142563123567
 20
-1053.0140211989178
 30
0.0
 40
44.5
  0
CIRCLE
  8
0
  6
CONTINUOUS
 62
               7
  5
506
 10
325.6142563123567
 20
-1067.5140211989178
 30
0.0
 40
30.0
  0
LINE
  8
0
  6
CONTINUOUS
 62
               7
  5
507
 10
180.6142563123567
 20
-1008.5140211989177
 30
0.0
 11
180.6142563123567
 21
-1097.5087850782434
 31
0.0
  0
LINE
  8
0
  6
CONTINUOUS
 62
               7
  5
508
 10
181.21425631235672
 20
-1008.5140211989177
 30
0.0
 11
180.6142563123567
 21
-1008.5140211989177
 31
0.0
  0
LINE
  8
0
  6
CONTINUOUS
 62
               7
  5
509
 10
145.6142563123567
 20
-1096.5140211989178
 30
0.0
 11
145.6142563123567
 21
-1022.5140211989177
 31
0.0
  0
LINE
  8
0
  6
CONTINUOUS
 62
               7
  5
50A
 10
238.6142563123567
 20
-1096.5140211989178
 30
0.0
 11
238.6142563123567
 21
-1009.5140211989177
 31
0.0
  0
LINE
  8
0
  6
CONTINUOUS
 62
               7
  5
50B
 10
180.6142563123567
 20
-1008.5140211989177
 30
0.0
 11
237.6142563123567
 21
-1008.5140211989177
 31
0.0
  0
LINE
  8
0
  6
CONTINUOUS
 62
               7
  5
50C
 10
146.6142563123567
 20
-1097.5140211989178
 30
0.0
 11
237.6142563123567
 21
-1097.5140211989178
 31
0.0
  0
LINE
  8
0
  6
CONTINUOUS
 62
               7
  5
50D
 10
237.6142563123567
 20
-1008.5140211989177
 30
0.0
 11
238.6142563123567
 21
-1009.5140211989177
 31
0.0
  0
LINE
  8
0
  6
CONTINUOUS
 62
               7
  5
50E
 10
238.6142563123567
 20
-1096.5140211989178
 30
0.0
 11
237.6142563123567
 21
-1097.5140211989178
 31
0.0
  0
LINE
  8
0
  6
CONTINUOUS
 62
               7
  5
50F
 10
146.6142563123567
 20
-1021.5140211989177
 30
0.0
 11
180.6142563123567
 21
-1021.5140211989177
 31
0.0
  0
LINE
  8
0
  6
CONTINUOUS
 62
               7
  5
510
 10
146.6142563123567
 20
-1021.5140211989177
 30
0.0
 11
145.6142563123567
 21
-1022.5140211989177
 31
0.0
  0
LINE
  8
0
  6
CONTINUOUS
 62
               7
  5
511
 10
145.6142563123567
 20
-1096.5140211989178
 30
0.0
 11
146.6142563123567
 21
-1097.5140211989178
 31
0.0
  0
CIRCLE
  8
0
  6
DASHED
 62
               7
  5
512
 10
325.6142563123567
 20
-1053.0140211989178
 30
0.0
 40
40.0
  0
TEXT
  8
0
 62
               3
  5
513
 10
-283.67226690395114
 20
-701.55082754093371
 30
0.0
 40
40.0
  1
EMB_65×50
 41
0.8
 72
               1
 11
-283.67226690395114
 21
-701.55082754093371
 31
0.0
 73
               3
  0
TEXT
  8
0
 62
               3
  5
514
 10
-281.82773309604897
 20
-323.6360339652166
 30
0.0
 40
40.0
  1
横枝管に呼び５０の管を接続するときは、EMBをご使用ください。
 41
0.8
 72
               1
 11
-281.82773309604897
 21
-323.6360339652166
 31
0.0
 73
               3
  0
TEXT
  8
0
 62
               3
  5
515
 10
321.9168523347164
 20
-399.06821894511393
 30
0.0
 40
40.0
  1
EMB使用例
 41
0.8
 72
               1
 11
321.9168523347164
 21
-399.06821894511393
 31
0.0
 73
               3
  0
ENDSEC
  0
EOF
