  0
SECTION
  2
HEADER
  9
$ACADVER
  1
AC1009
  9
$INSBASE
 10
0.0
 20
0.0
 30
0.0
  9
$EXTMIN
 10
-792.67799736827726
 20
-1177.0940943123824
 30
0.0
  9
$EXTMAX
 10
468.61998677668322
 20
1177.0940943123824
 30
0.0
  9
$LIMMIN
 10
-832.09355937280725
 20
-1250.6624752069063
  9
$LIMMAX
 10
508.03554878121327
 20
1250.6624752069063
  9
$ORTHOMODE
 70
               0
  9
$REGENMODE
 70
               1
  9
$FILLMODE
 70
               1
  9
$QTEXTMODE
 70
               0
  9
$MIRRTEXT
 70
               1
  9
$DRAGMODE
 70
               2
  9
$LTSCALE
 40
1.0
  9
$OSMODE
 70
               0
  9
$ATTMODE
 70
               1
  9
$TEXTSIZE
 40
0.2
  9
$TRACEWID
 40
0.05
  9
$TEXTSTYLE
  7
STANDARD
  9
$CLAYER
  8
0
  9
$CELTYPE
  6
CONTINUOUS
  9
$CECOLOR
 62
             256
  9
$DIMSCALE
 40
1.0
  9
$DIMASZ
 40
0.18
  9
$DIMEXO
 40
0.0625
  9
$DIMDLI
 40
0.38
  9
$DIMRND
 40
0.0
  9
$DIMDLE
 40
0.0
  9
$DIMEXE
 40
0.18
  9
$DIMTP
 40
0.0
  9
$DIMTM
 40
0.0
  9
$DIMTXT
 40
0.18
  9
$DIMCEN
 40
0.09
  9
$DIMTSZ
 40
0.0
  9
$DIMTOL
 70
               0
  9
$DIMLIM
 70
               0
  9
$DIMTIH
 70
               1
  9
$DIMTOH
 70
               1
  9
$DIMSE1
 70
               0
  9
$DIMSE2
 70
               0
  9
$DIMTAD
 70
               0
  9
$DIMZIN
 70
               0
  9
$DIMBLK
  1

  9
$DIMASO
 70
               1
  9
$DIMSHO
 70
               1
  9
$DIMPOST
  1

  9
$DIMAPOST
  1

  9
$DIMALT
 70
               0
  9
$DIMALTD
 70
               2
  9
$DIMALTF
 40
25.399999999999999
  9
$DIMLFAC
 40
1.0
  9
$DIMTOFL
 70
               0
  9
$DIMTVP
 40
0.0
  9
$DIMTIX
 70
               0
  9
$DIMSOXD
 70
               0
  9
$DIMSAH
 70
               0
  9
$DIMBLK1
  1

  9
$DIMBLK2
  1

  9
$DIMSTYLE
  2
STANDARD
  9
$DIMCLRD
 70
               0
  9
$DIMCLRE
 70
               0
  9
$DIMCLRT
 70
               0
  9
$DIMTFAC
 40
1.0
  9
$DIMGAP
 40
0.09
  9
$LUNITS
 70
               2
  9
$LUPREC
 70
               4
  9
$AXISMODE
 70
               0
  9
$AXISUNIT
 10
0.0
 20
0.0
  9
$SKETCHINC
 40
0.1
  9
$FILLETRAD
 40
0.0
  9
$AUNITS
 70
               0
  9
$AUPREC
 70
               0
  9
$MENU
  1
acad
  9
$ELEVATION
 40
0.0
  9
$PELEVATION
 40
0.0
  9
$THICKNESS
 40
0.0
  9
$LIMCHECK
 70
               0
  9
$BLIPMODE
 70
               1
  9
$CHAMFERA
 40
0.0
  9
$CHAMFERB
 40
0.0
  9
$SKPOLY
 70
               0
  9
$TDCREATE
 40
0.000000000
  9
$TDUPDATE
 40
0.000000000
  9
$TDINDWG
 40
0.0000000000
  9
$TDUSRTIMER
 40
0.0000000000
  9
$USRTIMER
 70
               1
  9
$ANGBASE
 50
0.0
  9
$ANGDIR
 70
               0
  9
$PDMODE
 70
               0
  9
$PDSIZE
 40
1.0
  9
$PLINEWID
 40
0.0
  9
$COORDS
 70
               1
  9
$SPLFRAME
 70
               0
  9
$SPLINETYPE
 70
               6
  9
$SPLINESEGS
 70
               8
  9
$ATTDIA
 70
               0
  9
$ATTREQ
 70
               1
  9
$HANDLING
 70
               1
  9
$HANDSEED
  5
51B
  9
$SURFTAB1
 70
               6
  9
$SURFTAB2
 70
               6
  9
$SURFTYPE
 70
               6
  9
$SURFU
 70
               6
  9
$SURFV
 70
               6
  9
$UCSNAME
  2

  9
$UCSORG
 10
0.0
 20
0.0
 30
0.0
  9
$UCSXDIR
 10
1.0
 20
0.0
 30
0.0
  9
$UCSYDIR
 10
0.0
 20
1.0
 30
0.0
  9
$PUCSNAME
  2

  9
$PUCSORG
 10
0.0
 20
0.0
 30
0.0
  9
$PUCSXDIR
 10
1.0
 20
0.0
 30
0.0
  9
$PUCSYDIR
 10
0.0
 20
1.0
 30
0.0
  9
$USERI1
 70
               0
  9
$USERI2
 70
               0
  9
$USERI3
 70
               0
  9
$USERI4
 70
               0
  9
$USERI5
 70
               0
  9
$USERR1
 40
0.0
  9
$USERR2
 40
0.0
  9
$USERR3
 40
0.0
  9
$USERR4
 40
0.0
  9
$USERR5
 40
0.0
  9
$WORLDVIEW
 70
               1
  9
$SHADEDGE
 70
               3
  9
$SHADEDIF
 70
              70
  9
$TILEMODE
 70
               1
  9
$MAXACTVP
 70
              16
  9
$PINSBASE
 10
0.0
 20
0.0
 30
0.0
  9
$PLIMCHECK
 70
               0
  9
$PEXTMIN
 10
1.0000000000000000E+20
 20
1.0000000000000000E+20
 30
1.0000000000000000E+20
  9
$PEXTMAX
 10
-1.0000000000000000E+20
 20
-1.0000000000000000E+20
 30
-1.0000000000000000E+20
  9
$PLIMMIN
 10
0.0
 20
0.0
  9
$PLIMMAX
 10
12.0
 20
9.0
  9
$UNITMODE
 70
               0
  9
$VISRETAIN
 70
               0
  9
$PLINEGEN
 70
               1
  9
$PSLTSCALE
 70
               0
  9
$TREEDEPTH
 70
            3020
  9
$DWGCODEPAGE
  3
dos932
  0
ENDSEC
  0
SECTION
  2
TABLES
  0
TABLE
  2
VPORT
 70
               1
  0
VPORT
  2
*ACTIVE
 70
               0
 10
0.0
 20
0.0
 11
1.0
 21
1.0
 12
-162.02900529579699
 22
0.0
 13
0.0
 23
0.0
 14
1.0
 24
1.0
 15
0.0
 25
0.0
 16
0.0
 26
0.0
 36
1.0
 17
0.0
 27
0.0
 37
0.0
 40
2501.3249504138125
 41
0.5357676970088645
 42
50.0
 43
0.0
 44
0.0
 50
0.0
 51
0.0
 71
               0
 72
             100
 73
               1
 74
               1
 75
               0
 76
               0
 77
               0
 78
               0
  0
ENDTAB
  0
TABLE
  2
LTYPE
 70
              26
  0
LTYPE
  2
CONTINUOUS
 70
               0
  3
Solid line
 72
              65
 73
               0
 40
0.0
  0
LTYPE
  2
HIDDENX2
 70
               0
  3
CADPAC FUSION LINETYPE
 72
              65
 73
               2
 40
47.560000000000002
 49
35.670000000000002
 49
-11.890000000000001
  0
LTYPE
  2
HIDDEN
 70
               0
  3
CADPAC FUSION LINETYPE
 72
              65
 73
               2
 40
35.670000000000002
 49
23.780000000000001
 49
-11.890000000000001
  0
LTYPE
  2
HIDDEN2
 70
               0
  3
CADPAC FUSION LINETYPE
 72
              65
 73
               2
 40
29.725000000000001
 49
17.835000000000001
 49
-11.890000000000001
  0
LTYPE
  2
DASHED
 70
               0
  3
CADPAC FUSION LINETYPE
 72
              65
 73
               2
 40
35.670000000000002
 49
23.780000000000001
 49
-11.890000000000001
  0
LTYPE
  2
DASHED2
 70
               0
  3
CADPAC FUSION LINETYPE
 72
              65
 73
               2
 40
26.752500000000001
 49
17.835000000000001
 49
-8.9175000000000004
  0
LTYPE
  2
DASHEDX2
 70
               0
  3
CADPAC FUSION LINETYPE
 72
              65
 73
               2
 40
53.505000000000003
 49
35.670000000000002
 49
-17.835000000000001
  0
LTYPE
  2
DOTX2
 70
               0
  3
CADPAC FUSION LINETYPE
 72
              65
 73
               2
 40
14.862500000000001
 49
0.0
 49
-14.862500000000001
  0
LTYPE
  2
DOT
 70
               0
  3
CADPAC FUSION LINETYPE
 72
              65
 73
               2
 40
11.890000000000001
 49
0.0
 49
-11.890000000000001
  0
LTYPE
  2
DOTS
 70
               0
  3
CADPAC FUSION LINETYPE
 72
              65
 73
               2
 40
11.890000000000001
 49
0.0
 49
-11.890000000000001
  0
LTYPE
  2
DOT2
 70
               0
  3
CADPAC FUSION LINETYPE
 72
              65
 73
               2
 40
8.9175000000000004
 49
0.0
 49
-8.9175000000000004
  0
LTYPE
  2
CENTERX2
 70
               0
  3
CADPAC FUSION LINETYPE
 72
              65
 73
               4
 40
71.340000000000003
 49
29.725000000000001
 49
-14.862500000000001
 49
11.890000000000001
 49
-14.862500000000001
  0
LTYPE
  2
CENTER
 70
               0
  3
CADPAC FUSION LINETYPE
 72
              65
 73
               4
 40
54.694000000000003
 49
23.780000000000001
 49
-11.890000000000001
 49
7.1340000000000003
 49
-11.890000000000001
  0
LTYPE
  2
CENTER2
 70
               0
  3
CADPAC FUSION LINETYPE
 72
              65
 73
               4
 40
38.048000000000002
 49
17.835000000000001
 49
-8.9175000000000004
 49
2.3780000000000001
 49
-8.9175000000000004
  0
LTYPE
  2
DASHDOTX2
 70
               0
  3
CADPAC FUSION LINETYPE
 72
              65
 73
               4
 40
59.450000000000003
 49
29.725000000000001
 49
-14.862500000000001
 49
0.0
 49
-14.862500000000001
  0
LTYPE
  2
DASHDOT
 70
               0
  3
CADPAC FUSION LINETYPE
 72
              65
 73
               4
 40
47.560000000000002
 49
23.780000000000001
 49
-11.890000000000001
 49
0.0
 49
-11.890000000000001
  0
LTYPE
  2
DASHDOT2
 70
               0
  3
CADPAC FUSION LINETYPE
 72
              65
 73
               4
 40
35.670000000000002
 49
17.835000000000001
 49
-8.9175000000000004
 49
0.0
 49
-8.9175000000000004
  0
LTYPE
  2
DIVIDEX2
 70
               0
  3
CADPAC FUSION LINETYPE
 72
              65
 73
               6
 40
74.3125
 49
29.725000000000001
 49
-14.862500000000001
 49
0.0
 49
-14.862500000000001
 49
0.0
 49
-14.862500000000001
  0
LTYPE
  2
DIVIDE
 70
               0
  3
CADPAC FUSION LINETYPE
 72
              65
 73
               6
 40
59.450000000000003
 49
23.780000000000001
 49
-11.890000000000001
 49
0.0
 49
-11.890000000000001
 49
0.0
 49
-11.890000000000001
  0
LTYPE
  2
DIVIDE2
 70
               0
  3
CADPAC FUSION LINETYPE
 72
              65
 73
               6
 40
44.587500000000006
 49
17.835000000000001
 49
-8.9175000000000004
 49
0.0
 49
-8.9175000000000004
 49
0.0
 49
-8.9175000000000004
  0
LTYPE
  2
BORDERX2
 70
               0
  3
CADPAC FUSION LINETYPE
 72
              65
 73
               6
 40
104.03750000000001
 49
29.725000000000001
 49
-14.862500000000001
 49
29.725000000000001
 49
-14.862500000000001
 49
0.0
 49
-14.862500000000001
  0
LTYPE
  2
BORDER
 70
               0
  3
CADPAC FUSION LINETYPE
 72
              65
 73
               6
 40
83.230000000000004
 49
23.780000000000001
 49
-11.890000000000001
 49
23.780000000000001
 49
-11.890000000000001
 49
0.0
 49
-11.890000000000001
  0
LTYPE
  2
BORDER2
 70
               0
  3
CADPAC FUSION LINETYPE
 72
              65
 73
               6
 40
62.422499999999999
 49
17.835000000000001
 49
-8.9175000000000004
 49
17.835000000000001
 49
-8.9175000000000004
 49
0.0
 49
-8.9175000000000004
  0
LTYPE
  2
PHANTOMX2
 70
               0
  3
CADPAC FUSION LINETYPE
 72
              65
 73
               6
 40
89.175000000000011
 49
29.725000000000001
 49
-11.890000000000001
 49
11.890000000000001
 49
-11.890000000000001
 49
11.890000000000001
 49
-11.890000000000001
  0
LTYPE
  2
PHANTOM
 70
               0
  3
CADPAC FUSION LINETYPE
 72
              65
 73
               6
 40
73.718000000000004
 49
23.780000000000001
 49
-11.890000000000001
 49
7.1340000000000003
 49
-11.890000000000001
 49
7.1340000000000003
 49
-11.890000000000001
  0
LTYPE
  2
PHANTOM2
 70
               0
  3
CADPAC FUSION LINETYPE
 72
              65
 73
               6
 40
63.017000000000003
 49
17.835000000000001
 49
-11.890000000000001
 49
4.7560000000000002
 49
-11.890000000000001
 49
4.7560000000000002
 49
-11.890000000000001
  0
ENDTAB
  0
TABLE
  2
LAYER
 70
             256
  0
LAYER
  2
0
 70
               0
 62
               7
  6
CONTINUOUS
  0
LAYER
  2
LAYER001
 70
               0
 62
               7
  6
CONTINUOUS
  0
LAYER
  2
LAYER002
 70
               0
 62
               7
  6
CONTINUOUS
  0
LAYER
  2
LAYER003
 70
               0
 62
               7
  6
CONTINUOUS
  0
LAYER
  2
LAYER004
 70
               0
 62
               7
  6
CONTINUOUS
  0
LAYER
  2
LAYER005
 70
               0
 62
               7
  6
CONTINUOUS
  0
LAYER
  2
LAYER006
 70
               0
 62
               7
  6
CONTINUOUS
  0
LAYER
  2
LAYER007
 70
               0
 62
               7
  6
CONTINUOUS
  0
LAYER
  2
LAYER008
 70
               0
 62
               7
  6
CONTINUOUS
  0
LAYER
  2
LAYER009
 70
               0
 62
               7
  6
CONTINUOUS
  0
LAYER
  2
LAYER010
 70
               0
 62
               7
  6
CONTINUOUS
  0
LAYER
  2
LAYER011
 70
               0
 62
               7
  6
CONTINUOUS
  0
LAYER
  2
LAYER012
 70
               0
 62
               7
  6
CONTINUOUS
  0
LAYER
  2
LAYER013
 70
               0
 62
               7
  6
CONTINUOUS
  0
LAYER
  2
LAYER014
 70
               0
 62
               7
  6
CONTINUOUS
  0
LAYER
  2
LAYER015
 70
               0
 62
               7
  6
CONTINUOUS
  0
LAYER
  2
LAYER016
 70
               0
 62
               7
  6
CONTINUOUS
  0
LAYER
  2
LAYER017
 70
               0
 62
               7
  6
CONTINUOUS
  0
LAYER
  2
LAYER018
 70
               0
 62
               7
  6
CONTINUOUS
  0
LAYER
  2
LAYER019
 70
               0
 62
               7
  6
CONTINUOUS
  0
LAYER
  2
LAYER020
 70
               0
 62
               7
  6
CONTINUOUS
  0
LAYER
  2
LAYER021
 70
               0
 62
               7
  6
CONTINUOUS
  0
LAYER
  2
LAYER022
 70
               0
 62
               7
  6
CONTINUOUS
  0
LAYER
  2
LAYER023
 70
               0
 62
               7
  6
CONTINUOUS
  0
LAYER
  2
LAYER024
 70
               0
 62
               7
  6
CONTINUOUS
  0
LAYER
  2
LAYER025
 70
               0
 62
               7
  6
CONTINUOUS
  0
LAYER
  2
LAYER026
 70
               0
 62
               7
  6
CONTINUOUS
  0
LAYER
  2
LAYER027
 70
               0
 62
               7
  6
CONTINUOUS
  0
LAYER
  2
LAYER028
 70
               0
 62
               7
  6
CONTINUOUS
  0
LAYER
  2
LAYER029
 70
               0
 62
               7
  6
CONTINUOUS
  0
LAYER
  2
LAYER030
 70
               0
 62
               7
  6
CONTINUOUS
  0
LAYER
  2
LAYER031
 70
               0
 62
               7
  6
CONTINUOUS
  0
LAYER
  2
LAYER032
 70
               0
 62
               7
  6
CONTINUOUS
  0
LAYER
  2
LAYER033
 70
               0
 62
               7
  6
CONTINUOUS
  0
LAYER
  2
LAYER034
 70
               0
 62
               7
  6
CONTINUOUS
  0
LAYER
  2
LAYER035
 70
               0
 62
               7
  6
CONTINUOUS
  0
LAYER
  2
LAYER036
 70
               0
 62
               7
  6
CONTINUOUS
  0
LAYER
  2
LAYER037
 70
               0
 62
               7
  6
CONTINUOUS
  0
LAYER
  2
LAYER038
 70
               0
 62
               7
  6
CONTINUOUS
  0
LAYER
  2
LAYER039
 70
               0
 62
               7
  6
CONTINUOUS
  0
LAYER
  2
LAYER040
 70
               0
 62
               7
  6
CONTINUOUS
  0
LAYER
  2
LAYER041
 70
               0
 62
               7
  6
CONTINUOUS
  0
LAYER
  2
LAYER042
 70
               0
 62
               7
  6
CONTINUOUS
  0
LAYER
  2
LAYER043
 70
               0
 62
               7
  6
CONTINUOUS
  0
LAYER
  2
LAYER044
 70
               0
 62
               7
  6
CONTINUOUS
  0
LAYER
  2
LAYER045
 70
               0
 62
               7
  6
CONTINUOUS
  0
LAYER
  2
LAYER046
 70
               0
 62
               7
  6
CONTINUOUS
  0
LAYER
  2
LAYER047
 70
               0
 62
               7
  6
CONTINUOUS
  0
LAYER
  2
LAYER048
 70
               0
 62
               7
  6
CONTINUOUS
  0
LAYER
  2
LAYER049
 70
               0
 62
               7
  6
CONTINUOUS
  0
LAYER
  2
LAYER050
 70
               0
 62
               7
  6
CONTINUOUS
  0
LAYER
  2
LAYER051
 70
               0
 62
               7
  6
CONTINUOUS
  0
LAYER
  2
LAYER052
 70
               0
 62
               7
  6
CONTINUOUS
  0
LAYER
  2
LAYER053
 70
               0
 62
               7
  6
CONTINUOUS
  0
LAYER
  2
LAYER054
 70
               0
 62
               7
  6
CONTINUOUS
  0
LAYER
  2
LAYER055
 70
               0
 62
               7
  6
CONTINUOUS
  0
LAYER
  2
LAYER056
 70
               0
 62
               7
  6
CONTINUOUS
  0
LAYER
  2
LAYER057
 70
               0
 62
               7
  6
CONTINUOUS
  0
LAYER
  2
LAYER058
 70
               0
 62
               7
  6
CONTINUOUS
  0
LAYER
  2
LAYER059
 70
               0
 62
               7
  6
CONTINUOUS
  0
LAYER
  2
LAYER060
 70
               0
 62
               7
  6
CONTINUOUS
  0
LAYER
  2
LAYER061
 70
               0
 62
               7
  6
CONTINUOUS
  0
LAYER
  2
LAYER062
 70
               0
 62
               7
  6
CONTINUOUS
  0
LAYER
  2
LAYER063
 70
               0
 62
               7
  6
CONTINUOUS
  0
LAYER
  2
LAYER064
 70
               0
 62
               7
  6
CONTINUOUS
  0
LAYER
  2
LAYER065
 70
               0
 62
               7
  6
CONTINUOUS
  0
LAYER
  2
LAYER066
 70
               0
 62
               7
  6
CONTINUOUS
  0
LAYER
  2
LAYER067
 70
               0
 62
               7
  6
CONTINUOUS
  0
LAYER
  2
LAYER068
 70
               0
 62
               7
  6
CONTINUOUS
  0
LAYER
  2
LAYER069
 70
               0
 62
               7
  6
CONTINUOUS
  0
LAYER
  2
LAYER070
 70
               0
 62
               7
  6
CONTINUOUS
  0
LAYER
  2
LAYER071
 70
               0
 62
               7
  6
CONTINUOUS
  0
LAYER
  2
LAYER072
 70
               0
 62
               7
  6
CONTINUOUS
  0
LAYER
  2
LAYER073
 70
               0
 62
               7
  6
CONTINUOUS
  0
LAYER
  2
LAYER074
 70
               0
 62
               7
  6
CONTINUOUS
  0
LAYER
  2
LAYER075
 70
               0
 62
               7
  6
CONTINUOUS
  0
LAYER
  2
LAYER076
 70
               0
 62
               7
  6
CONTINUOUS
  0
LAYER
  2
LAYER077
 70
               0
 62
               7
  6
CONTINUOUS
  0
LAYER
  2
LAYER078
 70
               0
 62
               7
  6
CONTINUOUS
  0
LAYER
  2
LAYER079
 70
               0
 62
               7
  6
CONTINUOUS
  0
LAYER
  2
LAYER080
 70
               0
 62
               7
  6
CONTINUOUS
  0
LAYER
  2
LAYER081
 70
               0
 62
               7
  6
CONTINUOUS
  0
LAYER
  2
LAYER082
 70
               0
 62
               7
  6
CONTINUOUS
  0
LAYER
  2
LAYER083
 70
               0
 62
               7
  6
CONTINUOUS
  0
LAYER
  2
LAYER084
 70
               0
 62
               7
  6
CONTINUOUS
  0
LAYER
  2
LAYER085
 70
               0
 62
               7
  6
CONTINUOUS
  0
LAYER
  2
LAYER086
 70
               0
 62
               7
  6
CONTINUOUS
  0
LAYER
  2
LAYER087
 70
               0
 62
               7
  6
CONTINUOUS
  0
LAYER
  2
LAYER088
 70
               0
 62
               7
  6
CONTINUOUS
  0
LAYER
  2
LAYER089
 70
               0
 62
               7
  6
CONTINUOUS
  0
LAYER
  2
LAYER090
 70
               0
 62
               7
  6
CONTINUOUS
  0
LAYER
  2
LAYER091
 70
               0
 62
               7
  6
CONTINUOUS
  0
LAYER
  2
LAYER092
 70
               0
 62
               7
  6
CONTINUOUS
  0
LAYER
  2
LAYER093
 70
               0
 62
               7
  6
CONTINUOUS
  0
LAYER
  2
LAYER094
 70
               0
 62
               7
  6
CONTINUOUS
  0
LAYER
  2
LAYER095
 70
               0
 62
               7
  6
CONTINUOUS
  0
LAYER
  2
LAYER096
 70
               0
 62
               7
  6
CONTINUOUS
  0
LAYER
  2
LAYER097
 70
               0
 62
               7
  6
CONTINUOUS
  0
LAYER
  2
LAYER098
 70
               0
 62
               7
  6
CONTINUOUS
  0
LAYER
  2
LAYER099
 70
               0
 62
               7
  6
CONTINUOUS
  0
LAYER
  2
LAYER100
 70
               0
 62
               7
  6
CONTINUOUS
  0
LAYER
  2
LAYER101
 70
               0
 62
               7
  6
CONTINUOUS
  0
LAYER
  2
LAYER102
 70
               0
 62
               7
  6
CONTINUOUS
  0
LAYER
  2
LAYER103
 70
               0
 62
               7
  6
CONTINUOUS
  0
LAYER
  2
LAYER104
 70
               0
 62
               7
  6
CONTINUOUS
  0
LAYER
  2
LAYER105
 70
               0
 62
               7
  6
CONTINUOUS
  0
LAYER
  2
LAYER106
 70
               0
 62
               7
  6
CONTINUOUS
  0
LAYER
  2
LAYER107
 70
               0
 62
               7
  6
CONTINUOUS
  0
LAYER
  2
LAYER108
 70
               0
 62
               7
  6
CONTINUOUS
  0
LAYER
  2
LAYER109
 70
               0
 62
               7
  6
CONTINUOUS
  0
LAYER
  2
LAYER110
 70
               0
 62
               7
  6
CONTINUOUS
  0
LAYER
  2
LAYER111
 70
               0
 62
               7
  6
CONTINUOUS
  0
LAYER
  2
LAYER112
 70
               0
 62
               7
  6
CONTINUOUS
  0
LAYER
  2
LAYER113
 70
               0
 62
               7
  6
CONTINUOUS
  0
LAYER
  2
LAYER114
 70
               0
 62
               7
  6
CONTINUOUS
  0
LAYER
  2
LAYER115
 70
               0
 62
               7
  6
CONTINUOUS
  0
LAYER
  2
LAYER116
 70
               0
 62
               7
  6
CONTINUOUS
  0
LAYER
  2
LAYER117
 70
               0
 62
               7
  6
CONTINUOUS
  0
LAYER
  2
LAYER118
 70
               0
 62
               7
  6
CONTINUOUS
  0
LAYER
  2
LAYER119
 70
               0
 62
               7
  6
CONTINUOUS
  0
LAYER
  2
LAYER120
 70
               0
 62
               7
  6
CONTINUOUS
  0
LAYER
  2
LAYER121
 70
               0
 62
               7
  6
CONTINUOUS
  0
LAYER
  2
LAYER122
 70
               0
 62
               7
  6
CONTINUOUS
  0
LAYER
  2
LAYER123
 70
               0
 62
               7
  6
CONTINUOUS
  0
LAYER
  2
LAYER124
 70
               0
 62
               7
  6
CONTINUOUS
  0
LAYER
  2
LAYER125
 70
               0
 62
               7
  6
CONTINUOUS
  0
LAYER
  2
LAYER126
 70
               0
 62
               7
  6
CONTINUOUS
  0
LAYER
  2
LAYER127
 70
               0
 62
               7
  6
CONTINUOUS
  0
LAYER
  2
LAYER128
 70
               0
 62
               7
  6
CONTINUOUS
  0
LAYER
  2
LAYER129
 70
               0
 62
               7
  6
CONTINUOUS
  0
LAYER
  2
LAYER130
 70
               0
 62
               7
  6
CONTINUOUS
  0
LAYER
  2
LAYER131
 70
               0
 62
               7
  6
CONTINUOUS
  0
LAYER
  2
LAYER132
 70
               0
 62
               7
  6
CONTINUOUS
  0
LAYER
  2
LAYER133
 70
               0
 62
               7
  6
CONTINUOUS
  0
LAYER
  2
LAYER134
 70
               0
 62
               7
  6
CONTINUOUS
  0
LAYER
  2
LAYER135
 70
               0
 62
               7
  6
CONTINUOUS
  0
LAYER
  2
LAYER136
 70
               0
 62
               7
  6
CONTINUOUS
  0
LAYER
  2
LAYER137
 70
               0
 62
               7
  6
CONTINUOUS
  0
LAYER
  2
LAYER138
 70
               0
 62
               7
  6
CONTINUOUS
  0
LAYER
  2
LAYER139
 70
               0
 62
               7
  6
CONTINUOUS
  0
LAYER
  2
LAYER140
 70
               0
 62
               7
  6
CONTINUOUS
  0
LAYER
  2
LAYER141
 70
               0
 62
               7
  6
CONTINUOUS
  0
LAYER
  2
LAYER142
 70
               0
 62
               7
  6
CONTINUOUS
  0
LAYER
  2
LAYER143
 70
               0
 62
               7
  6
CONTINUOUS
  0
LAYER
  2
LAYER144
 70
               0
 62
               7
  6
CONTINUOUS
  0
LAYER
  2
LAYER145
 70
               0
 62
               7
  6
CONTINUOUS
  0
LAYER
  2
LAYER146
 70
               0
 62
               7
  6
CONTINUOUS
  0
LAYER
  2
LAYER147
 70
               0
 62
               7
  6
CONTINUOUS
  0
LAYER
  2
LAYER148
 70
               0
 62
               7
  6
CONTINUOUS
  0
LAYER
  2
LAYER149
 70
               0
 62
               7
  6
CONTINUOUS
  0
LAYER
  2
LAYER150
 70
               0
 62
               7
  6
CONTINUOUS
  0
LAYER
  2
LAYER151
 70
               0
 62
               7
  6
CONTINUOUS
  0
LAYER
  2
LAYER152
 70
               0
 62
               7
  6
CONTINUOUS
  0
LAYER
  2
LAYER153
 70
               0
 62
               7
  6
CONTINUOUS
  0
LAYER
  2
LAYER154
 70
               0
 62
               7
  6
CONTINUOUS
  0
LAYER
  2
LAYER155
 70
               0
 62
               7
  6
CONTINUOUS
  0
LAYER
  2
LAYER156
 70
               0
 62
               7
  6
CONTINUOUS
  0
LAYER
  2
LAYER157
 70
               0
 62
               7
  6
CONTINUOUS
  0
LAYER
  2
LAYER158
 70
               0
 62
               7
  6
CONTINUOUS
  0
LAYER
  2
LAYER159
 70
               0
 62
               7
  6
CONTINUOUS
  0
LAYER
  2
LAYER160
 70
               0
 62
               7
  6
CONTINUOUS
  0
LAYER
  2
LAYER161
 70
               0
 62
               7
  6
CONTINUOUS
  0
LAYER
  2
LAYER162
 70
               0
 62
               7
  6
CONTINUOUS
  0
LAYER
  2
LAYER163
 70
               0
 62
               7
  6
CONTINUOUS
  0
LAYER
  2
LAYER164
 70
               0
 62
               7
  6
CONTINUOUS
  0
LAYER
  2
LAYER165
 70
               0
 62
               7
  6
CONTINUOUS
  0
LAYER
  2
LAYER166
 70
               0
 62
               7
  6
CONTINUOUS
  0
LAYER
  2
LAYER167
 70
               0
 62
               7
  6
CONTINUOUS
  0
LAYER
  2
LAYER168
 70
               0
 62
               7
  6
CONTINUOUS
  0
LAYER
  2
LAYER169
 70
               0
 62
               7
  6
CONTINUOUS
  0
LAYER
  2
LAYER170
 70
               0
 62
               7
  6
CONTINUOUS
  0
LAYER
  2
LAYER171
 70
               0
 62
               7
  6
CONTINUOUS
  0
LAYER
  2
LAYER172
 70
               0
 62
               7
  6
CONTINUOUS
  0
LAYER
  2
LAYER173
 70
               0
 62
               7
  6
CONTINUOUS
  0
LAYER
  2
LAYER174
 70
               0
 62
               7
  6
CONTINUOUS
  0
LAYER
  2
LAYER175
 70
               0
 62
               7
  6
CONTINUOUS
  0
LAYER
  2
LAYER176
 70
               0
 62
               7
  6
CONTINUOUS
  0
LAYER
  2
LAYER177
 70
               0
 62
               7
  6
CONTINUOUS
  0
LAYER
  2
LAYER178
 70
               0
 62
               7
  6
CONTINUOUS
  0
LAYER
  2
LAYER179
 70
               0
 62
               7
  6
CONTINUOUS
  0
LAYER
  2
LAYER180
 70
               0
 62
               7
  6
CONTINUOUS
  0
LAYER
  2
LAYER181
 70
               0
 62
               7
  6
CONTINUOUS
  0
LAYER
  2
LAYER182
 70
               0
 62
               7
  6
CONTINUOUS
  0
LAYER
  2
LAYER183
 70
               0
 62
               7
  6
CONTINUOUS
  0
LAYER
  2
LAYER184
 70
               0
 62
               7
  6
CONTINUOUS
  0
LAYER
  2
LAYER185
 70
               0
 62
               7
  6
CONTINUOUS
  0
LAYER
  2
LAYER186
 70
               0
 62
               7
  6
CONTINUOUS
  0
LAYER
  2
LAYER187
 70
               0
 62
               7
  6
CONTINUOUS
  0
LAYER
  2
LAYER188
 70
               0
 62
               7
  6
CONTINUOUS
  0
LAYER
  2
LAYER189
 70
               0
 62
               7
  6
CONTINUOUS
  0
LAYER
  2
LAYER190
 70
               0
 62
               7
  6
CONTINUOUS
  0
LAYER
  2
LAYER191
 70
               0
 62
               7
  6
CONTINUOUS
  0
LAYER
  2
LAYER192
 70
               0
 62
               7
  6
CONTINUOUS
  0
LAYER
  2
LAYER193
 70
               0
 62
               7
  6
CONTINUOUS
  0
LAYER
  2
LAYER194
 70
               0
 62
               7
  6
CONTINUOUS
  0
LAYER
  2
LAYER195
 70
               0
 62
               7
  6
CONTINUOUS
  0
LAYER
  2
LAYER196
 70
               0
 62
               7
  6
CONTINUOUS
  0
LAYER
  2
LAYER197
 70
               0
 62
               7
  6
CONTINUOUS
  0
LAYER
  2
LAYER198
 70
               0
 62
               7
  6
CONTINUOUS
  0
LAYER
  2
LAYER199
 70
               0
 62
               7
  6
CONTINUOUS
  0
LAYER
  2
LAYER200
 70
               0
 62
               7
  6
CONTINUOUS
  0
LAYER
  2
LAYER201
 70
               0
 62
               7
  6
CONTINUOUS
  0
LAYER
  2
LAYER202
 70
               0
 62
               7
  6
CONTINUOUS
  0
LAYER
  2
LAYER203
 70
               0
 62
               7
  6
CONTINUOUS
  0
LAYER
  2
LAYER204
 70
               0
 62
               7
  6
CONTINUOUS
  0
LAYER
  2
LAYER205
 70
               0
 62
               7
  6
CONTINUOUS
  0
LAYER
  2
LAYER206
 70
               0
 62
               7
  6
CONTINUOUS
  0
LAYER
  2
LAYER207
 70
               0
 62
               7
  6
CONTINUOUS
  0
LAYER
  2
LAYER208
 70
               0
 62
               7
  6
CONTINUOUS
  0
LAYER
  2
LAYER209
 70
               0
 62
               7
  6
CONTINUOUS
  0
LAYER
  2
LAYER210
 70
               0
 62
               7
  6
CONTINUOUS
  0
LAYER
  2
LAYER211
 70
               0
 62
               7
  6
CONTINUOUS
  0
LAYER
  2
LAYER212
 70
               0
 62
               7
  6
CONTINUOUS
  0
LAYER
  2
LAYER213
 70
               0
 62
               7
  6
CONTINUOUS
  0
LAYER
  2
LAYER214
 70
               0
 62
               7
  6
CONTINUOUS
  0
LAYER
  2
LAYER215
 70
               0
 62
               7
  6
CONTINUOUS
  0
LAYER
  2
LAYER216
 70
               0
 62
               7
  6
CONTINUOUS
  0
LAYER
  2
LAYER217
 70
               0
 62
               7
  6
CONTINUOUS
  0
LAYER
  2
LAYER218
 70
               0
 62
               7
  6
CONTINUOUS
  0
LAYER
  2
LAYER219
 70
               0
 62
               7
  6
CONTINUOUS
  0
LAYER
  2
LAYER220
 70
               0
 62
               7
  6
CONTINUOUS
  0
LAYER
  2
LAYER221
 70
               0
 62
               7
  6
CONTINUOUS
  0
LAYER
  2
LAYER222
 70
               0
 62
               7
  6
CONTINUOUS
  0
LAYER
  2
LAYER223
 70
               0
 62
               7
  6
CONTINUOUS
  0
LAYER
  2
LAYER224
 70
               0
 62
               7
  6
CONTINUOUS
  0
LAYER
  2
LAYER225
 70
               0
 62
               7
  6
CONTINUOUS
  0
LAYER
  2
LAYER226
 70
               0
 62
               7
  6
CONTINUOUS
  0
LAYER
  2
LAYER227
 70
               0
 62
               7
  6
CONTINUOUS
  0
LAYER
  2
LAYER228
 70
               0
 62
               7
  6
CONTINUOUS
  0
LAYER
  2
LAYER229
 70
               0
 62
               7
  6
CONTINUOUS
  0
LAYER
  2
LAYER230
 70
               0
 62
               7
  6
CONTINUOUS
  0
LAYER
  2
LAYER231
 70
               0
 62
               7
  6
CONTINUOUS
  0
LAYER
  2
LAYER232
 70
               0
 62
               7
  6
CONTINUOUS
  0
LAYER
  2
LAYER233
 70
               0
 62
               7
  6
CONTINUOUS
  0
LAYER
  2
LAYER234
 70
               0
 62
               7
  6
CONTINUOUS
  0
LAYER
  2
LAYER235
 70
               0
 62
               7
  6
CONTINUOUS
  0
LAYER
  2
LAYER236
 70
               0
 62
               7
  6
CONTINUOUS
  0
LAYER
  2
LAYER237
 70
               0
 62
               7
  6
CONTINUOUS
  0
LAYER
  2
LAYER238
 70
               0
 62
               7
  6
CONTINUOUS
  0
LAYER
  2
LAYER239
 70
               0
 62
               7
  6
CONTINUOUS
  0
LAYER
  2
LAYER240
 70
               0
 62
               7
  6
CONTINUOUS
  0
LAYER
  2
LAYER241
 70
               0
 62
               7
  6
CONTINUOUS
  0
LAYER
  2
LAYER242
 70
               0
 62
               7
  6
CONTINUOUS
  0
LAYER
  2
LAYER243
 70
               0
 62
               7
  6
CONTINUOUS
  0
LAYER
  2
LAYER244
 70
               0
 62
               7
  6
CONTINUOUS
  0
LAYER
  2
LAYER245
 70
               0
 62
               7
  6
CONTINUOUS
  0
LAYER
  2
LAYER246
 70
               0
 62
               7
  6
CONTINUOUS
  0
LAYER
  2
LAYER247
 70
               0
 62
               7
  6
CONTINUOUS
  0
LAYER
  2
LAYER248
 70
               0
 62
               7
  6
CONTINUOUS
  0
LAYER
  2
LAYER249
 70
               0
 62
               7
  6
CONTINUOUS
  0
LAYER
  2
LAYER250
 70
               0
 62
               7
  6
CONTINUOUS
  0
LAYER
  2
LAYER251
 70
               0
 62
               7
  6
CONTINUOUS
  0
LAYER
  2
LAYER252
 70
               0
 62
               7
  6
CONTINUOUS
  0
LAYER
  2
LAYER253
 70
               0
 62
               7
  6
CONTINUOUS
  0
LAYER
  2
LAYER254
 70
               0
 62
               7
  6
CONTINUOUS
  0
LAYER
  2
LAYER255
 70
               0
 62
               7
  6
CONTINUOUS
  0
ENDTAB
  0
TABLE
  2
STYLE
 70
               1
  0
STYLE
  2
STANDARD
 70
               0
 40
0.0
 41
0.8
 50
0.0
 71
               0
 42
40.0
  3
MS PGothic.ttf
  4

  0
ENDTAB
  0
TABLE
  2
VIEW
 70
               0
  0
VIEW
  2
QQQQ
 70
               0
 40
2501.3249504138125
 10
-162.02900529579699
 20
0.0
 41
1340.1291081540205
 11
0.0
 21
0.0
 31
1.0
 12
100.0
 22
100.0
 32
0.0
 42
50.0
 43
0.0
 44
0.0
 50
0.0
 71
               0
  0
ENDTAB
  0
TABLE
  2
UCS
 70
               0
  0
ENDTAB
  0
TABLE
  2
APPID
 70
               1
  0
APPID
  2
ACAD
 70
               0
  0
ENDTAB
  0
TABLE
  2
DIMSTYLE
 70
               1
  0
DIMSTYLE
  2
STANDARD
 70
               0
  3

  4

  5

  6

  7

 40
1.0
 41
0.18
 42
0.0625
 43
0.38
 44
0.18
 45
0.0
 46
0.0
 47
0.0
 48
0.0
140
0.18
141
0.09
142
0.0
143
25.399999999999999
144
1.0
145
0.0
146
1.0
147
0.09
 71
               0
 72
               0
 73
               1
 74
               1
 75
               0
 76
               0
 77
               0
 78
               0
170
               0
171
               2
172
               0
173
               0
174
               0
175
               0
176
               0
177
               0
178
               0
  0
ENDTAB
  0
ENDSEC
  0
SECTION
  2
BLOCKS
  0
BLOCK
  8
0
  5
13C
  2
GROUP_1
 70
               0
 10
0.0
 20
0.0
 30
0.0
  3
GROUP_1
  0
LINE
  8
0
  6
CONTINUOUS
 62
               4
  5
13D
 10
-239.02968455095993
 20
332.92636405773254
 30
0.0
 11
-117.13480407755401
 21
454.82124453113857
 31
0.0
  0
LINE
  8
0
  6
CONTINUOUS
 62
               4
  5
13E
 10
-246.92226690395114
 20
395.74445980532738
 30
0.0
 11
-187.84548217813995
 21
454.82124453113857
 31
0.0
  0
LINE
  8
0
  6
CONTINUOUS
 62
               4
  5
13F
 10
-209.70972773823019
 20
220.82496466929052
 30
0.0
 11
-109.40457855043974
 21
321.13011385708108
 31
0.0
  0
LINE
  8
0
  6
CONTINUOUS
 62
               4
  5
140
 10
-138.99904963764425
 20
220.82496466929052
 30
0.0
 11
-120.41820771576761
 21
239.40580659116711
 31
0.0
  0
ENDBLK
  8
0
  5
141
  0
BLOCK
  8
0
  5
142
  2
GROUP_2
 70
               0
 10
0.0
 20
0.0
 30
0.0
  3
GROUP_2
  0
LINE
  8
0
  6
CONTINUOUS
 62
               4
  5
143
 10
-739.02968455096004
 20
332.92636405773248
 30
0.0
 11
-617.13480407755401
 21
454.82124453113852
 31
0.0
  0
LINE
  8
0
  6
CONTINUOUS
 62
               4
  5
144
 10
-746.92226690395114
 20
395.74445980532732
 30
0.0
 11
-687.84548217813995
 21
454.82124453113852
 31
0.0
  0
LINE
  8
0
  6
CONTINUOUS
 62
               4
  5
145
 10
-709.70972773823019
 20
220.82496466929047
 30
0.0
 11
-609.40457855043974
 21
321.13011385708103
 31
0.0
  0
LINE
  8
0
  6
CONTINUOUS
 62
               4
  5
146
 10
-638.99904963764425
 20
220.82496466929047
 30
0.0
 11
-620.41820771576772
 21
239.40580659116705
 31
0.0
  0
ENDBLK
  8
0
  5
147
  0
BLOCK
  8
0
  5
148
  2
GROUP_3
 70
               0
 10
0.0
 20
0.0
 30
0.0
  3
GROUP_3
  0
LINE
  8
0
  6
CONTINUOUS
 62
               3
  5
149
 10
-599.92226690395125
 20
573.50086216272439
 30
0.0
 11
-599.92226690395114
 21
391.49160314967116
 31
0.0
  0
LINE
  8
0
  6
CONTINUOUS
 62
               3
  5
14A
 10
-746.92226690395103
 20
573.50086216272439
 30
0.0
 11
-746.92226690395114
 21
391.49160314967094
 31
0.0
  0
ENDBLK
  8
0
  5
14B
  0
BLOCK
  8
0
  5
14C
  2
GROUP_4
 70
               0
 10
0.0
 20
0.0
 30
0.0
  3
GROUP_4
  0
LINE
  8
0
  6
CONTINUOUS
 62
               4
  5
14D
 10
261.03673822610551
 20
332.92636405773254
 30
0.0
 11
382.93161869951155
 21
454.82124453113857
 31
0.0
  0
LINE
  8
0
  6
CONTINUOUS
 62
               4
  5
14E
 10
253.14415587311441
 20
395.74445980532738
 30
0.0
 11
312.22094059892561
 21
454.82124453113857
 31
0.0
  0
LINE
  8
0
  6
CONTINUOUS
 62
               4
  5
14F
 10
290.35669503883537
 20
220.82496466929052
 30
0.0
 11
390.66184422662582
 21
321.13011385708108
 31
0.0
  0
LINE
  8
0
  6
CONTINUOUS
 62
               4
  5
150
 10
361.06737313942131
 20
220.82496466929052
 30
0.0
 11
379.64821506129783
 21
239.40580659116711
 31
0.0
  0
ENDBLK
  8
0
  5
151
  0
BLOCK
  8
0
  5
152
  2
GROUP_5
 70
               0
 10
0.0
 20
0.0
 30
0.0
  3
GROUP_5
  0
LINE
  8
0
  6
CONTINUOUS
 62
               3
  5
153
 10
400.1441558731143
 20
573.50086216272439
 30
0.0
 11
400.14415587311441
 21
391.49160314967122
 31
0.0
  0
LINE
  8
0
  6
CONTINUOUS
 62
               3
  5
154
 10
253.14415587311453
 20
573.50086216272439
 30
0.0
 11
253.14415587311441
 21
391.49160314967099
 31
0.0
  0
ENDBLK
  8
0
  5
155
  0
BLOCK
  8
0
  5
156
  2
GROUP_6
 70
               0
 10
0.0
 20
0.0
 30
0.0
  3
GROUP_6
  0
LINE
  8
0
  6
CONTINUOUS
 62
               3
  5
157
 10
-99.92226690395114
 20
441.8142737306128
 30
0.0
 11
-99.92226690395114
 21
391.49160314967122
 31
0.0
  0
ENDBLK
  8
0
  5
158
  0
ENDSEC
  0
SECTION
  2
ENTITIES
  0
LINE
  8
0
  6
DASHDOT
 62
               4
  5
159
 10
326.57773309604886
 20
714.74866757589905
 30
0.0
 11
326.57773309604892
 21
-214.55082754093348
 31
0.0
  0
LINE
  8
0
  6
DASHDOT
 62
               4
  5
15A
 10
-673.42226690395114
 20
714.74866757589893
 30
0.0
 11
-673.42226690395114
 21
-214.55082754093371
 31
0.0
  0
LINE
  8
0
  6
DASHDOT
 62
               4
  5
15B
 10
-173.42226690395333
 20
914.8212445311367
 30
0.0
 11
-173.4222669039525
 21
1131.8212445311369
 31
0.0
  0
LINE
  8
0
  6
DASHDOT
 62
               4
  5
15C
 10
-355.92226690395324
 20
1023.321244531137
 30
0.0
 11
9.0777330960470408
 21
1023.3212445311357
 31
0.0
  0
LINE
  8
0
  6
DASHDOT
 62
               4
  5
15D
 10
-173.42226690395114
 20
714.74866757589905
 30
0.0
 11
-173.42226690395103
 21
-214.55082754093371
 31
0.0
  0
LINE
  8
0
  6
DASHDOT
 62
               4
  5
15E
 10
-288.42226690395154
 20
175.81134652914324
 30
0.0
 11
-288.42226690395154
 21
11.432984909652816
 31
0.0
  0
LINE
  8
0
  6
DASHDOT
 62
               4
  5
15F
 10
-58.42226690395097
 20
175.81134652914346
 30
0.0
 11
-58.42226690395097
 21
11.43298490965293
 31
0.0
  0
LINE
  8
0
  6
DASHDOT
 62
               4
  5
160
 10
-736.69238901529559
 20
512.85572666435519
 30
0.0
 11
-610.56719511144661
 21
512.85572666435519
 31
0.0
  0
LINE
  8
0
  6
DASHDOT
 62
               4
  5
161
 10
-226.38651604867698
 20
511.32124453113869
 30
0.0
 11
-335.27283041096723
 21
511.32124453113846
 31
0.0
  0
LINE
  8
0
  6
DASHDOT
 62
               4
  5
162
 10
-120.45801775922524
 20
511.32124453113869
 30
0.0
 11
-11.571703396934993
 21
511.32124453113852
 31
0.0
  0
LINE
  8
0
  6
DASHDOT
 62
               4
  5
163
 10
263.30761098470441
 20
511.3212445311384
 30
0.0
 11
389.43280488855339
 21
511.3212445311384
 31
0.0
  0
LINE
  8
0
  6
DASHDOT
 62
               4
  5
164
 10
-273.42226690395103
 20
-675.05082754093371
 30
0.0
 11
-273.42226690395097
 21
-559.05082754093371
 31
0.0
  0
LINE
  8
0
  6
DASHDOT
 62
               4
  5
165
 10
-331.42226690395097
 20
-617.05082754093371
 30
0.0
 11
-215.42226690395097
 21
-617.05082754093371
 31
0.0
  0
LINE
  8
0
  6
DASHDOT
 62
               4
  5
166
 10
-323.42226690395097
 20
-625.05082754093371
 30
0.0
 11
-223.42226690395097
 21
-625.05082754093371
 31
0.0
  0
LINE
  8
0
  6
DASHDOT
 62
               4
  5
167
 10
-437.34849516053993
 20
-625.05082754093371
 30
0.0
 11
-371.87919934047056
 21
-625.05082754093371
 31
0.0
  0
LINE
  8
0
  6
DASHDOT
 62
               4
  5
168
 10
-495.92226690395097
 20
-617.05082754093371
 30
0.0
 11
-397.32226690395089
 21
-617.05082754093371
 31
0.0
  0
LINE
  8
0
  6
DASHDOT
 62
               4
  5
169
 10
-109.49603864736204
 20
-625.05082754093394
 30
0.0
 11
-174.96533446743138
 21
-625.05082754093371
 31
0.0
  0
LINE
  8
0
  6
DASHDOT
 62
               4
  5
16A
 10
-50.92226690395097
 20
-617.05082754093394
 30
0.0
 11
-149.52226690395105
 21
-617.05082754093371
 31
0.0
  0
LINE
  8
0
  6
DASHDOT
 62
               4
  5
16B
 10
-273.42226690395103
 20
-394.55082754093371
 30
0.0
 11
-273.42226690395103
 21
-518.59389510441417
 31
0.0
  0
LINE
  8
0
  6
DASHDOT
 62
               4
  5
16C
 10
335.86425631235682
 20
-470.01458745033335
 30
0.0
 11
335.86425631235682
 21
-740.5613742501597
 31
0.0
  0
LINE
  8
0
  6
DASHDOT
 62
               4
  5
16D
 10
173.86425631235693
 20
-578.51458745033335
 30
0.0
 11
444.36425631235704
 21
-578.51458745033335
 31
0.0
  0
LINE
  8
0
  6
DASHDOT
 62
               4
  5
16E
 10
335.86425631235682
 20
-769.11458745033349
 30
0.0
 11
335.86425631235682
 21
-645.51458745033312
 31
0.0
  0
LINE
  8
0
  6
DASHDOT
 62
               4
  5
16F
 10
135.86425631235704
 20
-578.51458745033312
 30
0.0
 11
268.86425631235704
 21
-578.51458745033312
 31
0.0
  0
LINE
  8
0
  6
DASHDOT
 62
               4
  5
170
 10
404.38948108758154
 20
-1053.0140211989178
 30
0.0
 11
174.13564301892859
 21
-1053.0140211989178
 31
0.0
  0
LINE
  8
0
  6
DASHDOT
 62
               4
  5
171
 10
335.86425631235682
 20
-867.0140211989177
 30
0.0
 11
335.86425631235682
 21
-1118.0140211989178
 31
0.0
  0
LINE
  8
0
  6
DASHDOT
 62
               4
  5
172
 10
285.86425631235682
 20
-1067.5140211989178
 30
0.0
 11
385.86425631235704
 21
-1067.5140211989178
 31
0.0
  0
LINE
  8
0
  6
DASHDOT
 62
               4
  5
173
 10
135.86425631235682
 20
-1059.5140211989178
 30
0.0
 11
210.26425631235679
 21
-1059.5140211989178
 31
0.0
  0
LINE
  8
0
  6
CONTINUOUS
 62
               4
  5
174
 10
-218.92226690395114
 20
220.82496466929052
 30
0.0
 11
-238.42226690395114
 21
391.9742681282558
 31
0.0
  0
LINE
  8
0
  6
CONTINUOUS
 62
               4
  5
175
 10
-238.42226690395114
 20
443.26402119891912
 30
0.0
 11
-238.42226690395114
 21
391.9742681282558
 31
0.0
  0
ARC
  8
0
  6
CONTINUOUS
 62
               4
  5
176
 10
-228.42226690395114
 20
457.32124453113846
 30
0.0
 40
2.4999999999999996
 50
89.999999999965283
 51
269.99999999989615
  0
LINE
  8
0
  6
CONTINUOUS
 62
               4
  5
177
 10
-106.42226690395125
 20
391.86069989800052
 30
0.0
 11
-125.65049130360251
 21
223.09674026963893
 31
0.0
  0
LINE
  8
0
  6
CONTINUOUS
 62
               4
  5
178
 10
-108.92226690395125
 20
442.76402119891918
 30
0.0
 11
-108.92226690395125
 21
392.00266018582005
 31
0.0
  0
LINE
  8
0
  6
CONTINUOUS
 62
               4
  5
179
 10
-108.92226690395125
 20
392.00266018582005
 30
0.0
 11
-128.4255017703008
 21
220.82496466929052
 31
0.0
  0
LINE
  8
0
  6
CONTINUOUS
 62
               4
  5
17A
 10
-108.92550177030137
 20
391.9742681282558
 30
0.0
 11
-106.42226690395125
 21
391.86069989800052
 31
0.0
  0
LINE
  8
0
  6
CONTINUOUS
 62
               4
  5
17B
 10
-106.67226690395103
 20
391.87489592678259
 30
0.0
 11
-125.92799235027258
 21
222.86956270960388
 31
0.0
  0
LINE
  8
0
  6
CONTINUOUS
 62
               4
  5
17C
 10
-238.42226690395114
 20
391.9742681282558
 30
0.0
 11
-108.92550177030137
 21
391.9742681282558
 31
0.0
  0
LINE
  8
0
  6
CONTINUOUS
 62
               4
  5
17D
 10
-228.42226690395114
 20
459.82124453113846
 30
0.0
 11
-118.42226690395108
 21
459.82124453113846
 31
0.0
  0
LINE
  8
0
  6
CONTINUOUS
 62
               4
  5
17E
 10
-300.42226690395091
 20
460.74280065710303
 30
0.0
 11
-254.11241922762406
 21
459.12562514120003
 31
0.0
  0
ARC
  8
0
  6
CONTINUOUS
 62
               4
  5
17F
 10
-254.28691671113711
 20
454.12867100610487
 30
0.0
 40
4.9999999999999991
 50
44.999999999981867
 51
87.999999999965198
  0
ARC
  8
0
  6
CONTINUOUS
 62
               4
  5
180
 10
-243.42226690395114
 20
443.26402119891912
 30
0.0
 40
4.9999999999999991
 50
0.0
 51
44.999999999982755
  0
LINE
  8
0
  6
CONTINUOUS
 62
               4
  5
181
 10
-127.92226690395125
 20
220.82496466929052
 30
0.0
 11
-125.65049130360251
 21
223.09674026963893
 31
0.0
  0
LINE
  8
0
  6
CONTINUOUS
 62
               4
  5
182
 10
-128.42550177030091
 20
220.82496466928995
 30
0.0
 11
-125.65049130360251
 21
223.09674026963893
 31
0.0
  0
LINE
  8
0
  6
CONTINUOUS
 62
               4
  5
183
 10
-247.92226690395091
 20
659.90854645486775
 30
0.0
 11
-247.92226690395091
 21
654.90854645486775
 31
0.0
  0
LINE
  8
0
  6
CONTINUOUS
 62
               4
  5
184
 10
-247.92226690395091
 20
659.90854645486775
 30
0.0
 11
-234.42226690395091
 21
669.82124453113852
 31
0.0
  0
LINE
  8
0
  6
CONTINUOUS
 62
               4
  5
185
 10
-247.92226690395091
 20
654.90854645486775
 30
0.0
 11
-237.24776942043832
 21
654.53578478880581
 31
0.0
  0
ARC
  8
0
  6
CONTINUOUS
 62
               4
  5
186
 10
-237.42226690395091
 20
649.53883065371042
 30
0.0
 40
5.0
 50
0.0
 51
87.999999999965766
  0
LINE
  8
0
  6
CONTINUOUS
 62
               4
  5
187
 10
-98.92226690395114
 20
659.90854645486775
 30
0.0
 11
-98.92226690395114
 21
654.90854645486775
 31
0.0
  0
LINE
  8
0
  6
CONTINUOUS
 62
               4
  5
188
 10
-98.92226690395114
 20
659.90854645486775
 30
0.0
 11
-112.42226690395103
 21
669.82124453113852
 31
0.0
  0
LINE
  8
0
  6
CONTINUOUS
 62
               4
  5
189
 10
-98.92226690395114
 20
654.90854645486775
 30
0.0
 11
-109.59676438746362
 21
654.53578478880581
 31
0.0
  0
ARC
  8
0
  6
CONTINUOUS
 62
               4
  5
18A
 10
-109.42226690395103
 20
649.53883065371042
 30
0.0
 40
5.0
 50
91.999999999965155
 51
179.99999999993088
  0
LINE
  8
0
  6
CONTINUOUS
 62
               4
  5
18B
 10
-234.42226690395091
 20
669.82124453113852
 30
0.0
 11
-112.42226690395103
 21
669.82124453113852
 31
0.0
  0
LINE
  8
0
  6
CONTINUOUS
 62
               4
  5
18C
 10
-233.93424299193271
 20
653.12124453113825
 30
0.0
 11
-112.91029081596923
 21
653.12124453113825
 31
0.0
  0
LINE
  8
0
  6
CONTINUOUS
 62
               4
  5
18D
 10
-193.42226690395103
 20
653.12124453113825
 30
0.0
 11
-193.42226690395103
 21
669.82124453113852
 31
0.0
  0
LINE
  8
0
  6
CONTINUOUS
 62
               4
  5
18E
 10
-153.42226690395103
 20
669.82124453113852
 30
0.0
 11
-153.42226690395103
 21
653.12124453113825
 31
0.0
  0
LINE
  8
0
  6
CONTINUOUS
 62
               4
  5
18F
 10
-193.42226690395103
 20
659.90854645486775
 30
0.0
 11
-153.42226690395103
 21
659.90854645486775
 31
0.0
  0
LINE
  8
0
  6
CONTINUOUS
 62
               4
  5
190
 10
-153.42226690395103
 20
654.90854645486775
 30
0.0
 11
-193.42226690395103
 21
654.90854645486775
 31
0.0
  0
LINE
  8
0
  6
CONTINUOUS
 62
               4
  5
191
 10
-234.42226690395091
 20
669.82124453113852
 30
0.0
 11
-234.42226690395091
 21
653.53883065371019
 31
0.0
  0
LINE
  8
0
  6
CONTINUOUS
 62
               4
  5
192
 10
-112.42226690395103
 20
669.82124453113852
 30
0.0
 11
-112.42226690395103
 21
653.53883065371019
 31
0.0
  0
LINE
  8
0
  6
CONTINUOUS
 62
               4
  5
193
 10
-232.42226690395091
 20
649.53883065371042
 30
0.0
 11
-232.42226690395091
 21
587.99223890891403
 31
0.0
  0
LINE
  8
0
  6
CONTINUOUS
 62
               4
  5
194
 10
-247.90842242430517
 20
454.82124453113857
 30
0.0
 11
-98.936111383597051
 21
454.82124453113857
 31
0.0
  0
LINE
  8
0
  6
CONTINUOUS
 62
               4
  5
195
 10
-223.92226690395137
 20
220.82496466929052
 30
0.0
 11
-122.92226690395114
 21
220.82496466929052
 31
0.0
  0
LINE
  8
0
  6
CONTINUOUS
 62
               4
  5
196
 10
-247.90842242430517
 20
454.82124453113857
 30
0.0
 11
-239.88673299801894
 21
446.79955510485212
 31
0.0
  0
LINE
  8
0
  6
CONTINUOUS
 62
               4
  5
197
 10
-250.75138280520378
 20
457.66420491203718
 30
0.0
 11
-247.90842242430517
 21
454.82124453113857
 31
0.0
  0
LINE
  8
0
  6
CONTINUOUS
 62
               4
  5
198
 10
-106.42226690395125
 20
447.3350890107846
 30
0.0
 11
-106.42226690395125
 21
391.86069989800052
 31
0.0
  0
LINE
  8
0
  6
CONTINUOUS
 62
               4
  5
199
 10
-106.67226690395103
 20
447.08508901078483
 30
0.0
 11
-106.67226690395103
 21
391.87489592678259
 31
0.0
  0
LINE
  8
0
  6
CONTINUOUS
 62
               4
  5
19A
 10
-99.92226690395114
 20
401.32310360415568
 30
0.0
 11
-230.63202964728271
 21
270.61334086082388
 31
0.0
  0
LINE
  8
0
  6
CONTINUOUS
 62
               4
  5
19B
 10
-218.92226690395159
 20
155.91500357345404
 30
0.0
 11
-218.92226690395114
 21
220.82496466929041
 31
0.0
  0
LINE
  8
0
  6
CONTINUOUS
 62
               4
  5
19C
 10
-127.92226690395069
 20
155.91500357345404
 30
0.0
 11
-127.92226690395125
 21
220.82496466929041
 31
0.0
  0
LINE
  8
0
  6
CONTINUOUS
 62
               4
  5
19D
 10
-723.92226690395137
 20
220.82496466929047
 30
0.0
 11
-622.92226690395114
 21
220.82496466929047
 31
0.0
  0
LINE
  8
0
  6
CONTINUOUS
 62
               4
  5
19E
 10
-718.92226690395171
 20
155.91500357345399
 30
0.0
 11
-718.92226690395114
 21
220.82496466929035
 31
0.0
  0
LINE
  8
0
  6
CONTINUOUS
 62
               4
  5
19F
 10
-627.92226690395069
 20
155.91500357345399
 30
0.0
 11
-627.92226690395114
 21
220.82496466929035
 31
0.0
  0
LINE
  8
0
  6
CONTINUOUS
 62
               4
  5
1A0
 10
-718.92226690395114
 20
220.82496466929047
 30
0.0
 11
-738.42226690395114
 21
391.97426812825574
 31
0.0
  0
LINE
  8
0
  6
CONTINUOUS
 62
               4
  5
1A1
 10
-738.42226690395114
 20
454.82124453113852
 30
0.0
 11
-738.42226690395114
 21
391.97426812825574
 31
0.0
  0
ARC
  8
0
  6
CONTINUOUS
 62
               4
  5
1A2
 10
-608.42226690395114
 20
457.3212445311384
 30
0.0
 40
2.4999999999999996
 50
269.99999999989518
 51
449.99999999982703
  0
LINE
  8
0
  6
CONTINUOUS
 62
               4
  5
1A3
 10
-608.92550177030137
 20
391.97426812825574
 30
0.0
 11
-606.42226690395125
 21
391.86069989800046
 31
0.0
  0
LINE
  8
0
  6
CONTINUOUS
 62
               4
  5
1A4
 10
-738.42226690395114
 20
391.97426812825574
 30
0.0
 11
-608.92550177030137
 21
391.97426812825574
 31
0.0
  0
LINE
  8
0
  6
CONTINUOUS
 62
               4
  5
1A5
 10
-738.42226690395114
 20
573.50086216272439
 30
0.0
 11
-738.42226690395114
 21
459.8212445311384
 31
0.0
  0
LINE
  8
0
  6
CONTINUOUS
 62
               4
  5
1A6
 10
-747.92226690395091
 20
659.90854645486775
 30
0.0
 11
-747.92226690395091
 21
654.90854645486775
 31
0.0
  0
LINE
  8
0
  6
CONTINUOUS
 62
               4
  5
1A7
 10
-747.92226690395091
 20
659.90854645486775
 30
0.0
 11
-734.42226690395091
 21
669.8212445311384
 31
0.0
  0
LINE
  8
0
  6
CONTINUOUS
 62
               4
  5
1A8
 10
-747.92226690395091
 20
654.90854645486775
 30
0.0
 11
-737.24776942043843
 21
654.5357847888057
 31
0.0
  0
ARC
  8
0
  6
CONTINUOUS
 62
               4
  5
1A9
 10
-737.42226690395091
 20
649.53883065371031
 30
0.0
 40
5.0
 50
0.0
 51
87.999999999966178
  0
LINE
  8
0
  6
CONTINUOUS
 62
               4
  5
1AA
 10
-598.92226690395114
 20
659.90854645486775
 30
0.0
 11
-598.92226690395114
 21
654.90854645486775
 31
0.0
  0
LINE
  8
0
  6
CONTINUOUS
 62
               4
  5
1AB
 10
-598.92226690395114
 20
659.90854645486775
 30
0.0
 11
-612.42226690395103
 21
669.8212445311384
 31
0.0
  0
LINE
  8
0
  6
CONTINUOUS
 62
               4
  5
1AC
 10
-598.92226690395114
 20
654.90854645486775
 30
0.0
 11
-609.59676438746362
 21
654.5357847888057
 31
0.0
  0
ARC
  8
0
  6
CONTINUOUS
 62
               4
  5
1AD
 10
-609.42226690395114
 20
649.53883065371031
 30
0.0
 40
5.0
 50
91.999999999964984
 51
179.99999999993088
  0
LINE
  8
0
  6
CONTINUOUS
 62
               4
  5
1AE
 10
-734.42226690395091
 20
669.8212445311384
 30
0.0
 11
-612.42226690395103
 21
669.8212445311384
 31
0.0
  0
LINE
  8
0
  6
CONTINUOUS
 62
               4
  5
1AF
 10
-733.93424299193282
 20
653.12124453113825
 30
0.0
 11
-612.91029081596923
 21
653.12124453113825
 31
0.0
  0
LINE
  8
0
  6
CONTINUOUS
 62
               4
  5
1B0
 10
-693.42226690395103
 20
653.12124453113825
 30
0.0
 11
-693.42226690395103
 21
669.8212445311384
 31
0.0
  0
LINE
  8
0
  6
CONTINUOUS
 62
               4
  5
1B1
 10
-653.42226690395091
 20
669.8212445311384
 30
0.0
 11
-653.42226690395091
 21
653.12124453113825
 31
0.0
  0
LINE
  8
0
  6
CONTINUOUS
 62
               4
  5
1B2
 10
-693.42226690395103
 20
659.90854645486775
 30
0.0
 11
-653.42226690395091
 21
659.90854645486775
 31
0.0
  0
LINE
  8
0
  6
CONTINUOUS
 62
               4
  5
1B3
 10
-653.42226690395091
 20
654.90854645486775
 30
0.0
 11
-693.42226690395103
 21
654.90854645486775
 31
0.0
  0
LINE
  8
0
  6
CONTINUOUS
 62
               4
  5
1B4
 10
-734.42226690395091
 20
669.8212445311384
 30
0.0
 11
-734.42226690395091
 21
653.53883065371019
 31
0.0
  0
LINE
  8
0
  6
CONTINUOUS
 62
               4
  5
1B5
 10
-612.42226690395103
 20
669.8212445311384
 30
0.0
 11
-612.42226690395103
 21
653.53883065371019
 31
0.0
  0
LINE
  8
0
  6
CONTINUOUS
 62
               4
  5
1B6
 10
-732.42226690395091
 20
649.53883065371031
 30
0.0
 11
-732.42226690395091
 21
587.99223890891403
 31
0.0
  0
ARC
  8
0
  6
CONTINUOUS
 62
               4
  5
1B7
 10
-737.42226690395091
 20
587.99223890891403
 30
0.0
 40
5.0
 50
315.01704217206628
 51
359.99999999986176
  0
ARC
  8
0
  6
CONTINUOUS
 62
               4
  5
1B8
 10
-722.92226690395103
 20
573.50086216272439
 30
0.0
 40
15.5
 50
135.01704217213495
 51
179.99999999993085
  0
LINE
  8
0
  6
CONTINUOUS
 62
               4
  5
1B9
 10
-614.42226690395103
 20
649.53883065371031
 30
0.0
 11
-614.42226690395103
 21
585.99223890891403
 31
0.0
  0
LINE
  8
0
  6
CONTINUOUS
 62
               4
  5
1BA
 10
-746.92226690395114
 20
454.82124453113852
 30
0.0
 11
-599.92226690395114
 21
454.82124453113852
 31
0.0
  0
LINE
  8
0
  6
CONTINUOUS
 62
               4
  5
1BB
 10
-599.92226690395114
 20
401.32310360415562
 30
0.0
 11
-730.63202964728271
 21
270.61334086082383
 31
0.0
  0
ARC
  8
0
  6
CONTINUOUS
 62
               4
  5
1BC
 10
-738.42226690395114
 20
457.3212445311384
 30
0.0
 40
2.4999999999999996
 50
89.999999999963322
 51
269.99999999989518
  0
LINE
  8
0
  6
CONTINUOUS
 62
               4
  5
1BD
 10
-608.42226690395114
 20
573.50086216272439
 30
0.0
 11
-608.42226690395114
 21
459.8212445311384
 31
0.0
  0
ARC
  8
0
  6
CONTINUOUS
 62
               4
  5
1BE
 10
-609.42226690395137
 20
587.99223890891403
 30
0.0
 40
5.0
 50
179.99999999993088
 51
224.9829578277257
  0
ARC
  8
0
  6
CONTINUOUS
 62
               4
  5
1BF
 10
-623.92226690395125
 20
573.50086216272439
 30
0.0
 40
15.5
 50
0.0
 51
44.982957827795914
  0
LINE
  8
0
  6
CONTINUOUS
 62
               4
  5
1C0
 10
-627.92226690395114
 20
220.82496466929047
 30
0.0
 11
-608.42226690395114
 21
391.97426812825574
 31
0.0
  0
LINE
  8
0
  6
CONTINUOUS
 62
               4
  5
1C1
 10
-608.42226690395114
 20
454.82124453113852
 30
0.0
 11
-608.42226690395114
 21
391.97426812825574
 31
0.0
  0
ARC
  8
0
  6
CONTINUOUS
 62
               4
  5
1C2
 10
-695.92226690395057
 20
457.3212445311384
 30
0.0
 40
2.4999999999999996
 50
269.99999999989518
 51
449.99999999982703
  0
ARC
  8
0
  6
CONTINUOUS
 62
               4
  5
1C3
 10
-650.92226690395057
 20
457.3212445311384
 30
0.0
 40
2.4999999999999996
 50
89.999999999965937
 51
269.99999999989518
  0
LINE
  8
0
  6
CONTINUOUS
 62
               4
  5
1C4
 10
-738.42226690395114
 20
459.8212445311384
 30
0.0
 11
-695.92226690395057
 21
459.8212445311384
 31
0.0
  0
LINE
  8
0
  6
CONTINUOUS
 62
               4
  5
1C5
 10
-650.92226690395057
 20
459.8212445311384
 30
0.0
 11
-608.42226690395114
 21
459.8212445311384
 31
0.0
  0
LINE
  8
0
  6
CONTINUOUS
 62
               4
  5
1C6
 10
276.14415587311419
 20
220.82496466929052
 30
0.0
 11
377.14415587311441
 21
220.82496466929052
 31
0.0
  0
LINE
  8
0
  6
CONTINUOUS
 62
               4
  5
1C7
 10
281.14415587311441
 20
220.82496466929052
 30
0.0
 11
261.64415587311441
 21
391.9742681282558
 31
0.0
  0
LINE
  8
0
  6
CONTINUOUS
 62
               4
  5
1C8
 10
261.64415587311441
 20
454.82124453113857
 30
0.0
 11
261.64415587311441
 21
391.9742681282558
 31
0.0
  0
LINE
  8
0
  6
CONTINUOUS
 62
               4
  5
1C9
 10
391.14092100676419
 20
391.9742681282558
 30
0.0
 11
393.6441558731143
 21
391.86069989800052
 31
0.0
  0
LINE
  8
0
  6
CONTINUOUS
 62
               4
  5
1CA
 10
261.64415587311441
 20
391.9742681282558
 30
0.0
 11
391.14092100676419
 21
391.9742681282558
 31
0.0
  0
LINE
  8
0
  6
CONTINUOUS
 62
               4
  5
1CB
 10
261.64415587311441
 20
573.50086216272439
 30
0.0
 11
261.64415587311441
 21
459.82124453113846
 31
0.0
  0
LINE
  8
0
  6
CONTINUOUS
 62
               4
  5
1CC
 10
252.14415587311464
 20
659.90854645486775
 30
0.0
 11
252.14415587311464
 21
654.90854645486775
 31
0.0
  0
LINE
  8
0
  6
CONTINUOUS
 62
               4
  5
1CD
 10
252.14415587311464
 20
659.90854645486775
 30
0.0
 11
265.64415587311464
 21
669.82124453113852
 31
0.0
  0
LINE
  8
0
  6
CONTINUOUS
 62
               4
  5
1CE
 10
252.14415587311464
 20
654.90854645486775
 30
0.0
 11
262.81865335662712
 21
654.53578478880581
 31
0.0
  0
ARC
  8
0
  6
CONTINUOUS
 62
               4
  5
1CF
 10
262.64415587311464
 20
649.53883065371042
 30
0.0
 40
5.0
 50
0.0
 51
87.99999999996551
  0
LINE
  8
0
  6
CONTINUOUS
 62
               4
  5
1D0
 10
401.14415587311441
 20
659.90854645486775
 30
0.0
 11
401.14415587311441
 21
654.90854645486775
 31
0.0
  0
LINE
  8
0
  6
CONTINUOUS
 62
               4
  5
1D1
 10
401.14415587311441
 20
659.90854645486775
 30
0.0
 11
387.64415587311453
 21
669.82124453113852
 31
0.0
  0
LINE
  8
0
  6
CONTINUOUS
 62
               4
  5
1D2
 10
401.14415587311441
 20
654.90854645486775
 30
0.0
 11
390.46965838960193
 21
654.53578478880581
 31
0.0
  0
ARC
  8
0
  6
CONTINUOUS
 62
               4
  5
1D3
 10
390.64415587311441
 20
649.53883065371042
 30
0.0
 40
5.0
 50
91.999999999965638
 51
179.99999999993088
  0
LINE
  8
0
  6
CONTINUOUS
 62
               4
  5
1D4
 10
265.64415587311464
 20
669.82124453113852
 30
0.0
 11
387.64415587311453
 21
669.82124453113852
 31
0.0
  0
LINE
  8
0
  6
CONTINUOUS
 62
               4
  5
1D5
 10
266.13217978513273
 20
653.12124453113825
 30
0.0
 11
387.15613196109632
 21
653.12124453113825
 31
0.0
  0
LINE
  8
0
  6
CONTINUOUS
 62
               4
  5
1D6
 10
306.64415587311453
 20
653.12124453113825
 30
0.0
 11
306.64415587311453
 21
669.82124453113852
 31
0.0
  0
LINE
  8
0
  6
CONTINUOUS
 62
               4
  5
1D7
 10
346.64415587311464
 20
669.82124453113852
 30
0.0
 11
346.64415587311464
 21
653.12124453113825
 31
0.0
  0
LINE
  8
0
  6
CONTINUOUS
 62
               4
  5
1D8
 10
306.64415587311453
 20
659.90854645486775
 30
0.0
 11
346.64415587311464
 21
659.90854645486775
 31
0.0
  0
LINE
  8
0
  6
CONTINUOUS
 62
               4
  5
1D9
 10
346.64415587311464
 20
654.90854645486775
 30
0.0
 11
306.64415587311453
 21
654.90854645486775
 31
0.0
  0
LINE
  8
0
  6
CONTINUOUS
 62
               4
  5
1DA
 10
265.64415587311464
 20
669.82124453113852
 30
0.0
 11
265.64415587311464
 21
653.53883065371019
 31
0.0
  0
LINE
  8
0
  6
CONTINUOUS
 62
               4
  5
1DB
 10
387.64415587311453
 20
669.82124453113852
 30
0.0
 11
387.64415587311453
 21
653.53883065371019
 31
0.0
  0
LINE
  8
0
  6
CONTINUOUS
 62
               4
  5
1DC
 10
267.64415587311464
 20
649.53883065371042
 30
0.0
 11
267.64415587311464
 21
587.99223890891403
 31
0.0
  0
ARC
  8
0
  6
CONTINUOUS
 62
               4
  5
1DD
 10
262.64415587311464
 20
587.99223890891403
 30
0.0
 40
5.0
 50
315.01704217206674
 51
359.99999999986176
  0
ARC
  8
0
  6
CONTINUOUS
 62
               4
  5
1DE
 10
277.14415587311453
 20
573.50086216272439
 30
0.0
 40
15.5
 50
135.01704217213481
 51
179.99999999993085
  0
LINE
  8
0
  6
CONTINUOUS
 62
               4
  5
1DF
 10
385.64415587311453
 20
649.53883065371042
 30
0.0
 11
385.64415587311453
 21
585.99223890891403
 31
0.0
  0
LINE
  8
0
  6
CONTINUOUS
 62
               4
  5
1E0
 10
253.14415587311441
 20
454.82124453113857
 30
0.0
 11
400.14415587311441
 21
454.82124453113857
 31
0.0
  0
LINE
  8
0
  6
CONTINUOUS
 62
               4
  5
1E1
 10
400.14415587311441
 20
401.32310360415568
 30
0.0
 11
269.43439312978285
 21
270.61334086082388
 31
0.0
  0
LINE
  8
0
  6
CONTINUOUS
 62
               4
  5
1E2
 10
391.64415587311441
 20
573.50086216272439
 30
0.0
 11
391.64415587311441
 21
459.82124453113846
 31
0.0
  0
ARC
  8
0
  6
CONTINUOUS
 62
               4
  5
1E3
 10
390.64415587311419
 20
587.99223890891403
 30
0.0
 40
5.0
 50
179.99999999993088
 51
224.98295782772618
  0
ARC
  8
0
  6
CONTINUOUS
 62
               4
  5
1E4
 10
376.1441558731143
 20
573.50086216272439
 30
0.0
 40
15.5
 50
0.0
 51
44.982957827796071
  0
LINE
  8
0
  6
CONTINUOUS
 62
               4
  5
1E5
 10
372.14415587311441
 20
220.82496466929052
 30
0.0
 11
391.64415587311441
 21
391.9742681282558
 31
0.0
  0
LINE
  8
0
  6
CONTINUOUS
 62
               4
  5
1E6
 10
391.64415587311441
 20
454.82124453113857
 30
0.0
 11
391.64415587311441
 21
391.9742681282558
 31
0.0
  0
LINE
  8
0
  6
CONTINUOUS
 62
               4
  5
1E7
 10
281.14415587311385
 20
155.91500357345404
 30
0.0
 11
281.14415587311441
 21
220.82496466929041
 31
0.0
  0
LINE
  8
0
  6
CONTINUOUS
 62
               4
  5
1E8
 10
372.14415587311487
 20
155.91500357345404
 30
0.0
 11
372.14415587311441
 21
220.82496466929041
 31
0.0
  0
LINE
  8
0
  6
CONTINUOUS
 62
               4
  5
1E9
 10
-114.42226690395103
 20
649.53883065371042
 30
0.0
 11
-114.42226690395103
 21
587.99223890891426
 31
0.0
  0
LINE
  8
0
  6
CONTINUOUS
 62
               4
  5
1EA
 10
334.79473309604839
 20
454.82124453113846
 30
0.0
 11
334.63937762946398
 21
454.82124453113846
 31
0.0
  0
LINE
  8
0
  6
CONTINUOUS
 62
               4
  5
1EB
 10
318.36073309604853
 20
454.82124453113846
 30
0.0
 11
318.51608856263351
 21
454.82124453113846
 31
0.0
  0
LINE
  8
0
  6
CONTINUOUS
 62
               4
  5
1EC
 10
318.36073309604853
 20
443.80390569501941
 30
0.0
 11
318.36073309604853
 21
220.82496466929052
 31
0.0
  0
LINE
  8
0
  6
CONTINUOUS
 62
               4
  5
1ED
 10
334.79473309604839
 20
443.80390569501941
 30
0.0
 11
334.79473309604839
 21
220.82496466929052
 31
0.0
  0
LINE
  8
0
  6
CONTINUOUS
 62
               4
  5
1EE
 10
320.57773309604852
 20
448.80390569501941
 30
0.0
 11
320.57773309604852
 21
223.0967402696395
 31
0.0
  0
LINE
  8
0
  6
CONTINUOUS
 62
               4
  5
1EF
 10
332.57773309604841
 20
223.0967402696395
 30
0.0
 11
332.57773309604841
 21
448.80390569501941
 31
0.0
  0
LINE
  8
0
  6
CONTINUOUS
 62
               4
  5
1F0
 10
334.79473309604839
 20
391.97426812825574
 30
0.0
 11
318.36073309604853
 21
391.97426812825574
 31
0.0
  0
LINE
  8
0
  6
CONTINUOUS
 62
               4
  5
1F1
 10
320.57773309604852
 20
223.0967402696395
 30
0.0
 11
332.57773309604841
 21
223.0967402696395
 31
0.0
  0
LINE
  8
0
  6
CONTINUOUS
 62
               4
  5
1F2
 10
318.36073309604853
 20
220.82496466929052
 30
0.0
 11
320.57773309604852
 21
223.0967402696395
 31
0.0
  0
LINE
  8
0
  6
CONTINUOUS
 62
               4
  5
1F3
 10
332.57773309604841
 20
223.0967402696395
 30
0.0
 11
334.79473309604839
 21
220.82496466929052
 31
0.0
  0
LINE
  8
0
  6
CONTINUOUS
 62
               4
  5
1F4
 10
-667.4277970372425
 20
587.28279300985776
 30
0.0
 11
-620.35387882402574
 21
587.28279300985776
 31
0.0
  0
LINE
  8
0
  6
CONTINUOUS
 62
               4
  5
1F5
 10
-728.8856815380974
 20
587.28279300985776
 30
0.0
 11
-667.4277970372425
 21
587.28279300985776
 31
0.0
  0
LINE
  8
0
  6
CONTINUOUS
 62
               4
  5
1F6
 10
-165.96438240309624
 20
585.74831087664097
 30
0.0
 11
-118.89046418987937
 21
585.74831087664097
 31
0.0
  0
LINE
  8
0
  6
CONTINUOUS
 62
               4
  5
1F7
 10
-227.42226690395114
 20
585.74831087664097
 30
0.0
 11
-165.96438240309624
 21
585.74831087664097
 31
0.0
  0
LINE
  8
0
  6
CONTINUOUS
 62
               4
  5
1F8
 10
-193.42226690395313
 20
951.48638082859202
 30
0.0
 11
-193.42226690395313
 21
965.93694278254634
 31
0.0
  0
LINE
  8
0
  6
CONTINUOUS
 62
               4
  5
1F9
 10
-153.42226690395313
 20
965.60108644535558
 30
0.0
 11
-153.42226690395313
 21
951.48638082859202
 31
0.0
  0
ARC
  8
0
  6
CONTINUOUS
 62
               4
  5
1FA
 10
-173.4222669039531
 20
1025.1968790292171
 30
0.0
 40
76.375634498080188
 50
254.81932855946019
 51
285.18067144033222
  0
LINE
  8
0
  6
CONTINUOUS
 62
               4
  5
1FB
 10
-101.58740320140834
 20
1003.321244531137
 30
0.0
 11
-115.33589870995027
 21
1003.321244531137
 31
0.0
  0
LINE
  8
0
  6
CONTINUOUS
 62
               4
  5
1FC
 10
-115.2848039652302
 20
1043.3212445311369
 30
0.0
 11
-101.58740320140834
 21
1043.3212445311369
 31
0.0
  0
ARC
  8
0
  6
CONTINUOUS
 62
               4
  5
1FD
 10
-175.29790140203329
 20
1023.321244531137
 30
0.0
 40
76.375634498080188
 50
344.81932855942557
 51
375.1806714402976
  0
LINE
  8
0
  6
CONTINUOUS
 62
               4
  5
1FE
 10
-153.42226690395302
 20
1095.1561082336821
 30
0.0
 11
-153.42226690395302
 21
1081.1886271815856
 31
0.0
  0
LINE
  8
0
  6
CONTINUOUS
 62
               4
  5
1FF
 10
-193.42226690395302
 20
1080.8527708443949
 30
0.0
 11
-193.42226690395302
 21
1095.1561082336821
 31
0.0
  0
ARC
  8
0
  6
CONTINUOUS
 62
               4
  5
200
 10
-173.42226690395307
 20
1021.4456100330568
 30
0.0
 40
76.375634498080188
 50
74.819328559529367
 51
105.18067144040144
  0
LINE
  8
0
  6
CONTINUOUS
 62
               4
  5
201
 10
-245.25713060649792
 20
1043.3212445311369
 30
0.0
 11
-230.59202962824298
 21
1043.3212445311369
 31
0.0
  0
LINE
  8
0
  6
CONTINUOUS
 62
               4
  5
202
 10
-230.54093488352288
 20
1003.321244531137
 30
0.0
 11
-245.25713060649792
 21
1003.321244531137
 31
0.0
  0
ARC
  8
0
  6
CONTINUOUS
 62
               4
  5
203
 10
-171.54663240587294
 20
1023.321244531137
 30
0.0
 40
76.375634498080188
 50
164.81932855949469
 51
195.18067144036684
  0
ARC
  8
0
  6
CONTINUOUS
 62
               4
  5
204
 10
-173.42226690395313
 20
1023.321244531137
 30
0.0
 40
65.0
 50
287.92021313928154
 51
342.07978686047613
  0
ARC
  8
0
  6
CONTINUOUS
 62
               4
  5
205
 10
-173.42226690395307
 20
1023.321244531137
 30
0.0
 40
67.499999999999957
 50
232.90680694078665
 51
252.7647147428149
  0
ARC
  8
0
  6
CONTINUOUS
 62
               4
  5
206
 10
-173.42226690395313
 20
1023.321244531137
 30
0.0
 40
65.0
 50
197.92021313931622
 51
252.07978686051084
  0
ARC
  8
0
  6
CONTINUOUS
 62
               4
  5
207
 10
-173.42226690395307
 20
1023.321244531137
 30
0.0
 40
67.499999999999957
 50
107.23528525704663
 51
127.09319305907385
  0
ARC
  8
0
  6
CONTINUOUS
 62
               4
  5
208
 10
-173.42226690395313
 20
1023.321244531137
 30
0.0
 40
65.0
 50
17.920213139385403
 51
72.079786860579873
  0
ARC
  8
0
  6
CONTINUOUS
 62
               4
  5
209
 10
-173.42226690395313
 20
1023.321244531137
 30
0.0
 40
65.0
 50
107.92021313935072
 51
162.07978686054543
  0
CIRCLE
  8
0
  6
CONTINUOUS
 62
               4
  5
20A
 10
-172.93841679673659
 20
1023.3948568134707
 30
0.0
 40
61.000000000000007
  0
CIRCLE
  8
0
  6
CONTINUOUS
 62
               4
  5
20B
 10
-173.4222669039529
 20
1023.321244531137
 30
0.0
 40
47.0
  0
CIRCLE
  8
0
  6
CONTINUOUS
 62
               4
  5
20C
 10
-173.4222669039512
 20
1023.3212445311386
 30
0.0
 40
40.5
  0
LINE
  8
0
  6
CONTINUOUS
 62
               4
  5
20D
 10
-148.98380394138283
 20
1040.6272164757661
 30
0.0
 11
-191.63935321610805
 21
1059.4928876552135
 31
0.0
  0
ARC
  8
0
  6
CONTINUOUS
 62
               4
  5
20E
 10
-143.15067905323315
 20
1053.8159943212718
 30
0.0
 40
14.421137507799237
 50
246.14118011756537
 51
295.69436237349942
  0
LINE
  8
0
  6
CONTINUOUS
 62
               4
  5
20F
 10
-717.92226690395182
 20
154.91500357345404
 30
0.0
 11
-718.92226690395159
 21
155.91500357345399
 31
0.0
  0
LINE
  8
0
  6
CONTINUOUS
 62
               4
  5
210
 10
-628.92226690395069
 20
154.91500357345404
 30
0.0
 11
-627.92226690395069
 21
155.91500357345399
 31
0.0
  0
LINE
  8
0
  6
CONTINUOUS
 62
               4
  5
211
 10
-717.92226690395182
 20
154.91500357345404
 30
0.0
 11
-628.92226690395069
 21
154.91500357345404
 31
0.0
  0
LINE
  8
0
  6
CONTINUOUS
 62
               4
  5
212
 10
-627.92226690395069
 20
155.91500357345399
 30
0.0
 11
-718.92226690395159
 21
155.91500357345399
 31
0.0
  0
LINE
  8
0
  6
CONTINUOUS
 62
               4
  5
213
 10
-717.92226690395114
 20
119.8212445311384
 30
0.0
 11
-717.92226690395114
 21
154.91500357345404
 31
0.0
  0
LINE
  8
0
  6
CONTINUOUS
 62
               4
  5
214
 10
-628.92226690395114
 20
119.8212445311384
 30
0.0
 11
-628.92226690395114
 21
154.91500357345404
 31
0.0
  0
LINE
  8
0
  6
CONTINUOUS
 62
               4
  5
215
 10
-217.92226690395182
 20
154.9150035734541
 30
0.0
 11
-218.92226690395159
 21
155.91500357345404
 31
0.0
  0
LINE
  8
0
  6
CONTINUOUS
 62
               4
  5
216
 10
-128.92226690395069
 20
154.9150035734541
 30
0.0
 11
-127.92226690395069
 21
155.91500357345404
 31
0.0
  0
LINE
  8
0
  6
CONTINUOUS
 62
               4
  5
217
 10
-217.92226690395182
 20
154.9150035734541
 30
0.0
 11
-128.92226690395069
 21
154.9150035734541
 31
0.0
  0
LINE
  8
0
  6
CONTINUOUS
 62
               4
  5
218
 10
-127.92226690395069
 20
155.91500357345404
 30
0.0
 11
-218.92226690395159
 21
155.91500357345404
 31
0.0
  0
LINE
  8
0
  6
CONTINUOUS
 62
               4
  5
219
 10
-217.92226690395114
 20
119.82124453113846
 30
0.0
 11
-217.92226690395114
 21
154.9150035734541
 31
0.0
  0
LINE
  8
0
  6
CONTINUOUS
 62
               4
  5
21A
 10
-128.92226690395114
 20
119.82124453113846
 30
0.0
 11
-128.92226690395114
 21
154.9150035734541
 31
0.0
  0
LINE
  8
0
  6
CONTINUOUS
 62
               4
  5
21B
 10
-248.42226690395142
 20
58.926022743814485
 30
0.0
 11
-248.42226690395142
 21
68.800308950870374
 31
0.0
  0
LINE
  8
0
  6
CONTINUOUS
 62
               4
  5
21C
 10
-226.42226690395097
 20
-35.178755468862107
 30
0.0
 11
-120.42226690394847
 21
-35.178755468861311
 31
0.0
  0
LINE
  8
0
  6
CONTINUOUS
 62
               4
  5
21D
 10
-98.422266903950856
 20
58.926022743814599
 30
0.0
 11
-98.422266903950856
 21
68.800308950870487
 31
0.0
  0
LINE
  8
0
  6
CONTINUOUS
 62
               4
  5
21E
 10
-726.42226690395103
 20
-35.178755468861539
 30
0.0
 11
-620.42226690394853
 21
-35.178755468860743
 31
0.0
  0
LINE
  8
0
  6
CONTINUOUS
 62
               4
  5
21F
 10
282.07773309604818
 20
154.9150035734541
 30
0.0
 11
281.07773309604841
 21
155.91500357345404
 31
0.0
  0
LINE
  8
0
  6
CONTINUOUS
 62
               4
  5
220
 10
371.07773309604931
 20
154.9150035734541
 30
0.0
 11
372.07773309604931
 21
155.91500357345404
 31
0.0
  0
LINE
  8
0
  6
CONTINUOUS
 62
               4
  5
221
 10
282.07773309604818
 20
154.9150035734541
 30
0.0
 11
371.07773309604931
 21
154.9150035734541
 31
0.0
  0
LINE
  8
0
  6
CONTINUOUS
 62
               4
  5
222
 10
372.07773309604931
 20
155.91500357345404
 30
0.0
 11
281.07773309604841
 21
155.91500357345404
 31
0.0
  0
LINE
  8
0
  6
CONTINUOUS
 62
               4
  5
223
 10
282.07773309604886
 20
119.82124453113846
 30
0.0
 11
282.07773309604886
 21
154.9150035734541
 31
0.0
  0
LINE
  8
0
  6
CONTINUOUS
 62
               4
  5
224
 10
371.07773309604886
 20
119.82124453113846
 30
0.0
 11
371.07773309604886
 21
154.9150035734541
 31
0.0
  0
LINE
  8
0
  6
CONTINUOUS
 62
               4
  5
225
 10
273.57773309604897
 20
-35.178755468861539
 30
0.0
 11
379.57773309605147
 21
-35.178755468860629
 31
0.0
  0
LINE
  8
0
  6
CONTINUOUS
 62
               4
  5
226
 10
-209.6024593377698
 20
969.32130309179843
 30
0.0
 11
-300.42226690395285
 21
972.49280065710161
 31
0.0
  0
LINE
  8
0
  6
CONTINUOUS
 62
               4
  5
227
 10
-303.42226690395296
 20
974.82124453113681
 30
0.0
 11
-302.75071077798873
 21
974.82124453113681
 31
0.0
  0
LINE
  8
0
  6
CONTINUOUS
 62
               4
  5
228
 10
-300.42226690395285
 20
972.49280065710161
 30
0.0
 11
-302.75071077798873
 21
974.82124453113681
 31
0.0
  0
LINE
  8
0
  6
CONTINUOUS
 62
               4
  5
229
 10
-303.42226690395296
 20
1071.8212445311369
 30
0.0
 11
-302.75071077798873
 21
1071.8212445311369
 31
0.0
  0
LINE
  8
0
  6
CONTINUOUS
 62
               4
  5
22A
 10
-300.42226690395285
 20
1074.1496884051726
 30
0.0
 11
-302.75071077798873
 21
1071.8212445311369
 31
0.0
  0
LINE
  8
0
  6
CONTINUOUS
 62
               4
  5
22B
 10
-302.75071077798873
 20
1071.8212445311369
 30
0.0
 11
-302.75071077798873
 21
974.82124453113681
 31
0.0
  0
LINE
  8
0
  6
CONTINUOUS
 62
               4
  5
22C
 10
-300.42226690395285
 20
972.49280065710161
 30
0.0
 11
-300.42226690395285
 21
1074.1496884051726
 31
0.0
  0
LINE
  8
0
  6
CONTINUOUS
 62
               4
  5
22D
 10
-308.42226690395296
 20
1071.6496884051726
 30
0.0
 11
-308.42226690395296
 21
974.99280065710161
 31
0.0
  0
LINE
  8
0
  6
CONTINUOUS
 62
               4
  5
22E
 10
-303.42226690395296
 20
972.49280065710161
 30
0.0
 11
-303.42226690395296
 21
1074.1496884051726
 31
0.0
  0
LINE
  8
0
  6
CONTINUOUS
 62
               4
  5
22F
 10
-303.42226690395296
 20
1074.1496884051726
 30
0.0
 11
-305.92226690395296
 21
1074.1496884051726
 31
0.0
  0
LINE
  8
0
  6
CONTINUOUS
 62
               4
  5
230
 10
-303.42226690395296
 20
972.49280065710161
 30
0.0
 11
-305.92226690395296
 21
972.49280065710161
 31
0.0
  0
ARC
  8
0
  6
CONTINUOUS
 62
               4
  5
231
 10
-305.92226690395296
 20
974.99280065710161
 30
0.0
 40
2.5
 50
179.99999999993187
 51
269.99999999989649
  0
ARC
  8
0
  6
CONTINUOUS
 62
               4
  5
232
 10
-305.92226690395296
 20
1071.6496884051726
 30
0.0
 40
2.5
 50
89.999999999965596
 51
179.99999999993187
  0
LINE
  8
0
  6
CONTINUOUS
 62
               4
  5
233
 10
-209.60245933776827
 20
1077.3211859704766
 30
0.0
 11
-300.42226690395285
 21
1074.1496884051726
 31
0.0
  0
LINE
  8
0
  6
CONTINUOUS
 62
               4
  5
234
 10
-238.42226690395103
 20
573.50086216272462
 30
0.0
 11
-238.42226690395103
 21
569.39321998769788
 31
0.0
  0
ARC
  8
0
  6
CONTINUOUS
 62
               4
  5
235
 10
-237.42226690395086
 20
587.99223890891426
 30
0.0
 40
5.0
 50
315.01704217206668
 51
359.99999999986176
  0
ARC
  8
0
  6
CONTINUOUS
 62
               4
  5
236
 10
-222.92226690395091
 20
573.50086216272462
 30
0.0
 40
15.5
 50
135.01704217213489
 51
179.99999999993085
  0
LINE
  8
0
  6
CONTINUOUS
 62
               4
  5
237
 10
-303.42226690395103
 20
560.07124453113829
 30
0.0
 11
-302.7507107779868
 21
560.07124453113829
 31
0.0
  0
LINE
  8
0
  6
CONTINUOUS
 62
               4
  5
238
 10
-300.42226690395091
 20
562.39968840517417
 30
0.0
 11
-302.7507107779868
 21
560.07124453113829
 31
0.0
  0
LINE
  8
0
  6
CONTINUOUS
 62
               4
  5
239
 10
-300.42226690395091
 20
562.39968840517417
 30
0.0
 11
-243.24776942043877
 21
564.39626585260226
 31
0.0
  0
ARC
  8
0
  6
CONTINUOUS
 62
               4
  5
23A
 10
-243.42226690395159
 20
569.39321998769788
 30
0.0
 40
5.0
 50
271.99999999989387
 51
359.99999999986159
  0
LINE
  8
0
  6
CONTINUOUS
 62
               4
  5
23B
 10
-303.42226690395103
 20
562.39968840517417
 30
0.0
 11
-305.92226690395103
 21
562.39968840517417
 31
0.0
  0
ARC
  8
0
  6
CONTINUOUS
 62
               4
  5
23C
 10
-305.92226690395103
 20
559.89968840517417
 30
0.0
 40
2.5
 50
89.999999999965596
 51
179.99999999993088
  0
LINE
  8
0
  6
CONTINUOUS
 62
               4
  5
23D
 10
-300.42226690395091
 20
460.74280065710315
 30
0.0
 11
-300.42226690395091
 21
546.89968840517395
 31
0.0
  0
LINE
  8
0
  6
CONTINUOUS
 62
               4
  5
23E
 10
-302.75071077798651
 20
544.57124453113875
 30
0.0
 11
-302.75071077798651
 21
463.07124453113869
 31
0.0
  0
LINE
  8
0
  6
CONTINUOUS
 62
               4
  5
23F
 10
-308.42226690395103
 20
544.39968840517417
 30
0.0
 11
-308.42226690395103
 21
463.24280065710315
 31
0.0
  0
LINE
  8
0
  6
CONTINUOUS
 62
               4
  5
240
 10
-303.42226690395103
 20
460.74280065710315
 30
0.0
 11
-303.42226690395103
 21
546.89968840517417
 31
0.0
  0
LINE
  8
0
  6
CONTINUOUS
 62
               4
  5
241
 10
-300.42226690395091
 20
460.74280065710315
 30
0.0
 11
-300.42226690395091
 21
562.39968840517417
 31
0.0
  0
LINE
  8
0
  6
CONTINUOUS
 62
               4
  5
242
 10
-303.42226690395103
 20
463.07124453113869
 30
0.0
 11
-302.75071077798651
 21
463.07124453113869
 31
0.0
  0
LINE
  8
0
  6
CONTINUOUS
 62
               4
  5
243
 10
-300.42226690395091
 20
460.74280065710315
 30
0.0
 11
-302.75071077798651
 21
463.07124453113869
 31
0.0
  0
LINE
  8
0
  6
CONTINUOUS
 62
               4
  5
244
 10
-302.7507107779868
 20
560.07124453113829
 30
0.0
 11
-302.75071077798651
 21
463.07124453113869
 31
0.0
  0
LINE
  8
0
  6
CONTINUOUS
 62
               4
  5
245
 10
-308.42226690395103
 20
559.89968840517417
 30
0.0
 11
-308.42226690395103
 21
463.24280065710315
 31
0.0
  0
LINE
  8
0
  6
CONTINUOUS
 62
               4
  5
246
 10
-303.42226690395103
 20
460.74280065710315
 30
0.0
 11
-303.42226690395103
 21
562.39968840517417
 31
0.0
  0
LINE
  8
0
  6
CONTINUOUS
 62
               4
  5
247
 10
-303.42226690395103
 20
460.74280065710315
 30
0.0
 11
-305.92226690395103
 21
460.74280065710315
 31
0.0
  0
ARC
  8
0
  6
CONTINUOUS
 62
               4
  5
248
 10
-305.92226690395103
 20
463.24280065710315
 30
0.0
 40
2.5
 50
179.99999999993085
 51
269.99999999989649
  0
CIRCLE
  8
0
  6
CONTINUOUS
 62
               4
  5
249
 10
-673.42226690395057
 20
512.85572666435519
 30
0.0
 40
50.75
  0
LINE
  8
0
  6
CONTINUOUS
 62
               4
  5
24A
 10
-137.24207447013643
 20
969.32130309179809
 30
0.0
 11
-46.422266903953386
 21
972.4928006571007
 31
0.0
  0
LINE
  8
0
  6
CONTINUOUS
 62
               4
  5
24B
 10
-43.422266903953243
 20
974.8212445311359
 30
0.0
 11
-44.093823029917473
 21
974.8212445311359
 31
0.0
  0
LINE
  8
0
  6
CONTINUOUS
 62
               4
  5
24C
 10
-46.422266903953386
 20
972.4928006571007
 30
0.0
 11
-44.093823029917473
 21
974.8212445311359
 31
0.0
  0
LINE
  8
0
  6
CONTINUOUS
 62
               4
  5
24D
 10
-43.422266903952504
 20
1071.821244531136
 30
0.0
 11
-44.093823029916734
 21
1071.821244531136
 31
0.0
  0
LINE
  8
0
  6
CONTINUOUS
 62
               4
  5
24E
 10
-46.422266903952618
 20
1074.1496884051717
 30
0.0
 11
-44.093823029916734
 21
1071.821244531136
 31
0.0
  0
LINE
  8
0
  6
CONTINUOUS
 62
               4
  5
24F
 10
-44.093823029916734
 20
1071.821244531136
 30
0.0
 11
-44.093823029917473
 21
974.8212445311359
 31
0.0
  0
LINE
  8
0
  6
CONTINUOUS
 62
               4
  5
250
 10
-46.422266903953386
 20
972.4928006571007
 30
0.0
 11
-46.422266903952618
 21
1074.1496884051717
 31
0.0
  0
LINE
  8
0
  6
CONTINUOUS
 62
               4
  5
251
 10
-38.422266903952504
 20
1071.6496884051717
 30
0.0
 11
-38.422266903953243
 21
974.9928006571007
 31
0.0
  0
LINE
  8
0
  6
CONTINUOUS
 62
               4
  5
252
 10
-43.422266903953272
 20
972.4928006571007
 30
0.0
 11
-43.422266903952504
 21
1074.1496884051717
 31
0.0
  0
LINE
  8
0
  6
CONTINUOUS
 62
               4
  5
253
 10
-43.422266903952504
 20
1074.1496884051717
 30
0.0
 11
-40.922266903952504
 21
1074.1496884051717
 31
0.0
  0
LINE
  8
0
  6
CONTINUOUS
 62
               4
  5
254
 10
-43.422266903953272
 20
972.4928006571007
 30
0.0
 11
-40.922266903953272
 21
972.4928006571007
 31
0.0
  0
ARC
  8
0
  6
CONTINUOUS
 62
               4
  5
255
 10
-40.922266903953243
 20
974.9928006571007
 30
0.0
 40
2.5
 50
269.99999999989586
 51
359.99999999986107
  0
ARC
  8
0
  6
CONTINUOUS
 62
               4
  5
256
 10
-40.922266903952504
 20
1071.6496884051717
 30
0.0
 40
2.5
 50
359.99999999986107
 51
449.9999999998264
  0
LINE
  8
0
  6
CONTINUOUS
 62
               4
  5
257
 10
-137.24207447013714
 20
1077.3211859704761
 30
0.0
 11
-46.422266903952618
 21
1074.1496884051717
 31
0.0
  0
ARC
  8
0
  6
CONTINUOUS
 62
               4
  5
258
 10
-173.42226690395276
 20
1023.321244531137
 30
0.0
 40
67.499999999999957
 50
52.906806940856569
 51
72.76471474288374
  0
ARC
  8
0
  6
CONTINUOUS
 62
               4
  5
259
 10
-173.42226690395276
 20
1023.321244531137
 30
0.0
 40
67.499999999999957
 50
287.23528525697702
 51
307.09319305900539
  0
LINE
  8
0
  6
CONTINUOUS
 62
               4
  5
25A
 10
391.57773309604909
 20
459.82124453113835
 30
0.0
 11
349.07773309604954
 21
459.82124453113835
 31
0.0
  0
ARC
  8
0
  6
CONTINUOUS
 62
               4
  5
25B
 10
391.57773309604909
 20
457.32124453113835
 30
0.0
 40
2.4999999999999996
 50
269.99999999989518
 51
449.99999999982703
  0
ARC
  8
0
  6
CONTINUOUS
 62
               4
  5
25C
 10
349.07773309604954
 20
457.32124453113835
 30
0.0
 40
2.4999999999999996
 50
89.999999999963322
 51
269.99999999989518
  0
ARC
  8
0
  6
CONTINUOUS
 62
               4
  5
25D
 10
261.57773309604914
 20
457.32124453113835
 30
0.0
 40
2.4999999999999996
 50
89.999999999965937
 51
269.99999999989518
  0
LINE
  8
0
  6
CONTINUOUS
 62
               4
  5
25E
 10
304.0777330960496
 20
459.82124453113835
 30
0.0
 11
261.57773309604914
 21
459.82124453113835
 31
0.0
  0
ARC
  8
0
  6
CONTINUOUS
 62
               4
  5
25F
 10
304.0777330960496
 20
457.32124453113835
 30
0.0
 40
2.4999999999999996
 50
269.99999999989518
 51
449.99999999982703
  0
ARC
  8
0
  6
CONTINUOUS
 62
               4
  5
260
 10
313.36073309604967
 20
443.80390569501941
 30
0.0
 40
5.0
 50
0.0
 51
89.999999999965937
  0
ARC
  8
0
  6
CONTINUOUS
 62
               4
  5
261
 10
339.79473309604964
 20
443.80390569501941
 30
0.0
 40
5.0
 50
89.999999999965937
 51
179.99999999993085
  0
CIRCLE
  8
0
  6
CONTINUOUS
 62
               4
  5
262
 10
326.57773309604943
 20
511.3212445311384
 30
0.0
 40
50.75
  0
LINE
  8
0
  6
CONTINUOUS
 62
               4
  5
263
 10
-108.42226690395123
 20
573.50086216272462
 30
0.0
 11
-108.42226690395123
 21
569.39321998769788
 31
0.0
  0
ARC
  8
0
  6
CONTINUOUS
 62
               4
  5
264
 10
-109.4222669039514
 20
587.99223890891426
 30
0.0
 40
5.0
 50
179.99999999993088
 51
224.98295782772558
  0
ARC
  8
0
  6
CONTINUOUS
 62
               4
  5
265
 10
-123.92226690395134
 20
573.50086216272462
 30
0.0
 40
15.5
 50
0.0000000000000525
 51
44.982957827795971
  0
LINE
  8
0
  6
CONTINUOUS
 62
               4
  5
266
 10
-43.422266903951197
 20
560.0712445311384
 30
0.0
 11
-44.093823029915427
 21
560.0712445311384
 31
0.0
  0
LINE
  8
0
  6
CONTINUOUS
 62
               4
  5
267
 10
-46.422266903951339
 20
562.39968840517429
 30
0.0
 11
-44.093823029915427
 21
560.0712445311384
 31
0.0
  0
LINE
  8
0
  6
CONTINUOUS
 62
               4
  5
268
 10
-46.422266903951339
 20
562.39968840517429
 30
0.0
 11
-103.59676438746349
 21
564.39626585260237
 31
0.0
  0
ARC
  8
0
  6
CONTINUOUS
 62
               4
  5
269
 10
-103.42226690395067
 20
569.39321998769788
 30
0.0
 40
5.0
 50
179.99999999993088
 51
267.99999999989859
  0
LINE
  8
0
  6
CONTINUOUS
 62
               4
  5
26A
 10
-43.422266903951197
 20
562.39968840517429
 30
0.0
 11
-40.922266903951197
 21
562.39968840517429
 31
0.0
  0
ARC
  8
0
  6
CONTINUOUS
 62
               4
  5
26B
 10
-40.922266903951197
 20
559.89968840517429
 30
0.0
 40
2.5
 50
0.0
 51
89.999999999965937
  0
LINE
  8
0
  6
CONTINUOUS
 62
               4
  5
26C
 10
-46.422266903951311
 20
460.7428006571032
 30
0.0
 11
-46.422266903951339
 21
546.89968840517406
 31
0.0
  0
LINE
  8
0
  6
CONTINUOUS
 62
               4
  5
26D
 10
-44.093823029915711
 20
544.57124453113886
 30
0.0
 11
-44.093823029915711
 21
463.07124453113875
 31
0.0
  0
LINE
  8
0
  6
CONTINUOUS
 62
               4
  5
26E
 10
-38.422266903951197
 20
544.39968840517417
 30
0.0
 11
-38.422266903951197
 21
463.2428006571032
 31
0.0
  0
LINE
  8
0
  6
CONTINUOUS
 62
               4
  5
26F
 10
-43.422266903951197
 20
460.7428006571032
 30
0.0
 11
-43.422266903951197
 21
546.89968840517417
 31
0.0
  0
LINE
  8
0
  6
CONTINUOUS
 62
               4
  5
270
 10
-46.422266903951311
 20
460.7428006571032
 30
0.0
 11
-46.422266903951339
 21
562.39968840517429
 31
0.0
  0
LINE
  8
0
  6
CONTINUOUS
 62
               4
  5
271
 10
-43.422266903951197
 20
463.07124453113875
 30
0.0
 11
-44.093823029915711
 21
463.07124453113875
 31
0.0
  0
LINE
  8
0
  6
CONTINUOUS
 62
               4
  5
272
 10
-46.422266903951311
 20
460.7428006571032
 30
0.0
 11
-44.093823029915711
 21
463.07124453113875
 31
0.0
  0
LINE
  8
0
  6
CONTINUOUS
 62
               4
  5
273
 10
-44.093823029915427
 20
560.0712445311384
 30
0.0
 11
-44.093823029915711
 21
463.07124453113875
 31
0.0
  0
LINE
  8
0
  6
CONTINUOUS
 62
               4
  5
274
 10
-38.422266903951197
 20
559.89968840517429
 30
0.0
 11
-38.422266903951197
 21
463.2428006571032
 31
0.0
  0
LINE
  8
0
  6
CONTINUOUS
 62
               4
  5
275
 10
-43.422266903951197
 20
460.7428006571032
 30
0.0
 11
-43.422266903951197
 21
562.39968840517429
 31
0.0
  0
LINE
  8
0
  6
CONTINUOUS
 62
               4
  5
276
 10
-43.422266903951197
 20
460.7428006571032
 30
0.0
 11
-40.922266903951197
 21
460.7428006571032
 31
0.0
  0
ARC
  8
0
  6
CONTINUOUS
 62
               4
  5
277
 10
-40.922266903951197
 20
463.2428006571032
 30
0.0
 40
2.5
 50
269.99999999989649
 51
359.9999999998617
  0
LINE
  8
0
  6
CONTINUOUS
 62
               4
  5
278
 10
-46.422266903951311
 20
460.74280065710309
 30
0.0
 11
-92.732114580278164
 21
459.12562514120003
 31
0.0
  0
ARC
  8
0
  6
CONTINUOUS
 62
               4
  5
279
 10
-92.557617096765114
 20
454.12867100610487
 30
0.0
 40
4.9999999999999991
 50
91.999999999965652
 51
134.99999999994907
  0
LINE
  8
0
  6
CONTINUOUS
 62
               4
  5
27A
 10
-96.093151002698448
 20
457.66420491203718
 30
0.0
 11
-98.936111383597051
 21
454.82124453113857
 31
0.0
  0
ARC
  8
0
  6
CONTINUOUS
 62
               4
  5
27B
 10
-103.92226690395125
 20
442.76402119891918
 30
0.0
 40
5.0
 50
134.99999999989564
 51
179.99999999986213
  0
LINE
  8
0
  6
CONTINUOUS
 62
               4
  5
27C
 10
-107.45780080988075
 20
446.29955510485513
 30
0.0
 11
-98.936111383597051
 21
454.82124453113857
 31
0.0
  0
ARC
  8
0
  6
CONTINUOUS
 62
               4
  5
27D
 10
300.79376728408272
 20
575.21265712378818
 30
0.0
 40
17.566965811965957
 50
0.0
 51
36.851448659216778
  0
LINE
  8
0
  6
CONTINUOUS
 62
               4
  5
27E
 10
338.30473309604906
 20
590.74831087664097
 30
0.0
 11
314.85073309604866
 21
590.74831087664097
 31
0.0
  0
ARC
  8
0
  6
CONTINUOUS
 62
               4
  5
27F
 10
352.36169890801443
 20
575.21265712378818
 30
0.0
 40
17.566965811965957
 50
143.14855134071414
 51
179.99999999993082
  0
LINE
  8
0
  6
CONTINUOUS
 62
               4
  5
280
 10
314.85073309604866
 20
585.74831087664097
 30
0.0
 11
314.85073309604866
 21
590.74831087664097
 31
0.0
  0
LINE
  8
0
  6
CONTINUOUS
 62
               4
  5
281
 10
338.30473309604906
 20
585.74831087664097
 30
0.0
 11
338.30473309604906
 21
590.74831087664097
 31
0.0
  0
LINE
  8
0
  6
CONTINUOUS
 62
               4
  5
282
 10
314.85073309604866
 20
590.74831087664097
 30
0.0
 11
320.57773309604863
 21
585.74831087664097
 31
0.0
  0
LINE
  8
0
  6
CONTINUOUS
 62
               4
  5
283
 10
332.57773309604852
 20
585.74831087664097
 30
0.0
 11
338.30473309604906
 21
590.74831087664097
 31
0.0
  0
LINE
  8
0
  6
CONTINUOUS
 62
               4
  5
284
 10
320.57773309604852
 20
585.74831087664097
 30
0.0
 11
332.57773309604841
 21
585.74831087664097
 31
0.0
  0
LINE
  8
0
  6
CONTINUOUS
 62
               4
  5
285
 10
272.57773309604897
 20
585.74831087664097
 30
0.0
 11
314.85073309604866
 21
585.74831087664097
 31
0.0
  0
LINE
  8
0
  6
CONTINUOUS
 62
               4
  5
286
 10
320.57773309604886
 20
585.74831087664097
 30
0.0
 11
320.57773309604886
 21
563.72471163515115
 31
0.0
  0
LINE
  8
0
  6
CONTINUOUS
 62
               4
  5
287
 10
332.57773309604886
 20
563.72471163515115
 30
0.0
 11
332.57773309604886
 21
585.74831087664097
 31
0.0
  0
LINE
  8
0
  6
CONTINUOUS
 62
               4
  5
288
 10
334.7947330960485
 20
575.21265712378818
 30
0.0
 11
334.7947330960485
 21
563.72471163515115
 31
0.0
  0
LINE
  8
0
  6
CONTINUOUS
 62
               4
  5
289
 10
318.36073309604865
 20
575.21265712378818
 30
0.0
 11
318.36073309604865
 21
563.72471163515115
 31
0.0
  0
LINE
  8
0
  6
CONTINUOUS
 62
               4
  5
28A
 10
-692.50268880704289
 20
538.85572666435519
 30
0.0
 11
-654.34184500085837
 21
538.85572666435519
 31
0.0
  0
CIRCLE
  8
0
  6
CONTINUOUS
 62
               4
  5
28B
 10
-673.42226690395114
 20
512.85572666435519
 30
0.0
 40
41.849999999999994
  0
CIRCLE
  8
0
  6
CONTINUOUS
 62
               4
  5
28C
 10
-673.42226690395114
 20
512.85572666435519
 30
0.0
 40
40.75
  0
CIRCLE
  8
0
  6
CONTINUOUS
 62
               4
  5
28D
 10
-673.42226690395057
 20
512.85572666435519
 30
0.0
 40
36.399999999999999
  0
CIRCLE
  8
0
  6
CONTINUOUS
 62
               4
  5
28E
 10
-673.42226690395057
 20
512.85572666435519
 30
0.0
 40
32.25
  0
LINE
  8
0
  6
CONTINUOUS
 62
               4
  5
28F
 10
-700.46910128433615
 20
485.80889228396978
 30
0.0
 11
-702.23686823730293
 21
484.04112533100334
 31
0.0
  0
LINE
  8
0
  6
CONTINUOUS
 62
               4
  5
290
 10
-646.37543252357204
 20
485.80889228396296
 30
0.0
 11
-644.60766557059981
 21
484.04112533100277
 31
0.0
  0
ARC
  8
0
  6
CONTINUOUS
 62
               4
  5
291
 10
-673.42226690395057
 20
512.85572666435519
 30
0.0
 40
38.25
 50
224.9999999999045
 51
314.99999999986443
  0
LINE
  8
0
  6
CONTINUOUS
 62
               4
  5
292
 10
380.57773309604875
 20
585.74831087664097
 30
0.0
 11
338.30473309604906
 21
585.74831087664097
 31
0.0
  0
LINE
  8
0
  6
CONTINUOUS
 62
               4
  5
293
 10
307.49731119295711
 20
537.32124453113829
 30
0.0
 11
345.65815499914163
 21
537.32124453113829
 31
0.0
  0
CIRCLE
  8
0
  6
CONTINUOUS
 62
               4
  5
294
 10
326.57773309604886
 20
511.3212445311384
 30
0.0
 40
41.849999999999994
  0
CIRCLE
  8
0
  6
CONTINUOUS
 62
               4
  5
295
 10
326.57773309604886
 20
511.3212445311384
 30
0.0
 40
40.75
  0
CIRCLE
  8
0
  6
CONTINUOUS
 62
               4
  5
296
 10
326.57773309604943
 20
511.3212445311384
 30
0.0
 40
36.399999999999999
  0
CIRCLE
  8
0
  6
CONTINUOUS
 62
               4
  5
297
 10
326.57773309604943
 20
511.3212445311384
 30
0.0
 40
32.25
  0
LINE
  8
0
  6
CONTINUOUS
 62
               4
  5
298
 10
299.53089871566385
 20
484.27441015075294
 30
0.0
 11
297.76313176269707
 21
482.5066431977865
 31
0.0
  0
LINE
  8
0
  6
CONTINUOUS
 62
               4
  5
299
 10
353.62456747642796
 20
484.27441015074612
 30
0.0
 11
355.39233442940019
 21
482.50664319778593
 31
0.0
  0
ARC
  8
0
  6
CONTINUOUS
 62
               4
  5
29A
 10
326.57773309604943
 20
511.3212445311384
 30
0.0
 40
38.25
 50
224.99999999990445
 51
314.99999999986443
  0
ARC
  8
0
  6
CONTINUOUS
 62
               4
  5
29B
 10
-118.42226690395108
 20
457.32124453113846
 30
0.0
 40
2.4999999999999996
 50
269.99999999989615
 51
449.99999999982703
  0
POINT
  8
0
  6
CONTINUOUS
 62
               4
  5
29C
 10
-417.92226690395086
 20
-566.05082754093348
 30
0.0
  0
POINT
  8
0
  6
CONTINUOUS
 62
               4
  5
29D
 10
-128.92226690395103
 20
-566.05082754093371
 30
0.0
  0
POINT
  8
0
  6
CONTINUOUS
 62
               4
  5
29E
 10
-222.42226690395086
 20
-472.55082754093394
 30
0.0
  0
POINT
  8
0
  6
CONTINUOUS
 62
               4
  5
29F
 10
380.36425631235682
 20
-722.91458745033344
 30
0.0
  0
POINT
  8
0
  6
CONTINUOUS
 62
               4
  5
2A0
 10
191.46425631235695
 20
-623.01458745033312
 30
0.0
  0
LINE
  8
0
  6
CONTINUOUS
 62
               4
  5
2A1
 10
412.8642563123567
 20
-983.47836744606491
 30
0.0
 11
407.8642563123567
 21
-978.47836744606491
 31
0.0
  0
ARC
  8
0
  6
CONTINUOUS
 62
               4
  5
2A2
 10
390.3642563123567
 20
-994.0140211989177
 30
0.0
 40
19.999999999999996
 50
0.0
 51
31.788330617021131
  0
LINE
  8
0
  6
CONTINUOUS
 62
               4
  5
2A3
 10
407.36425631235716
 20
-983.47836744606491
 30
0.0
 11
407.36425631235716
 21
-978.47836744606445
 31
0.0
  0
LINE
  8
0
  6
CONTINUOUS
 62
               4
  5
2A4
 10
407.8642563123567
 20
-978.47836744606491
 30
0.0
 11
407.36425631235716
 21
-978.47836744606491
 31
0.0
  0
LINE
  8
0
  6
CONTINUOUS
 62
               4
  5
2A5
 10
412.61425631235693
 20
-983.72836744606491
 30
0.0
 11
407.36425631235716
 21
-978.47836744606491
 31
0.0
  0
LINE
  8
0
  6
CONTINUOUS
 62
               4
  5
2A6
 10
412.61425631235693
 20
-983.72836744606491
 30
0.0
 11
412.8642563123567
 21
-983.47836744606491
 31
0.0
  0
LINE
  8
0
  6
CONTINUOUS
 62
               4
  5
2A7
 10
412.8642563123567
 20
-983.47836744606491
 30
0.0
 11
412.8642563123567
 21
-1114.1670447960346
 31
0.0
  0
LINE
  8
0
  6
CONTINUOUS
 62
               4
  5
2A8
 10
412.61425631235693
 20
-983.72836744606491
 30
0.0
 11
412.61425631235693
 21
-1113.8816876888991
 31
0.0
  0
LINE
  8
0
  6
CONTINUOUS
 62
               4
  5
2A9
 10
410.3642563123567
 20
-993.86099760180048
 30
0.0
 11
410.3642563123567
 21
-1113.0140211989178
 31
0.0
  0
POINT
  8
0
  6
CONTINUOUS
 62
               4
  5
2AA
 10
191.46425631235684
 20
-1008.5140211989177
 30
0.0
  0
LINE
  8
0
  6
DASHED2
 62
               4
  5
2AB
 10
-217.92226690395114
 20
604.82124453113852
 30
0.0
 11
-128.92226690395114
 21
604.82124453113852
 31
0.0
  0
LINE
  8
0
  6
DASHED2
 62
               4
  5
2AC
 10
-717.92226690395114
 20
604.8212445311384
 30
0.0
 11
-628.92226690395114
 21
604.8212445311384
 31
0.0
  0
LINE
  8
0
  6
DASHED2
 62
               4
  5
2AD
 10
282.14415587311441
 20
604.82124453113852
 30
0.0
 11
371.14415587311441
 21
604.82124453113852
 31
0.0
  0
LINE
  8
0
  6
DASHED2
 62
               4
  5
2AE
 10
-717.92226690395114
 20
54.821244531138404
 30
0.0
 11
-628.92226690395114
 21
54.821244531138404
 31
0.0
  0
LINE
  8
0
  6
DASHED2
 62
               4
  5
2AF
 10
-628.92226690395114
 20
119.8212445311384
 30
0.0
 11
-628.92226690395114
 21
54.821244531138404
 31
0.0
  0
LINE
  8
0
  6
DASHED2
 62
               4
  5
2B0
 10
-717.92226690395114
 20
119.72281678568731
 30
0.0
 11
-717.92226690395114
 21
54.821244531138404
 31
0.0
  0
LINE
  8
0
  6
DASHED2
 62
               4
  5
2B1
 10
-217.92226690395114
 20
54.821244531138461
 30
0.0
 11
-128.92226690395114
 21
54.821244531138461
 31
0.0
  0
LINE
  8
0
  6
DASHED2
 62
               4
  5
2B2
 10
-128.92226690395114
 20
119.82124453113846
 30
0.0
 11
-128.92226690395114
 21
54.821244531138461
 31
0.0
  0
LINE
  8
0
  6
DASHED2
 62
               4
  5
2B3
 10
-217.92226690395114
 20
119.72281678568737
 30
0.0
 11
-217.92226690395114
 21
54.821244531138461
 31
0.0
  0
LINE
  8
0
  6
DASHED2
 62
               4
  5
2B4
 10
-300.1822669039517
 20
65.27124453113737
 30
0.0
 11
-300.1822669039517
 21
73.797373030444476
 31
0.0
  0
LINE
  8
0
  6
DASHED2
 62
               4
  5
2B5
 10
-294.29329415821729
 20
73.797373030444476
 30
0.0
 11
-294.29329415821729
 21
65.27124453113737
 31
0.0
  0
LINE
  8
0
  6
DASHED2
 62
               4
  5
2B6
 10
-297.23778053108435
 20
74.871244531137506
 30
0.0
 11
-279.60675327681844
 21
74.871244531137506
 31
0.0
  0
LINE
  8
0
  6
DASHED2
 62
               4
  5
2B7
 10
-276.66226690395138
 20
65.27124453113737
 30
0.0
 11
-276.66226690395138
 21
73.797373030444476
 31
0.0
  0
LINE
  8
0
  6
DASHED2
 62
               4
  5
2B8
 10
-282.55123964968607
 20
65.27124453113737
 30
0.0
 11
-282.55123964968607
 21
73.797373030444476
 31
0.0
  0
ARC
  8
0
  6
DASHED2
 62
               4
  5
2B9
 10
-297.23778053108435
 20
70.297512947021517
 30
0.0
 40
4.5737315841157447
 50
49.925579661593176
 51
130.07442033830344
  0
ARC
  8
0
  6
DASHED2
 62
               4
  5
2BA
 10
-279.60675327681844
 20
70.297512947021517
 30
0.0
 40
4.5737315841157686
 50
49.925579661593304
 51
130.07442033830372
  0
ARC
  8
0
  6
DASHED2
 62
               4
  5
2BB
 10
-288.42226690395154
 20
58.28538626161702
 30
0.0
 40
16.58585826952007
 50
69.269184858521172
 51
110.73081514137587
  0
LINE
  8
0
  6
DASHED2
 62
               4
  5
2BC
 10
-300.18226690395312
 20
62.071244531137097
 30
0.0
 11
-300.18226690395312
 21
53.545116031829878
 31
0.0
  0
LINE
  8
0
  6
DASHED2
 62
               4
  5
2BD
 10
-294.29329415821871
 20
53.545116031829878
 30
0.0
 11
-294.29329415821871
 21
62.071244531137097
 31
0.0
  0
LINE
  8
0
  6
DASHED2
 62
               4
  5
2BE
 10
-297.23778053108578
 20
52.471244531137302
 30
0.0
 11
-279.60675327682014
 21
52.471244531137302
 31
0.0
  0
LINE
  8
0
  6
DASHED2
 62
               4
  5
2BF
 10
-276.6622669039528
 20
62.071244531137097
 30
0.0
 11
-276.6622669039528
 21
53.545116031829878
 31
0.0
  0
LINE
  8
0
  6
DASHED2
 62
               4
  5
2C0
 10
-282.5512396496872
 20
62.071244531137097
 30
0.0
 11
-282.5512396496872
 21
53.545116031829878
 31
0.0
  0
ARC
  8
0
  6
DASHED2
 62
               4
  5
2C1
 10
-297.23778053108578
 20
57.044976115252723
 30
0.0
 40
4.5737315841157447
 50
229.92557966149033
 51
310.07442033820121
  0
ARC
  8
0
  6
DASHED2
 62
               4
  5
2C2
 10
-279.60675327682014
 20
57.044976115252723
 30
0.0
 40
4.5737315841157686
 50
229.92557966149064
 51
310.07442033820121
  0
ARC
  8
0
  6
DASHED2
 62
               4
  5
2C3
 10
-288.42226690395296
 20
69.057102800657219
 30
0.0
 40
16.58585826952007
 50
249.26918485841776
 51
290.73081514127233
  0
LINE
  8
0
  6
DASHED2
 62
               4
  5
2C4
 10
-294.42226690395148
 20
52.471244531137302
 30
0.0
 11
-294.42226690395148
 21
41.951878288812566
 31
0.0
  0
LINE
  8
0
  6
DASHED2
 62
               4
  5
2C5
 10
-282.42226690395159
 20
52.471244531137302
 30
0.0
 11
-282.42226690395159
 21
41.951878288812566
 31
0.0
  0
LINE
  8
0
  6
DASHED2
 62
               4
  5
2C6
 10
-293.22226690395172
 20
40.751878288812293
 30
0.0
 11
-283.62226690395164
 21
40.751878288812293
 31
0.0
  0
LINE
  8
0
  6
DASHED2
 62
               4
  5
2C7
 10
-294.42226690395148
 20
41.951878288812566
 30
0.0
 11
-293.22226690395172
 21
40.751878288812293
 31
0.0
  0
LINE
  8
0
  6
DASHED2
 62
               4
  5
2C8
 10
-282.42226690395159
 20
41.951878288812566
 30
0.0
 11
-283.62226690395164
 21
40.751878288812293
 31
0.0
  0
LINE
  8
0
  6
DASHED2
 62
               4
  5
2C9
 10
-294.42226690395148
 20
169.88482400706715
 30
0.0
 11
-294.42226690395148
 21
74.271244531137484
 31
0.0
  0
LINE
  8
0
  6
DASHED2
 62
               4
  5
2CA
 10
-282.42226690395159
 20
169.88482400706715
 30
0.0
 11
-282.42226690395159
 21
74.271244531137484
 31
0.0
  0
LINE
  8
0
  6
DASHED2
 62
               4
  5
2CB
 10
-282.42226690395159
 20
169.88482400706715
 30
0.0
 11
-294.42226690395148
 21
169.88482400706715
 31
0.0
  0
LINE
  8
0
  6
DASHED2
 62
               4
  5
2CC
 10
-218.42226690395313
 20
44.821244531136756
 30
0.0
 11
-218.42226690395256
 21
-10.178755468862107
 31
0.0
  0
LINE
  8
0
  6
DASHED2
 62
               4
  5
2CD
 10
-218.42226690395313
 20
44.821244531136756
 30
0.0
 11
-173.42226690395086
 21
44.821244531138234
 31
0.0
  0
LINE
  8
0
  6
DASHED2
 62
               4
  5
2CE
 10
-128.42226690394773
 20
44.821244531137779
 30
0.0
 11
-173.42226690394972
 21
44.821244531138234
 31
0.0
  0
LINE
  8
0
  6
DASHED2
 62
               4
  5
2CF
 10
-128.42226690394773
 20
44.821244531137779
 30
0.0
 11
-128.42226690394716
 21
-10.178755468861084
 31
0.0
  0
LINE
  8
0
  6
DASHED2
 62
               4
  5
2D0
 10
-46.662266903950808
 20
65.271244531137597
 30
0.0
 11
-46.662266903950808
 21
73.797373030444817
 31
0.0
  0
LINE
  8
0
  6
DASHED2
 62
               4
  5
2D1
 10
-52.551239649685215
 20
73.797373030444817
 30
0.0
 11
-52.551239649685215
 21
65.271244531137597
 31
0.0
  0
LINE
  8
0
  6
DASHED2
 62
               4
  5
2D2
 10
-49.606753276818154
 20
74.871244531137734
 30
0.0
 11
-67.23778053108407
 21
74.871244531137734
 31
0.0
  0
LINE
  8
0
  6
DASHED2
 62
               4
  5
2D3
 10
-70.182266903951131
 20
65.271244531137597
 30
0.0
 11
-70.182266903951131
 21
73.797373030444817
 31
0.0
  0
LINE
  8
0
  6
DASHED2
 62
               4
  5
2D4
 10
-64.29329415821644
 20
65.271244531137597
 30
0.0
 11
-64.29329415821644
 21
73.797373030444817
 31
0.0
  0
ARC
  8
0
  6
DASHED2
 62
               4
  5
2D5
 10
-49.606753276818154
 20
70.29751294702163
 30
0.0
 40
4.5737315841157447
 50
49.925579661626813
 51
130.07442033833783
  0
ARC
  8
0
  6
DASHED2
 62
               4
  5
2D6
 10
-67.23778053108407
 20
70.29751294702163
 30
0.0
 40
4.5737315841157686
 50
49.925579661627133
 51
130.07442033833769
  0
ARC
  8
0
  6
DASHED2
 62
               4
  5
2D7
 10
-58.42226690395097
 20
58.285386261617248
 30
0.0
 40
16.58585826952007
 50
69.269184858555064
 51
110.73081514140972
  0
LINE
  8
0
  6
DASHED2
 62
               4
  5
2D8
 10
-46.662266903949387
 20
62.071244531137211
 30
0.0
 11
-46.662266903949387
 21
53.545116031829991
 31
0.0
  0
LINE
  8
0
  6
DASHED2
 62
               4
  5
2D9
 10
-52.551239649683794
 20
53.545116031829991
 30
0.0
 11
-52.551239649683794
 21
62.071244531137211
 31
0.0
  0
LINE
  8
0
  6
DASHED2
 62
               4
  5
2DA
 10
-49.606753276816733
 20
52.471244531137415
 30
0.0
 11
-67.237780531082365
 21
52.471244531137415
 31
0.0
  0
LINE
  8
0
  6
DASHED2
 62
               4
  5
2DB
 10
-70.18226690394971
 20
62.071244531137211
 30
0.0
 11
-70.18226690394971
 21
53.545116031829991
 31
0.0
  0
LINE
  8
0
  6
DASHED2
 62
               4
  5
2DC
 10
-64.293294158215303
 20
62.071244531137211
 30
0.0
 11
-64.293294158215303
 21
53.545116031829991
 31
0.0
  0
ARC
  8
0
  6
DASHED2
 62
               4
  5
2DD
 10
-49.606753276816733
 20
57.044976115252837
 30
0.0
 40
4.5737315841157447
 50
229.92557966159103
 51
310.07442033830262
  0
ARC
  8
0
  6
DASHED2
 62
               4
  5
2DE
 10
-67.237780531082365
 20
57.044976115252837
 30
0.0
 40
4.5737315841157686
 50
229.92557966159166
 51
310.07442033830188
  0
ARC
  8
0
  6
DASHED2
 62
               4
  5
2DF
 10
-58.422266903949549
 20
69.057102800657333
 30
0.0
 40
16.58585826952007
 50
249.26918485852016
 51
290.73081514137476
  0
LINE
  8
0
  6
DASHED2
 62
               4
  5
2E0
 10
-52.422266903951027
 20
52.471244531137415
 30
0.0
 11
-52.422266903950742
 21
41.951878288812907
 31
0.0
  0
LINE
  8
0
  6
DASHED2
 62
               4
  5
2E1
 10
-64.422266903950913
 20
52.471244531137415
 30
0.0
 11
-64.422266903950913
 21
41.951878288812793
 31
0.0
  0
LINE
  8
0
  6
DASHED2
 62
               4
  5
2E2
 10
-53.622266903950788
 20
40.751878288812406
 30
0.0
 11
-63.222266903950867
 21
40.751878288812406
 31
0.0
  0
LINE
  8
0
  6
DASHED2
 62
               4
  5
2E3
 10
-52.422266903950742
 20
41.951878288812907
 30
0.0
 11
-53.622266903950788
 21
40.751878288812406
 31
0.0
  0
LINE
  8
0
  6
DASHED2
 62
               4
  5
2E4
 10
-64.422266903950913
 20
41.951878288812793
 30
0.0
 11
-63.222266903950867
 21
40.751878288812406
 31
0.0
  0
LINE
  8
0
  6
DASHED2
 62
               4
  5
2E5
 10
-52.422266903951311
 20
169.88482400706738
 30
0.0
 11
-52.422266903951027
 21
74.271244531137825
 31
0.0
  0
LINE
  8
0
  6
DASHED2
 62
               4
  5
2E6
 10
-64.422266903951197
 20
169.88482400706738
 30
0.0
 11
-64.422266903950913
 21
74.271244531137597
 31
0.0
  0
LINE
  8
0
  6
DASHED2
 62
               4
  5
2E7
 10
-64.422266903951197
 20
169.88482400706738
 30
0.0
 11
-52.422266903951311
 21
169.88482400706738
 31
0.0
  0
LINE
  8
0
  6
DASHED2
 62
               4
  5
2E8
 10
-718.42226690395319
 20
44.821244531137324
 30
0.0
 11
-718.42226690395262
 21
-10.178755468861539
 31
0.0
  0
LINE
  8
0
  6
DASHED2
 62
               4
  5
2E9
 10
-718.42226690395319
 20
44.821244531137324
 30
0.0
 11
-673.42226690395091
 21
44.821244531138802
 31
0.0
  0
LINE
  8
0
  6
DASHED2
 62
               4
  5
2EA
 10
-628.42226690394773
 20
44.821244531138348
 30
0.0
 11
-673.42226690394978
 21
44.821244531138802
 31
0.0
  0
LINE
  8
0
  6
DASHED2
 62
               4
  5
2EB
 10
-628.42226690394773
 20
44.821244531138348
 30
0.0
 11
-628.42226690394727
 21
-10.178755468860516
 31
0.0
  0
LINE
  8
0
  6
DASHED2
 62
               4
  5
2EC
 10
-685.18226690395147
 20
65.271244531137256
 30
0.0
 11
-685.18226690395147
 21
73.797373030444476
 31
0.0
  0
LINE
  8
0
  6
DASHED2
 62
               4
  5
2ED
 10
-679.29329415821701
 20
73.797373030444476
 30
0.0
 11
-679.29329415821701
 21
65.271244531137256
 31
0.0
  0
LINE
  8
0
  6
DASHED2
 62
               4
  5
2EE
 10
-682.23778053108401
 20
74.871244531137393
 30
0.0
 11
-664.60675327681804
 21
74.871244531137393
 31
0.0
  0
LINE
  8
0
  6
DASHED2
 62
               4
  5
2EF
 10
-661.66226690395104
 20
65.271244531137256
 30
0.0
 11
-661.66226690395104
 21
73.797373030444476
 31
0.0
  0
LINE
  8
0
  6
DASHED2
 62
               4
  5
2F0
 10
-667.55123964968573
 20
65.271244531137256
 30
0.0
 11
-667.55123964968573
 21
73.797373030444476
 31
0.0
  0
ARC
  8
0
  6
DASHED2
 62
               4
  5
2F1
 10
-682.23778053108401
 20
70.297512947021403
 30
0.0
 40
4.5737315841157447
 50
49.925579661593176
 51
130.07442033830333
  0
ARC
  8
0
  6
DASHED2
 62
               4
  5
2F2
 10
-664.60675327681804
 20
70.297512947021403
 30
0.0
 40
4.5737315841157686
 50
49.925579661593176
 51
130.07442033830387
  0
ARC
  8
0
  6
DASHED2
 62
               4
  5
2F3
 10
-673.42226690395125
 20
58.285386261616907
 30
0.0
 40
16.58585826952007
 50
69.269184858521257
 51
110.73081514137587
  0
LINE
  8
0
  6
DASHED2
 62
               4
  5
2F4
 10
-685.18226690395284
 20
62.07124453113687
 30
0.0
 11
-685.18226690395284
 21
53.54511603182965
 31
0.0
  0
LINE
  8
0
  6
DASHED2
 62
               4
  5
2F5
 10
-679.29329415821837
 20
53.54511603182965
 30
0.0
 11
-679.29329415821837
 21
62.07124453113687
 31
0.0
  0
LINE
  8
0
  6
DASHED2
 62
               4
  5
2F6
 10
-682.23778053108538
 20
52.471244531137074
 30
0.0
 11
-664.60675327681986
 21
52.471244531137074
 31
0.0
  0
LINE
  8
0
  6
DASHED2
 62
               4
  5
2F7
 10
-661.6622669039524
 20
62.07124453113687
 30
0.0
 11
-661.6622669039524
 21
53.54511603182965
 31
0.0
  0
LINE
  8
0
  6
DASHED2
 62
               4
  5
2F8
 10
-667.55123964968686
 20
62.07124453113687
 30
0.0
 11
-667.55123964968686
 21
53.54511603182965
 31
0.0
  0
ARC
  8
0
  6
DASHED2
 62
               4
  5
2F9
 10
-682.23778053108538
 20
57.044976115252496
 30
0.0
 40
4.5737315841157447
 50
229.92557966149019
 51
310.07442033820132
  0
ARC
  8
0
  6
DASHED2
 62
               4
  5
2FA
 10
-664.60675327681986
 20
57.044976115252496
 30
0.0
 40
4.5737315841157686
 50
229.92557966149019
 51
310.07442033820035
  0
ARC
  8
0
  6
DASHED2
 62
               4
  5
2FB
 10
-673.42226690395262
 20
69.057102800656992
 30
0.0
 40
16.58585826952007
 50
249.26918485841776
 51
290.73081514127233
  0
LINE
  8
0
  6
DASHED2
 62
               4
  5
2FC
 10
-679.42226690395125
 20
52.471244531137074
 30
0.0
 11
-679.42226690395125
 21
41.951878288813134
 31
0.0
  0
LINE
  8
0
  6
DASHED2
 62
               4
  5
2FD
 10
-667.42226690395125
 20
52.471244531137074
 30
0.0
 11
-667.42226690395125
 21
41.951878288813134
 31
0.0
  0
LINE
  8
0
  6
DASHED2
 62
               4
  5
2FE
 10
-678.22226690395144
 20
40.751878288812748
 30
0.0
 11
-668.6222669039513
 21
40.751878288812748
 31
0.0
  0
LINE
  8
0
  6
DASHED2
 62
               4
  5
2FF
 10
-679.42226690395125
 20
41.951878288813134
 30
0.0
 11
-678.22226690395144
 21
40.751878288812748
 31
0.0
  0
LINE
  8
0
  6
DASHED2
 62
               4
  5
300
 10
-667.42226690395125
 20
41.951878288813134
 30
0.0
 11
-668.6222669039513
 21
40.751878288812748
 31
0.0
  0
LINE
  8
0
  6
DASHED2
 62
               4
  5
301
 10
-685.18226690395147
 20
65.271244531137256
 30
0.0
 11
-661.66226690395104
 21
65.271244531137256
 31
0.0
  0
LINE
  8
0
  6
DASHED2
 62
               4
  5
302
 10
-661.6622669039524
 20
62.07124453113687
 30
0.0
 11
-685.18226690395284
 21
62.07124453113687
 31
0.0
  0
LINE
  8
0
  6
DASHED2
 62
               4
  5
303
 10
-679.42226690395125
 20
169.88482400706778
 30
0.0
 11
-679.42226690395125
 21
74.871244531137393
 31
0.0
  0
LINE
  8
0
  6
DASHED2
 62
               4
  5
304
 10
-667.42226690395125
 20
169.88482400706778
 30
0.0
 11
-667.42226690395125
 21
74.871244531137393
 31
0.0
  0
LINE
  8
0
  6
DASHED2
 62
               4
  5
305
 10
-667.42226690395125
 20
169.88482400706778
 30
0.0
 11
-679.42226690395125
 21
169.88482400706778
 31
0.0
  0
LINE
  8
0
  6
DASHED2
 62
               4
  5
306
 10
282.07773309604886
 20
54.821244531138461
 30
0.0
 11
371.07773309604886
 21
54.821244531138461
 31
0.0
  0
LINE
  8
0
  6
DASHED2
 62
               4
  5
307
 10
371.07773309604886
 20
119.82124453113846
 30
0.0
 11
371.07773309604886
 21
54.821244531138461
 31
0.0
  0
LINE
  8
0
  6
DASHED2
 62
               4
  5
308
 10
282.07773309604886
 20
119.72281678568737
 30
0.0
 11
282.07773309604886
 21
54.821244531138461
 31
0.0
  0
LINE
  8
0
  6
DASHED2
 62
               4
  5
309
 10
281.57773309604681
 20
44.821244531137381
 30
0.0
 11
281.57773309604738
 21
-10.178755468861539
 31
0.0
  0
LINE
  8
0
  6
DASHED2
 62
               4
  5
30A
 10
281.57773309604681
 20
44.821244531137381
 30
0.0
 11
326.57773309604909
 21
44.821244531138859
 31
0.0
  0
LINE
  8
0
  6
DASHED2
 62
               4
  5
30B
 10
371.57773309605227
 20
44.821244531138404
 30
0.0
 11
326.57773309605022
 21
44.821244531138859
 31
0.0
  0
LINE
  8
0
  6
DASHED2
 62
               4
  5
30C
 10
371.57773309605227
 20
44.821244531138404
 30
0.0
 11
371.57773309605273
 21
-10.178755468860402
 31
0.0
  0
LINE
  8
0
  6
DASHED2
 62
               4
  5
30D
 10
314.81773309604853
 20
65.271244531137313
 30
0.0
 11
314.81773309604853
 21
73.797373030444533
 31
0.0
  0
LINE
  8
0
  6
DASHED2
 62
               4
  5
30E
 10
320.70670584178299
 20
73.797373030444533
 30
0.0
 11
320.70670584178299
 21
65.271244531137313
 31
0.0
  0
LINE
  8
0
  6
DASHED2
 62
               4
  5
30F
 10
317.76221946891599
 20
74.871244531137449
 30
0.0
 11
335.39324672318196
 21
74.871244531137449
 31
0.0
  0
LINE
  8
0
  6
DASHED2
 62
               4
  5
310
 10
338.33773309604896
 20
65.271244531137313
 30
0.0
 11
338.33773309604896
 21
73.797373030444533
 31
0.0
  0
LINE
  8
0
  6
DASHED2
 62
               4
  5
311
 10
332.44876035031427
 20
65.271244531137313
 30
0.0
 11
332.44876035031427
 21
73.797373030444533
 31
0.0
  0
ARC
  8
0
  6
DASHED2
 62
               4
  5
312
 10
317.76221946891599
 20
70.29751294702146
 30
0.0
 40
4.5737315841157447
 50
49.925579661593176
 51
130.07442033830333
  0
ARC
  8
0
  6
DASHED2
 62
               4
  5
313
 10
335.39324672318196
 20
70.29751294702146
 30
0.0
 40
4.5737315841157686
 50
49.925579661593176
 51
130.07442033830387
  0
ARC
  8
0
  6
DASHED2
 62
               4
  5
314
 10
326.57773309604875
 20
58.285386261616964
 30
0.0
 40
16.58585826952007
 50
69.269184858521257
 51
110.73081514137587
  0
LINE
  8
0
  6
DASHED2
 62
               4
  5
315
 10
314.81773309604716
 20
62.071244531136927
 30
0.0
 11
314.81773309604716
 21
53.545116031829707
 31
0.0
  0
LINE
  8
0
  6
DASHED2
 62
               4
  5
316
 10
320.70670584178163
 20
53.545116031829707
 30
0.0
 11
320.70670584178163
 21
62.071244531136927
 31
0.0
  0
LINE
  8
0
  6
DASHED2
 62
               4
  5
317
 10
317.76221946891462
 20
52.471244531137131
 30
0.0
 11
335.39324672318014
 21
52.471244531137131
 31
0.0
  0
LINE
  8
0
  6
DASHED2
 62
               4
  5
318
 10
338.3377330960476
 20
62.071244531136927
 30
0.0
 11
338.3377330960476
 21
53.545116031829707
 31
0.0
  0
LINE
  8
0
  6
DASHED2
 62
               4
  5
319
 10
332.44876035031314
 20
62.071244531136927
 30
0.0
 11
332.44876035031314
 21
53.545116031829707
 31
0.0
  0
ARC
  8
0
  6
DASHED2
 62
               4
  5
31A
 10
317.76221946891462
 20
57.044976115252553
 30
0.0
 40
4.5737315841157447
 50
229.92557966149019
 51
310.07442033820132
  0
ARC
  8
0
  6
DASHED2
 62
               4
  5
31B
 10
335.39324672318014
 20
57.044976115252553
 30
0.0
 40
4.5737315841157686
 50
229.92557966149019
 51
310.07442033820087
  0
ARC
  8
0
  6
DASHED2
 62
               4
  5
31C
 10
326.57773309604738
 20
69.057102800657049
 30
0.0
 40
16.58585826952007
 50
249.26918485841776
 51
290.73081514127233
  0
LINE
  8
0
  6
DASHED2
 62
               4
  5
31D
 10
320.57773309604875
 20
52.471244531137131
 30
0.0
 11
320.57773309604875
 21
41.951878288813191
 31
0.0
  0
LINE
  8
0
  6
DASHED2
 62
               4
  5
31E
 10
332.57773309604875
 20
52.471244531137131
 30
0.0
 11
332.57773309604875
 21
41.951878288813191
 31
0.0
  0
LINE
  8
0
  6
DASHED2
 62
               4
  5
31F
 10
321.77773309604856
 20
40.751878288812804
 30
0.0
 11
331.3777330960487
 21
40.751878288812804
 31
0.0
  0
LINE
  8
0
  6
DASHED2
 62
               4
  5
320
 10
320.57773309604875
 20
41.951878288813191
 30
0.0
 11
321.77773309604856
 21
40.751878288812804
 31
0.0
  0
LINE
  8
0
  6
DASHED2
 62
               4
  5
321
 10
332.57773309604875
 20
41.951878288813191
 30
0.0
 11
331.3777330960487
 21
40.751878288812804
 31
0.0
  0
LINE
  8
0
  6
DASHED2
 62
               4
  5
322
 10
314.81773309604853
 20
65.271244531137313
 30
0.0
 11
338.33773309604896
 21
65.271244531137313
 31
0.0
  0
LINE
  8
0
  6
DASHED2
 62
               4
  5
323
 10
338.3377330960476
 20
62.071244531136927
 30
0.0
 11
314.81773309604716
 21
62.071244531136927
 31
0.0
  0
LINE
  8
0
  6
DASHED2
 62
               4
  5
324
 10
320.57773309604875
 20
169.88482400706783
 30
0.0
 11
320.57773309604875
 21
74.871244531137449
 31
0.0
  0
LINE
  8
0
  6
DASHED2
 62
               4
  5
325
 10
332.57773309604875
 20
169.88482400706783
 30
0.0
 11
332.57773309604875
 21
74.871244531137449
 31
0.0
  0
LINE
  8
0
  6
DASHED2
 62
               4
  5
326
 10
332.57773309604875
 20
169.88482400706783
 30
0.0
 11
320.57773309604875
 21
169.88482400706783
 31
0.0
  0
LINE
  8
0
  6
DASHED2
 62
               4
  5
327
 10
278.86425631235693
 20
-952.0140211989177
 30
0.0
 11
392.8642563123567
 21
-952.0140211989177
 31
0.0
  0
LINE
  8
0
  6
DIVIDE
 62
               4
  5
328
 10
-217.92226690395017
 20
-92.368460787141089
 30
0.0
 11
-217.92226690395017
 21
-130.07186007251323
 31
0.0
  0
LINE
  8
0
  6
DIVIDE
 62
               4
  5
329
 10
-128.92226690394926
 20
-100.25774864662355
 30
0.0
 11
-128.92226690394926
 21
-130.0718600725121
 31
0.0
  0
LINE
  8
0
  6
DIVIDE
 62
               4
  5
32A
 10
-120.92226690394943
 20
-10.178755468861084
 30
0.0
 11
-120.92226690394943
 21
-96.282706262320403
 31
0.0
  0
LINE
  8
0
  6
DIVIDE
 62
               4
  5
32B
 10
-225.92226690395029
 20
-10.178755468862107
 30
0.0
 11
-225.92226690395029
 21
-96.282706262321312
 31
0.0
  0
ARC
  8
0
  6
DIVIDE
 62
               4
  5
32C
 10
-199.67226690394972
 20
-139.07458181393201
 30
0.0
 40
50.201664446754734
 50
58.473623406629336
 51
121.52637659330166
  0
ARC
  8
0
  6
DIVIDE
 62
               4
  5
32D
 10
-147.17226690395199
 20
-53.490830710710384
 30
0.0
 40
50.201664446754734
 50
238.47362340656002
 51
301.52637659323238
  0
ARC
  8
0
  6
DIVIDE
 62
               4
  5
32E
 10
-199.67226690394972
 20
-53.490830710710156
 30
0.0
 40
50.201664446754734
 50
238.47362340655994
 51
248.68262418362997
  0
ARC
  8
0
  6
DIVIDE
 62
               4
  5
32F
 10
-195.6722669039508
 20
-163.40232177577366
 30
0.0
 40
40.074707451863929
 50
56.274610560451919
 51
123.72538943947879
  0
ARC
  8
0
  6
DIVIDE
 62
               4
  5
330
 10
-195.6722669039508
 20
-96.741398369253716
 30
0.0
 40
40.074707451863929
 50
236.27461056038285
 51
303.7253894394097
  0
ARC
  8
0
  6
DIVIDE
 62
               4
  5
331
 10
-151.1722669039512
 20
-96.741398369253716
 30
0.0
 40
40.074707451863929
 50
236.27461056038291
 51
303.7253894394097
  0
LINE
  8
0
  6
DIVIDE
 62
               4
  5
332
 10
-717.92226690395023
 20
-92.368460787140407
 30
0.0
 11
-717.92226690395023
 21
-130.07186007251255
 31
0.0
  0
LINE
  8
0
  6
DIVIDE
 62
               4
  5
333
 10
-628.92226690394932
 20
-100.2577486466231
 30
0.0
 11
-628.92226690394932
 21
-130.07186007251164
 31
0.0
  0
LINE
  8
0
  6
DIVIDE
 62
               4
  5
334
 10
-620.92226690394955
 20
-10.178755468860516
 30
0.0
 11
-620.92226690394955
 21
-96.282706262319721
 31
0.0
  0
LINE
  8
0
  6
DIVIDE
 62
               4
  5
335
 10
-725.92226690395034
 20
-10.178755468861539
 30
0.0
 11
-725.92226690395034
 21
-96.28270626232063
 31
0.0
  0
ARC
  8
0
  6
DIVIDE
 62
               4
  5
336
 10
-699.67226690394978
 20
-139.07458181393133
 30
0.0
 40
50.201664446754734
 50
58.473623406629351
 51
121.52637659330169
  0
ARC
  8
0
  6
DIVIDE
 62
               4
  5
337
 10
-647.17226690395205
 20
-53.490830710709702
 30
0.0
 40
50.201664446754734
 50
238.47362340656002
 51
301.52637659323238
  0
ARC
  8
0
  6
DIVIDE
 62
               4
  5
338
 10
-699.67226690394978
 20
-53.490830710709702
 30
0.0
 40
50.201664446754734
 50
238.47362340655997
 51
248.68262418363003
  0
ARC
  8
0
  6
DIVIDE
 62
               4
  5
339
 10
-695.67226690395091
 20
-163.40232177577298
 30
0.0
 40
40.074707451863929
 50
56.274610560451904
 51
123.72538943947882
  0
ARC
  8
0
  6
DIVIDE
 62
               4
  5
33A
 10
-695.67226690395091
 20
-96.741398369253034
 30
0.0
 40
40.074707451863929
 50
236.2746105603828
 51
303.7253894394097
  0
ARC
  8
0
  6
DIVIDE
 62
               4
  5
33B
 10
-651.17226690395125
 20
-96.741398369253034
 30
0.0
 40
40.074707451863929
 50
236.27461056038285
 51
303.72538943940981
  0
LINE
  8
0
  6
DIVIDE
 62
               4
  5
33C
 10
282.07773309604977
 20
-92.368460787140407
 30
0.0
 11
282.07773309604977
 21
-130.07186007251255
 31
0.0
  0
LINE
  8
0
  6
DIVIDE
 62
               4
  5
33D
 10
371.07773309605068
 20
-100.2577486466231
 30
0.0
 11
371.07773309605068
 21
-130.07186007251164
 31
0.0
  0
LINE
  8
0
  6
DIVIDE
 62
               4
  5
33E
 10
379.07773309605045
 20
-10.178755468860402
 30
0.0
 11
379.07773309605045
 21
-96.282706262319721
 31
0.0
  0
LINE
  8
0
  6
DIVIDE
 62
               4
  5
33F
 10
274.07773309604966
 20
-10.178755468861539
 30
0.0
 11
274.07773309604966
 21
-96.28270626232063
 31
0.0
  0
ARC
  8
0
  6
DIVIDE
 62
               4
  5
340
 10
300.32773309605022
 20
-139.07458181393133
 30
0.0
 40
50.201664446754734
 50
58.473623406629351
 51
121.52637659330163
  0
ARC
  8
0
  6
DIVIDE
 62
               4
  5
341
 10
352.82773309604795
 20
-53.490830710709702
 30
0.0
 40
50.201664446754734
 50
238.47362340656002
 51
301.52637659323238
  0
ARC
  8
0
  6
DIVIDE
 62
               4
  5
342
 10
300.32773309605022
 20
-53.490830710709702
 30
0.0
 40
50.201664446754734
 50
238.47362340656002
 51
248.68262418363003
  0
ARC
  8
0
  6
DIVIDE
 62
               4
  5
343
 10
304.32773309604909
 20
-163.40232177577298
 30
0.0
 40
40.074707451863929
 50
56.274610560451904
 51
123.72538943947882
  0
ARC
  8
0
  6
DIVIDE
 62
               4
  5
344
 10
304.32773309604909
 20
-96.741398369253034
 30
0.0
 40
40.074707451863929
 50
236.2746105603828
 51
303.7253894394097
  0
ARC
  8
0
  6
DIVIDE
 62
               4
  5
345
 10
348.82773309604875
 20
-96.741398369253034
 30
0.0
 40
40.074707451863929
 50
236.27461056038285
 51
303.7253894394097
  0
CIRCLE
  8
0
  6
DASHED
 62
               4
  5
346
 10
-273.42226690395103
 20
-617.05082754093371
 30
0.0
 40
33.5
  0
LINE
  8
0
  6
CONTINUOUS
 62
               3
  5
347
 10
-111.27528552709668
 20
678.32124453113829
 30
0.0
 11
-235.5692482808056
 21
678.32124453113829
 31
0.0
  0
LINE
  8
0
  6
CONTINUOUS
 62
               3
  5
348
 10
-254.38154979452133
 20
665.71100268671512
 30
0.0
 11
-238.52853117137602
 21
677.35146099847316
 31
0.0
  0
LINE
  8
0
  6
CONTINUOUS
 62
               3
  5
349
 10
-108.31600263652592
 20
677.35146099847316
 30
0.0
 11
-92.462984013380492
 21
665.71100268671466
 31
0.0
  0
LINE
  8
0
  6
CONTINUOUS
 62
               3
  5
34A
 10
-256.42226690395091
 20
661.68078621938025
 30
0.0
 11
-256.42226690395091
 21
651.5286357430432
 31
0.0
  0
LINE
  8
0
  6
CONTINUOUS
 62
               3
  5
34B
 10
-90.42226690395114
 20
661.68078621938002
 30
0.0
 11
-90.42226690395114
 21
651.5286357430432
 31
0.0
  0
LINE
  8
0
  6
CONTINUOUS
 62
               3
  5
34C
 10
-105.92226690395103
 20
591.16438389537984
 30
0.0
 11
-105.92226690395103
 21
641.33047606785021
 31
0.0
  0
LINE
  8
0
  6
CONTINUOUS
 62
               3
  5
34D
 10
-101.09676438746351
 20
646.32743020294583
 30
0.0
 11
-95.247769420438544
 21
646.53168160794758
 31
0.0
  0
LINE
  8
0
  6
CONTINUOUS
 62
               3
  5
34E
 10
-245.74776942043877
 20
646.32743020294583
 30
0.0
 11
-251.59676438746351
 21
646.53168160794758
 31
0.0
  0
LINE
  8
0
  6
CONTINUOUS
 62
               3
  5
34F
 10
-240.92226690395137
 20
591.16438389537984
 30
0.0
 11
-240.92226690395137
 21
641.33047606785021
 31
0.0
  0
LINE
  8
0
  6
CONTINUOUS
 62
               3
  5
350
 10
-255.6838072152122
 20
450.5758140418742
 30
0.0
 11
-248.38673299801849
 21
443.27873982468026
 31
0.0
  0
LINE
  8
0
  6
CONTINUOUS
 62
               3
  5
351
 10
-223.92226690395137
 20
220.82496466929052
 30
0.0
 11
-246.92226690395114
 21
391.49160314967099
 31
0.0
  0
LINE
  8
0
  6
CONTINUOUS
 62
               3
  5
352
 10
-122.92226690395091
 20
220.82496466929052
 30
0.0
 11
-99.92226690395114
 21
391.49160314967099
 31
0.0
  0
ARC
  8
0
  6
CONTINUOUS
 62
               3
  5
353
 10
-251.92226690395114
 20
439.74320591874749
 30
0.0
 40
5.0
 50
0.0
 51
44.999999999983046
  0
ARC
  8
0
  6
CONTINUOUS
 62
               3
  5
354
 10
-245.92226690395137
 20
641.33047606785021
 30
0.0
 40
5.0
 50
0.0
 51
87.999999999966008
  0
ARC
  8
0
  6
CONTINUOUS
 62
               3
  5
355
 10
-251.42226690395091
 20
651.5286357430432
 30
0.0
 40
5.0
 50
179.99999999993057
 51
267.99999999989632
  0
ARC
  8
0
  6
CONTINUOUS
 62
               3
  5
356
 10
-251.42226690395091
 20
661.68078621938025
 30
0.0
 40
5.0
 50
126.28886759733012
 51
179.99999999993057
  0
ARC
  8
0
  6
CONTINUOUS
 62
               3
  5
357
 10
-235.5692482808056
 20
673.32124453113829
 30
0.0
 40
5.0
 50
89.999999999965439
 51
126.28886759733092
  0
ARC
  8
0
  6
CONTINUOUS
 62
               3
  5
358
 10
-111.27528552709668
 20
673.32124453113829
 30
0.0
 40
5.0
 50
53.711132402599567
 51
89.999999999965439
  0
ARC
  8
0
  6
CONTINUOUS
 62
               3
  5
359
 10
-95.42226690395114
 20
661.68078621938002
 30
0.0
 40
5.0
 50
0.0
 51
53.711132402598793
  0
ARC
  8
0
  6
CONTINUOUS
 62
               3
  5
35A
 10
-95.42226690395114
 20
651.5286357430432
 30
0.0
 40
5.0
 50
271.99999999989552
 51
359.99999999986176
  0
ARC
  8
0
  6
CONTINUOUS
 62
               3
  5
35B
 10
-100.92226690395103
 20
641.33047606785021
 30
0.0
 40
5.0
 50
91.999999999964828
 51
179.99999999993088
  0
LINE
  8
0
  6
CONTINUOUS
 62
               3
  5
35C
 10
-223.92226690395137
 20
220.82496466929052
 30
0.0
 11
-223.92226690395137
 21
121.42124453113712
 31
0.0
  0
LINE
  8
0
  6
CONTINUOUS
 62
               3
  5
35D
 10
-122.92226690395091
 20
220.82496466929052
 30
0.0
 11
-122.92226690395091
 21
121.42124453113723
 31
0.0
  0
LINE
  8
0
  6
CONTINUOUS
 62
               3
  5
35E
 10
-723.92226690395137
 20
220.82496466929047
 30
0.0
 11
-723.92226690395137
 21
119.8212445311384
 31
0.0
  0
LINE
  8
0
  6
CONTINUOUS
 62
               3
  5
35F
 10
-622.92226690395091
 20
220.82496466929047
 30
0.0
 11
-622.92226690395091
 21
119.8212445311384
 31
0.0
  0
LINE
  8
0
  6
CONTINUOUS
 62
               3
  5
360
 10
-611.27528552709668
 20
678.32124453113829
 30
0.0
 11
-735.56924828080548
 21
678.32124453113829
 31
0.0
  0
LINE
  8
0
  6
CONTINUOUS
 62
               3
  5
361
 10
-754.38154979452145
 20
665.71100268671501
 30
0.0
 11
-738.52853117137613
 21
677.35146099847316
 31
0.0
  0
LINE
  8
0
  6
CONTINUOUS
 62
               3
  5
362
 10
-608.31600263652604
 20
677.35146099847316
 30
0.0
 11
-592.46298401338049
 21
665.71100268671466
 31
0.0
  0
LINE
  8
0
  6
CONTINUOUS
 62
               3
  5
363
 10
-756.42226690395091
 20
661.68078621938025
 30
0.0
 11
-756.42226690395091
 21
651.52863574304308
 31
0.0
  0
LINE
  8
0
  6
CONTINUOUS
 62
               3
  5
364
 10
-590.42226690395114
 20
661.68078621938002
 30
0.0
 11
-590.42226690395114
 21
651.52863574304308
 31
0.0
  0
LINE
  8
0
  6
CONTINUOUS
 62
               3
  5
365
 10
-605.92226690395103
 20
591.16438389537973
 30
0.0
 11
-605.92226690395103
 21
641.33047606785021
 31
0.0
  0
LINE
  8
0
  6
CONTINUOUS
 62
               3
  5
366
 10
-601.09676438746351
 20
646.32743020294572
 30
0.0
 11
-595.24776942043854
 21
646.53168160794758
 31
0.0
  0
LINE
  8
0
  6
CONTINUOUS
 62
               3
  5
367
 10
-745.74776942043877
 20
646.32743020294572
 30
0.0
 11
-751.59676438746339
 21
646.53168160794758
 31
0.0
  0
LINE
  8
0
  6
CONTINUOUS
 62
               3
  5
368
 10
-740.92226690395137
 20
591.16438389537973
 30
0.0
 11
-740.92226690395137
 21
641.33047606785021
 31
0.0
  0
ARC
  8
0
  6
CONTINUOUS
 62
               3
  5
369
 10
-722.92226690395103
 20
573.50086216272439
 30
0.0
 40
24.0
 50
142.47648679783222
 51
179.99999999993085
  0
LINE
  8
0
  6
CONTINUOUS
 62
               3
  5
36A
 10
-723.92226690395137
 20
220.82496466929047
 30
0.0
 11
-746.92226690395114
 21
391.49160314967094
 31
0.0
  0
LINE
  8
0
  6
CONTINUOUS
 62
               3
  5
36B
 10
-622.92226690395091
 20
220.82496466929047
 30
0.0
 11
-599.92226690395114
 21
391.49160314967094
 31
0.0
  0
ARC
  8
0
  6
CONTINUOUS
 62
               3
  5
36C
 10
-745.92226690395125
 20
591.16438389537973
 30
0.0
 40
5.0
 50
322.4764867977633
 51
359.99999999986176
  0
ARC
  8
0
  6
CONTINUOUS
 62
               3
  5
36D
 10
-745.92226690395125
 20
641.33047606785021
 30
0.0
 40
5.0
 50
0.0
 51
87.999999999966178
  0
ARC
  8
0
  6
CONTINUOUS
 62
               3
  5
36E
 10
-751.42226690395091
 20
651.52863574304308
 30
0.0
 40
5.0
 50
179.99999999993057
 51
267.99999999989666
  0
ARC
  8
0
  6
CONTINUOUS
 62
               3
  5
36F
 10
-751.42226690395091
 20
661.68078621938025
 30
0.0
 40
5.0
 50
126.28886759732988
 51
179.99999999993057
  0
ARC
  8
0
  6
CONTINUOUS
 62
               3
  5
370
 10
-735.56924828080548
 20
673.32124453113829
 30
0.0
 40
5.0
 50
89.999999999965937
 51
126.2888675973313
  0
ARC
  8
0
  6
CONTINUOUS
 62
               3
  5
371
 10
-611.27528552709668
 20
673.32124453113829
 30
0.0
 40
5.0
 50
53.711132402599567
 51
89.999999999965937
  0
ARC
  8
0
  6
CONTINUOUS
 62
               3
  5
372
 10
-595.42226690395114
 20
661.68078621938002
 30
0.0
 40
5.0
 50
0.0
 51
53.711132402598658
  0
ARC
  8
0
  6
CONTINUOUS
 62
               3
  5
373
 10
-595.42226690395114
 20
651.52863574304308
 30
0.0
 40
5.0
 50
271.99999999989552
 51
359.99999999986176
  0
ARC
  8
0
  6
CONTINUOUS
 62
               3
  5
374
 10
-600.92226690395103
 20
641.33047606785021
 30
0.0
 40
5.0
 50
91.999999999964984
 51
179.99999999993088
  0
ARC
  8
0
  6
CONTINUOUS
 62
               3
  5
375
 10
-623.92226690395125
 20
573.50086216272439
 30
0.0
 40
24.0
 50
0.0000000000000339
 51
37.523513202098663
  0
ARC
  8
0
  6
CONTINUOUS
 62
               3
  5
376
 10
-600.92226690395103
 20
591.16438389537973
 30
0.0
 40
5.0
 50
179.99999999993088
 51
217.52351320202925
  0
LINE
  8
0
  6
CONTINUOUS
 62
               3
  5
377
 10
388.79113724996887
 20
678.32124453113829
 30
0.0
 11
264.49717449626007
 21
678.32124453113829
 31
0.0
  0
LINE
  8
0
  6
CONTINUOUS
 62
               3
  5
378
 10
245.68487298254411
 20
665.71100268671512
 30
0.0
 11
261.53789160568942
 21
677.35146099847316
 31
0.0
  0
LINE
  8
0
  6
CONTINUOUS
 62
               3
  5
379
 10
391.75042014053952
 20
677.35146099847316
 30
0.0
 11
407.60343876368506
 21
665.71100268671466
 31
0.0
  0
LINE
  8
0
  6
CONTINUOUS
 62
               3
  5
37A
 10
243.64415587311464
 20
661.68078621938025
 30
0.0
 11
243.64415587311464
 21
651.5286357430432
 31
0.0
  0
LINE
  8
0
  6
CONTINUOUS
 62
               3
  5
37B
 10
409.64415587311441
 20
661.68078621938002
 30
0.0
 11
409.64415587311441
 21
651.5286357430432
 31
0.0
  0
LINE
  8
0
  6
CONTINUOUS
 62
               3
  5
37C
 10
394.14415587311453
 20
591.16438389537984
 30
0.0
 11
394.14415587311453
 21
641.33047606785021
 31
0.0
  0
LINE
  8
0
  6
CONTINUOUS
 62
               3
  5
37D
 10
398.96965838960205
 20
646.32743020294583
 30
0.0
 11
404.81865335662701
 21
646.53168160794758
 31
0.0
  0
LINE
  8
0
  6
CONTINUOUS
 62
               3
  5
37E
 10
254.31865335662678
 20
646.32743020294583
 30
0.0
 11
248.46965838960216
 21
646.53168160794758
 31
0.0
  0
LINE
  8
0
  6
CONTINUOUS
 62
               3
  5
37F
 10
259.14415587311419
 20
591.16438389537984
 30
0.0
 11
259.14415587311419
 21
641.33047606785021
 31
0.0
  0
ARC
  8
0
  6
CONTINUOUS
 62
               3
  5
380
 10
277.14415587311453
 20
573.50086216272439
 30
0.0
 40
24.0
 50
142.47648679783222
 51
179.99999999993085
  0
LINE
  8
0
  6
CONTINUOUS
 62
               3
  5
381
 10
276.14415587311419
 20
220.82496466929052
 30
0.0
 11
253.14415587311441
 21
391.49160314967099
 31
0.0
  0
LINE
  8
0
  6
CONTINUOUS
 62
               3
  5
382
 10
377.14415587311464
 20
220.82496466929052
 30
0.0
 11
400.14415587311441
 21
391.49160314967099
 31
0.0
  0
ARC
  8
0
  6
CONTINUOUS
 62
               3
  5
383
 10
254.1441558731143
 20
591.16438389537984
 30
0.0
 40
5.0
 50
322.4764867977633
 51
359.99999999986176
  0
ARC
  8
0
  6
CONTINUOUS
 62
               3
  5
384
 10
254.1441558731143
 20
641.33047606785021
 30
0.0
 40
5.0
 50
0.0
 51
87.99999999996551
  0
ARC
  8
0
  6
CONTINUOUS
 62
               3
  5
385
 10
248.64415587311464
 20
651.5286357430432
 30
0.0
 40
5.0
 50
179.99999999993057
 51
267.99999999989603
  0
ARC
  8
0
  6
CONTINUOUS
 62
               3
  5
386
 10
248.64415587311464
 20
661.68078621938025
 30
0.0
 40
5.0
 50
126.28886759732988
 51
179.99999999993057
  0
ARC
  8
0
  6
CONTINUOUS
 62
               3
  5
387
 10
264.49717449626007
 20
673.32124453113829
 30
0.0
 40
5.0
 50
89.999999999965937
 51
126.28886759733059
  0
ARC
  8
0
  6
CONTINUOUS
 62
               3
  5
388
 10
388.79113724996887
 20
673.32124453113829
 30
0.0
 40
5.0
 50
53.7111324026001
 51
89.999999999965937
  0
ARC
  8
0
  6
CONTINUOUS
 62
               3
  5
389
 10
404.64415587311441
 20
661.68078621938002
 30
0.0
 40
5.0
 50
0.0
 51
53.711132402598849
  0
ARC
  8
0
  6
CONTINUOUS
 62
               3
  5
38A
 10
404.64415587311441
 20
651.5286357430432
 30
0.0
 40
5.0
 50
271.99999999989484
 51
359.99999999986176
  0
ARC
  8
0
  6
CONTINUOUS
 62
               3
  5
38B
 10
399.14415587311453
 20
641.33047606785021
 30
0.0
 40
5.0
 50
91.999999999965638
 51
179.99999999993088
  0
ARC
  8
0
  6
CONTINUOUS
 62
               3
  5
38C
 10
376.1441558731143
 20
573.50086216272439
 30
0.0
 40
24.0
 50
0.0000000000000339
 51
37.523513202098663
  0
ARC
  8
0
  6
CONTINUOUS
 62
               3
  5
38D
 10
399.14415587311453
 20
591.16438389537984
 30
0.0
 40
5.0
 50
179.99999999993088
 51
217.52351320202965
  0
LINE
  8
0
  6
CONTINUOUS
 62
               3
  5
38E
 10
276.14415587311419
 20
220.82496466929052
 30
0.0
 11
276.14415587311419
 21
119.82124453113846
 31
0.0
  0
LINE
  8
0
  6
CONTINUOUS
 62
               3
  5
38F
 10
377.14415587311464
 20
220.82496466929052
 30
0.0
 11
377.14415587311464
 21
119.82124453113846
 31
0.0
  0
LINE
  8
0
  6
CONTINUOUS
 62
               3
  5
390
 10
-291.42226690395114
 20
452.90115702890017
 30
0.0
 11
-256.99693903116469
 21
451.15904446633544
 31
0.0
  0
LINE
  8
0
  6
CONTINUOUS
 62
               3
  5
391
 10
-223.92226690395137
 20
119.82124453113846
 30
0.0
 11
-122.92226690395091
 21
119.82124453113846
 31
0.0
  0
LINE
  8
0
  6
CONTINUOUS
 62
               3
  5
392
 10
-308.42226690395154
 20
65.271244531136915
 30
0.0
 11
-308.42226690395154
 21
63.671244531136892
 31
0.0
  0
LINE
  8
0
  6
CONTINUOUS
 62
               3
  5
393
 10
-308.42226690395154
 20
62.071244531136983
 30
0.0
 11
-308.42226690395154
 21
63.671244531136892
 31
0.0
  0
LINE
  8
0
  6
CONTINUOUS
 62
               3
  5
394
 10
-252.17226690395142
 20
66.77124453113737
 30
0.0
 11
-252.17226690395142
 21
65.27124453113737
 31
0.0
  0
LINE
  8
0
  6
CONTINUOUS
 62
               3
  5
395
 10
-252.17226690395142
 20
62.071244531137097
 30
0.0
 11
-252.17226690395142
 21
60.571244531137211
 31
0.0
  0
LINE
  8
0
  6
CONTINUOUS
 62
               3
  5
396
 10
-222.92226690395017
 20
-10.178755468862107
 30
0.0
 11
-222.92226690395017
 21
4.8212445311369834
 31
0.0
  0
LINE
  8
0
  6
CONTINUOUS
 62
               3
  5
397
 10
-225.92226690395029
 20
-10.178755468862107
 30
0.0
 11
-120.92226690394943
 21
-10.178755468861084
 31
0.0
  0
ARC
  8
0
  6
CONTINUOUS
 62
               3
  5
398
 10
-233.42226690395086
 20
115.82124453113721
 30
0.0
 40
4.0
 50
89.999999999947789
 51
179.9999999998962
  0
ARC
  8
0
  6
CONTINUOUS
 62
               3
  5
399
 10
-236.42226690395097
 20
118.82124453113721
 30
0.0
 40
1.0000000000000004
 50
89.999999999947278
 51
179.99999999989538
  0
LINE
  8
0
  6
CONTINUOUS
 62
               3
  5
39A
 10
-239.02226690395088
 20
118.82124453113721
 30
0.0
 11
-239.02226690395088
 21
66.27124453113737
 31
0.0
  0
LINE
  8
0
  6
CONTINUOUS
 62
               3
  5
39B
 10
-237.4222669039512
 20
118.82124453113721
 30
0.0
 11
-237.4222669039512
 21
66.27124453113737
 31
0.0
  0
LINE
  8
0
  6
CONTINUOUS
 62
               3
  5
39C
 10
-240.02226690395111
 20
63.671244531137347
 30
0.0
 11
-308.42226690395154
 21
63.671244531136892
 31
0.0
  0
LINE
  8
0
  6
CONTINUOUS
 62
               3
  5
39D
 10
-240.02226690395111
 20
65.27124453113737
 30
0.0
 11
-308.42226690395154
 21
65.271244531136915
 31
0.0
  0
LINE
  8
0
  6
CONTINUOUS
 62
               3
  5
39E
 10
-223.42226690395086
 20
121.42124453113712
 30
0.0
 11
-236.42226690395097
 21
121.42124453113712
 31
0.0
  0
LINE
  8
0
  6
CONTINUOUS
 62
               3
  5
39F
 10
-173.42226690395086
 20
119.82124453113823
 30
0.0
 11
-236.42226690395097
 21
119.8212445311371
 31
0.0
  0
LINE
  8
0
  6
CONTINUOUS
 62
               3
  5
3A0
 10
-223.42226690395086
 20
121.42124453113712
 30
0.0
 11
-223.42226690395086
 21
119.82124453113732
 31
0.0
  0
LINE
  8
0
  6
CONTINUOUS
 62
               3
  5
3A1
 10
-223.42226690394915
 20
3.221244531137188
 30
0.0
 11
-236.4222669039504
 21
3.221244531137188
 31
0.0
  0
ARC
  8
0
  6
CONTINUOUS
 62
               3
  5
3A2
 10
-236.4222669039487
 20
5.8212445311369834
 30
0.0
 40
1.0000000000000004
 50
179.99999999989538
 51
269.99999999984431
  0
ARC
  8
0
  6
CONTINUOUS
 62
               3
  5
3A3
 10
-233.42226690394915
 20
8.8212445311368697
 30
0.0
 40
4.0
 50
179.999999999897
 51
269.99999999984584
  0
LINE
  8
0
  6
CONTINUOUS
 62
               3
  5
3A4
 10
-223.42226690394915
 20
3.221244531137188
 30
0.0
 11
-223.42226690394915
 21
4.8212445311369834
 31
0.0
  0
LINE
  8
0
  6
CONTINUOUS
 62
               3
  5
3A5
 10
-237.42226690394892
 20
5.8212445311369834
 30
0.0
 11
-237.42226690395177
 21
61.071244531137438
 31
0.0
  0
LINE
  8
0
  6
CONTINUOUS
 62
               3
  5
3A6
 10
-173.42226690394972
 20
4.8212445311382339
 30
0.0
 11
-236.4222669039487
 21
4.8212445311369834
 31
0.0
  0
LINE
  8
0
  6
CONTINUOUS
 62
               3
  5
3A7
 10
-173.42226690394972
 20
29.821244531138234
 30
0.0
 11
-237.42226690394892
 21
29.821244531137097
 31
0.0
  0
LINE
  8
0
  6
CONTINUOUS
 62
               3
  5
3A8
 10
-240.02226690395111
 20
62.071244531137324
 30
0.0
 11
-308.42226690395154
 21
62.071244531136983
 31
0.0
  0
LINE
  8
0
  6
CONTINUOUS
 62
               3
  5
3A9
 10
-237.4222669039512
 20
94.821244531137893
 30
0.0
 11
-173.42226690395086
 21
94.821244531138234
 31
0.0
  0
LINE
  8
0
  6
CONTINUOUS
 62
               3
  5
3AA
 10
-234.42226690395108
 20
94.821244531137893
 30
0.0
 11
-234.42226690394995
 21
29.821244531137097
 31
0.0
  0
LINE
  8
0
  6
CONTINUOUS
 62
               3
  5
3AB
 10
-244.67226690395142
 20
66.77124453113737
 30
0.0
 11
-252.17226690395142
 21
66.77124453113737
 31
0.0
  0
LINE
  8
0
  6
CONTINUOUS
 62
               3
  5
3AC
 10
-244.67226690395142
 20
60.571244531137324
 30
0.0
 11
-252.17226690395142
 21
60.571244531137211
 31
0.0
  0
LINE
  8
0
  6
CONTINUOUS
 62
               3
  5
3AD
 10
-244.67226690395142
 20
66.77124453113737
 30
0.0
 11
-244.67226690395142
 21
65.27124453113737
 31
0.0
  0
LINE
  8
0
  6
CONTINUOUS
 62
               3
  5
3AE
 10
-244.67226690395142
 20
62.071244531137324
 30
0.0
 11
-244.67226690395142
 21
60.571244531137324
 31
0.0
  0
LINE
  8
0
  6
CONTINUOUS
 62
               3
  5
3AF
 10
-173.42226690395086
 20
119.82124453113823
 30
0.0
 11
-110.42226690395131
 21
119.82124453113812
 31
0.0
  0
LINE
  8
0
  6
CONTINUOUS
 62
               3
  5
3B0
 10
-173.42226690394972
 20
4.8212445311382339
 30
0.0
 11
-110.42226690395131
 21
4.8212445311378929
 31
0.0
  0
LINE
  8
0
  6
CONTINUOUS
 62
               3
  5
3B1
 10
-173.42226690394972
 20
29.821244531138234
 30
0.0
 11
-109.42226690395108
 21
29.82124453113812
 31
0.0
  0
LINE
  8
0
  6
CONTINUOUS
 62
               3
  5
3B2
 10
-109.42226690395108
 20
94.821244531138916
 30
0.0
 11
-173.42226690395086
 21
94.821244531138234
 31
0.0
  0
ARC
  8
0
  6
CONTINUOUS
 62
               3
  5
3B3
 10
-236.42226690395097
 20
118.82124453113721
 30
0.0
 40
2.6000000000000001
 50
89.999999999965354
 51
179.99999999993196
  0
ARC
  8
0
  6
CONTINUOUS
 62
               3
  5
3B4
 10
-240.02226690395111
 20
66.27124453113737
 30
0.0
 40
2.6000000000000001
 50
269.9999999998962
 51
359.99999999986142
  0
ARC
  8
0
  6
CONTINUOUS
 62
               3
  5
3B5
 10
-240.02226690395111
 20
66.27124453113737
 30
0.0
 40
1.0
 50
269.99999999989637
 51
359.99999999986238
  0
ARC
  8
0
  6
CONTINUOUS
 62
               3
  5
3B6
 10
-240.02226690395111
 20
61.071244531137324
 30
0.0
 40
2.6000000000000001
 50
0.0000000000012526
 51
89.999999999965979
  0
ARC
  8
0
  6
CONTINUOUS
 62
               3
  5
3B7
 10
-240.02226690395111
 20
61.071244531137324
 30
0.0
 40
1.0
 50
0.0
 51
89.99999999996642
  0
LINE
  8
0
  6
CONTINUOUS
 62
               3
  5
3B8
 10
-239.02226690395031
 20
5.8212445311369834
 30
0.0
 11
-239.02226690395088
 21
61.071244531137438
 31
0.0
  0
ARC
  8
0
  6
CONTINUOUS
 62
               3
  5
3B9
 10
-236.4222669039504
 20
5.8212445311369834
 30
0.0
 40
2.6000000000000001
 50
179.99999999993196
 51
269.9999999998962
  0
LINE
  8
0
  6
CONTINUOUS
 62
               3
  5
3BA
 10
-123.92226690395182
 20
-10.178755468861993
 30
0.0
 11
-123.92226690395182
 21
4.8212445311369834
 31
0.0
  0
ARC
  8
0
  6
CONTINUOUS
 62
               3
  5
3BB
 10
-113.42226690395142
 20
115.82124453113721
 30
0.0
 40
4.0
 50
0.0000000000341973
 51
89.999999999983103
  0
ARC
  8
0
  6
CONTINUOUS
 62
               3
  5
3BC
 10
-110.42226690395131
 20
118.82124453113732
 30
0.0
 40
1.0000000000000004
 50
0.0000000000358258
 51
89.999999999983515
  0
LINE
  8
0
  6
CONTINUOUS
 62
               3
  5
3BD
 10
-107.8222669039514
 20
118.82124453113732
 30
0.0
 11
-107.8222669039514
 21
66.271244531137597
 31
0.0
  0
LINE
  8
0
  6
CONTINUOUS
 62
               3
  5
3BE
 10
-109.42226690395108
 20
118.82124453113732
 30
0.0
 11
-109.42226690395108
 21
66.271244531137597
 31
0.0
  0
LINE
  8
0
  6
CONTINUOUS
 62
               3
  5
3BF
 10
-106.82226690395117
 20
63.671244531137461
 30
0.0
 11
-38.42226690395097
 21
63.671244531137233
 31
0.0
  0
LINE
  8
0
  6
CONTINUOUS
 62
               3
  5
3C0
 10
-106.82226690395117
 20
65.271244531137484
 30
0.0
 11
-38.42226690395097
 21
65.271244531137143
 31
0.0
  0
LINE
  8
0
  6
CONTINUOUS
 62
               3
  5
3C1
 10
-123.42226690395142
 20
121.42124453113723
 30
0.0
 11
-110.42226690395131
 21
121.42124453113723
 31
0.0
  0
LINE
  8
0
  6
CONTINUOUS
 62
               3
  5
3C2
 10
-123.42226690395142
 20
121.42124453113723
 30
0.0
 11
-123.42226690395142
 21
119.82124453113744
 31
0.0
  0
LINE
  8
0
  6
CONTINUOUS
 62
               3
  5
3C3
 10
-123.42226690395313
 20
3.2212445311373017
 30
0.0
 11
-110.42226690395188
 21
3.2212445311373017
 31
0.0
  0
ARC
  8
0
  6
CONTINUOUS
 62
               3
  5
3C4
 10
-110.4222669039533
 20
5.8212445311370971
 30
0.0
 40
1.0000000000000004
 50
269.9999999999481
 51
359.99999999989495
  0
ARC
  8
0
  6
CONTINUOUS
 62
               3
  5
3C5
 10
-113.42226690395313
 20
8.8212445311370971
 30
0.0
 40
4.0
 50
269.99999999994668
 51
359.99999999989581
  0
LINE
  8
0
  6
CONTINUOUS
 62
               3
  5
3C6
 10
-123.42226690395313
 20
3.2212445311373017
 30
0.0
 11
-123.42226690395313
 21
4.8212445311369834
 31
0.0
  0
LINE
  8
0
  6
CONTINUOUS
 62
               3
  5
3C7
 10
-109.42226690395336
 20
5.8212445311370971
 30
0.0
 11
-109.42226690395051
 21
61.071244531137552
 31
0.0
  0
LINE
  8
0
  6
CONTINUOUS
 62
               3
  5
3C8
 10
-106.82226690395117
 20
62.071244531137552
 30
0.0
 11
-38.42226690395097
 21
62.071244531137211
 31
0.0
  0
LINE
  8
0
  6
CONTINUOUS
 62
               3
  5
3C9
 10
-112.4222669039512
 20
94.821244531138007
 30
0.0
 11
-112.42226690395233
 21
29.821244531137324
 31
0.0
  0
LINE
  8
0
  6
CONTINUOUS
 62
               3
  5
3CA
 10
-38.42226690395097
 20
65.271244531137143
 30
0.0
 11
-38.42226690395097
 21
63.671244531137233
 31
0.0
  0
LINE
  8
0
  6
CONTINUOUS
 62
               3
  5
3CB
 10
-38.42226690395097
 20
62.071244531137211
 30
0.0
 11
-38.42226690395097
 21
63.671244531137233
 31
0.0
  0
LINE
  8
0
  6
CONTINUOUS
 62
               3
  5
3CC
 10
-102.17226690395086
 20
66.771244531137484
 30
0.0
 11
-94.672266903950856
 21
66.771244531137484
 31
0.0
  0
LINE
  8
0
  6
CONTINUOUS
 62
               3
  5
3CD
 10
-102.17226690395086
 20
60.571244531137438
 30
0.0
 11
-94.672266903950856
 21
60.571244531137324
 31
0.0
  0
LINE
  8
0
  6
CONTINUOUS
 62
               3
  5
3CE
 10
-102.17226690395086
 20
66.771244531137484
 30
0.0
 11
-102.17226690395086
 21
65.271244531137484
 31
0.0
  0
LINE
  8
0
  6
CONTINUOUS
 62
               3
  5
3CF
 10
-102.17226690395086
 20
62.071244531137552
 30
0.0
 11
-102.17226690395086
 21
60.571244531137438
 31
0.0
  0
LINE
  8
0
  6
CONTINUOUS
 62
               3
  5
3D0
 10
-94.672266903950856
 20
66.771244531137484
 30
0.0
 11
-94.672266903950856
 21
65.271244531137484
 31
0.0
  0
LINE
  8
0
  6
CONTINUOUS
 62
               3
  5
3D1
 10
-94.672266903950856
 20
62.071244531137211
 30
0.0
 11
-94.672266903950856
 21
60.571244531137324
 31
0.0
  0
ARC
  8
0
  6
CONTINUOUS
 62
               3
  5
3D2
 10
-110.42226690395131
 20
118.82124453113732
 30
0.0
 40
2.6000000000000001
 50
0.0
 51
89.999999999965667
  0
ARC
  8
0
  6
CONTINUOUS
 62
               3
  5
3D3
 10
-106.82226690395117
 20
66.271244531137597
 30
0.0
 40
2.6000000000000001
 50
179.99999999993196
 51
269.99999999989637
  0
ARC
  8
0
  6
CONTINUOUS
 62
               3
  5
3D4
 10
-106.82226690395117
 20
66.271244531137597
 30
0.0
 40
1.0
 50
179.99999999992795
 51
269.99999999989683
  0
ARC
  8
0
  6
CONTINUOUS
 62
               3
  5
3D5
 10
-106.82226690395117
 20
61.071244531137438
 30
0.0
 40
2.6000000000000001
 50
89.999999999964729
 51
179.99999999993071
  0
ARC
  8
0
  6
CONTINUOUS
 62
               3
  5
3D6
 10
-106.82226690395117
 20
61.071244531137438
 30
0.0
 40
1.0
 50
89.999999999964786
 51
179.99999999992795
  0
LINE
  8
0
  6
CONTINUOUS
 62
               3
  5
3D7
 10
-107.82226690395197
 20
5.8212445311369834
 30
0.0
 11
-107.8222669039514
 21
61.071244531137438
 31
0.0
  0
ARC
  8
0
  6
CONTINUOUS
 62
               3
  5
3D8
 10
-110.42226690395188
 20
5.8212445311369834
 30
0.0
 40
2.6000000000000001
 50
269.99999999989637
 51
359.99999999986142
  0
LINE
  8
0
  6
CONTINUOUS
 62
               3
  5
3D9
 10
-725.92226690395034
 20
-10.178755468861539
 30
0.0
 11
-620.92226690394955
 21
-10.178755468860516
 31
0.0
  0
LINE
  8
0
  6
CONTINUOUS
 62
               3
  5
3DA
 10
-722.92226690395023
 20
-10.178755468861539
 30
0.0
 11
-722.92226690395023
 21
4.8212445311375518
 31
0.0
  0
LINE
  8
0
  6
CONTINUOUS
 62
               3
  5
3DB
 10
-623.92226690395182
 20
-10.178755468861425
 30
0.0
 11
-623.92226690395182
 21
4.8212445311375518
 31
0.0
  0
ARC
  8
0
  6
CONTINUOUS
 62
               3
  5
3DC
 10
-733.42226690394921
 20
8.821244531137495
 30
0.0
 40
4.0
 50
179.999999999897
 51
269.9999999998447
  0
LINE
  8
0
  6
CONTINUOUS
 62
               3
  5
3DD
 10
-737.42226690394921
 20
8.821244531137495
 30
0.0
 11
-737.42226690394921
 21
29.821244531137722
 31
0.0
  0
LINE
  8
0
  6
CONTINUOUS
 62
               3
  5
3DE
 10
-689.42226690395069
 20
29.821244531138575
 30
0.0
 11
-737.42226690394898
 21
29.821244531137722
 31
0.0
  0
LINE
  8
0
  6
CONTINUOUS
 62
               3
  5
3DF
 10
-689.42226690395069
 20
4.8212445311386887
 30
0.0
 11
-733.42226690395273
 21
4.821244531137495
 31
0.0
  0
LINE
  8
0
  6
CONTINUOUS
 62
               3
  5
3E0
 10
-657.42226690395182
 20
29.821244531138575
 30
0.0
 11
-609.42226690395341
 21
29.821244531137722
 31
0.0
  0
LINE
  8
0
  6
CONTINUOUS
 62
               3
  5
3E1
 10
-657.42226690395182
 20
4.8212445311386887
 30
0.0
 11
-613.42226690394966
 21
4.821244531137495
 31
0.0
  0
ARC
  8
0
  6
CONTINUOUS
 62
               3
  5
3E2
 10
-613.42226690395319
 20
8.821244531137495
 30
0.0
 40
4.0
 50
269.99999999994731
 51
359.99999999989581
  0
LINE
  8
0
  6
CONTINUOUS
 62
               3
  5
3E3
 10
-609.42226690395319
 20
8.821244531137495
 30
0.0
 11
-609.42226690395341
 21
29.821244531137722
 31
0.0
  0
ARC
  8
0
  6
CONTINUOUS
 62
               3
  5
3E4
 10
-733.42226690395137
 20
115.82124453113778
 30
0.0
 40
4.0
 50
89.99999999994769
 51
179.9999999998962
  0
LINE
  8
0
  6
CONTINUOUS
 62
               3
  5
3E5
 10
-737.42226690395137
 20
115.82124453114017
 30
0.0
 11
-737.42226690395159
 21
94.821244531138461
 31
0.0
  0
LINE
  8
0
  6
CONTINUOUS
 62
               3
  5
3E6
 10
-689.42226690395069
 20
119.82124453113863
 30
0.0
 11
-733.42226690395137
 21
119.82124453113778
 31
0.0
  0
LINE
  8
0
  6
CONTINUOUS
 62
               3
  5
3E7
 10
-737.42226690395159
 20
94.821244531138461
 30
0.0
 11
-689.42226690395069
 21
94.821244531138802
 31
0.0
  0
LINE
  8
0
  6
CONTINUOUS
 62
               3
  5
3E8
 10
-657.42226690395012
 20
119.82124453113886
 30
0.0
 11
-613.42226690395159
 21
119.82124453113875
 31
0.0
  0
LINE
  8
0
  6
CONTINUOUS
 62
               3
  5
3E9
 10
-609.42226690395148
 20
94.821244531139428
 30
0.0
 11
-657.42226690395012
 21
94.82124453113903
 31
0.0
  0
ARC
  8
0
  6
CONTINUOUS
 62
               3
  5
3EA
 10
-613.42226690395159
 20
115.82124453113789
 30
0.0
 40
4.0
 50
0.0000000000341973
 51
89.999999999983515
  0
LINE
  8
0
  6
CONTINUOUS
 62
               3
  5
3EB
 10
-609.42226690395148
 20
115.82124453113789
 30
0.0
 11
-609.42226690395148
 21
94.821244531139428
 31
0.0
  0
LINE
  8
0
  6
CONTINUOUS
 62
               3
  5
3EC
 10
-734.42226690395159
 20
94.821244531138461
 30
0.0
 11
-734.42226690395046
 21
29.821244531137779
 31
0.0
  0
LINE
  8
0
  6
CONTINUOUS
 62
               3
  5
3ED
 10
-612.42226690395137
 20
94.821244531138575
 30
0.0
 11
-612.42226690395239
 21
29.821244531137893
 31
0.0
  0
LINE
  8
0
  6
CONTINUOUS
 62
               3
  5
3EE
 10
-689.42226690395069
 20
3.2212445311386659
 30
0.0
 11
-657.42226690395012
 21
3.2212445311391207
 31
0.0
  0
LINE
  8
0
  6
CONTINUOUS
 62
               3
  5
3EF
 10
-689.42226690395069
 20
121.42124453113883
 30
0.0
 11
-689.42226690395069
 21
3.2212445311386659
 31
0.0
  0
LINE
  8
0
  6
CONTINUOUS
 62
               3
  5
3F0
 10
-657.42226690395012
 20
3.2212445311391207
 30
0.0
 11
-657.42226690395057
 21
121.42124453113883
 31
0.0
  0
LINE
  8
0
  6
CONTINUOUS
 62
               3
  5
3F1
 10
-689.42226690395137
 20
121.42124453113883
 30
0.0
 11
-657.42226690395125
 21
121.42124453113883
 31
0.0
  0
LINE
  8
0
  6
CONTINUOUS
 62
               3
  5
3F2
 10
-689.42226690395069
 20
63.671244531137461
 30
0.0
 11
-657.42226690395012
 21
63.671244531137461
 31
0.0
  0
LINE
  8
0
  6
CONTINUOUS
 62
               3
  5
3F3
 10
-689.42226690395069
 20
65.271244531137484
 30
0.0
 11
-657.42226690395012
 21
65.271244531137484
 31
0.0
  0
LINE
  8
0
  6
CONTINUOUS
 62
               3
  5
3F4
 10
-689.42226690395069
 20
62.071244531137438
 30
0.0
 11
-657.42226690395012
 21
62.071244531137438
 31
0.0
  0
LINE
  8
0
  6
CONTINUOUS
 62
               3
  5
3F5
 10
274.07773309604966
 20
-10.178755468861539
 30
0.0
 11
379.07773309605045
 21
-10.178755468860402
 31
0.0
  0
LINE
  8
0
  6
CONTINUOUS
 62
               3
  5
3F6
 10
277.07773309604977
 20
-10.178755468861539
 30
0.0
 11
277.07773309604977
 21
4.8212445311376086
 31
0.0
  0
LINE
  8
0
  6
CONTINUOUS
 62
               3
  5
3F7
 10
376.07773309604818
 20
-10.178755468861311
 30
0.0
 11
376.07773309604818
 21
4.8212445311376086
 31
0.0
  0
ARC
  8
0
  6
CONTINUOUS
 62
               3
  5
3F8
 10
266.57773309605079
 20
8.8212445311375518
 30
0.0
 40
4.0
 50
179.999999999897
 51
269.9999999998463
  0
LINE
  8
0
  6
CONTINUOUS
 62
               3
  5
3F9
 10
262.57773309605079
 20
8.8212445311375518
 30
0.0
 11
262.57773309605079
 21
29.821244531137779
 31
0.0
  0
LINE
  8
0
  6
CONTINUOUS
 62
               3
  5
3FA
 10
310.57773309604931
 20
29.821244531138632
 30
0.0
 11
262.57773309605102
 21
29.821244531137779
 31
0.0
  0
LINE
  8
0
  6
CONTINUOUS
 62
               3
  5
3FB
 10
310.57773309604931
 20
4.8212445311387455
 30
0.0
 11
266.57773309604727
 21
4.8212445311375518
 31
0.0
  0
LINE
  8
0
  6
CONTINUOUS
 62
               3
  5
3FC
 10
342.57773309604818
 20
29.821244531138632
 30
0.0
 11
390.57773309604659
 21
29.821244531137779
 31
0.0
  0
LINE
  8
0
  6
CONTINUOUS
 62
               3
  5
3FD
 10
342.57773309604818
 20
4.8212445311387455
 30
0.0
 11
386.57773309605034
 21
4.8212445311375518
 31
0.0
  0
ARC
  8
0
  6
CONTINUOUS
 62
               3
  5
3FE
 10
386.57773309604681
 20
8.8212445311375518
 30
0.0
 40
4.0
 50
269.99999999994566
 51
359.99999999989581
  0
LINE
  8
0
  6
CONTINUOUS
 62
               3
  5
3FF
 10
390.57773309604681
 20
8.8212445311375518
 30
0.0
 11
390.57773309604659
 21
29.821244531137779
 31
0.0
  0
ARC
  8
0
  6
CONTINUOUS
 62
               3
  5
400
 10
266.57773309604863
 20
115.82124453113784
 30
0.0
 40
4.0
 50
89.99999999994769
 51
179.9999999998962
  0
LINE
  8
0
  6
CONTINUOUS
 62
               3
  5
401
 10
262.57773309604863
 20
115.82124453114022
 30
0.0
 11
262.57773309604841
 21
94.821244531138518
 31
0.0
  0
LINE
  8
0
  6
CONTINUOUS
 62
               3
  5
402
 10
310.57773309604931
 20
119.82124453113869
 30
0.0
 11
266.57773309604863
 21
119.82124453113784
 31
0.0
  0
LINE
  8
0
  6
CONTINUOUS
 62
               3
  5
403
 10
262.57773309604841
 20
94.821244531138518
 30
0.0
 11
310.57773309604931
 21
94.821244531138859
 31
0.0
  0
LINE
  8
0
  6
CONTINUOUS
 62
               3
  5
404
 10
342.57773309604988
 20
119.82124453113892
 30
0.0
 11
386.57773309604841
 21
119.8212445311388
 31
0.0
  0
LINE
  8
0
  6
CONTINUOUS
 62
               3
  5
405
 10
390.57773309604852
 20
94.821244531139484
 30
0.0
 11
342.57773309604988
 21
94.821244531139087
 31
0.0
  0
ARC
  8
0
  6
CONTINUOUS
 62
               3
  5
406
 10
386.57773309604841
 20
115.82124453113795
 30
0.0
 40
4.0
 50
0.0000000000341973
 51
89.999999999981881
  0
LINE
  8
0
  6
CONTINUOUS
 62
               3
  5
407
 10
390.57773309604852
 20
115.82124453113795
 30
0.0
 11
390.57773309604852
 21
94.821244531139484
 31
0.0
  0
LINE
  8
0
  6
CONTINUOUS
 62
               3
  5
408
 10
265.57773309604841
 20
94.821244531138518
 30
0.0
 11
265.57773309604954
 21
29.821244531137836
 31
0.0
  0
LINE
  8
0
  6
CONTINUOUS
 62
               3
  5
409
 10
387.57773309604863
 20
94.821244531138632
 30
0.0
 11
387.57773309604761
 21
29.82124453113795
 31
0.0
  0
LINE
  8
0
  6
CONTINUOUS
 62
               3
  5
40A
 10
310.57773309604931
 20
3.2212445311387228
 30
0.0
 11
342.57773309604988
 21
3.2212445311391775
 31
0.0
  0
LINE
  8
0
  6
CONTINUOUS
 62
               3
  5
40B
 10
310.57773309604931
 20
121.42124453113888
 30
0.0
 11
310.57773309604931
 21
3.2212445311387228
 31
0.0
  0
LINE
  8
0
  6
CONTINUOUS
 62
               3
  5
40C
 10
342.57773309604988
 20
3.2212445311391775
 30
0.0
 11
342.57773309604943
 21
121.42124453113888
 31
0.0
  0
LINE
  8
0
  6
CONTINUOUS
 62
               3
  5
40D
 10
310.57773309604863
 20
121.42124453113888
 30
0.0
 11
342.57773309604875
 21
121.42124453113888
 31
0.0
  0
LINE
  8
0
  6
CONTINUOUS
 62
               3
  5
40E
 10
310.57773309604931
 20
63.671244531137518
 30
0.0
 11
342.57773309604988
 21
63.671244531137518
 31
0.0
  0
LINE
  8
0
  6
CONTINUOUS
 62
               3
  5
40F
 10
310.57773309604931
 20
65.27124453113754
 30
0.0
 11
342.57773309604988
 21
65.27124453113754
 31
0.0
  0
LINE
  8
0
  6
CONTINUOUS
 62
               3
  5
410
 10
310.57773309604931
 20
62.071244531137495
 30
0.0
 11
342.57773309604988
 21
62.071244531137495
 31
0.0
  0
LINE
  8
0
  6
CONTINUOUS
 62
               3
  5
411
 10
-291.08834535055411
 20
963.66167180754155
 30
0.0
 11
-212.24066636496195
 21
960.90825018472515
 31
0.0
  0
LINE
  8
0
  6
CONTINUOUS
 62
               3
  5
412
 10
-291.42226690395296
 20
963.66167180754155
 30
0.0
 11
-291.42226690395296
 21
972.17851373167571
 31
0.0
  0
LINE
  8
0
  6
CONTINUOUS
 62
               3
  5
413
 10
-291.42226690395296
 20
1082.9808172547323
 30
0.0
 11
-291.42226690395296
 21
972.17851373167593
 31
0.0
  0
LINE
  8
0
  6
CONTINUOUS
 62
               3
  5
414
 10
-291.08834535055411
 20
1082.9808172547323
 30
0.0
 11
-212.24066636496195
 21
1085.7342388775483
 31
0.0
  0
ARC
  8
0
  6
CONTINUOUS
 62
               3
  5
415
 10
-222.92226690395091
 20
573.50086216272462
 30
0.0
 40
24.0
 50
142.47648679783126
 51
173.54536552557119
  0
LINE
  8
0
  6
CONTINUOUS
 62
               3
  5
416
 10
-251.39527430944526
 20
572.6169298389807
 30
0.0
 11
-291.42226690395103
 21
571.21915645713966
 31
0.0
  0
LINE
  8
0
  6
CONTINUOUS
 62
               3
  5
417
 10
-291.42226690395103
 20
460.4285137316773
 30
0.0
 11
-291.42226690395103
 21
571.21915645713966
 31
0.0
  0
ARC
  8
0
  6
CONTINUOUS
 62
               3
  5
418
 10
-251.56934193921975
 20
577.60157457355831
 30
0.0
 40
5.0
 50
271.99999999989598
 51
343.70736505057295
  0
ARC
  8
0
  6
CONTINUOUS
 62
               3
  5
419
 10
-245.92226690395088
 20
591.1643838953803
 30
0.0
 40
5.0
 50
322.47648679776137
 51
359.99999999986176
  0
LINE
  8
0
  6
CONTINUOUS
 62
               3
  5
41A
 10
-291.42226690395103
 20
460.42851373167758
 30
0.0
 11
-291.42226690395114
 21
452.90115702890017
 31
0.0
  0
LINE
  8
0
  6
CONTINUOUS
 62
               3
  5
41B
 10
-55.422266903953329
 20
963.66167180754064
 30
0.0
 11
-55.422266903953272
 21
972.1785137316748
 31
0.0
  0
LINE
  8
0
  6
CONTINUOUS
 62
               3
  5
41C
 10
-55.422266903952433
 20
1082.9808172547314
 30
0.0
 11
-55.422266903952433
 21
972.17851373167514
 31
0.0
  0
LINE
  8
0
  6
CONTINUOUS
 62
               3
  5
41D
 10
-55.756188457351286
 20
1082.9808172547314
 30
0.0
 11
-133.93896166373605
 21
1085.7110198560986
 31
0.0
  0
LINE
  8
0
  6
CONTINUOUS
 62
               3
  5
41E
 10
-55.756188457352181
 20
963.66167180754064
 30
0.0
 11
-133.93896166374347
 21
960.93146920617403
 31
0.0
  0
ARC
  8
0
  6
CONTINUOUS
 62
               3
  5
41F
 10
-123.92226690395134
 20
573.50086216272462
 30
0.0
 40
24.0
 50
6.4546344743596551
 51
37.523513202099601
  0
LINE
  8
0
  6
CONTINUOUS
 62
               3
  5
420
 10
-95.449259498456982
 20
572.61692983898081
 30
0.0
 11
-55.422266903951254
 21
571.21915645713977
 31
0.0
  0
LINE
  8
0
  6
CONTINUOUS
 62
               3
  5
421
 10
-55.422266903951225
 20
460.42851373167764
 30
0.0
 11
-55.422266903951254
 21
571.21915645713977
 31
0.0
  0
ARC
  8
0
  6
CONTINUOUS
 62
               3
  5
422
 10
-95.275191868682498
 20
577.60157457355831
 30
0.0
 40
5.0
 50
196.2926349492194
 51
267.99999999989632
  0
ARC
  8
0
  6
CONTINUOUS
 62
               3
  5
423
 10
-100.92226690395137
 20
591.1643838953803
 30
0.0
 40
5.0
 50
179.99999999993088
 51
217.52351320203087
  0
LINE
  8
0
  6
CONTINUOUS
 62
               3
  5
424
 10
-55.422266903951225
 20
460.42851373167764
 30
0.0
 11
-55.422266903951083
 21
452.90115702890023
 31
0.0
  0
LINE
  8
0
  6
CONTINUOUS
 62
               3
  5
425
 10
-91.160726592690011
 20
450.57581404187425
 30
0.0
 11
-99.92226690395114
 21
441.8142737306128
 31
0.0
  0
LINE
  8
0
  6
CONTINUOUS
 62
               3
  5
426
 10
-55.422266903951083
 20
452.90115702890023
 30
0.0
 11
-89.847594776737509
 21
451.15904446633544
 31
0.0
  0
LINE
  8
0
  6
CONTINUOUS
 62
               3
  5
427
 10
-98.936111383597051
 20
454.82124453113857
 30
0.0
 11
-92.036990327220408
 21
449.69955030734377
 31
0.0
  0
ARC
  8
0
  6
CONTINUOUS
 62
               3
  5
428
 10
-89.746513030316891
 20
449.16160047950115
 30
0.0
 40
2.0
 50
92.897012966881974
 51
134.99999999994844
  0
LINE
  8
0
  6
CONTINUOUS
 62
               3
  5
429
 10
-246.92226690395114
 20
439.74320591874749
 30
0.0
 11
-246.92226690395114
 21
391.49160314967099
 31
0.0
  0
ARC
  8
0
  6
CONTINUOUS
 62
               3
  5
42A
 10
-257.0980207775853
 20
449.16160047950115
 30
0.0
 40
2.0
 50
44.99999999998213
 51
87.102987033048336
  0
ARC
  8
0
  6
CONTINUOUS
 62
               3
  5
42B
 10
-173.90611701116771
 20
1025.1232667468848
 30
0.0
 40
76.375634498080188
 50
254.81932855946019
 51
285.18067144033222
  0
ARC
  8
0
  6
CONTINUOUS
 62
               3
  5
42C
 10
-175.7817515092479
 20
1023.247632248805
 30
0.0
 40
76.375634498080188
 50
344.81932855942557
 51
375.1806714402976
  0
ARC
  8
0
  6
CONTINUOUS
 62
               3
  5
42D
 10
-173.90611701116768
 20
1021.3719977507247
 30
0.0
 40
76.375634498080188
 50
74.819328559529367
 51
105.18067144040144
  0
ARC
  8
0
  6
CONTINUOUS
 62
               3
  5
42E
 10
-172.03048251308755
 20
1023.247632248805
 30
0.0
 40
76.375634498080188
 50
164.81932855949469
 51
195.18067144036684
  0
CIRCLE
  8
0
  6
CONTINUOUS
 62
               3
  5
42F
 10
-173.4222669039512
 20
1023.3212445311386
 30
0.0
 40
61.000000000000007
  0
ARC
  8
0
  6
CONTINUOUS
 62
               3
  5
430
 10
-240.31023455457267
 20
1057.2476322488046
 30
0.0
 40
14.0
 50
269.9999999998962
 51
333.1053242639889
  0
ARC
  8
0
  6
CONTINUOUS
 62
               3
  5
431
 10
-240.23535653490006
 20
989.24763224880496
 30
0.0
 40
14.0
 50
27.020857876212592
 51
89.999999999965397
  0
ARC
  8
0
  6
CONTINUOUS
 62
               3
  5
432
 10
-207.90611701116774
 20
956.7189616739945
 30
0.0
 40
14.0
 50
0.0
 51
62.626786597621326
  0
ARC
  8
0
  6
CONTINUOUS
 62
               3
  5
433
 10
-139.90611701116774
 20
956.22677608280469
 30
0.0
 40
14.0
 50
116.54381150029135
 51
179.99999999993074
  0
ARC
  8
0
  6
CONTINUOUS
 62
               3
  5
434
 10
-106.60917727300237
 20
989.24763224880496
 30
0.0
 40
14.0
 50
89.999999999965368
 51
152.9791421237185
  0
ARC
  8
0
  6
CONTINUOUS
 62
               3
  5
435
 10
-106.53429925332971
 20
1057.2476322488046
 30
0.0
 40
14.0
 50
206.89467573580339
 51
269.9999999998962
  0
ARC
  8
0
  6
CONTINUOUS
 62
               3
  5
436
 10
-139.90611701116762
 20
1090.4157129794726
 30
0.0
 40
14.0
 50
179.99999999993074
 51
243.45618849956989
  0
ARC
  8
0
  6
CONTINUOUS
 62
               3
  5
437
 10
-207.90611701116762
 20
1089.9235273882828
 30
0.0
 40
14.0
 50
297.3732134022402
 51
359.99999999986147
  0
LINE
  8
0
  6
CONTINUOUS
 62
               3
  5
438
 10
-240.31023455457267
 20
1043.2476322488051
 30
0.0
 11
-245.74098071371253
 21
1043.2476322488051
 31
0.0
  0
LINE
  8
0
  6
CONTINUOUS
 62
               3
  5
439
 10
-240.31023455457276
 20
1003.2476322488045
 30
0.0
 11
-245.74098071371259
 21
1003.2476322488045
 31
0.0
  0
LINE
  8
0
  6
CONTINUOUS
 62
               3
  5
43A
 10
-107.5019994677622
 20
1043.2476322488046
 30
0.0
 11
-102.07125330862236
 21
1043.2476322488042
 31
0.0
  0
LINE
  8
0
  6
CONTINUOUS
 62
               3
  5
43B
 10
-107.50199946776243
 20
1003.2476322488039
 30
0.0
 11
-102.07125330862259
 21
1003.2476322488038
 31
0.0
  0
LINE
  8
0
  6
CONTINUOUS
 62
               3
  5
43C
 10
-193.90611701116751
 20
956.84351470539968
 30
0.0
 11
-193.90611701116751
 21
951.41276854625994
 31
0.0
  0
LINE
  8
0
  6
CONTINUOUS
 62
               3
  5
43D
 10
-153.90611701116705
 20
956.84351470539968
 30
0.0
 11
-153.90611701116705
 21
951.41276854625971
 31
0.0
  0
ARC
  8
0
  6
CONTINUOUS
 62
               3
  5
43E
 10
-214.20889208535755
 20
1090.6118387780834
 30
0.0
 40
5.0
 50
271.9999999998962
 51
300.89131288637321
  0
ARC
  8
0
  6
CONTINUOUS
 62
               3
  5
43F
 10
-173.90611701116774
 20
1023.3948568134723
 30
0.0
 40
73.5
 50
239.10868711341865
 51
254.60179884245954
  0
ARC
  8
0
  6
CONTINUOUS
 62
               3
  5
440
 10
-173.90611701116774
 20
1023.3948568134723
 30
0.0
 40
73.5
 50
285.78979394477585
 51
300.75437016714773
  0
ARC
  8
0
  6
CONTINUOUS
 62
               3
  5
441
 10
-173.90611701116774
 20
1023.247632248805
 30
0.0
 40
73.5
 50
59.245629832707515
 51
73.817854963379361
  0
ARC
  8
0
  6
CONTINUOUS
 62
               3
  5
442
 10
-173.90611701116774
 20
1023.247632248805
 30
0.0
 40
73.5
 50
105.39820115740196
 51
120.89131288644298
  0
ARC
  8
0
  6
CONTINUOUS
 62
               3
  5
443
 10
-133.76446418022346
 20
1090.7079739911942
 30
0.0
 40
5.0
 50
239.24562983263857
 51
267.99999999989586
  0
ARC
  8
0
  6
CONTINUOUS
 62
               3
  5
444
 10
-133.76446418023093
 20
955.93451507107852
 30
0.0
 40
5.0
 50
91.999999999964999
 51
120.75437016721752
  0
CIRCLE
  8
0
  6
CONTINUOUS
 62
               3
  5
445
 10
335.86425631235682
 20
-578.51458745033335
 30
0.0
 40
75.0
  0
CIRCLE
  8
0
  6
CONTINUOUS
 62
               3
  5
446
 10
335.86425631235682
 20
-578.51458745033335
 30
0.0
 40
52.5
  0
LINE
  8
0
  6
CONTINUOUS
 62
               3
  5
447
 10
249.65375811173158
 20
-558.51458745033335
 30
0.0
 11
263.58009483835144
 21
-558.51458745033335
 31
0.0
  0
LINE
  8
0
  6
CONTINUOUS
 62
               3
  5
448
 10
263.58009483835144
 20
-598.51458745033335
 30
0.0
 11
249.65375811173158
 21
-598.51458745033335
 31
0.0
  0
ARC
  8
0
  6
CONTINUOUS
 62
               3
  5
449
 10
335.86425631235682
 20
-578.51458745033335
 30
0.0
 40
88.5
 50
166.93897588503955
 51
193.06102411461561
  0
LINE
  8
0
  6
CONTINUOUS
 62
               3
  5
44A
 10
315.86425631235682
 20
-664.72508565095825
 30
0.0
 11
315.86425631235682
 21
-650.79874892433838
 31
0.0
  0
LINE
  8
0
  6
CONTINUOUS
 62
               3
  5
44B
 10
355.86425631235682
 20
-650.79874892433838
 30
0.0
 11
355.86425631235682
 21
-664.72508565095825
 31
0.0
  0
ARC
  8
0
  6
CONTINUOUS
 62
               3
  5
44C
 10
335.86425631235682
 20
-578.51458745033335
 30
0.0
 40
88.5
 50
256.93897588495338
 51
283.06102411452952
  0
LINE
  8
0
  6
CONTINUOUS
 62
               3
  5
44D
 10
422.07475451298149
 20
-598.51458745033335
 30
0.0
 11
408.14841778636105
 21
-598.51458745033335
 31
0.0
  0
LINE
  8
0
  6
CONTINUOUS
 62
               3
  5
44E
 10
408.14841778636105
 20
-558.51458745033335
 30
0.0
 11
422.07475451298149
 21
-558.51458745033335
 31
0.0
  0
ARC
  8
0
  6
CONTINUOUS
 62
               3
  5
44F
 10
335.86425631235682
 20
-578.51458745033335
 30
0.0
 40
88.5
 50
346.93897588486726
 51
373.06102411444323
  0
LINE
  8
0
  6
CONTINUOUS
 62
               3
  5
450
 10
355.86425631235682
 20
-492.30408924970777
 30
0.0
 11
355.86425631235682
 21
-506.23042597632832
 31
0.0
  0
LINE
  8
0
  6
CONTINUOUS
 62
               3
  5
451
 10
315.86425631235682
 20
-506.23042597632832
 30
0.0
 11
315.86425631235682
 21
-492.30408924970777
 31
0.0
  0
ARC
  8
0
  6
CONTINUOUS
 62
               3
  5
452
 10
335.86425631235682
 20
-578.51458745033335
 30
0.0
 40
88.5
 50
76.938975885125828
 51
103.06102411470188
  0
LINE
  8
0
  6
CONTINUOUS
 62
               3
  5
453
 10
288.19613279149576
 20
-600.51458745033381
 30
0.0
 11
383.53237983321674
 21
-600.51458745033381
 31
0.0
  0
ARC
  8
0
  6
CONTINUOUS
 62
               3
  5
454
 10
348.36786796173794
 20
-569.80818982271433
 30
0.0
 40
54.763804151667173
 50
141.38591763670254
 51
145.15009542081481
  0
ARC
  8
0
  6
CONTINUOUS
 62
               3
  5
455
 10
335.86425631235682
 20
-578.51458745033335
 30
0.0
 40
51.5
 50
334.71098847313715
 51
410.95932736324704
  0
ARC
  8
0
  6
CONTINUOUS
 62
               3
  5
456
 10
335.86425631235682
 20
-578.51458745033335
 30
0.0
 40
51.5
 50
129.04067263623628
 51
205.28901152634572
  0
ARC
  8
0
  6
CONTINUOUS
 62
               3
  5
457
 10
335.86425631235682
 20
-578.51458745033335
 30
0.0
 40
77.5
 50
104.95524831654288
 51
128.57288309091018
  0
ARC
  8
0
  6
CONTINUOUS
 62
               3
  5
458
 10
335.86425631235682
 20
-578.51458745033335
 30
0.0
 40
77.5
 50
14.955248316628946
 51
75.044751683284815
  0
ARC
  8
0
  6
CONTINUOUS
 62
               3
  5
459
 10
335.86425631235682
 20
-578.51458745033335
 30
0.0
 40
77.5
 50
321.42711690865843
 51
345.04475168302622
  0
LINE
  8
0
  6
CONTINUOUS
 62
               3
  5
45A
 10
195.86425631235682
 20
-633.51458745033335
 30
0.0
 11
196.53581243832105
 21
-633.51458745033335
 31
0.0
  0
LINE
  8
0
  6
CONTINUOUS
 62
               3
  5
45B
 10
199.0358124383215
 20
-636.01458745033335
 30
0.0
 11
196.53581243832105
 21
-633.51458745033335
 31
0.0
  0
LINE
  8
0
  6
CONTINUOUS
 62
               3
  5
45C
 10
195.86425631235682
 20
-523.51458745033335
 30
0.0
 11
196.53581243832105
 21
-523.51458745033335
 31
0.0
  0
LINE
  8
0
  6
CONTINUOUS
 62
               3
  5
45D
 10
199.03581243832105
 20
-521.01458745033335
 30
0.0
 11
196.53581243832105
 21
-523.51458745033335
 31
0.0
  0
LINE
  8
0
  6
CONTINUOUS
 62
               3
  5
45E
 10
196.53581243832105
 20
-523.51458745033335
 30
0.0
 11
196.53581243832105
 21
-633.51458745033335
 31
0.0
  0
LINE
  8
0
  6
CONTINUOUS
 62
               3
  5
45F
 10
290.37392052597886
 20
-517.82499043199175
 30
0.0
 11
199.03581243832105
 21
-521.01458745033335
 31
0.0
  0
LINE
  8
0
  6
CONTINUOUS
 62
               3
  5
460
 10
271.02778459580577
 20
-638.52860251530103
 30
0.0
 11
199.03581243832161
 21
-636.01458745033335
 31
0.0
  0
LINE
  8
0
  6
CONTINUOUS
 62
               3
  5
461
 10
190.86425631235682
 20
-523.68614357629747
 30
0.0
 11
190.86425631235682
 21
-633.61458745033326
 31
0.0
  0
LINE
  8
0
  6
CONTINUOUS
 62
               3
  5
462
 10
195.86425631235682
 20
-636.11458745033326
 30
0.0
 11
195.86425631235682
 21
-520.91458745033322
 31
0.0
  0
LINE
  8
0
  6
CONTINUOUS
 62
               3
  5
463
 10
195.86425631235682
 20
-520.91458745033322
 30
0.0
 11
193.36425631235682
 21
-520.91458745033322
 31
0.0
  0
LINE
  8
0
  6
CONTINUOUS
 62
               3
  5
464
 10
195.86425631235682
 20
-636.11458745033326
 30
0.0
 11
193.36425631235682
 21
-636.11458745033326
 31
0.0
  0
ARC
  8
0
  6
CONTINUOUS
 62
               3
  5
465
 10
193.36425631235682
 20
-633.61458745033326
 30
0.0
 40
2.5
 50
179.99999999982765
 51
269.99999999974017
  0
ARC
  8
0
  6
CONTINUOUS
 62
               3
  5
466
 10
193.36425631235682
 20
-523.41458745033322
 30
0.0
 40
2.5
 50
89.999999999915119
 51
179.99999999982765
  0
LINE
  8
0
  6
CONTINUOUS
 62
               3
  5
467
 10
303.42585314573921
 20
-538.51458745033358
 30
0.0
 11
335.86425631235682
 21
-538.51458745033358
 31
0.0
  0
LINE
  8
0
  6
CONTINUOUS
 62
               3
  5
468
 10
335.86425631235682
 20
-538.51458745033358
 30
0.0
 11
369.8679325841955
 21
-538.51458745033358
 31
0.0
  0
LINE
  8
0
  6
CONTINUOUS
 62
               3
  5
469
 10
199.0358124383215
 20
-636.01458745033335
 30
0.0
 11
199.03581243832105
 21
-521.01458745033335
 31
0.0
  0
ARC
  8
0
  6
CONTINUOUS
 62
               3
  5
46A
 10
290.19942304246638
 20
-512.82803629689613
 30
0.0
 40
5.0
 50
271.99999999973971
 51
304.80675787013547
  0
LINE
  8
0
  6
CONTINUOUS
 62
               3
  5
46B
 10
390.8642563123567
 20
-718.51458745033335
 30
0.0
 11
390.8642563123567
 21
-717.84303132436901
 31
0.0
  0
LINE
  8
0
  6
CONTINUOUS
 62
               3
  5
46C
 10
393.3642563123567
 20
-715.34303132436855
 30
0.0
 11
390.8642563123567
 21
-717.84303132436901
 31
0.0
  0
LINE
  8
0
  6
CONTINUOUS
 62
               3
  5
46D
 10
280.8642563123567
 20
-718.51458745033335
 30
0.0
 11
280.8642563123567
 21
-717.84303132436901
 31
0.0
  0
LINE
  8
0
  6
CONTINUOUS
 62
               3
  5
46E
 10
278.3642563123567
 20
-715.34303132436901
 30
0.0
 11
280.8642563123567
 21
-717.84303132436901
 31
0.0
  0
LINE
  8
0
  6
CONTINUOUS
 62
               3
  5
46F
 10
280.8642563123567
 20
-717.84303132436901
 30
0.0
 11
390.8642563123567
 21
-717.84303132436901
 31
0.0
  0
LINE
  8
0
  6
CONTINUOUS
 62
               3
  5
470
 10
281.03581243832082
 20
-723.51458745033335
 30
0.0
 11
390.96425631235672
 21
-723.51458745033335
 31
0.0
  0
LINE
  8
0
  6
CONTINUOUS
 62
               3
  5
471
 10
393.46425631235672
 20
-718.51458745033335
 30
0.0
 11
278.26425631235668
 21
-718.51458745033335
 31
0.0
  0
LINE
  8
0
  6
CONTINUOUS
 62
               3
  5
472
 10
278.26425631235668
 20
-718.51458745033335
 30
0.0
 11
278.26425631235668
 21
-721.01458745033335
 31
0.0
  0
LINE
  8
0
  6
CONTINUOUS
 62
               3
  5
473
 10
393.46425631235672
 20
-718.51458745033335
 30
0.0
 11
393.46425631235672
 21
-721.01458745033335
 31
0.0
  0
ARC
  8
0
  6
CONTINUOUS
 62
               3
  5
474
 10
390.96425631235672
 20
-721.01458745033335
 30
0.0
 40
2.5
 50
269.99999999974142
 51
359.9999999996553
  0
ARC
  8
0
  6
CONTINUOUS
 62
               3
  5
475
 10
280.76425631235668
 20
-721.01458745033335
 30
0.0
 40
2.5
 50
179.99999999982242
 51
269.99999999974142
  0
LINE
  8
0
  6
CONTINUOUS
 62
               3
  5
476
 10
393.3642563123567
 20
-715.34303132436855
 30
0.0
 11
278.3642563123567
 21
-715.34303132436901
 31
0.0
  0
LINE
  8
0
  6
CONTINUOUS
 62
               3
  5
477
 10
396.55385333069785
 20
-624.00492323671176
 30
0.0
 11
393.3642563123567
 21
-715.34303132436855
 31
0.0
  0
ARC
  8
0
  6
CONTINUOUS
 62
               3
  5
478
 10
401.55080746579335
 20
-624.17942072022436
 30
0.0
 40
5.0
 50
145.19324212943334
 51
177.9999999998291
  0
LINE
  8
0
  6
CONTINUOUS
 62
               3
  5
479
 10
275.85024124738868
 20
-643.35105916688428
 30
0.0
 11
278.3642563123567
 21
-715.34303132436901
 31
0.0
  0
ARC
  8
0
  6
CONTINUOUS
 62
               3
  5
47A
 10
270.85328711229329
 20
-643.52555665039642
 30
0.0
 40
5.0
 50
1.9999999999958187
 51
87.999999999915318
  0
CIRCLE
  8
0
  6
CONTINUOUS
 62
               3
  5
47B
 10
335.86425631235682
 20
-578.51458745033335
 30
0.0
 40
59.0
  0
LINE
  8
0
  6
CONTINUOUS
 62
               3
  5
47C
 10
260.86425631235682
 20
-887.0140211989177
 30
0.0
 11
410.86425631235682
 21
-887.0140211989177
 31
0.0
  0
LINE
  8
0
  6
CONTINUOUS
 62
               3
  5
47D
 10
247.36425631235659
 20
-897.0140211989177
 30
0.0
 11
247.36425631235659
 21
-904.01402119891725
 31
0.0
  0
LINE
  8
0
  6
CONTINUOUS
 62
               3
  5
47E
 10
247.36425631235659
 20
-897.0140211989177
 30
0.0
 11
260.86425631235682
 21
-887.0140211989177
 31
0.0
  0
ARC
  8
0
  6
CONTINUOUS
 62
               3
  5
47F
 10
258.86425631235693
 20
-908.59659689387297
 30
0.0
 40
4.9999999999999991
 50
0.0
 51
66.421821521734969
  0
LINE
  8
0
  6
CONTINUOUS
 62
               3
  5
480
 10
247.36425631235659
 20
-904.01402119891725
 30
0.0
 11
424.36425631235647
 21
-904.01402119891725
 31
0.0
  0
ARC
  8
0
  6
CONTINUOUS
 62
               3
  5
481
 10
280.86425631235682
 20
-994.0140211989177
 30
0.0
 40
19.999999999999996
 50
148.21166938280612
 51
167.26981986152714
  0
LINE
  8
0
  6
CONTINUOUS
 62
               3
  5
482
 10
263.86425631235693
 20
-908.59659689387297
 30
0.0
 11
263.86425631235693
 21
-983.47836744606491
 31
0.0
  0
LINE
  8
0
  6
CONTINUOUS
 62
               3
  5
483
 10
407.8642563123567
 20
-978.47836744606445
 30
0.0
 11
407.8642563123567
 21
-908.59659689387297
 31
0.0
  0
LINE
  8
0
  6
CONTINUOUS
 62
               3
  5
484
 10
263.86425631235693
 20
-983.47836744606491
 30
0.0
 11
407.36425631235716
 21
-983.47836744606491
 31
0.0
  0
LINE
  8
0
  6
CONTINUOUS
 62
               3
  5
485
 10
315.86425631235682
 20
-904.01402119891725
 30
0.0
 11
315.86425631235682
 21
-887.0140211989177
 31
0.0
  0
LINE
  8
0
  6
CONTINUOUS
 62
               3
  5
486
 10
355.86425631235682
 20
-887.0140211989177
 30
0.0
 11
355.86425631235682
 21
-904.01402119891725
 31
0.0
  0
LINE
  8
0
  6
CONTINUOUS
 62
               3
  5
487
 10
315.86425631235682
 20
-897.0140211989177
 30
0.0
 11
355.86425631235682
 21
-897.0140211989177
 31
0.0
  0
LINE
  8
0
  6
CONTINUOUS
 62
               3
  5
488
 10
263.58009483835144
 20
-887.0140211989177
 30
0.0
 11
263.58009483835144
 21
-904.01402119891725
 31
0.0
  0
LINE
  8
0
  6
CONTINUOUS
 62
               3
  5
489
 10
249.65375811173158
 20
-897.0140211989177
 30
0.0
 11
249.65375811173158
 21
-904.01402119891725
 31
0.0
  0
LINE
  8
0
  6
CONTINUOUS
 62
               3
  5
48A
 10
247.36425631235659
 20
-897.0140211989177
 30
0.0
 11
249.65375811173158
 21
-897.0140211989177
 31
0.0
  0
LINE
  8
0
  6
CONTINUOUS
 62
               3
  5
48B
 10
249.65375811173158
 20
-897.0140211989177
 30
0.0
 11
263.58009483835144
 21
-887.0140211989177
 31
0.0
  0
LINE
  8
0
  6
CONTINUOUS
 62
               3
  5
48C
 10
424.36425631235647
 20
-897.0140211989177
 30
0.0
 11
424.36425631235647
 21
-904.01402119891725
 31
0.0
  0
LINE
  8
0
  6
CONTINUOUS
 62
               3
  5
48D
 10
424.36425631235647
 20
-897.0140211989177
 30
0.0
 11
410.86425631235682
 21
-887.0140211989177
 31
0.0
  0
ARC
  8
0
  6
CONTINUOUS
 62
               3
  5
48E
 10
412.8642563123567
 20
-908.59659689387297
 30
0.0
 40
4.9999999999999991
 50
113.57817847809247
 51
179.99999999982765
  0
LINE
  8
0
  6
CONTINUOUS
 62
               3
  5
48F
 10
408.14841778636105
 20
-887.0140211989177
 30
0.0
 11
408.14841778636105
 21
-904.01402119891725
 31
0.0
  0
LINE
  8
0
  6
CONTINUOUS
 62
               3
  5
490
 10
422.07475451298205
 20
-897.0140211989177
 30
0.0
 11
422.07475451298205
 21
-904.01402119891725
 31
0.0
  0
LINE
  8
0
  6
CONTINUOUS
 62
               3
  5
491
 10
424.36425631235647
 20
-897.0140211989177
 30
0.0
 11
422.07475451298205
 21
-897.0140211989177
 31
0.0
  0
LINE
  8
0
  6
CONTINUOUS
 62
               3
  5
492
 10
422.07475451298205
 20
-897.0140211989177
 30
0.0
 11
408.14841778636105
 21
-887.0140211989177
 31
0.0
  0
ARC
  8
0
  6
CONTINUOUS
 62
               3
  5
493
 10
270.86425631235682
 20
-1115.5140211989178
 30
0.0
 40
2.4999999999999996
 50
89.999999999913825
 51
269.99999999974142
  0
ARC
  8
0
  6
CONTINUOUS
 62
               3
  5
494
 10
410.86425631235682
 20
-1115.5140211989178
 30
0.0
 40
2.4999999999999996
 50
269.99999999974142
 51
449.99999999956907
  0
LINE
  8
0
  6
CONTINUOUS
 62
               3
  5
495
 10
195.86425631235682
 20
-1108.0140211989178
 30
0.0
 11
196.53581243832116
 21
-1108.0140211989178
 31
0.0
  0
LINE
  8
0
  6
CONTINUOUS
 62
               3
  5
496
 10
199.03581243832127
 20
-1110.5140211989169
 30
0.0
 11
196.53581243832116
 21
-1108.0140211989178
 31
0.0
  0
LINE
  8
0
  6
CONTINUOUS
 62
               3
  5
497
 10
199.03581243832207
 20
-1110.5140211989178
 30
0.0
 11
241.2009226945994
 21
-1111.986459294772
 31
0.0
  0
LINE
  8
0
  6
CONTINUOUS
 62
               3
  5
498
 10
259.39979021828935
 20
-1128.2857106252036
 30
0.0
 11
244.56195911701957
 21
-1113.4478795239343
 31
0.0
  0
ARC
  8
0
  6
CONTINUOUS
 62
               3
  5
499
 10
255.86425631235682
 20
-1131.8212445311369
 30
0.0
 40
4.9999999999999991
 50
0.0
 51
44.999999999957062
  0
LINE
  8
0
  6
CONTINUOUS
 62
               3
  5
49A
 10
195.86425631235682
 20
-998.0140211989177
 30
0.0
 11
196.53581243832116
 21
-998.0140211989177
 31
0.0
  0
LINE
  8
0
  6
CONTINUOUS
 62
               3
  5
49B
 10
199.03581243832127
 20
-995.5140211989177
 30
0.0
 11
196.53581243832116
 21
-998.0140211989177
 31
0.0
  0
LINE
  8
0
  6
CONTINUOUS
 62
               3
  5
49C
 10
199.03581243832116
 20
-995.5140211989177
 30
0.0
 11
256.65328864049548
 21
-993.50197459376534
 31
0.0
  0
LINE
  8
0
  6
CONTINUOUS
 62
               3
  5
49D
 10
196.53581243832116
 20
-998.0140211989177
 30
0.0
 11
196.53581243832116
 21
-1108.0140211989178
 31
0.0
  0
LINE
  8
0
  6
CONTINUOUS
 62
               3
  5
49E
 10
195.86425631235682
 20
-1110.6140211989177
 30
0.0
 11
195.86425631235682
 21
-995.41402119891779
 31
0.0
  0
LINE
  8
0
  6
CONTINUOUS
 62
               3
  5
49F
 10
195.86425631235682
 20
-995.41402119891779
 30
0.0
 11
193.36425631235682
 21
-995.41402119891779
 31
0.0
  0
ARC
  8
0
  6
CONTINUOUS
 62
               3
  5
4A0
 10
193.36425631235682
 20
-997.91402119891779
 30
0.0
 40
2.5
 50
89.999999999915119
 51
179.99999999982242
  0
LINE
  8
0
  6
CONTINUOUS
 62
               3
  5
4A1
 10
190.86425631235682
 20
-997.91402119891779
 30
0.0
 11
190.86425631235682
 21
-1108.1140211989177
 31
0.0
  0
LINE
  8
0
  6
CONTINUOUS
 62
               3
  5
4A2
 10
195.86425631235682
 20
-1110.6140211989177
 30
0.0
 11
193.36425631235682
 21
-1110.6140211989177
 31
0.0
  0
ARC
  8
0
  6
CONTINUOUS
 62
               3
  5
4A3
 10
193.36425631235682
 20
-1108.1140211989177
 30
0.0
 40
2.5
 50
179.99999999982242
 51
269.99999999974017
  0
LINE
  8
0
  6
CONTINUOUS
 62
               3
  5
4A4
 10
199.03581243832127
 20
-995.5140211989177
 30
0.0
 11
199.03581243832207
 21
-1110.5140211989178
 31
0.0
  0
ARC
  8
0
  6
CONTINUOUS
 62
               3
  5
4A5
 10
241.02642521108692
 20
-1116.9834134298671
 30
0.0
 40
5.0
 50
44.999999999958909
 51
87.999999999915318
  0
ARC
  8
0
  6
CONTINUOUS
 62
               3
  5
4A6
 10
256.47879115698299
 20
-988.50502045866995
 30
0.0
 40
5.0
 50
271.99999999973971
 51
347.26981986135308
  0
CIRCLE
  8
0
  6
CONTINUOUS
 62
               3
  5
4A7
 10
335.86425631235682
 20
-1053.0140211989178
 30
0.0
 40
48.5
  0
CIRCLE
  8
0
  6
CONTINUOUS
 62
               3
  5
4A8
 10
335.86425631235682
 20
-1053.0140211989178
 30
0.0
 40
47.299999999999997
  0
LINE
  8
0
  6
CONTINUOUS
 62
               3
  5
4A9
 10
304.04445115896226
 20
-1084.8338263523124
 30
0.0
 11
302.41810556223311
 21
-1086.4601719490415
 31
0.0
  0
LINE
  8
0
  6
CONTINUOUS
 62
               3
  5
4AA
 10
367.68406146575148
 20
-1084.8338263523124
 30
0.0
 11
369.31040706248052
 21
-1086.4601719490415
 31
0.0
  0
ARC
  8
0
  6
CONTINUOUS
 62
               3
  5
4AB
 10
335.86425631235682
 20
-1053.0140211989178
 30
0.0
 40
45.0
 50
224.99999999978439
 51
314.9999999996985
  0
CIRCLE
  8
0
  6
CONTINUOUS
 62
               3
  5
4AC
 10
335.86425631235682
 20
-1053.0140211989178
 30
0.0
 40
57.600000000000001
  0
ARC
  8
0
  6
CONTINUOUS
 62
               3
  5
4AD
 10
313.36425631235738
 20
-1115.5140211989178
 30
0.0
 40
2.4999999999999996
 50
269.99999999974142
 51
449.99999999956907
  0
ARC
  8
0
  6
CONTINUOUS
 62
               3
  5
4AE
 10
358.36425631235738
 20
-1115.5140211989178
 30
0.0
 40
2.4999999999999996
 50
89.999999999911211
 51
269.99999999974142
  0
LINE
  8
0
  6
CONTINUOUS
 62
               3
  5
4AF
 10
270.86425631235682
 20
-1118.0140211989178
 30
0.0
 11
313.36425631235738
 21
-1118.0140211989178
 31
0.0
  0
LINE
  8
0
  6
CONTINUOUS
 62
               3
  5
4B0
 10
270.86425631235682
 20
-1113.0140211989178
 30
0.0
 11
313.36425631235738
 21
-1113.0140211989178
 31
0.0
  0
LINE
  8
0
  6
CONTINUOUS
 62
               3
  5
4B1
 10
358.36425631235738
 20
-1113.0140211989178
 30
0.0
 11
410.86425631235682
 21
-1113.0140211989178
 31
0.0
  0
LINE
  8
0
  6
CONTINUOUS
 62
               3
  5
4B2
 10
358.36425631235738
 20
-1118.0140211989178
 30
0.0
 11
410.86425631235682
 21
-1118.0140211989178
 31
0.0
  0
LINE
  8
0
  6
DASHED2
 62
               3
  5
4B3
 10
-300.1822669039517
 20
65.27124453113737
 30
0.0
 11
-276.66226690395138
 21
65.27124453113737
 31
0.0
  0
LINE
  8
0
  6
DASHED2
 62
               3
  5
4B4
 10
-276.6622669039528
 20
62.071244531137097
 30
0.0
 11
-300.18226690395312
 21
62.071244531137097
 31
0.0
  0
LINE
  8
0
  6
DASHED2
 62
               3
  5
4B5
 10
-46.662266903950808
 20
65.271244531137597
 30
0.0
 11
-70.182266903951131
 21
65.271244531137597
 31
0.0
  0
LINE
  8
0
  6
DASHED2
 62
               3
  5
4B6
 10
-70.18226690394971
 20
62.071244531137211
 30
0.0
 11
-46.662266903949387
 21
62.071244531137211
 31
0.0
  0
INSERT
  8
0
  6
CONTINUOUS
  5
4B7
  2
GROUP_1
 10
0.0
 20
0.0
 30
0.0
  0
INSERT
  8
0
  6
CONTINUOUS
  5
4B8
  2
GROUP_2
 10
0.0
 20
0.0
 30
0.0
  0
INSERT
  8
0
  6
CONTINUOUS
  5
4B9
  2
GROUP_3
 10
0.0
 20
0.0
 30
0.0
  0
INSERT
  8
0
  6
CONTINUOUS
  5
4BA
  2
GROUP_4
 10
0.0
 20
0.0
 30
0.0
  0
INSERT
  8
0
  6
CONTINUOUS
  5
4BB
  2
GROUP_5
 10
0.0
 20
0.0
 30
0.0
  0
INSERT
  8
0
  6
CONTINUOUS
  5
4BC
  2
GROUP_6
 10
0.0
 20
0.0
 30
0.0
  0
POINT
  8
0
  6
DASHED2
 62
               5
  5
4BD
 10
-767.92226690395114
 20
94.321244531138007
 30
0.0
  0
POINT
  8
0
  6
CONTINUOUS
 62
               5
  5
4BE
 10
-273.42226690395097
 20
-610.55082754093371
 30
0.0
  0
POINT
  8
0
  6
CONTINUOUS
 62
               5
  5
4BF
 10
-446.6523384139112
 20
-611.84162161582242
 30
0.0
  0
POINT
  8
0
  6
CONTINUOUS
 62
               5
  5
4C0
 10
-100.19219539399069
 20
-611.84162161582265
 30
0.0
  0
POINT
  8
0
  6
CONTINUOUS
 62
               5
  5
4C1
 10
-268.21306097883991
 20
-443.82075603097348
 30
0.0
  0
POINT
  8
0
  6
CONTINUOUS
 62
               5
  5
4C2
 10
219.59432782231727
 20
-577.22379337544419
 30
0.0
  0
POINT
  8
0
  6
CONTINUOUS
 62
               5
  5
4C3
 10
219.59432782231715
 20
-1054.3048152738065
 30
0.0
  0
CIRCLE
  8
0
  6
CONTINUOUS
 62
               7
  5
4C4
 10
-273.42226690395097
 20
-617.05082754093371
 30
0.0
 40
38.0
  0
LINE
  8
0
  6
CONTINUOUS
 62
               7
  5
4C5
 10
-417.92226690395086
 20
-579.05082754093348
 30
0.0
 11
-417.92226690395097
 21
-655.04559142025903
 31
0.0
  0
LINE
  8
0
  6
CONTINUOUS
 62
               7
  5
4C6
 10
-417.92226690395086
 20
-566.05082754093348
 30
0.0
 11
-417.32226690395089
 21
-566.05082754093348
 31
0.0
  0
LINE
  8
0
  6
CONTINUOUS
 62
               7
  5
4C7
 10
-475.92226690395097
 20
-654.05082754093348
 30
0.0
 11
-475.92226690395097
 21
-580.05082754093348
 31
0.0
  0
LINE
  8
0
  6
CONTINUOUS
 62
               7
  5
4C8
 10
-417.92226690395097
 20
-655.05082754093348
 30
0.0
 11
-393.32226690395089
 21
-655.05082754093348
 31
0.0
  0
LINE
  8
0
  6
CONTINUOUS
 62
               7
  5
4C9
 10
-475.92226690395097
 20
-654.05082754093348
 30
0.0
 11
-474.92226690395097
 21
-655.05082754093348
 31
0.0
  0
LINE
  8
0
  6
CONTINUOUS
 62
               7
  5
4CA
 10
-474.92226690395097
 20
-579.05082754093348
 30
0.0
 11
-417.92226690395086
 21
-579.05082754093348
 31
0.0
  0
LINE
  8
0
  6
CONTINUOUS
 62
               7
  5
4CB
 10
-382.92226690395097
 20
-654.05082754093348
 30
0.0
 11
-383.92226690395097
 21
-655.05082754093348
 31
0.0
  0
CIRCLE
  8
0
  6
CONTINUOUS
 62
               7
  5
4CC
 10
-273.42226690395103
 20
-625.05082754093371
 30
0.0
 40
30.0
  0
CIRCLE
  8
0
  6
CONTINUOUS
 62
               7
  5
4CD
 10
-273.42226690395103
 20
-625.05082754093371
 30
0.0
 40
0.1981604108525852
  0
CIRCLE
  8
0
  6
CONTINUOUS
 62
               7
  5
4CE
 10
-273.42226690395103
 20
-625.05082754093371
 30
0.0
 40
25.5
  0
LINE
  8
0
  6
CONTINUOUS
 62
               7
  5
4CF
 10
-392.32226690395089
 20
-654.05082754093348
 30
0.0
 11
-392.32226690395089
 21
-596.05082754093371
 31
0.0
  0
LINE
  8
0
  6
CONTINUOUS
 62
               7
  5
4D0
 10
-417.92226690395086
 20
-595.05082754093371
 30
0.0
 11
-393.32226690395089
 21
-595.05082754093371
 31
0.0
  0
LINE
  8
0
  6
CONTINUOUS
 62
               7
  5
4D1
 10
-417.92226690395097
 20
-655.04559142025903
 30
0.0
 11
-474.92226690395097
 21
-655.05082754093348
 31
0.0
  0
LINE
  8
0
  6
CONTINUOUS
 62
               7
  5
4D2
 10
-474.92226690395097
 20
-579.05082754093348
 30
0.0
 11
-475.92226690395097
 21
-580.05082754093348
 31
0.0
  0
LINE
  8
0
  6
CONTINUOUS
 62
               7
  5
4D3
 10
-393.32226690395089
 20
-595.05082754093371
 30
0.0
 11
-392.32226690395089
 21
-596.05082754093371
 31
0.0
  0
LINE
  8
0
  6
CONTINUOUS
 62
               7
  5
4D4
 10
-392.32226690395089
 20
-654.05082754093348
 30
0.0
 11
-393.32226690395089
 21
-655.05082754093348
 31
0.0
  0
LINE
  8
0
  6
CONTINUOUS
 62
               7
  5
4D5
 10
-128.92226690395103
 20
-579.05082754093371
 30
0.0
 11
-128.92226690395105
 21
-655.04559142025926
 31
0.0
  0
LINE
  8
0
  6
CONTINUOUS
 62
               7
  5
4D6
 10
-128.92226690395103
 20
-566.05082754093371
 30
0.0
 11
-129.52226690395099
 21
-566.05082754093371
 31
0.0
  0
LINE
  8
0
  6
CONTINUOUS
 62
               7
  5
4D7
 10
-70.922266903951027
 20
-654.05082754093371
 30
0.0
 11
-70.922266903950941
 21
-580.05082754093371
 31
0.0
  0
LINE
  8
0
  6
CONTINUOUS
 62
               7
  5
4D8
 10
-128.92226690395105
 20
-655.05082754093371
 30
0.0
 11
-153.52226690395111
 21
-655.05082754093371
 31
0.0
  0
LINE
  8
0
  6
CONTINUOUS
 62
               7
  5
4D9
 10
-70.922266903951027
 20
-654.05082754093371
 30
0.0
 11
-71.922266903951027
 21
-655.05082754093371
 31
0.0
  0
LINE
  8
0
  6
CONTINUOUS
 62
               7
  5
4DA
 10
-71.922266903950941
 20
-579.05082754093371
 30
0.0
 11
-128.92226690395103
 21
-579.05082754093371
 31
0.0
  0
LINE
  8
0
  6
CONTINUOUS
 62
               7
  5
4DB
 10
-163.92226690395103
 20
-654.05082754093371
 30
0.0
 11
-162.92226690395103
 21
-655.05082754093371
 31
0.0
  0
LINE
  8
0
  6
CONTINUOUS
 62
               7
  5
4DC
 10
-154.52226690395111
 20
-654.05082754093371
 30
0.0
 11
-154.52226690395105
 21
-596.05082754093394
 31
0.0
  0
LINE
  8
0
  6
CONTINUOUS
 62
               7
  5
4DD
 10
-128.92226690395105
 20
-595.05082754093394
 30
0.0
 11
-153.52226690395105
 21
-595.05082754093394
 31
0.0
  0
LINE
  8
0
  6
CONTINUOUS
 62
               7
  5
4DE
 10
-128.92226690395105
 20
-655.04559142025926
 30
0.0
 11
-71.922266903951027
 21
-655.05082754093371
 31
0.0
  0
LINE
  8
0
  6
CONTINUOUS
 62
               7
  5
4DF
 10
-71.922266903950941
 20
-579.05082754093371
 30
0.0
 11
-70.922266903950941
 21
-580.05082754093371
 31
0.0
  0
LINE
  8
0
  6
CONTINUOUS
 62
               7
  5
4E0
 10
-153.52226690395105
 20
-595.05082754093394
 30
0.0
 11
-154.52226690395105
 21
-596.05082754093394
 31
0.0
  0
LINE
  8
0
  6
CONTINUOUS
 62
               7
  5
4E1
 10
-154.52226690395111
 20
-654.05082754093371
 30
0.0
 11
-153.52226690395111
 21
-655.05082754093371
 31
0.0
  0
LINE
  8
0
  6
CONTINUOUS
 62
               7
  5
4E2
 10
-235.42226690395086
 20
-472.55082754093394
 30
0.0
 11
-311.4170307832764
 21
-472.55082754093371
 31
0.0
  0
LINE
  8
0
  6
CONTINUOUS
 62
               7
  5
4E3
 10
-222.42226690395086
 20
-471.9508275409338
 30
0.0
 11
-222.42226690395086
 21
-472.55082754093394
 31
0.0
  0
LINE
  8
0
  6
CONTINUOUS
 62
               7
  5
4E4
 10
-310.4222669039508
 20
-414.55082754093371
 30
0.0
 11
-236.4222669039508
 21
-414.55082754093371
 31
0.0
  0
LINE
  8
0
  6
CONTINUOUS
 62
               7
  5
4E5
 10
-303.42226690395086
 20
-472.55082754093371
 30
0.0
 11
-303.42226690395086
 21
-497.15082754093385
 31
0.0
  0
LINE
  8
0
  6
CONTINUOUS
 62
               7
  5
4E6
 10
-310.4222669039508
 20
-414.55082754093371
 30
0.0
 11
-311.4222669039508
 21
-415.55082754093371
 31
0.0
  0
LINE
  8
0
  6
CONTINUOUS
 62
               7
  5
4E7
 10
-235.4222669039508
 20
-415.55082754093371
 30
0.0
 11
-235.42226690395086
 21
-472.55082754093394
 31
0.0
  0
LINE
  8
0
  6
CONTINUOUS
 62
               7
  5
4E8
 10
-302.42226690395091
 20
-507.55082754093371
 30
0.0
 11
-303.42226690395091
 21
-506.55082754093371
 31
0.0
  0
LINE
  8
0
  6
CONTINUOUS
 62
               7
  5
4E9
 10
-302.42226690395086
 20
-498.15082754093385
 30
0.0
 11
-244.42226690395103
 21
-498.15082754093385
 31
0.0
  0
LINE
  8
0
  6
CONTINUOUS
 62
               7
  5
4EA
 10
-243.42226690395103
 20
-472.55082754093394
 30
0.0
 11
-243.42226690395103
 21
-497.15082754093385
 31
0.0
  0
LINE
  8
0
  6
CONTINUOUS
 62
               7
  5
4EB
 10
-311.4170307832764
 20
-472.55082754093371
 30
0.0
 11
-311.4222669039508
 21
-415.55082754093371
 31
0.0
  0
LINE
  8
0
  6
CONTINUOUS
 62
               7
  5
4EC
 10
-235.4222669039508
 20
-415.55082754093371
 30
0.0
 11
-236.4222669039508
 21
-414.55082754093371
 31
0.0
  0
LINE
  8
0
  6
CONTINUOUS
 62
               7
  5
4ED
 10
-243.42226690395103
 20
-497.15082754093385
 30
0.0
 11
-244.42226690395103
 21
-498.15082754093385
 31
0.0
  0
LINE
  8
0
  6
CONTINUOUS
 62
               7
  5
4EE
 10
-302.42226690395086
 20
-498.15082754093385
 30
0.0
 11
-303.42226690395086
 21
-497.15082754093385
 31
0.0
  0
LINE
  8
0
  6
CONTINUOUS
 62
               7
  5
4EF
 10
306.86425631235682
 20
-749.11458745033326
 30
0.0
 11
364.86425631235682
 21
-749.11458745033326
 31
0.0
  0
LINE
  8
0
  6
CONTINUOUS
 62
               7
  5
4F0
 10
380.36425631235682
 20
-723.51458745033335
 30
0.0
 11
291.36425631235682
 21
-723.51458745033335
 31
0.0
  0
LINE
  8
0
  6
CONTINUOUS
 62
               7
  5
4F1
 10
380.36425631235682
 20
-722.91458745033344
 30
0.0
 11
380.36425631235682
 21
-723.51458745033335
 31
0.0
  0
LINE
  8
0
  6
CONTINUOUS
 62
               7
  5
4F2
 10
292.36425631235682
 20
-665.51458745033312
 30
0.0
 11
379.36425631235682
 21
-665.51458745033312
 31
0.0
  0
LINE
  8
0
  6
CONTINUOUS
 62
               7
  5
4F3
 10
380.36425631235682
 20
-723.38013570485293
 30
0.0
 11
380.36425631235682
 21
-666.51458745033312
 31
0.0
  0
LINE
  8
0
  6
CONTINUOUS
 62
               7
  5
4F4
 10
305.86425631235682
 20
-748.11458745033326
 30
0.0
 11
305.86425631235682
 21
-723.51458745033335
 31
0.0
  0
LINE
  8
0
  6
CONTINUOUS
 62
               7
  5
4F5
 10
365.86425631235682
 20
-748.11458745033326
 30
0.0
 11
365.86425631235682
 21
-723.51458745033335
 31
0.0
  0
LINE
  8
0
  6
CONTINUOUS
 62
               7
  5
4F6
 10
365.86425631235682
 20
-748.11458745033326
 30
0.0
 11
364.86425631235682
 21
-749.11458745033326
 31
0.0
  0
LINE
  8
0
  6
CONTINUOUS
 62
               7
  5
4F7
 10
380.36425631235682
 20
-666.51458745033312
 30
0.0
 11
379.36425631235682
 21
-665.51458745033312
 31
0.0
  0
LINE
  8
0
  6
CONTINUOUS
 62
               7
  5
4F8
 10
306.86425631235682
 20
-749.11458745033326
 30
0.0
 11
305.86425631235682
 21
-748.11458745033326
 31
0.0
  0
LINE
  8
0
  6
CONTINUOUS
 62
               7
  5
4F9
 10
292.36425631235682
 20
-665.51458745033312
 30
0.0
 11
291.36425631235682
 21
-666.51458745033312
 31
0.0
  0
LINE
  8
0
  6
CONTINUOUS
 62
               7
  5
4FA
 10
291.36425631235682
 20
-723.38013570485293
 30
0.0
 11
291.36425631235682
 21
-666.51458745033312
 31
0.0
  0
LINE
  8
0
  6
CONTINUOUS
 62
               7
  5
4FB
 10
190.86425631235682
 20
-623.01458745033312
 30
0.0
 11
190.86425631235704
 21
-534.01982357100758
 31
0.0
  0
LINE
  8
0
  6
CONTINUOUS
 62
               7
  5
4FC
 10
191.46425631235695
 20
-623.01458745033312
 30
0.0
 11
190.86425631235682
 21
-623.01458745033312
 31
0.0
  0
LINE
  8
0
  6
CONTINUOUS
 62
               7
  5
4FD
 10
155.86425631235704
 20
-541.51458745033312
 30
0.0
 11
155.86425631235682
 21
-615.51458745033312
 31
0.0
  0
LINE
  8
0
  6
CONTINUOUS
 62
               7
  5
4FE
 10
248.86425631235704
 20
-535.01458745033335
 30
0.0
 11
248.86425631235682
 21
-622.01458745033312
 31
0.0
  0
LINE
  8
0
  6
CONTINUOUS
 62
               7
  5
4FF
 10
190.86425631235682
 20
-623.01458745033312
 30
0.0
 11
247.86425631235682
 21
-623.01458745033312
 31
0.0
  0
LINE
  8
0
  6
CONTINUOUS
 62
               7
  5
500
 10
156.86425631235704
 20
-540.51458745033312
 30
0.0
 11
190.86425631235704
 21
-540.51458745033312
 31
0.0
  0
LINE
  8
0
  6
CONTINUOUS
 62
               7
  5
501
 10
247.86425631235682
 20
-623.01458745033312
 30
0.0
 11
248.86425631235682
 21
-622.01458745033312
 31
0.0
  0
LINE
  8
0
  6
CONTINUOUS
 62
               7
  5
502
 10
248.86425631235704
 20
-535.01458745033335
 30
0.0
 11
247.86425631235704
 21
-534.01458745033335
 31
0.0
  0
LINE
  8
0
  6
CONTINUOUS
 62
               7
  5
503
 10
156.86425631235682
 20
-616.51458745033312
 30
0.0
 11
190.86425631235704
 21
-616.51458745033312
 31
0.0
  0
LINE
  8
0
  6
CONTINUOUS
 62
               7
  5
504
 10
156.86425631235682
 20
-616.51458745033312
 30
0.0
 11
155.86425631235682
 21
-615.51458745033312
 31
0.0
  0
LINE
  8
0
  6
CONTINUOUS
 62
               7
  5
505
 10
155.86425631235704
 20
-541.51458745033312
 30
0.0
 11
156.86425631235704
 21
-540.51458745033312
 31
0.0
  0
LINE
  8
0
  6
CONTINUOUS
 62
               7
  5
506
 10
190.86425631235704
 20
-534.01458745033312
 30
0.0
 11
247.86425631235704
 21
-534.01458745033312
 31
0.0
  0
CIRCLE
  8
0
  6
CONTINUOUS
 62
               7
  5
507
 10
335.86425631235682
 20
-1067.5140211989178
 30
0.0
 40
25.5
  0
CIRCLE
  8
0
  6
CONTINUOUS
 62
               7
  5
508
 10
335.86425631235682
 20
-1053.0140211989178
 30
0.0
 40
44.5
  0
CIRCLE
  8
0
  6
CONTINUOUS
 62
               7
  5
509
 10
335.86425631235682
 20
-1067.5140211989178
 30
0.0
 40
30.0
  0
LINE
  8
0
  6
CONTINUOUS
 62
               7
  5
50A
 10
190.86425631235682
 20
-1008.5140211989177
 30
0.0
 11
190.86425631235682
 21
-1097.5087850782434
 31
0.0
  0
LINE
  8
0
  6
CONTINUOUS
 62
               7
  5
50B
 10
191.46425631235684
 20
-1008.5140211989177
 30
0.0
 11
190.86425631235682
 21
-1008.5140211989177
 31
0.0
  0
LINE
  8
0
  6
CONTINUOUS
 62
               7
  5
50C
 10
155.86425631235682
 20
-1096.5140211989178
 30
0.0
 11
155.86425631235682
 21
-1022.5140211989177
 31
0.0
  0
LINE
  8
0
  6
CONTINUOUS
 62
               7
  5
50D
 10
248.86425631235682
 20
-1096.5140211989178
 30
0.0
 11
248.86425631235682
 21
-1009.5140211989177
 31
0.0
  0
LINE
  8
0
  6
CONTINUOUS
 62
               7
  5
50E
 10
190.86425631235682
 20
-1008.5140211989177
 30
0.0
 11
247.86425631235682
 21
-1008.5140211989177
 31
0.0
  0
LINE
  8
0
  6
CONTINUOUS
 62
               7
  5
50F
 10
156.86425631235682
 20
-1097.5140211989178
 30
0.0
 11
247.86425631235682
 21
-1097.5140211989178
 31
0.0
  0
LINE
  8
0
  6
CONTINUOUS
 62
               7
  5
510
 10
247.86425631235682
 20
-1008.5140211989177
 30
0.0
 11
248.86425631235682
 21
-1009.5140211989177
 31
0.0
  0
LINE
  8
0
  6
CONTINUOUS
 62
               7
  5
511
 10
248.86425631235682
 20
-1096.5140211989178
 30
0.0
 11
247.86425631235682
 21
-1097.5140211989178
 31
0.0
  0
LINE
  8
0
  6
CONTINUOUS
 62
               7
  5
512
 10
156.86425631235682
 20
-1021.5140211989177
 30
0.0
 11
190.86425631235682
 21
-1021.5140211989177
 31
0.0
  0
LINE
  8
0
  6
CONTINUOUS
 62
               7
  5
513
 10
156.86425631235682
 20
-1021.5140211989177
 30
0.0
 11
155.86425631235682
 21
-1022.5140211989177
 31
0.0
  0
LINE
  8
0
  6
CONTINUOUS
 62
               7
  5
514
 10
155.86425631235682
 20
-1096.5140211989178
 30
0.0
 11
156.86425631235682
 21
-1097.5140211989178
 31
0.0
  0
CIRCLE
  8
0
  6
DASHED
 62
               7
  5
515
 10
335.86425631235682
 20
-1053.0140211989178
 30
0.0
 40
40.0
  0
TEXT
  8
0
 62
               3
  5
516
 10
-273.42226690395103
 20
-701.55082754093371
 30
0.0
 40
40.0
  1
EMB_65×50
 41
0.8
 72
               1
 11
-273.42226690395103
 21
-701.55082754093371
 31
0.0
 73
               3
  0
TEXT
  8
0
 62
               3
  5
517
 10
-271.57773309604886
 20
-323.6360339652166
 30
0.0
 40
40.0
  1
横枝管に呼び５０の管を接続するときは、EMBをご使用ください。
 41
0.8
 72
               1
 11
-271.57773309604886
 21
-323.6360339652166
 31
0.0
 73
               3
  0
TEXT
  8
0
 62
               3
  5
518
 10
332.16685233471651
 20
-399.06821894511393
 30
0.0
 40
40.0
  1
EMB使用例
 41
0.8
 72
               1
 11
332.16685233471651
 21
-399.06821894511393
 31
0.0
 73
               3
  0
ENDSEC
  0
EOF
