  0
SECTION
  2
HEADER
  9
$ACADVER
  1
AC1009
  9
$INSBASE
 10
0.0
 20
0.0
 30
0.0
  9
$EXTMIN
 10
-641.28625489580406
 20
-1614.0161993106078
 30
0.0
  9
$EXTMAX
 10
744.43500906164388
 20
737.07386314699932
 30
0.0
  9
$LIMMIN
 10
-684.59004439447426
 20
-1687.4877637624081
  9
$LIMMAX
 10
787.73879856031408
 20
810.54542759879951
  9
$ORTHOMODE
 70
               0
  9
$REGENMODE
 70
               1
  9
$FILLMODE
 70
               1
  9
$QTEXTMODE
 70
               0
  9
$MIRRTEXT
 70
               1
  9
$DRAGMODE
 70
               2
  9
$LTSCALE
 40
1.0
  9
$OSMODE
 70
               0
  9
$ATTMODE
 70
               1
  9
$TEXTSIZE
 40
0.2
  9
$TRACEWID
 40
0.05
  9
$TEXTSTYLE
  7
STANDARD
  9
$CLAYER
  8
0
  9
$CELTYPE
  6
CONTINUOUS
  9
$CECOLOR
 62
             256
  9
$DIMSCALE
 40
1.0
  9
$DIMASZ
 40
0.18
  9
$DIMEXO
 40
0.0625
  9
$DIMDLI
 40
0.38
  9
$DIMRND
 40
0.0
  9
$DIMDLE
 40
0.0
  9
$DIMEXE
 40
0.18
  9
$DIMTP
 40
0.0
  9
$DIMTM
 40
0.0
  9
$DIMTXT
 40
0.18
  9
$DIMCEN
 40
0.09
  9
$DIMTSZ
 40
0.0
  9
$DIMTOL
 70
               0
  9
$DIMLIM
 70
               0
  9
$DIMTIH
 70
               1
  9
$DIMTOH
 70
               1
  9
$DIMSE1
 70
               0
  9
$DIMSE2
 70
               0
  9
$DIMTAD
 70
               0
  9
$DIMZIN
 70
               0
  9
$DIMBLK
  1

  9
$DIMASO
 70
               1
  9
$DIMSHO
 70
               1
  9
$DIMPOST
  1

  9
$DIMAPOST
  1

  9
$DIMALT
 70
               0
  9
$DIMALTD
 70
               2
  9
$DIMALTF
 40
25.399999999999999
  9
$DIMLFAC
 40
1.0
  9
$DIMTOFL
 70
               0
  9
$DIMTVP
 40
0.0
  9
$DIMTIX
 70
               0
  9
$DIMSOXD
 70
               0
  9
$DIMSAH
 70
               0
  9
$DIMBLK1
  1

  9
$DIMBLK2
  1

  9
$DIMSTYLE
  2
STANDARD
  9
$DIMCLRD
 70
               0
  9
$DIMCLRE
 70
               0
  9
$DIMCLRT
 70
               0
  9
$DIMTFAC
 40
1.0
  9
$DIMGAP
 40
0.09
  9
$LUNITS
 70
               2
  9
$LUPREC
 70
               4
  9
$AXISMODE
 70
               0
  9
$AXISUNIT
 10
0.0
 20
0.0
  9
$SKETCHINC
 40
0.1
  9
$FILLETRAD
 40
0.0
  9
$AUNITS
 70
               0
  9
$AUPREC
 70
               0
  9
$MENU
  1
acad
  9
$ELEVATION
 40
0.0
  9
$PELEVATION
 40
0.0
  9
$THICKNESS
 40
0.0
  9
$LIMCHECK
 70
               0
  9
$BLIPMODE
 70
               1
  9
$CHAMFERA
 40
0.0
  9
$CHAMFERB
 40
0.0
  9
$SKPOLY
 70
               0
  9
$TDCREATE
 40
0.000000000
  9
$TDUPDATE
 40
0.000000000
  9
$TDINDWG
 40
0.0000000000
  9
$TDUSRTIMER
 40
0.0000000000
  9
$USRTIMER
 70
               1
  9
$ANGBASE
 50
0.0
  9
$ANGDIR
 70
               0
  9
$PDMODE
 70
               0
  9
$PDSIZE
 40
1.0
  9
$PLINEWID
 40
0.0
  9
$COORDS
 70
               1
  9
$SPLFRAME
 70
               0
  9
$SPLINETYPE
 70
               6
  9
$SPLINESEGS
 70
               8
  9
$ATTDIA
 70
               0
  9
$ATTREQ
 70
               1
  9
$HANDLING
 70
               1
  9
$HANDSEED
  5
520
  9
$SURFTAB1
 70
               6
  9
$SURFTAB2
 70
               6
  9
$SURFTYPE
 70
               6
  9
$SURFU
 70
               6
  9
$SURFV
 70
               6
  9
$UCSNAME
  2

  9
$UCSORG
 10
0.0
 20
0.0
 30
0.0
  9
$UCSXDIR
 10
1.0
 20
0.0
 30
0.0
  9
$UCSYDIR
 10
0.0
 20
1.0
 30
0.0
  9
$PUCSNAME
  2

  9
$PUCSORG
 10
0.0
 20
0.0
 30
0.0
  9
$PUCSXDIR
 10
1.0
 20
0.0
 30
0.0
  9
$PUCSYDIR
 10
0.0
 20
1.0
 30
0.0
  9
$USERI1
 70
               0
  9
$USERI2
 70
               0
  9
$USERI3
 70
               0
  9
$USERI4
 70
               0
  9
$USERI5
 70
               0
  9
$USERR1
 40
0.0
  9
$USERR2
 40
0.0
  9
$USERR3
 40
0.0
  9
$USERR4
 40
0.0
  9
$USERR5
 40
0.0
  9
$WORLDVIEW
 70
               1
  9
$SHADEDGE
 70
               3
  9
$SHADEDIF
 70
              70
  9
$TILEMODE
 70
               1
  9
$MAXACTVP
 70
              16
  9
$PINSBASE
 10
0.0
 20
0.0
 30
0.0
  9
$PLIMCHECK
 70
               0
  9
$PEXTMIN
 10
1.0000000000000000E+20
 20
1.0000000000000000E+20
 30
1.0000000000000000E+20
  9
$PEXTMAX
 10
-1.0000000000000000E+20
 20
-1.0000000000000000E+20
 30
-1.0000000000000000E+20
  9
$PLIMMIN
 10
0.0
 20
0.0
  9
$PLIMMAX
 10
12.0
 20
9.0
  9
$UNITMODE
 70
               0
  9
$VISRETAIN
 70
               0
  9
$PLINEGEN
 70
               1
  9
$PSLTSCALE
 70
               0
  9
$TREEDEPTH
 70
            3020
  9
$DWGCODEPAGE
  3
dos932
  0
ENDSEC
  0
SECTION
  2
TABLES
  0
TABLE
  2
VPORT
 70
               1
  0
VPORT
  2
*ACTIVE
 70
               0
 10
0.0
 20
0.0
 11
1.0
 21
1.0
 12
51.574377082919909
 22
-438.47116808180431
 13
0.0
 23
0.0
 14
1.0
 24
1.0
 15
0.0
 25
0.0
 16
0.0
 26
0.0
 36
1.0
 17
0.0
 27
0.0
 37
0.0
 40
2498.0331913612076
 41
0.5893952282325357
 42
50.0
 43
0.0
 44
0.0
 50
0.0
 51
0.0
 71
               0
 72
             100
 73
               1
 74
               1
 75
               0
 76
               0
 77
               0
 78
               0
  0
ENDTAB
  0
TABLE
  2
LTYPE
 70
              26
  0
LTYPE
  2
CONTINUOUS
 70
               0
  3
Solid line
 72
              65
 73
               0
 40
0.0
  0
LTYPE
  2
HIDDENX2
 70
               0
  3
CADPAC FUSION LINETYPE
 72
              65
 73
               2
 40
47.560000000000002
 49
35.670000000000002
 49
-11.890000000000001
  0
LTYPE
  2
HIDDEN
 70
               0
  3
CADPAC FUSION LINETYPE
 72
              65
 73
               2
 40
35.670000000000002
 49
23.780000000000001
 49
-11.890000000000001
  0
LTYPE
  2
HIDDEN2
 70
               0
  3
CADPAC FUSION LINETYPE
 72
              65
 73
               2
 40
29.725000000000001
 49
17.835000000000001
 49
-11.890000000000001
  0
LTYPE
  2
DASHED
 70
               0
  3
CADPAC FUSION LINETYPE
 72
              65
 73
               2
 40
35.670000000000002
 49
23.780000000000001
 49
-11.890000000000001
  0
LTYPE
  2
DASHED2
 70
               0
  3
CADPAC FUSION LINETYPE
 72
              65
 73
               2
 40
26.752500000000001
 49
17.835000000000001
 49
-8.9175000000000004
  0
LTYPE
  2
DASHEDX2
 70
               0
  3
CADPAC FUSION LINETYPE
 72
              65
 73
               2
 40
53.505000000000003
 49
35.670000000000002
 49
-17.835000000000001
  0
LTYPE
  2
DOTX2
 70
               0
  3
CADPAC FUSION LINETYPE
 72
              65
 73
               2
 40
14.862500000000001
 49
0.0
 49
-14.862500000000001
  0
LTYPE
  2
DOT
 70
               0
  3
CADPAC FUSION LINETYPE
 72
              65
 73
               2
 40
11.890000000000001
 49
0.0
 49
-11.890000000000001
  0
LTYPE
  2
DOTS
 70
               0
  3
CADPAC FUSION LINETYPE
 72
              65
 73
               2
 40
11.890000000000001
 49
0.0
 49
-11.890000000000001
  0
LTYPE
  2
DOT2
 70
               0
  3
CADPAC FUSION LINETYPE
 72
              65
 73
               2
 40
8.9175000000000004
 49
0.0
 49
-8.9175000000000004
  0
LTYPE
  2
CENTERX2
 70
               0
  3
CADPAC FUSION LINETYPE
 72
              65
 73
               4
 40
71.340000000000003
 49
29.725000000000001
 49
-14.862500000000001
 49
11.890000000000001
 49
-14.862500000000001
  0
LTYPE
  2
CENTER
 70
               0
  3
CADPAC FUSION LINETYPE
 72
              65
 73
               4
 40
54.694000000000003
 49
23.780000000000001
 49
-11.890000000000001
 49
7.1340000000000003
 49
-11.890000000000001
  0
LTYPE
  2
CENTER2
 70
               0
  3
CADPAC FUSION LINETYPE
 72
              65
 73
               4
 40
38.048000000000002
 49
17.835000000000001
 49
-8.9175000000000004
 49
2.3780000000000001
 49
-8.9175000000000004
  0
LTYPE
  2
DASHDOTX2
 70
               0
  3
CADPAC FUSION LINETYPE
 72
              65
 73
               4
 40
59.450000000000003
 49
29.725000000000001
 49
-14.862500000000001
 49
0.0
 49
-14.862500000000001
  0
LTYPE
  2
DASHDOT
 70
               0
  3
CADPAC FUSION LINETYPE
 72
              65
 73
               4
 40
47.560000000000002
 49
23.780000000000001
 49
-11.890000000000001
 49
0.0
 49
-11.890000000000001
  0
LTYPE
  2
DASHDOT2
 70
               0
  3
CADPAC FUSION LINETYPE
 72
              65
 73
               4
 40
35.670000000000002
 49
17.835000000000001
 49
-8.9175000000000004
 49
0.0
 49
-8.9175000000000004
  0
LTYPE
  2
DIVIDEX2
 70
               0
  3
CADPAC FUSION LINETYPE
 72
              65
 73
               6
 40
74.3125
 49
29.725000000000001
 49
-14.862500000000001
 49
0.0
 49
-14.862500000000001
 49
0.0
 49
-14.862500000000001
  0
LTYPE
  2
DIVIDE
 70
               0
  3
CADPAC FUSION LINETYPE
 72
              65
 73
               6
 40
59.450000000000003
 49
23.780000000000001
 49
-11.890000000000001
 49
0.0
 49
-11.890000000000001
 49
0.0
 49
-11.890000000000001
  0
LTYPE
  2
DIVIDE2
 70
               0
  3
CADPAC FUSION LINETYPE
 72
              65
 73
               6
 40
44.587500000000006
 49
17.835000000000001
 49
-8.9175000000000004
 49
0.0
 49
-8.9175000000000004
 49
0.0
 49
-8.9175000000000004
  0
LTYPE
  2
BORDERX2
 70
               0
  3
CADPAC FUSION LINETYPE
 72
              65
 73
               6
 40
104.03750000000001
 49
29.725000000000001
 49
-14.862500000000001
 49
29.725000000000001
 49
-14.862500000000001
 49
0.0
 49
-14.862500000000001
  0
LTYPE
  2
BORDER
 70
               0
  3
CADPAC FUSION LINETYPE
 72
              65
 73
               6
 40
83.230000000000004
 49
23.780000000000001
 49
-11.890000000000001
 49
23.780000000000001
 49
-11.890000000000001
 49
0.0
 49
-11.890000000000001
  0
LTYPE
  2
BORDER2
 70
               0
  3
CADPAC FUSION LINETYPE
 72
              65
 73
               6
 40
62.422499999999999
 49
17.835000000000001
 49
-8.9175000000000004
 49
17.835000000000001
 49
-8.9175000000000004
 49
0.0
 49
-8.9175000000000004
  0
LTYPE
  2
PHANTOMX2
 70
               0
  3
CADPAC FUSION LINETYPE
 72
              65
 73
               6
 40
89.175000000000011
 49
29.725000000000001
 49
-11.890000000000001
 49
11.890000000000001
 49
-11.890000000000001
 49
11.890000000000001
 49
-11.890000000000001
  0
LTYPE
  2
PHANTOM
 70
               0
  3
CADPAC FUSION LINETYPE
 72
              65
 73
               6
 40
73.718000000000004
 49
23.780000000000001
 49
-11.890000000000001
 49
7.1340000000000003
 49
-11.890000000000001
 49
7.1340000000000003
 49
-11.890000000000001
  0
LTYPE
  2
PHANTOM2
 70
               0
  3
CADPAC FUSION LINETYPE
 72
              65
 73
               6
 40
63.017000000000003
 49
17.835000000000001
 49
-11.890000000000001
 49
4.7560000000000002
 49
-11.890000000000001
 49
4.7560000000000002
 49
-11.890000000000001
  0
ENDTAB
  0
TABLE
  2
LAYER
 70
             256
  0
LAYER
  2
0
 70
               0
 62
               7
  6
CONTINUOUS
  0
LAYER
  2
LAYER001
 70
               0
 62
               7
  6
CONTINUOUS
  0
LAYER
  2
LAYER002
 70
               0
 62
               7
  6
CONTINUOUS
  0
LAYER
  2
LAYER003
 70
               0
 62
               7
  6
CONTINUOUS
  0
LAYER
  2
LAYER004
 70
               0
 62
               7
  6
CONTINUOUS
  0
LAYER
  2
LAYER005
 70
               0
 62
               7
  6
CONTINUOUS
  0
LAYER
  2
LAYER006
 70
               0
 62
               7
  6
CONTINUOUS
  0
LAYER
  2
LAYER007
 70
               0
 62
               7
  6
CONTINUOUS
  0
LAYER
  2
LAYER008
 70
               0
 62
               7
  6
CONTINUOUS
  0
LAYER
  2
LAYER009
 70
               0
 62
               7
  6
CONTINUOUS
  0
LAYER
  2
LAYER010
 70
               0
 62
               7
  6
CONTINUOUS
  0
LAYER
  2
LAYER011
 70
               0
 62
               7
  6
CONTINUOUS
  0
LAYER
  2
LAYER012
 70
               0
 62
               7
  6
CONTINUOUS
  0
LAYER
  2
LAYER013
 70
               0
 62
               7
  6
CONTINUOUS
  0
LAYER
  2
LAYER014
 70
               0
 62
               7
  6
CONTINUOUS
  0
LAYER
  2
LAYER015
 70
               0
 62
               7
  6
CONTINUOUS
  0
LAYER
  2
LAYER016
 70
               0
 62
               7
  6
CONTINUOUS
  0
LAYER
  2
LAYER017
 70
               0
 62
               7
  6
CONTINUOUS
  0
LAYER
  2
LAYER018
 70
               0
 62
               7
  6
CONTINUOUS
  0
LAYER
  2
LAYER019
 70
               0
 62
               7
  6
CONTINUOUS
  0
LAYER
  2
LAYER020
 70
               0
 62
               7
  6
CONTINUOUS
  0
LAYER
  2
LAYER021
 70
               0
 62
               7
  6
CONTINUOUS
  0
LAYER
  2
LAYER022
 70
               0
 62
               7
  6
CONTINUOUS
  0
LAYER
  2
LAYER023
 70
               0
 62
               7
  6
CONTINUOUS
  0
LAYER
  2
LAYER024
 70
               0
 62
               7
  6
CONTINUOUS
  0
LAYER
  2
LAYER025
 70
               0
 62
               7
  6
CONTINUOUS
  0
LAYER
  2
LAYER026
 70
               0
 62
               7
  6
CONTINUOUS
  0
LAYER
  2
LAYER027
 70
               0
 62
               7
  6
CONTINUOUS
  0
LAYER
  2
LAYER028
 70
               0
 62
               7
  6
CONTINUOUS
  0
LAYER
  2
LAYER029
 70
               0
 62
               7
  6
CONTINUOUS
  0
LAYER
  2
LAYER030
 70
               0
 62
               7
  6
CONTINUOUS
  0
LAYER
  2
LAYER031
 70
               0
 62
               7
  6
CONTINUOUS
  0
LAYER
  2
LAYER032
 70
               0
 62
               7
  6
CONTINUOUS
  0
LAYER
  2
LAYER033
 70
               0
 62
               7
  6
CONTINUOUS
  0
LAYER
  2
LAYER034
 70
               0
 62
               7
  6
CONTINUOUS
  0
LAYER
  2
LAYER035
 70
               0
 62
               7
  6
CONTINUOUS
  0
LAYER
  2
LAYER036
 70
               0
 62
               7
  6
CONTINUOUS
  0
LAYER
  2
LAYER037
 70
               0
 62
               7
  6
CONTINUOUS
  0
LAYER
  2
LAYER038
 70
               0
 62
               7
  6
CONTINUOUS
  0
LAYER
  2
LAYER039
 70
               0
 62
               7
  6
CONTINUOUS
  0
LAYER
  2
LAYER040
 70
               0
 62
               7
  6
CONTINUOUS
  0
LAYER
  2
LAYER041
 70
               0
 62
               7
  6
CONTINUOUS
  0
LAYER
  2
LAYER042
 70
               0
 62
               7
  6
CONTINUOUS
  0
LAYER
  2
LAYER043
 70
               0
 62
               7
  6
CONTINUOUS
  0
LAYER
  2
LAYER044
 70
               0
 62
               7
  6
CONTINUOUS
  0
LAYER
  2
LAYER045
 70
               0
 62
               7
  6
CONTINUOUS
  0
LAYER
  2
LAYER046
 70
               0
 62
               7
  6
CONTINUOUS
  0
LAYER
  2
LAYER047
 70
               0
 62
               7
  6
CONTINUOUS
  0
LAYER
  2
LAYER048
 70
               0
 62
               7
  6
CONTINUOUS
  0
LAYER
  2
LAYER049
 70
               0
 62
               7
  6
CONTINUOUS
  0
LAYER
  2
LAYER050
 70
               0
 62
               7
  6
CONTINUOUS
  0
LAYER
  2
LAYER051
 70
               0
 62
               7
  6
CONTINUOUS
  0
LAYER
  2
LAYER052
 70
               0
 62
               7
  6
CONTINUOUS
  0
LAYER
  2
LAYER053
 70
               0
 62
               7
  6
CONTINUOUS
  0
LAYER
  2
LAYER054
 70
               0
 62
               7
  6
CONTINUOUS
  0
LAYER
  2
LAYER055
 70
               0
 62
               7
  6
CONTINUOUS
  0
LAYER
  2
LAYER056
 70
               0
 62
               7
  6
CONTINUOUS
  0
LAYER
  2
LAYER057
 70
               0
 62
               7
  6
CONTINUOUS
  0
LAYER
  2
LAYER058
 70
               0
 62
               7
  6
CONTINUOUS
  0
LAYER
  2
LAYER059
 70
               0
 62
               7
  6
CONTINUOUS
  0
LAYER
  2
LAYER060
 70
               0
 62
               7
  6
CONTINUOUS
  0
LAYER
  2
LAYER061
 70
               0
 62
               7
  6
CONTINUOUS
  0
LAYER
  2
LAYER062
 70
               0
 62
               7
  6
CONTINUOUS
  0
LAYER
  2
LAYER063
 70
               0
 62
               7
  6
CONTINUOUS
  0
LAYER
  2
LAYER064
 70
               0
 62
               7
  6
CONTINUOUS
  0
LAYER
  2
LAYER065
 70
               0
 62
               7
  6
CONTINUOUS
  0
LAYER
  2
LAYER066
 70
               0
 62
               7
  6
CONTINUOUS
  0
LAYER
  2
LAYER067
 70
               0
 62
               7
  6
CONTINUOUS
  0
LAYER
  2
LAYER068
 70
               0
 62
               7
  6
CONTINUOUS
  0
LAYER
  2
LAYER069
 70
               0
 62
               7
  6
CONTINUOUS
  0
LAYER
  2
LAYER070
 70
               0
 62
               7
  6
CONTINUOUS
  0
LAYER
  2
LAYER071
 70
               0
 62
               7
  6
CONTINUOUS
  0
LAYER
  2
LAYER072
 70
               0
 62
               7
  6
CONTINUOUS
  0
LAYER
  2
LAYER073
 70
               0
 62
               7
  6
CONTINUOUS
  0
LAYER
  2
LAYER074
 70
               0
 62
               7
  6
CONTINUOUS
  0
LAYER
  2
LAYER075
 70
               0
 62
               7
  6
CONTINUOUS
  0
LAYER
  2
LAYER076
 70
               0
 62
               7
  6
CONTINUOUS
  0
LAYER
  2
LAYER077
 70
               0
 62
               7
  6
CONTINUOUS
  0
LAYER
  2
LAYER078
 70
               0
 62
               7
  6
CONTINUOUS
  0
LAYER
  2
LAYER079
 70
               0
 62
               7
  6
CONTINUOUS
  0
LAYER
  2
LAYER080
 70
               0
 62
               7
  6
CONTINUOUS
  0
LAYER
  2
LAYER081
 70
               0
 62
               7
  6
CONTINUOUS
  0
LAYER
  2
LAYER082
 70
               0
 62
               7
  6
CONTINUOUS
  0
LAYER
  2
LAYER083
 70
               0
 62
               7
  6
CONTINUOUS
  0
LAYER
  2
LAYER084
 70
               0
 62
               7
  6
CONTINUOUS
  0
LAYER
  2
LAYER085
 70
               0
 62
               7
  6
CONTINUOUS
  0
LAYER
  2
LAYER086
 70
               0
 62
               7
  6
CONTINUOUS
  0
LAYER
  2
LAYER087
 70
               0
 62
               7
  6
CONTINUOUS
  0
LAYER
  2
LAYER088
 70
               0
 62
               7
  6
CONTINUOUS
  0
LAYER
  2
LAYER089
 70
               0
 62
               7
  6
CONTINUOUS
  0
LAYER
  2
LAYER090
 70
               0
 62
               7
  6
CONTINUOUS
  0
LAYER
  2
LAYER091
 70
               0
 62
               7
  6
CONTINUOUS
  0
LAYER
  2
LAYER092
 70
               0
 62
               7
  6
CONTINUOUS
  0
LAYER
  2
LAYER093
 70
               0
 62
               7
  6
CONTINUOUS
  0
LAYER
  2
LAYER094
 70
               0
 62
               7
  6
CONTINUOUS
  0
LAYER
  2
LAYER095
 70
               0
 62
               7
  6
CONTINUOUS
  0
LAYER
  2
LAYER096
 70
               0
 62
               7
  6
CONTINUOUS
  0
LAYER
  2
LAYER097
 70
               0
 62
               7
  6
CONTINUOUS
  0
LAYER
  2
LAYER098
 70
               0
 62
               7
  6
CONTINUOUS
  0
LAYER
  2
LAYER099
 70
               0
 62
               7
  6
CONTINUOUS
  0
LAYER
  2
LAYER100
 70
               0
 62
               7
  6
CONTINUOUS
  0
LAYER
  2
LAYER101
 70
               0
 62
               7
  6
CONTINUOUS
  0
LAYER
  2
LAYER102
 70
               0
 62
               7
  6
CONTINUOUS
  0
LAYER
  2
LAYER103
 70
               0
 62
               7
  6
CONTINUOUS
  0
LAYER
  2
LAYER104
 70
               0
 62
               7
  6
CONTINUOUS
  0
LAYER
  2
LAYER105
 70
               0
 62
               7
  6
CONTINUOUS
  0
LAYER
  2
LAYER106
 70
               0
 62
               7
  6
CONTINUOUS
  0
LAYER
  2
LAYER107
 70
               0
 62
               7
  6
CONTINUOUS
  0
LAYER
  2
LAYER108
 70
               0
 62
               7
  6
CONTINUOUS
  0
LAYER
  2
LAYER109
 70
               0
 62
               7
  6
CONTINUOUS
  0
LAYER
  2
LAYER110
 70
               0
 62
               7
  6
CONTINUOUS
  0
LAYER
  2
LAYER111
 70
               0
 62
               7
  6
CONTINUOUS
  0
LAYER
  2
LAYER112
 70
               0
 62
               7
  6
CONTINUOUS
  0
LAYER
  2
LAYER113
 70
               0
 62
               7
  6
CONTINUOUS
  0
LAYER
  2
LAYER114
 70
               0
 62
               7
  6
CONTINUOUS
  0
LAYER
  2
LAYER115
 70
               0
 62
               7
  6
CONTINUOUS
  0
LAYER
  2
LAYER116
 70
               0
 62
               7
  6
CONTINUOUS
  0
LAYER
  2
LAYER117
 70
               0
 62
               7
  6
CONTINUOUS
  0
LAYER
  2
LAYER118
 70
               0
 62
               7
  6
CONTINUOUS
  0
LAYER
  2
LAYER119
 70
               0
 62
               7
  6
CONTINUOUS
  0
LAYER
  2
LAYER120
 70
               0
 62
               7
  6
CONTINUOUS
  0
LAYER
  2
LAYER121
 70
               0
 62
               7
  6
CONTINUOUS
  0
LAYER
  2
LAYER122
 70
               0
 62
               7
  6
CONTINUOUS
  0
LAYER
  2
LAYER123
 70
               0
 62
               7
  6
CONTINUOUS
  0
LAYER
  2
LAYER124
 70
               0
 62
               7
  6
CONTINUOUS
  0
LAYER
  2
LAYER125
 70
               0
 62
               7
  6
CONTINUOUS
  0
LAYER
  2
LAYER126
 70
               0
 62
               7
  6
CONTINUOUS
  0
LAYER
  2
LAYER127
 70
               0
 62
               7
  6
CONTINUOUS
  0
LAYER
  2
LAYER128
 70
               0
 62
               7
  6
CONTINUOUS
  0
LAYER
  2
LAYER129
 70
               0
 62
               7
  6
CONTINUOUS
  0
LAYER
  2
LAYER130
 70
               0
 62
               7
  6
CONTINUOUS
  0
LAYER
  2
LAYER131
 70
               0
 62
               7
  6
CONTINUOUS
  0
LAYER
  2
LAYER132
 70
               0
 62
               7
  6
CONTINUOUS
  0
LAYER
  2
LAYER133
 70
               0
 62
               7
  6
CONTINUOUS
  0
LAYER
  2
LAYER134
 70
               0
 62
               7
  6
CONTINUOUS
  0
LAYER
  2
LAYER135
 70
               0
 62
               7
  6
CONTINUOUS
  0
LAYER
  2
LAYER136
 70
               0
 62
               7
  6
CONTINUOUS
  0
LAYER
  2
LAYER137
 70
               0
 62
               7
  6
CONTINUOUS
  0
LAYER
  2
LAYER138
 70
               0
 62
               7
  6
CONTINUOUS
  0
LAYER
  2
LAYER139
 70
               0
 62
               7
  6
CONTINUOUS
  0
LAYER
  2
LAYER140
 70
               0
 62
               7
  6
CONTINUOUS
  0
LAYER
  2
LAYER141
 70
               0
 62
               7
  6
CONTINUOUS
  0
LAYER
  2
LAYER142
 70
               0
 62
               7
  6
CONTINUOUS
  0
LAYER
  2
LAYER143
 70
               0
 62
               7
  6
CONTINUOUS
  0
LAYER
  2
LAYER144
 70
               0
 62
               7
  6
CONTINUOUS
  0
LAYER
  2
LAYER145
 70
               0
 62
               7
  6
CONTINUOUS
  0
LAYER
  2
LAYER146
 70
               0
 62
               7
  6
CONTINUOUS
  0
LAYER
  2
LAYER147
 70
               0
 62
               7
  6
CONTINUOUS
  0
LAYER
  2
LAYER148
 70
               0
 62
               7
  6
CONTINUOUS
  0
LAYER
  2
LAYER149
 70
               0
 62
               7
  6
CONTINUOUS
  0
LAYER
  2
LAYER150
 70
               0
 62
               7
  6
CONTINUOUS
  0
LAYER
  2
LAYER151
 70
               0
 62
               7
  6
CONTINUOUS
  0
LAYER
  2
LAYER152
 70
               0
 62
               7
  6
CONTINUOUS
  0
LAYER
  2
LAYER153
 70
               0
 62
               7
  6
CONTINUOUS
  0
LAYER
  2
LAYER154
 70
               0
 62
               7
  6
CONTINUOUS
  0
LAYER
  2
LAYER155
 70
               0
 62
               7
  6
CONTINUOUS
  0
LAYER
  2
LAYER156
 70
               0
 62
               7
  6
CONTINUOUS
  0
LAYER
  2
LAYER157
 70
               0
 62
               7
  6
CONTINUOUS
  0
LAYER
  2
LAYER158
 70
               0
 62
               7
  6
CONTINUOUS
  0
LAYER
  2
LAYER159
 70
               0
 62
               7
  6
CONTINUOUS
  0
LAYER
  2
LAYER160
 70
               0
 62
               7
  6
CONTINUOUS
  0
LAYER
  2
LAYER161
 70
               0
 62
               7
  6
CONTINUOUS
  0
LAYER
  2
LAYER162
 70
               0
 62
               7
  6
CONTINUOUS
  0
LAYER
  2
LAYER163
 70
               0
 62
               7
  6
CONTINUOUS
  0
LAYER
  2
LAYER164
 70
               0
 62
               7
  6
CONTINUOUS
  0
LAYER
  2
LAYER165
 70
               0
 62
               7
  6
CONTINUOUS
  0
LAYER
  2
LAYER166
 70
               0
 62
               7
  6
CONTINUOUS
  0
LAYER
  2
LAYER167
 70
               0
 62
               7
  6
CONTINUOUS
  0
LAYER
  2
LAYER168
 70
               0
 62
               7
  6
CONTINUOUS
  0
LAYER
  2
LAYER169
 70
               0
 62
               7
  6
CONTINUOUS
  0
LAYER
  2
LAYER170
 70
               0
 62
               7
  6
CONTINUOUS
  0
LAYER
  2
LAYER171
 70
               0
 62
               7
  6
CONTINUOUS
  0
LAYER
  2
LAYER172
 70
               0
 62
               7
  6
CONTINUOUS
  0
LAYER
  2
LAYER173
 70
               0
 62
               7
  6
CONTINUOUS
  0
LAYER
  2
LAYER174
 70
               0
 62
               7
  6
CONTINUOUS
  0
LAYER
  2
LAYER175
 70
               0
 62
               7
  6
CONTINUOUS
  0
LAYER
  2
LAYER176
 70
               0
 62
               7
  6
CONTINUOUS
  0
LAYER
  2
LAYER177
 70
               0
 62
               7
  6
CONTINUOUS
  0
LAYER
  2
LAYER178
 70
               0
 62
               7
  6
CONTINUOUS
  0
LAYER
  2
LAYER179
 70
               0
 62
               7
  6
CONTINUOUS
  0
LAYER
  2
LAYER180
 70
               0
 62
               7
  6
CONTINUOUS
  0
LAYER
  2
LAYER181
 70
               0
 62
               7
  6
CONTINUOUS
  0
LAYER
  2
LAYER182
 70
               0
 62
               7
  6
CONTINUOUS
  0
LAYER
  2
LAYER183
 70
               0
 62
               7
  6
CONTINUOUS
  0
LAYER
  2
LAYER184
 70
               0
 62
               7
  6
CONTINUOUS
  0
LAYER
  2
LAYER185
 70
               0
 62
               7
  6
CONTINUOUS
  0
LAYER
  2
LAYER186
 70
               0
 62
               7
  6
CONTINUOUS
  0
LAYER
  2
LAYER187
 70
               0
 62
               7
  6
CONTINUOUS
  0
LAYER
  2
LAYER188
 70
               0
 62
               7
  6
CONTINUOUS
  0
LAYER
  2
LAYER189
 70
               0
 62
               7
  6
CONTINUOUS
  0
LAYER
  2
LAYER190
 70
               0
 62
               7
  6
CONTINUOUS
  0
LAYER
  2
LAYER191
 70
               0
 62
               7
  6
CONTINUOUS
  0
LAYER
  2
LAYER192
 70
               0
 62
               7
  6
CONTINUOUS
  0
LAYER
  2
LAYER193
 70
               0
 62
               7
  6
CONTINUOUS
  0
LAYER
  2
LAYER194
 70
               0
 62
               7
  6
CONTINUOUS
  0
LAYER
  2
LAYER195
 70
               0
 62
               7
  6
CONTINUOUS
  0
LAYER
  2
LAYER196
 70
               0
 62
               7
  6
CONTINUOUS
  0
LAYER
  2
LAYER197
 70
               0
 62
               7
  6
CONTINUOUS
  0
LAYER
  2
LAYER198
 70
               0
 62
               7
  6
CONTINUOUS
  0
LAYER
  2
LAYER199
 70
               0
 62
               7
  6
CONTINUOUS
  0
LAYER
  2
LAYER200
 70
               0
 62
               7
  6
CONTINUOUS
  0
LAYER
  2
LAYER201
 70
               0
 62
               7
  6
CONTINUOUS
  0
LAYER
  2
LAYER202
 70
               0
 62
               7
  6
CONTINUOUS
  0
LAYER
  2
LAYER203
 70
               0
 62
               7
  6
CONTINUOUS
  0
LAYER
  2
LAYER204
 70
               0
 62
               7
  6
CONTINUOUS
  0
LAYER
  2
LAYER205
 70
               0
 62
               7
  6
CONTINUOUS
  0
LAYER
  2
LAYER206
 70
               0
 62
               7
  6
CONTINUOUS
  0
LAYER
  2
LAYER207
 70
               0
 62
               7
  6
CONTINUOUS
  0
LAYER
  2
LAYER208
 70
               0
 62
               7
  6
CONTINUOUS
  0
LAYER
  2
LAYER209
 70
               0
 62
               7
  6
CONTINUOUS
  0
LAYER
  2
LAYER210
 70
               0
 62
               7
  6
CONTINUOUS
  0
LAYER
  2
LAYER211
 70
               0
 62
               7
  6
CONTINUOUS
  0
LAYER
  2
LAYER212
 70
               0
 62
               7
  6
CONTINUOUS
  0
LAYER
  2
LAYER213
 70
               0
 62
               7
  6
CONTINUOUS
  0
LAYER
  2
LAYER214
 70
               0
 62
               7
  6
CONTINUOUS
  0
LAYER
  2
LAYER215
 70
               0
 62
               7
  6
CONTINUOUS
  0
LAYER
  2
LAYER216
 70
               0
 62
               7
  6
CONTINUOUS
  0
LAYER
  2
LAYER217
 70
               0
 62
               7
  6
CONTINUOUS
  0
LAYER
  2
LAYER218
 70
               0
 62
               7
  6
CONTINUOUS
  0
LAYER
  2
LAYER219
 70
               0
 62
               7
  6
CONTINUOUS
  0
LAYER
  2
LAYER220
 70
               0
 62
               7
  6
CONTINUOUS
  0
LAYER
  2
LAYER221
 70
               0
 62
               7
  6
CONTINUOUS
  0
LAYER
  2
LAYER222
 70
               0
 62
               7
  6
CONTINUOUS
  0
LAYER
  2
LAYER223
 70
               0
 62
               7
  6
CONTINUOUS
  0
LAYER
  2
LAYER224
 70
               0
 62
               7
  6
CONTINUOUS
  0
LAYER
  2
LAYER225
 70
               0
 62
               7
  6
CONTINUOUS
  0
LAYER
  2
LAYER226
 70
               0
 62
               7
  6
CONTINUOUS
  0
LAYER
  2
LAYER227
 70
               0
 62
               7
  6
CONTINUOUS
  0
LAYER
  2
LAYER228
 70
               0
 62
               7
  6
CONTINUOUS
  0
LAYER
  2
LAYER229
 70
               0
 62
               7
  6
CONTINUOUS
  0
LAYER
  2
LAYER230
 70
               0
 62
               7
  6
CONTINUOUS
  0
LAYER
  2
LAYER231
 70
               0
 62
               7
  6
CONTINUOUS
  0
LAYER
  2
LAYER232
 70
               0
 62
               7
  6
CONTINUOUS
  0
LAYER
  2
LAYER233
 70
               0
 62
               7
  6
CONTINUOUS
  0
LAYER
  2
LAYER234
 70
               0
 62
               7
  6
CONTINUOUS
  0
LAYER
  2
LAYER235
 70
               0
 62
               7
  6
CONTINUOUS
  0
LAYER
  2
LAYER236
 70
               0
 62
               7
  6
CONTINUOUS
  0
LAYER
  2
LAYER237
 70
               0
 62
               7
  6
CONTINUOUS
  0
LAYER
  2
LAYER238
 70
               0
 62
               7
  6
CONTINUOUS
  0
LAYER
  2
LAYER239
 70
               0
 62
               7
  6
CONTINUOUS
  0
LAYER
  2
LAYER240
 70
               0
 62
               7
  6
CONTINUOUS
  0
LAYER
  2
LAYER241
 70
               0
 62
               7
  6
CONTINUOUS
  0
LAYER
  2
LAYER242
 70
               0
 62
               7
  6
CONTINUOUS
  0
LAYER
  2
LAYER243
 70
               0
 62
               7
  6
CONTINUOUS
  0
LAYER
  2
LAYER244
 70
               0
 62
               7
  6
CONTINUOUS
  0
LAYER
  2
LAYER245
 70
               0
 62
               7
  6
CONTINUOUS
  0
LAYER
  2
LAYER246
 70
               0
 62
               7
  6
CONTINUOUS
  0
LAYER
  2
LAYER247
 70
               0
 62
               7
  6
CONTINUOUS
  0
LAYER
  2
LAYER248
 70
               0
 62
               7
  6
CONTINUOUS
  0
LAYER
  2
LAYER249
 70
               0
 62
               7
  6
CONTINUOUS
  0
LAYER
  2
LAYER250
 70
               0
 62
               7
  6
CONTINUOUS
  0
LAYER
  2
LAYER251
 70
               0
 62
               7
  6
CONTINUOUS
  0
LAYER
  2
LAYER252
 70
               0
 62
               7
  6
CONTINUOUS
  0
LAYER
  2
LAYER253
 70
               0
 62
               7
  6
CONTINUOUS
  0
LAYER
  2
LAYER254
 70
               0
 62
               7
  6
CONTINUOUS
  0
LAYER
  2
LAYER255
 70
               0
 62
               7
  6
CONTINUOUS
  0
ENDTAB
  0
TABLE
  2
STYLE
 70
               1
  0
STYLE
  2
STANDARD
 70
               0
 40
0.0
 41
0.8
 50
0.0
 71
               0
 42
40.0
  3
MS PGothic.ttf
  4

  0
ENDTAB
  0
TABLE
  2
VIEW
 70
               0
  0
VIEW
  2
QQQQ
 70
               0
 40
2498.0331913612076
 10
51.574377082919909
 20
-438.47116808180431
 41
1472.3288429547883
 11
0.0
 21
0.0
 31
1.0
 12
100.0
 22
100.0
 32
0.0
 42
50.0
 43
0.0
 44
0.0
 50
0.0
 71
               0
  0
ENDTAB
  0
TABLE
  2
UCS
 70
               0
  0
ENDTAB
  0
TABLE
  2
APPID
 70
               1
  0
APPID
  2
ACAD
 70
               0
  0
ENDTAB
  0
TABLE
  2
DIMSTYLE
 70
               1
  0
DIMSTYLE
  2
STANDARD
 70
               0
  3

  4

  5

  6

  7

 40
1.0
 41
0.18
 42
0.0625
 43
0.38
 44
0.18
 45
0.0
 46
0.0
 47
0.0
 48
0.0
140
0.18
141
0.09
142
0.0
143
25.399999999999999
144
1.0
145
0.0
146
1.0
147
0.09
 71
               0
 72
               0
 73
               1
 74
               1
 75
               0
 76
               0
 77
               0
 78
               0
170
               0
171
               2
172
               0
173
               0
174
               0
175
               0
176
               0
177
               0
178
               0
  0
ENDTAB
  0
ENDSEC
  0
SECTION
  2
BLOCKS
  0
BLOCK
  8
0
  5
139
  2
GROUP_1
 70
               0
 10
0.0
 20
0.0
 30
0.0
  3
GROUP_1
  0
LINE
  8
0
  6
CONTINUOUS
 62
               4
  5
13A
 10
-83.499999999999886
 20
-68.35008596364338
 30
0.0
 11
-12.789321321233849
 21
2.3605927151226496
 31
0.0
  0
LINE
  8
0
  6
CONTINUOUS
 62
               4
  5
13B
 10
-83.499999999999886
 20
-139.06076406422932
 30
0.0
 11
57.921356779352095
 21
2.3605927151226496
 31
0.0
  0
LINE
  8
0
  6
CONTINUOUS
 62
               4
  5
13C
 10
-81.20088506994351
 20
-207.47232723475886
 30
0.0
 11
83.500000000000284
 21
-42.771442164815113
 31
0.0
  0
LINE
  8
0
  6
CONTINUOUS
 62
               4
  5
13D
 10
-72.64497770381854
 20
-269.62709796921985
 30
0.0
 11
83.500000000000284
 21
-113.48212026540105
 31
0.0
  0
LINE
  8
0
  6
CONTINUOUS
 62
               4
  5
13E
 10
-64.08907033769357
 20
-331.7818687036808
 30
0.0
 11
83.500000000000284
 21
-184.19279836598699
 31
0.0
  0
LINE
  8
0
  6
CONTINUOUS
 62
               4
  5
13F
 10
-1.2899922879758066
 20
-339.69346875454897
 30
0.0
 11
73.271599945055783
 21
-265.13187652151743
 31
0.0
  0
ENDBLK
  8
0
  5
140
  0
BLOCK
  8
0
  5
141
  2
GROUP_2
 70
               0
 10
0.0
 20
0.0
 30
0.0
  3
GROUP_2
  0
LINE
  8
0
  6
CONTINUOUS
 62
               4
  5
142
 10
-583.50000000000045
 20
-68.371585597432897
 30
0.0
 11
-512.78932168744518
 21
2.3390927151223764
 31
0.0
  0
LINE
  8
0
  6
CONTINUOUS
 62
               4
  5
143
 10
-583.50000000000045
 20
-139.08226369801883
 30
0.0
 11
-442.07864358685919
 21
2.3390927151223764
 31
0.0
  0
LINE
  8
0
  6
CONTINUOUS
 62
               4
  5
144
 10
-581.20088511425513
 20
-207.49382691285945
 30
0.0
 11
-416.50000000000023
 21
-42.792941798604602
 31
0.0
  0
LINE
  8
0
  6
CONTINUOUS
 62
               4
  5
145
 10
-572.64497774813026
 20
-269.64859764732051
 30
0.0
 11
-416.50000000000023
 21
-113.50361989919054
 31
0.0
  0
LINE
  8
0
  6
CONTINUOUS
 62
               4
  5
146
 10
-564.08907038200516
 20
-331.80336838178141
 30
0.0
 11
-416.50000000000023
 21
-184.21429799977648
 31
0.0
  0
LINE
  8
0
  6
CONTINUOUS
 62
               4
  5
147
 10
-501.28999265418707
 20
-339.71496875454926
 30
0.0
 11
-426.72839999643537
 21
-265.15337609679756
 31
0.0
  0
ENDBLK
  8
0
  5
148
  0
BLOCK
  8
0
  5
149
  2
GROUP_3
 70
               0
 10
0.0
 20
0.0
 30
0.0
  3
GROUP_3
  0
LINE
  8
0
  6
CONTINUOUS
 62
               4
  5
14A
 10
416.49999999999994
 20
-68.37158559743267
 30
0.0
 11
487.21067831255505
 21
2.3390927151223764
 31
0.0
  0
LINE
  8
0
  6
CONTINUOUS
 62
               4
  5
14B
 10
416.49999999999994
 20
-139.08226369801861
 30
0.0
 11
557.92135641314098
 21
2.3390927151223764
 31
0.0
  0
LINE
  8
0
  6
CONTINUOUS
 62
               4
  5
14C
 10
418.79911488574521
 20
-207.49382691285928
 30
0.0
 11
583.50000000000011
 21
-42.792941798604431
 31
0.0
  0
LINE
  8
0
  6
CONTINUOUS
 62
               4
  5
14D
 10
427.3550222518702
 20
-269.64859764732023
 30
0.0
 11
583.50000000000011
 21
-113.50361989919037
 31
0.0
  0
LINE
  8
0
  6
CONTINUOUS
 62
               4
  5
14E
 10
435.91092961799518
 20
-331.80336838178118
 30
0.0
 11
583.50000000000011
 21
-184.21429799977631
 31
0.0
  0
LINE
  8
0
  6
CONTINUOUS
 62
               4
  5
14F
 10
498.71000734581298
 20
-339.71496875454937
 30
0.0
 11
573.27160000356514
 21
-265.15337609679722
 31
0.0
  0
ENDBLK
  8
0
  5
150
  0
ENDSEC
  0
SECTION
  2
ENTITIES
  0
LINE
  8
0
  6
CONTINUOUS
 62
               4
  5
151
 10
-71.999999999999702
 20
211.778017020167
 30
0.0
 11
-71.999999999999702
 21
136.89624646797517
 31
0.0
  0
LINE
  8
0
  6
CONTINUOUS
 62
               4
  5
152
 10
72.000000000000057
 20
141.89624646797574
 30
0.0
 11
72.000000000000057
 21
211.778017020167
 31
0.0
  0
LINE
  8
0
  6
CONTINUOUS
 62
               4
  5
153
 10
-57.999999999999929
 20
-339.6394072848779
 30
0.0
 11
-74.999999999999815
 21
-190.63940728487745
 31
0.0
  0
LINE
  8
0
  6
CONTINUOUS
 62
               4
  5
154
 10
-74.999999999999815
 20
-13.275074491132528
 30
0.0
 11
-74.999999999999815
 21
-190.63940728487745
 31
0.0
  0
LINE
  8
0
  6
CONTINUOUS
 62
               4
  5
155
 10
-71.999999999999702
 20
136.89624646797517
 30
0.0
 11
71.500000000000512
 21
136.89624646797517
 31
0.0
  0
ARC
  8
0
  6
CONTINUOUS
 62
               4
  5
156
 10
75.000000000000171
 20
4.8605927151223653
 30
0.0
 40
2.4999999999999996
 50
269.99999999984499
 51
449.99999999974102
  0
LINE
  8
0
  6
CONTINUOUS
 62
               4
  5
157
 10
-74.999999999999815
 20
-190.63940728487745
 30
0.0
 11
-46.368107792056705
 21
-190.63940728487745
 31
0.0
  0
LINE
  8
0
  6
CONTINUOUS
 62
               4
  5
158
 10
-1.9728332801507094
 20
-190.63940728487745
 30
0.0
 11
74.496765133649944
 21
-190.63940728487745
 31
0.0
  0
LINE
  8
0
  6
CONTINUOUS
 62
               4
  5
159
 10
-64.999999999999815
 20
7.3605927151223653
 30
0.0
 11
75.000000000000171
 21
7.3605927151223653
 31
0.0
  0
LINE
  8
0
  6
CONTINUOUS
 62
               4
  5
15A
 10
77.000000000000057
 20
136.89624646797517
 30
0.0
 11
72.000000000000057
 21
141.89624646797517
 31
0.0
  0
LINE
  8
0
  6
CONTINUOUS
 62
               4
  5
15B
 10
77.000000000000057
 20
3.3605927151225927
 30
0.0
 11
77.000000000000057
 21
-190.75297551513268
 31
0.0
  0
LINE
  8
0
  6
CONTINUOUS
 62
               4
  5
15C
 10
77.000000000000057
 20
-190.75297551513268
 30
0.0
 11
60.271775600349045
 21
-337.36763168452887
 31
0.0
  0
ARC
  8
0
  6
CONTINUOUS
 62
               4
  5
15D
 10
54.500000000000071
 20
126.36059271512237
 30
0.0
 40
19.999999999999996
 50
0.0
 51
31.788330617033505
  0
LINE
  8
0
  6
CONTINUOUS
 62
               4
  5
15E
 10
71.500000000000512
 20
136.89624646797517
 30
0.0
 11
71.500000000000512
 21
141.89624646797574
 31
0.0
  0
LINE
  8
0
  6
CONTINUOUS
 62
               4
  5
15F
 10
72.000000000000057
 20
141.89624646797517
 30
0.0
 11
71.500000000000512
 21
141.89624646797517
 31
0.0
  0
LINE
  8
0
  6
CONTINUOUS
 62
               4
  5
160
 10
76.750000000000284
 20
136.64624646797517
 30
0.0
 11
71.500000000000512
 21
141.89624646797517
 31
0.0
  0
LINE
  8
0
  6
CONTINUOUS
 62
               4
  5
161
 10
76.750000000000284
 20
136.64624646797517
 30
0.0
 11
77.000000000000057
 21
136.89624646797517
 31
0.0
  0
LINE
  8
0
  6
CONTINUOUS
 62
               4
  5
162
 10
74.500000000000057
 20
2.3605927151223653
 30
0.0
 11
74.500000000000057
 21
-190.61101522731315
 31
0.0
  0
LINE
  8
0
  6
CONTINUOUS
 62
               4
  5
163
 10
76.750000000000284
 20
3.075235607986528
 30
0.0
 11
76.750000000000284
 21
-190.73877948635067
 31
0.0
  0
LINE
  8
0
  6
CONTINUOUS
 62
               4
  5
164
 10
74.500000000000057
 20
-190.61101522731315
 30
0.0
 11
57.496765133650641
 21
-339.6394072848779
 31
0.0
  0
LINE
  8
0
  6
CONTINUOUS
 62
               4
  5
165
 10
74.496765133649944
 20
-190.63940728487745
 30
0.0
 11
77.000000000000057
 21
-190.75297551513268
 31
0.0
  0
LINE
  8
0
  6
CONTINUOUS
 62
               4
  5
166
 10
76.750000000000284
 20
-190.73877948635067
 30
0.0
 11
59.994274553678977
 21
-337.59480924456375
 31
0.0
  0
LINE
  8
0
  6
CONTINUOUS
 62
               4
  5
167
 10
77.000000000000057
 20
136.89624646797517
 30
0.0
 11
77.000000000000057
 21
6.360592715122479
 31
0.0
  0
LINE
  8
0
  6
CONTINUOUS
 62
               4
  5
168
 10
76.750000000000284
 20
136.64624646797517
 30
0.0
 11
76.750000000000284
 21
6.6459498222579754
 31
0.0
  0
LINE
  8
0
  6
CONTINUOUS
 62
               4
  5
169
 10
74.500000000000057
 20
126.36059271512237
 30
0.0
 11
74.500000000000057
 21
7.3605927151223653
 31
0.0
  0
LINE
  8
0
  6
CONTINUOUS
 62
               4
  5
16A
 10
58.141132586506117
 20
-244.27089274396025
 30
0.0
 11
-65.512000000000327
 21
-140.51359479670742
 31
0.0
  0
ARC
  8
0
  6
CONTINUOUS
 62
               4
  5
16B
 10
-914.27232010053945
 20
-1285.072011923656
 30
0.0
 40
1424.9238755783815
 50
50.18995614625684
 51
53.440796050721552
  0
ARC
  8
0
  6
CONTINUOUS
 62
               4
  5
16C
 10
63.57938883703315
 20
-119.7137247729143
 30
0.0
 40
130.75634311527989
 50
189.15312334026754
 51
212.76918311271189
  0
ARC
  8
0
  6
CONTINUOUS
 62
               4
  5
16D
 10
61.364025499551261
 20
-109.57970402167399
 30
0.0
 40
134.72974192119386
 50
216.90649751129573
 51
268.62928723405531
  0
ARC
  8
0
  6
CONTINUOUS
 62
               4
  5
16E
 10
-733.63034809850819
 20
-1068.7330545987693
 30
0.0
 40
1143.0835201141012
 50
46.158732653416578
 51
50.202696616646634
  0
LINE
  8
0
  6
CONTINUOUS
 62
               4
  5
16F
 10
-571.99999999999977
 20
211.778017020167
 30
0.0
 11
-571.99999999999977
 21
136.89624646797517
 31
0.0
  0
LINE
  8
0
  6
CONTINUOUS
 62
               4
  5
170
 10
-427.99999999999994
 20
136.89624646797517
 30
0.0
 11
-427.99999999999994
 21
211.778017020167
 31
0.0
  0
LINE
  8
0
  6
CONTINUOUS
 62
               4
  5
171
 10
-558.0
 20
-339.6394072848779
 30
0.0
 11
-574.99999999999977
 21
-190.63940728487745
 31
0.0
  0
LINE
  8
0
  6
CONTINUOUS
 62
               4
  5
172
 10
-574.99999999999977
 20
2.3605927151223653
 30
0.0
 11
-574.99999999999977
 21
-190.63940728487745
 31
0.0
  0
LINE
  8
0
  6
CONTINUOUS
 62
               4
  5
173
 10
-425.0000000000004
 20
-190.63940728487745
 30
0.0
 11
-425.00000000000097
 21
2.3605927151223653
 31
0.0
  0
LINE
  8
0
  6
CONTINUOUS
 62
               4
  5
174
 10
-441.99999999999972
 20
-339.6394072848779
 30
0.0
 11
-429.45190901929925
 21
-229.6590804540279
 31
0.0
  0
LINE
  8
0
  6
CONTINUOUS
 62
               4
  5
175
 10
-574.99999999999977
 20
-190.50788368776062
 30
0.0
 11
-441.0509999999997
 21
-190.50788368776028
 31
0.0
  0
ARC
  8
0
  6
CONTINUOUS
 62
               4
  5
176
 10
-778.92922884912468
 20
-312.18028209922318
 30
0.0
 40
359.11818398045398
 50
13.303286818137401
 51
28.552443501612977
  0
ARC
  8
0
  6
CONTINUOUS
 62
               4
  5
177
 10
-500.3311864699939
 20
-203.93360619665395
 30
0.0
 40
73.327111796148202
 50
342.62945642124168
 51
419.8368916055386
  0
LINE
  8
0
  6
CONTINUOUS
 62
               4
  5
178
 10
-428.24363345646054
 20
-190.50788368776028
 30
0.0
 11
-425.00000000000034
 21
-190.50788368776028
 31
0.0
  0
LINE
  8
0
  6
CONTINUOUS
 62
               4
  5
179
 10
-427.47543193129025
 20
-212.23447090829632
 30
0.0
 11
-425.00000000000034
 21
-190.50788368776062
 31
0.0
  0
ARC
  8
0
  6
CONTINUOUS
 62
               4
  5
17A
 10
555.00000000000023
 20
126.36059271512237
 30
0.0
 40
19.999999999999996
 50
0.0
 51
31.78833061703353
  0
LINE
  8
0
  6
CONTINUOUS
 62
               4
  5
17B
 10
572.0
 20
211.778017020167
 30
0.0
 11
572.0
 21
136.89624646797517
 31
0.0
  0
ARC
  8
0
  6
CONTINUOUS
 62
               4
  5
17C
 10
445.00000000000023
 20
126.36059271512237
 30
0.0
 40
19.999999999999996
 50
148.21166938286299
 51
179.99999999989646
  0
LINE
  8
0
  6
CONTINUOUS
 62
               4
  5
17D
 10
428.00000000000023
 20
136.89624646797517
 30
0.0
 11
428.00000000000023
 21
211.778017020167
 31
0.0
  0
LINE
  8
0
  6
CONTINUOUS
 62
               4
  5
17E
 10
572.0
 20
136.89624646797517
 30
0.0
 11
511.72700000000032
 21
136.89624646797517
 31
0.0
  0
LINE
  8
0
  6
CONTINUOUS
 62
               4
  5
17F
 10
488.27299999999991
 20
136.89624646797517
 30
0.0
 11
428.00000000000023
 21
136.89624646797517
 31
0.0
  0
ARC
  8
0
  6
CONTINUOUS
 62
               4
  5
180
 10
575.00000000000023
 20
4.8605927151223653
 30
0.0
 40
2.4999999999999996
 50
269.99999999984567
 51
449.99999999974102
  0
LINE
  8
0
  6
CONTINUOUS
 62
               4
  5
181
 10
425.00000000000023
 20
7.3605927151223653
 30
0.0
 11
491.7829999999999
 21
7.3605927151223653
 31
0.0
  0
LINE
  8
0
  6
CONTINUOUS
 62
               4
  5
182
 10
508.21699999999987
 20
7.3605927151223653
 30
0.0
 11
575.00000000000023
 21
7.3605927151223653
 31
0.0
  0
LINE
  8
0
  6
CONTINUOUS
 62
               4
  5
183
 10
575.00000000000023
 20
126.36059271512237
 30
0.0
 11
575.00000000000023
 21
7.3605927151223653
 31
0.0
  0
ARC
  8
0
  6
CONTINUOUS
 62
               4
  5
184
 10
425.00000000000023
 20
4.8605927151223653
 30
0.0
 40
2.4999999999999996
 50
89.99999999994769
 51
269.99999999984436
  0
LINE
  8
0
  6
CONTINUOUS
 62
               4
  5
185
 10
425.00000000000023
 20
7.3605927151223653
 30
0.0
 11
425.00000000000023
 21
126.36059271512237
 31
0.0
  0
ARC
  8
0
  6
CONTINUOUS
 62
               4
  5
186
 10
474.21603418803397
 20
126.36059271512237
 30
0.0
 40
17.566965811965957
 50
0.0
 51
36.851448659209801
  0
LINE
  8
0
  6
CONTINUOUS
 62
               4
  5
187
 10
511.72700000000032
 20
141.89624646797517
 30
0.0
 11
488.27299999999991
 21
141.89624646797517
 31
0.0
  0
ARC
  8
0
  6
CONTINUOUS
 62
               4
  5
188
 10
525.7839658119658
 20
126.36059271512237
 30
0.0
 40
17.566965811965957
 50
143.14855134068659
 51
179.99999999989643
  0
LINE
  8
0
  6
CONTINUOUS
 62
               4
  5
189
 10
488.27299999999991
 20
136.89624646797517
 30
0.0
 11
488.27299999999991
 21
141.89624646797517
 31
0.0
  0
LINE
  8
0
  6
CONTINUOUS
 62
               4
  5
18A
 10
511.72700000000032
 20
136.89624646797517
 30
0.0
 11
511.72700000000032
 21
141.89624646797517
 31
0.0
  0
LINE
  8
0
  6
CONTINUOUS
 62
               4
  5
18B
 10
488.27299999999991
 20
141.89624646797517
 30
0.0
 11
494.0
 21
136.89624646797517
 31
0.0
  0
LINE
  8
0
  6
CONTINUOUS
 62
               4
  5
18C
 10
505.99999999999977
 20
136.89624646797517
 30
0.0
 11
511.72700000000032
 21
141.89624646797517
 31
0.0
  0
LINE
  8
0
  6
CONTINUOUS
 62
               4
  5
18D
 10
494.0
 20
136.89624646797517
 30
0.0
 11
505.99999999999977
 21
136.89624646797517
 31
0.0
  0
LINE
  8
0
  6
CONTINUOUS
 62
               4
  5
18E
 10
505.99999999999977
 20
6.360592715122479
 30
0.0
 11
494.0
 21
6.360592715122479
 31
0.0
  0
ARC
  8
0
  6
CONTINUOUS
 62
               4
  5
18F
 10
491.93835546658488
 20
4.9465128666557661
 30
0.0
 40
2.4999999999999996
 50
34.446185822124086
 51
93.562780573740966
  0
ARC
  8
0
  6
CONTINUOUS
 62
               4
  5
190
 10
508.06164453341535
 20
4.9465128666557661
 30
0.0
 40
2.4999999999999996
 50
86.437219426154229
 51
145.55381417777124
  0
LINE
  8
0
  6
CONTINUOUS
 62
               4
  5
191
 10
491.7829999999999
 20
126.36059271512237
 30
0.0
 11
491.7829999999999
 21
7.3605927151223653
 31
0.0
  0
LINE
  8
0
  6
CONTINUOUS
 62
               4
  5
192
 10
508.21699999999987
 20
126.36059271512237
 30
0.0
 11
508.21699999999987
 21
7.3605927151223653
 31
0.0
  0
LINE
  8
0
  6
CONTINUOUS
 62
               4
  5
193
 10
505.99999999999977
 20
6.360592715122479
 30
0.0
 11
505.99999999999977
 21
136.89624646797517
 31
0.0
  0
LINE
  8
0
  6
CONTINUOUS
 62
               4
  5
194
 10
494.0
 20
136.89624646797517
 30
0.0
 11
494.0
 21
6.360592715122479
 31
0.0
  0
LINE
  8
0
  6
CONTINUOUS
 62
               4
  5
195
 10
425.00000000000023
 20
-190.48638368776028
 30
0.0
 11
425.00000000000023
 21
2.3605927151223653
 31
0.0
  0
LINE
  8
0
  6
CONTINUOUS
 62
               4
  5
196
 10
505.99999999999977
 20
3.3605927151225927
 30
0.0
 11
494.0
 21
3.3605927151225927
 31
0.0
  0
ARC
  8
0
  6
CONTINUOUS
 62
               4
  5
197
 10
491.93835546658488
 20
4.7746725635889646
 30
0.0
 40
2.4999999999999996
 50
266.43721942615383
 51
325.55381417779273
  0
ARC
  8
0
  6
CONTINUOUS
 62
               4
  5
198
 10
508.06164453341535
 20
4.7746725635889646
 30
0.0
 40
2.4999999999999996
 50
214.44618582210353
 51
273.56278057374317
  0
LINE
  8
0
  6
CONTINUOUS
 62
               4
  5
199
 10
491.7829999999999
 20
2.3605927151223653
 30
0.0
 11
491.7829999999999
 21
-339.69346875454954
 31
0.0
  0
LINE
  8
0
  6
CONTINUOUS
 62
               4
  5
19A
 10
508.21699999999987
 20
2.2746725635889646
 30
0.0
 11
508.21699999999987
 21
-339.69346875454954
 31
0.0
  0
LINE
  8
0
  6
CONTINUOUS
 62
               4
  5
19B
 10
494.0
 20
3.3605927151225927
 30
0.0
 11
494.0
 21
-337.42169315420051
 31
0.0
  0
LINE
  8
0
  6
CONTINUOUS
 62
               4
  5
19C
 10
505.99999999999977
 20
-337.42169315420051
 30
0.0
 11
505.99999999999977
 21
3.3605927151225927
 31
0.0
  0
ARC
  8
0
  6
CONTINUOUS
 62
               4
  5
19D
 10
360.68129117650483
 20
-267.27213506728498
 30
0.0
 40
204.24864340422488
 50
353.49999999993162
 51
373.4368021674054
  0
ARC
  8
0
  6
CONTINUOUS
 62
               4
  5
19E
 10
398.37230094456595
 20
-264.98771799787727
 30
0.0
 40
167.18634723772169
 50
351.25933879886691
 51
375.67746336847057
  0
ARC
  8
0
  6
CONTINUOUS
 62
               4
  5
19F
 10
485.02192705347238
 20
-194.78363334134201
 30
0.0
 40
59.149634972654262
 50
186.49999999996388
 51
236.78754046664218
  0
ARC
  8
0
  6
CONTINUOUS
 62
               4
  5
1A0
 10
505.92691953069402
 20
-182.93461624259032
 30
0.0
 40
81.261593956721953
 50
186.49999999996388
 51
229.00792456449784
  0
LINE
  8
0
  6
CONTINUOUS
 62
               4
  5
1A1
 10
575.00000000000023
 20
-190.48638368776028
 30
0.0
 11
425.00000000000023
 21
-190.48638368776028
 31
0.0
  0
LINE
  8
0
  6
CONTINUOUS
 62
               4
  5
1A2
 10
575.00000000000023
 20
2.3605927151223653
 30
0.0
 11
575.00000000000023
 21
-190.48638368776028
 31
0.0
  0
LINE
  8
0
  6
CONTINUOUS
 62
               4
  5
1A3
 10
558.00000000000023
 20
-339.69346875454954
 30
0.0
 11
575.00000000000023
 21
-190.48638368776028
 31
0.0
  0
LINE
  8
0
  6
CONTINUOUS
 62
               4
  5
1A4
 10
442.00000000000011
 20
-339.69346875454954
 30
0.0
 11
425.00000000000023
 21
-190.48638368776028
 31
0.0
  0
CIRCLE
  8
0
  6
CONTINUOUS
 62
               4
  5
1A5
 10
0.0000000000000995
 20
583.36059271512227
 30
0.0
 40
75.0
  0
CIRCLE
  8
0
  6
CONTINUOUS
 62
               4
  5
1A6
 10
0.0000000000000995
 20
583.36059271512227
 30
0.0
 40
64.0
  0
CIRCLE
  8
0
  6
CONTINUOUS
 62
               4
  5
1A7
 10
0.0000000000000995
 20
583.36059271512227
 30
0.0
 40
52.5
  0
LINE
  8
0
  6
CONTINUOUS
 62
               4
  5
1A8
 10
-19.999999999999901
 20
497.15009451449743
 30
0.0
 11
-19.999999999999901
 21
511.07643124111729
 31
0.0
  0
LINE
  8
0
  6
CONTINUOUS
 62
               4
  5
1A9
 10
20.000000000000099
 20
511.07643124111729
 30
0.0
 11
20.000000000000099
 21
497.15009451449743
 31
0.0
  0
ARC
  8
0
  6
CONTINUOUS
 62
               4
  5
1AA
 10
0.0000000000000995
 20
583.36059271512227
 30
0.0
 40
88.5
 50
256.93897588505172
 51
283.06102411463769
  0
LINE
  8
0
  6
CONTINUOUS
 62
               4
  5
1AB
 10
86.210498200624755
 20
563.36059271512227
 30
0.0
 11
72.28416147400435
 21
563.36059271512227
 31
0.0
  0
LINE
  8
0
  6
CONTINUOUS
 62
               4
  5
1AC
 10
72.28416147400435
 20
603.36059271512227
 30
0.0
 11
86.210498200624755
 21
603.36059271512227
 31
0.0
  0
ARC
  8
0
  6
CONTINUOUS
 62
               4
  5
1AD
 10
0.0000000000000995
 20
583.36059271512227
 30
0.0
 40
88.5
 50
346.93897588499982
 51
373.06102411458585
  0
LINE
  8
0
  6
CONTINUOUS
 62
               4
  5
1AE
 10
20.000000000000099
 20
669.57109091574785
 30
0.0
 11
20.000000000000099
 21
655.6447541891273
 31
0.0
  0
LINE
  8
0
  6
CONTINUOUS
 62
               4
  5
1AF
 10
-19.999999999999901
 20
655.6447541891273
 30
0.0
 11
-19.999999999999901
 21
669.57109091574785
 31
0.0
  0
ARC
  8
0
  6
CONTINUOUS
 62
               4
  5
1B0
 10
0.0000000000000995
 20
583.36059271512227
 30
0.0
 40
88.5
 50
76.938975885155202
 51
103.06102411474124
  0
LINE
  8
0
  6
CONTINUOUS
 62
               4
  5
1B1
 10
-47.668123520860959
 20
561.36059271512181
 30
0.0
 11
47.668123520860021
 21
561.36059271512181
 31
0.0
  0
ARC
  8
0
  6
CONTINUOUS
 62
               4
  5
1B2
 10
12.503611649381227
 20
592.06699034274129
 30
0.0
 40
54.763804151667173
 50
141.38591763675663
 51
145.15009542087034
  0
ARC
  8
0
  6
CONTINUOUS
 62
               4
  5
1B3
 10
0.0000000000000995
 20
583.36059271512227
 30
0.0
 40
51.5
 50
334.71098847326505
 51
410.95932736340404
  0
ARC
  8
0
  6
CONTINUOUS
 62
               4
  5
1B4
 10
0.0000000000000995
 20
583.36059271512227
 30
0.0
 40
51.5
 50
129.04067263628565
 51
205.28901152642416
  0
ARC
  8
0
  6
CONTINUOUS
 62
               4
  5
1B5
 10
0.0000000000000995
 20
583.36059271512227
 30
0.0
 40
77.5
 50
104.95524831658294
 51
128.57288309100846
  0
ARC
  8
0
  6
CONTINUOUS
 62
               4
  5
1B6
 10
0.0000000000000995
 20
583.36059271512227
 30
0.0
 40
77.5
 50
14.955248316634696
 51
75.044751683313493
  0
ARC
  8
0
  6
CONTINUOUS
 62
               4
  5
1B7
 10
0.0000000000000995
 20
583.36059271512227
 30
0.0
 40
77.5
 50
284.95524831647941
 51
345.04475168315804
  0
LINE
  8
0
  6
CONTINUOUS
 62
               4
  5
1B8
 10
-32.438403166617505
 20
623.36059271512204
 30
0.0
 11
0.0000000000000995
 21
623.36059271512204
 31
0.0
  0
LINE
  8
0
  6
CONTINUOUS
 62
               4
  5
1B9
 10
0.0000000000000995
 20
623.36059271512204
 30
0.0
 11
34.003676271838785
 21
623.36059271512204
 31
0.0
  0
ARC
  8
0
  6
CONTINUOUS
 62
               4
  5
1BA
 10
0.0000000000000995
 20
583.36059271512227
 30
0.0
 40
77.5
 50
231.42711690892145
 51
255.04475168320991
  0
ARC
  8
0
  6
CONTINUOUS
 62
               4
  5
1BB
 10
-554.99999999999977
 20
126.36059271512238
 30
0.0
 40
19.999999999999996
 50
148.21166938286299
 51
179.99999999989646
  0
ARC
  8
0
  6
CONTINUOUS
 62
               4
  5
1BC
 10
-445.0000000000004
 20
126.36059271512238
 30
0.0
 40
19.999999999999996
 50
0.0
 51
31.78833061703353
  0
LINE
  8
0
  6
CONTINUOUS
 62
               4
  5
1BD
 10
-571.99999999999977
 20
136.89624646797517
 30
0.0
 11
-427.99999999999994
 21
136.89624646797517
 31
0.0
  0
ARC
  8
0
  6
CONTINUOUS
 62
               4
  5
1BE
 10
-574.99999999999977
 20
4.8605927151223796
 30
0.0
 40
2.4999999999999996
 50
89.99999999994769
 51
269.99999999984436
  0
LINE
  8
0
  6
CONTINUOUS
 62
               4
  5
1BF
 10
-574.99999999999977
 20
126.36059271512238
 30
0.0
 11
-574.99999999999977
 21
7.3605927151223796
 31
0.0
  0
ARC
  8
0
  6
CONTINUOUS
 62
               4
  5
1C0
 10
-425.00000000000097
 20
4.8605927151223796
 30
0.0
 40
2.4999999999999996
 50
269.99999999984436
 51
449.99999999974102
  0
LINE
  8
0
  6
CONTINUOUS
 62
               4
  5
1C1
 10
-425.00000000000097
 20
7.3605927151223796
 30
0.0
 11
-425.0000000000004
 21
126.36059271512238
 31
0.0
  0
LINE
  8
0
  6
CONTINUOUS
 62
               4
  5
1C2
 10
-470.50131358856925
 20
7.3605927151223796
 30
0.0
 11
-425.00000000000097
 21
7.3605927151223796
 31
0.0
  0
LINE
  8
0
  6
CONTINUOUS
 62
               4
  5
1C3
 10
-574.99999999999977
 20
7.3605927151223796
 30
0.0
 11
-529.49868641143041
 21
7.3605927151223796
 31
0.0
  0
LINE
  8
0
  6
CONTINUOUS
 62
               4
  5
1C4
 10
58.000000000000313
 20
-339.63940728487734
 30
0.0
 11
60.271775600349059
 21
-337.36763168452887
 31
0.0
  0
LINE
  8
0
  6
CONTINUOUS
 62
               4
  5
1C5
 10
57.496765133650655
 20
-339.6394072848779
 30
0.0
 11
60.271775600349059
 21
-337.36763168452887
 31
0.0
  0
LINE
  8
0
  6
CONTINUOUS
 62
               4
  5
1C6
 10
494.0
 20
-337.42169315420051
 30
0.0
 11
505.99999999999977
 21
-337.42169315420051
 31
0.0
  0
LINE
  8
0
  6
CONTINUOUS
 62
               4
  5
1C7
 10
491.7829999999999
 20
-339.69346875454954
 30
0.0
 11
494.0
 21
-337.42169315420051
 31
0.0
  0
LINE
  8
0
  6
CONTINUOUS
 62
               4
  5
1C8
 10
505.99999999999977
 20
-337.42169315420051
 30
0.0
 11
508.21699999999987
 21
-339.69346875454954
 31
0.0
  0
LINE
  8
0
  6
CONTINUOUS
 62
               4
  5
1C9
 10
-91.000000000000313
 20
-457.38462907220003
 30
0.0
 11
-91.000000000000313
 21
-447.51034286514425
 31
0.0
  0
LINE
  8
0
  6
CONTINUOUS
 62
               4
  5
1CA
 10
90.999999999999432
 20
-457.38462907220003
 30
0.0
 11
90.999999999999432
 21
-447.51034286514425
 31
0.0
  0
LINE
  8
0
  6
CONTINUOUS
 62
               4
  5
1CB
 10
-65.500000000001336
 20
-556.63940728487637
 30
0.0
 11
65.500000000000568
 21
-556.63940728487637
 31
0.0
  0
LINE
  8
0
  6
CONTINUOUS
 62
               4
  5
1CC
 10
-565.5000000000008
 20
-556.63940728487637
 30
0.0
 11
-434.49999999999886
 21
-556.63940728487637
 31
0.0
  0
LINE
  8
0
  6
CONTINUOUS
 62
               4
  5
1CD
 10
434.4999999999992
 20
-556.63940728487637
 30
0.0
 11
565.50000000000114
 21
-556.63940728487637
 31
0.0
  0
LINE
  8
0
  6
CONTINUOUS
 62
               4
  5
1CE
 10
-86.210498200625238
 20
603.36059271512227
 30
0.0
 11
-72.284161474005373
 21
603.36059271512227
 31
0.0
  0
LINE
  8
0
  6
CONTINUOUS
 62
               4
  5
1CF
 10
-72.284161474005373
 20
563.36059271512227
 30
0.0
 11
-86.210498200625238
 21
563.36059271512227
 31
0.0
  0
ARC
  8
0
  6
CONTINUOUS
 62
               4
  5
1D0
 10
0.0
 20
583.36059271512227
 30
0.0
 40
88.5
 50
166.93897588510336
 51
193.06102411468945
  0
LINE
  8
0
  6
CONTINUOUS
 62
               4
  5
1D1
 10
-140.0
 20
528.36059271512227
 30
0.0
 11
-139.32844387403577
 21
528.36059271512227
 31
0.0
  0
LINE
  8
0
  6
CONTINUOUS
 62
               4
  5
1D2
 10
-136.82844387403532
 20
525.86059271512227
 30
0.0
 11
-139.32844387403577
 21
528.36059271512227
 31
0.0
  0
LINE
  8
0
  6
CONTINUOUS
 62
               4
  5
1D3
 10
-140.0
 20
638.36059271512227
 30
0.0
 11
-139.32844387403577
 21
638.36059271512227
 31
0.0
  0
LINE
  8
0
  6
CONTINUOUS
 62
               4
  5
1D4
 10
-136.82844387403577
 20
640.86059271512227
 30
0.0
 11
-139.32844387403577
 21
638.36059271512227
 31
0.0
  0
LINE
  8
0
  6
CONTINUOUS
 62
               4
  5
1D5
 10
-139.32844387403577
 20
638.36059271512227
 30
0.0
 11
-139.32844387403577
 21
528.36059271512227
 31
0.0
  0
LINE
  8
0
  6
CONTINUOUS
 62
               4
  5
1D6
 10
-145.0
 20
638.46059271512536
 30
0.0
 11
-145.0
 21
528.26059271512236
 31
0.0
  0
LINE
  8
0
  6
CONTINUOUS
 62
               4
  5
1D7
 10
-140.0
 20
525.76059271512236
 30
0.0
 11
-140.0
 21
640.9605927151224
 31
0.0
  0
LINE
  8
0
  6
CONTINUOUS
 62
               4
  5
1D8
 10
-140.0
 20
640.9605927151224
 30
0.0
 11
-142.5
 21
640.9605927151224
 31
0.0
  0
LINE
  8
0
  6
CONTINUOUS
 62
               4
  5
1D9
 10
-140.0
 20
525.76059271512236
 30
0.0
 11
-142.5
 21
525.76059271512236
 31
0.0
  0
ARC
  8
0
  6
CONTINUOUS
 62
               4
  5
1DA
 10
-142.5
 20
528.26059271512236
 30
0.0
 40
2.5
 50
179.99999999989669
 51
269.99999999984499
  0
ARC
  8
0
  6
CONTINUOUS
 62
               4
  5
1DB
 10
-142.5
 20
638.4605927151224
 30
0.0
 40
2.5
 50
89.999999999948344
 51
179.99999999989538
  0
LINE
  8
0
  6
CONTINUOUS
 62
               4
  5
1DC
 10
-136.82844387403532
 20
525.86059271512227
 30
0.0
 11
-136.82844387403577
 21
640.86059271512227
 31
0.0
  0
LINE
  8
0
  6
CONTINUOUS
 62
               4
  5
1DD
 10
-45.490335786378594
 20
522.67099569678112
 30
0.0
 11
-136.82844387403526
 21
525.86059271512227
 31
0.0
  0
LINE
  8
0
  6
CONTINUOUS
 62
               4
  5
1DE
 10
-45.490335786377912
 20
644.05018973346387
 30
0.0
 11
-136.82844387403577
 21
640.86059271512227
 31
0.0
  0
ARC
  8
0
  6
CONTINUOUS
 62
               4
  5
1DF
 10
-45.66483326989043
 20
649.04714386855949
 30
0.0
 40
5.0
 50
271.99999999984362
 51
304.80675787025234
  0
ARC
  8
0
  6
CONTINUOUS
 62
               4
  5
1E0
 10
-45.664833269891083
 20
517.67404156168573
 30
0.0
 40
5.0
 50
55.193242129540074
 51
87.999999999949566
  0
ARC
  8
0
  6
CONTINUOUS
 62
               4
  5
1E1
 10
-47.604863957990716
 20
654.98305376988628
 30
0.0
 40
2.5
 50
271.99999999994759
 51
303.61055152946903
  0
ARC
  8
0
  6
CONTINUOUS
 62
               4
  5
1E2
 10
-47.604863957990716
 20
511.73813166035831
 30
0.0
 40
2.5
 50
56.389448470461609
 51
87.999999999982862
  0
CIRCLE
  8
0
  6
CONTINUOUS
 62
               4
  5
1E3
 10
-499.99999999999983
 20
67.36059271512238
 30
0.0
 40
57.600000000000001
  0
LINE
  8
0
  6
CONTINUOUS
 62
               4
  5
1E4
 10
-473.21264290752038
 20
95.360592715122266
 30
0.0
 11
-526.78735709247928
 21
95.360592715122266
 31
0.0
  0
CIRCLE
  8
0
  6
CONTINUOUS
 62
               4
  5
1E5
 10
-499.99999999999983
 20
67.36059271512238
 30
0.0
 40
48.5
  0
CIRCLE
  8
0
  6
CONTINUOUS
 62
               4
  5
1E6
 10
-499.99999999999983
 20
67.36059271512238
 30
0.0
 40
38.75
  0
CIRCLE
  8
0
  6
CONTINUOUS
 62
               4
  5
1E7
 10
-499.99999999999983
 20
67.36059271512238
 30
0.0
 40
47.299999999999997
  0
LINE
  8
0
  6
CONTINUOUS
 62
               4
  5
1E8
 10
-531.81980515339444
 20
35.540787561727825
 30
0.0
 11
-533.44615075012348
 21
33.914441964998673
 31
0.0
  0
LINE
  8
0
  6
CONTINUOUS
 62
               4
  5
1E9
 10
-468.18019484660516
 20
35.540787561727825
 30
0.0
 11
-466.55384924987607
 21
33.914441964998787
 31
0.0
  0
ARC
  8
0
  6
CONTINUOUS
 62
               4
  5
1EA
 10
-499.99999999999983
 20
67.36059271512238
 30
0.0
 40
45.0
 50
224.99999999987045
 51
314.99999999981878
  0
CIRCLE
  8
0
  6
CONTINUOUS
 62
               4
  5
1EB
 10
-499.99999999999983
 20
67.36059271512238
 30
0.0
 40
43.0
  0
ARC
  8
0
  6
CONTINUOUS
 62
               4
  5
1EC
 10
-477.49999999999983
 20
4.8605927151223796
 30
0.0
 40
2.4999999999999996
 50
191.22079972969777
 51
269.99999999984436
  0
ARC
  8
0
  6
CONTINUOUS
 62
               4
  5
1ED
 10
-522.49999999999977
 20
4.8605927151223796
 30
0.0
 40
2.4999999999999996
 50
269.99999999984436
 51
348.77920027019786
  0
ARC
  8
0
  6
CONTINUOUS
 62
               4
  5
1EE
 10
-64.999999999999815
 20
4.8605927151223653
 30
0.0
 40
2.4999999999999996
 50
89.999999999948159
 51
269.99999999984476
  0
ARC
  8
0
  6
CONTINUOUS
 62
               4
  5
1EF
 10
-82.999999999999801
 20
139.66472741077246
 30
0.0
 40
2.5
 50
334.58537908477388
 51
359.99999999993048
  0
ARC
  8
0
  6
CONTINUOUS
 62
               4
  5
1F0
 10
-85.999999999999801
 20
-15.760355865371153
 30
0.0
 40
2.5
 50
0.0
 51
44.99999999999276
  0
LINE
  8
0
  6
CONTINUOUS
 62
               4
  5
1F1
 10
-86.736155520353634
 20
2.3605927151223653
 30
0.0
 11
-94.684677581383653
 21
-3.540144378055075
 31
0.0
  0
ARC
  8
0
  6
CONTINUOUS
 62
               4
  5
1F2
 10
-54.999999999999815
 20
126.36059271512237
 30
0.0
 40
19.999999999999996
 50
148.21166938286288
 51
167.26981986159129
  0
LINE
  8
0
  6
CONTINUOUS
 62
               4
  5
1F3
 10
-139.99999999999983
 20
122.36059271512225
 30
0.0
 11
-139.32844387403543
 21
122.36059271512225
 31
0.0
  0
LINE
  8
0
  6
CONTINUOUS
 62
               4
  5
1F4
 10
-136.82844387403537
 20
124.86059271512248
 30
0.0
 11
-139.32844387403543
 21
122.36059271512225
 31
0.0
  0
LINE
  8
0
  6
CONTINUOUS
 62
               4
  5
1F5
 10
-136.82844387403543
 20
124.86059271512242
 30
0.0
 11
-79.210967671861127
 21
126.87263932027467
 31
0.0
  0
LINE
  8
0
  6
CONTINUOUS
 62
               4
  5
1F6
 10
-139.99999999999983
 20
124.96059271512239
 30
0.0
 11
-142.49999999999983
 21
124.96059271512239
 31
0.0
  0
ARC
  8
0
  6
CONTINUOUS
 62
               4
  5
1F7
 10
-142.49999999999983
 20
122.46059271512239
 30
0.0
 40
2.5
 50
89.999999999948344
 51
179.99999999989603
  0
ARC
  8
0
  6
CONTINUOUS
 62
               4
  5
1F8
 10
-79.385465155373623
 20
131.86959345537014
 30
0.0
 40
5.0
 50
271.9999999998434
 51
347.26981986148633
  0
LINE
  8
0
  6
CONTINUOUS
 62
               4
  5
1F9
 10
-139.99999999999983
 20
12.360592715122365
 30
0.0
 11
-139.32844387403543
 21
12.360592715122365
 31
0.0
  0
LINE
  8
0
  6
CONTINUOUS
 62
               4
  5
1FA
 10
-136.82844387403537
 20
9.8605927151231043
 30
0.0
 11
-139.32844387403543
 21
12.360592715122365
 31
0.0
  0
LINE
  8
0
  6
CONTINUOUS
 62
               4
  5
1FB
 10
-139.32844387403543
 20
122.36059271512225
 30
0.0
 11
-139.32844387403543
 21
12.360592715122365
 31
0.0
  0
LINE
  8
0
  6
CONTINUOUS
 62
               4
  5
1FC
 10
-139.99999999999983
 20
9.760592715122371
 30
0.0
 11
-139.99999999999983
 21
124.96059271512239
 31
0.0
  0
LINE
  8
0
  6
CONTINUOUS
 62
               4
  5
1FD
 10
-144.99999999999983
 20
122.46059271512239
 30
0.0
 11
-144.99999999999983
 21
12.260592715122371
 31
0.0
  0
LINE
  8
0
  6
CONTINUOUS
 62
               4
  5
1FE
 10
-139.99999999999983
 20
9.760592715122371
 30
0.0
 11
-142.49999999999983
 21
9.760592715122371
 31
0.0
  0
ARC
  8
0
  6
CONTINUOUS
 62
               4
  5
1FF
 10
-142.49999999999983
 20
12.260592715122371
 30
0.0
 40
2.5
 50
179.9999999998962
 51
269.99999999984499
  0
LINE
  8
0
  6
CONTINUOUS
 62
               4
  5
200
 10
-136.82844387403537
 20
124.86059271512248
 30
0.0
 11
-136.82844387403463
 21
9.8605927151223653
 31
0.0
  0
LINE
  8
0
  6
CONTINUOUS
 62
               4
  5
201
 10
-136.82844387403463
 20
9.8605927151223653
 30
0.0
 11
-94.663333617757203
 21
8.3881546192683203
 31
0.0
  0
ARC
  8
0
  6
CONTINUOUS
 62
               4
  5
202
 10
-79.999999999999801
 20
-11.446630617096744
 30
0.0
 40
4.9999999999999991
 50
0.0
 51
44.999999999973191
  0
ARC
  8
0
  6
CONTINUOUS
 62
               4
  5
203
 10
-94.837831101269742
 20
3.3912004841728702
 30
0.0
 40
5.0
 50
44.999999999974911
 51
87.99999999994894
  0
ARC
  8
0
  6
CONTINUOUS
 62
               4
  5
204
 10
-54.999999999999815
 20
126.36059271512237
 30
0.0
 40
28.499999999999996
 50
154.58537908480918
 51
158.50914131540105
  0
ARC
  8
0
  6
CONTINUOUS
 62
               4
  5
205
 10
-54.999999999999815
 20
126.36059271512237
 30
0.0
 40
28.499999999999996
 50
179.27151833763236
 51
179.99999999996524
  0
ARC
  8
0
  6
CONTINUOUS
 62
               4
  5
206
 10
-83.844756928877018
 20
137.7175288210442
 30
0.0
 40
2.5
 50
271.99999999994748
 51
338.50914131536575
  0
ARC
  8
0
  6
CONTINUOUS
 62
               4
  5
207
 10
-99.303856113757405
 20
-2.4564997516142029
 30
0.0
 40
2.5
 50
44.99999999999276
 51
87.999999999983288
  0
LINE
  8
0
  6
CONTINUOUS
 62
               4
  5
208
 10
-91.302297195335996
 20
6.9267343901045848
 30
0.0
 11
-86.736155520353634
 21
2.3605927151223653
 31
0.0
  0
LINE
  8
0
  6
CONTINUOUS
 62
               4
  5
209
 10
-76.464466094067319
 20
-7.911096711163637
 30
0.0
 11
-86.736155520353634
 21
2.3605927151223653
 31
0.0
  0
CIRCLE
  8
0
  6
CONTINUOUS
 62
               4
  5
20A
 10
0.0000000000001137
 20
583.36059271512227
 30
0.0
 40
59.0
  0
LINE
  8
0
  6
CONTINUOUS
 62
               4
  5
20B
 10
-574.99999999999977
 20
233.36059271512238
 30
0.0
 11
-424.99999999999983
 21
233.36059271512238
 31
0.0
  0
LINE
  8
0
  6
CONTINUOUS
 62
               4
  5
20C
 10
-588.5
 20
223.36059271512238
 30
0.0
 11
-588.5
 21
216.36059271512272
 31
0.0
  0
LINE
  8
0
  6
CONTINUOUS
 62
               4
  5
20D
 10
-588.5
 20
223.36059271512238
 30
0.0
 11
-574.99999999999977
 21
233.36059271512238
 31
0.0
  0
ARC
  8
0
  6
CONTINUOUS
 62
               4
  5
20E
 10
-576.99999999999977
 20
211.778017020167
 30
0.0
 40
4.9999999999999991
 50
0.0
 51
66.421821521759654
  0
LINE
  8
0
  6
CONTINUOUS
 62
               4
  5
20F
 10
-588.5
 20
216.36059271512272
 30
0.0
 11
-411.50000000000017
 21
216.36059271512272
 31
0.0
  0
LINE
  8
0
  6
CONTINUOUS
 62
               4
  5
210
 10
-519.99999999999977
 20
216.36059271512272
 30
0.0
 11
-519.99999999999977
 21
233.36059271512238
 31
0.0
  0
LINE
  8
0
  6
CONTINUOUS
 62
               4
  5
211
 10
-479.99999999999983
 20
233.36059271512238
 30
0.0
 11
-479.99999999999983
 21
216.36059271512272
 31
0.0
  0
LINE
  8
0
  6
CONTINUOUS
 62
               4
  5
212
 10
-519.99999999999977
 20
223.36059271512238
 30
0.0
 11
-479.99999999999983
 21
223.36059271512238
 31
0.0
  0
LINE
  8
0
  6
CONTINUOUS
 62
               4
  5
213
 10
-572.28416147400526
 20
233.36059271512238
 30
0.0
 11
-572.28416147400526
 21
216.36059271512272
 31
0.0
  0
LINE
  8
0
  6
CONTINUOUS
 62
               4
  5
214
 10
-586.21049820062501
 20
223.36059271512238
 30
0.0
 11
-586.21049820062501
 21
216.36059271512272
 31
0.0
  0
LINE
  8
0
  6
CONTINUOUS
 62
               4
  5
215
 10
-588.5
 20
223.36059271512238
 30
0.0
 11
-586.21049820062501
 21
223.36059271512238
 31
0.0
  0
LINE
  8
0
  6
CONTINUOUS
 62
               4
  5
216
 10
-586.21049820062501
 20
223.36059271512238
 30
0.0
 11
-572.28416147400526
 21
233.36059271512238
 31
0.0
  0
LINE
  8
0
  6
CONTINUOUS
 62
               4
  5
217
 10
-411.50000000000017
 20
223.36059271512238
 30
0.0
 11
-411.50000000000017
 21
216.36059271512272
 31
0.0
  0
LINE
  8
0
  6
CONTINUOUS
 62
               4
  5
218
 10
-411.50000000000017
 20
223.36059271512238
 30
0.0
 11
-424.99999999999983
 21
233.36059271512238
 31
0.0
  0
ARC
  8
0
  6
CONTINUOUS
 62
               4
  5
219
 10
-422.99999999999994
 20
211.778017020167
 30
0.0
 40
4.9999999999999991
 50
113.57817847813625
 51
179.99999999989603
  0
LINE
  8
0
  6
CONTINUOUS
 62
               4
  5
21A
 10
-427.71583852599559
 20
233.36059271512238
 30
0.0
 11
-427.71583852599559
 21
216.36059271512272
 31
0.0
  0
LINE
  8
0
  6
CONTINUOUS
 62
               4
  5
21B
 10
-413.78950179937459
 20
223.36059271512238
 30
0.0
 11
-413.78950179937459
 21
216.36059271512272
 31
0.0
  0
LINE
  8
0
  6
CONTINUOUS
 62
               4
  5
21C
 10
-411.50000000000017
 20
223.36059271512238
 30
0.0
 11
-413.78950179937459
 21
223.36059271512238
 31
0.0
  0
LINE
  8
0
  6
CONTINUOUS
 62
               4
  5
21D
 10
-413.78950179937459
 20
223.36059271512238
 30
0.0
 11
-427.71583852599559
 21
233.36059271512238
 31
0.0
  0
LINE
  8
0
  6
CONTINUOUS
 62
               4
  5
21E
 10
-74.999999999999801
 20
233.36059271512238
 30
0.0
 11
75.000000000000171
 21
233.36059271512238
 31
0.0
  0
LINE
  8
0
  6
CONTINUOUS
 62
               4
  5
21F
 10
-88.500000000000028
 20
223.36059271512238
 30
0.0
 11
-88.500000000000028
 21
216.36059271512272
 31
0.0
  0
LINE
  8
0
  6
CONTINUOUS
 62
               4
  5
220
 10
-88.500000000000028
 20
223.36059271512238
 30
0.0
 11
-74.999999999999801
 21
233.36059271512238
 31
0.0
  0
ARC
  8
0
  6
CONTINUOUS
 62
               4
  5
221
 10
-76.999999999999687
 20
211.778017020167
 30
0.0
 40
4.9999999999999991
 50
0.0
 51
66.421821521759782
  0
LINE
  8
0
  6
CONTINUOUS
 62
               4
  5
222
 10
-88.500000000000028
 20
216.36059271512272
 30
0.0
 11
88.499999999999829
 21
216.36059271512272
 31
0.0
  0
LINE
  8
0
  6
CONTINUOUS
 62
               4
  5
223
 10
-19.999999999999801
 20
216.36059271512272
 30
0.0
 11
-19.999999999999801
 21
233.36059271512238
 31
0.0
  0
LINE
  8
0
  6
CONTINUOUS
 62
               4
  5
224
 10
20.000000000000199
 20
233.36059271512238
 30
0.0
 11
20.000000000000199
 21
216.36059271512272
 31
0.0
  0
LINE
  8
0
  6
CONTINUOUS
 62
               4
  5
225
 10
-19.999999999999801
 20
223.36059271512238
 30
0.0
 11
20.000000000000199
 21
223.36059271512238
 31
0.0
  0
LINE
  8
0
  6
CONTINUOUS
 62
               4
  5
226
 10
-72.284161474005174
 20
233.36059271512238
 30
0.0
 11
-72.284161474005174
 21
216.36059271512272
 31
0.0
  0
LINE
  8
0
  6
CONTINUOUS
 62
               4
  5
227
 10
-86.21049820062504
 20
223.36059271512238
 30
0.0
 11
-86.21049820062504
 21
216.36059271512272
 31
0.0
  0
LINE
  8
0
  6
CONTINUOUS
 62
               4
  5
228
 10
-88.500000000000028
 20
223.36059271512238
 30
0.0
 11
-86.21049820062504
 21
223.36059271512238
 31
0.0
  0
LINE
  8
0
  6
CONTINUOUS
 62
               4
  5
229
 10
-86.21049820062504
 20
223.36059271512238
 30
0.0
 11
-72.284161474005174
 21
233.36059271512238
 31
0.0
  0
LINE
  8
0
  6
CONTINUOUS
 62
               4
  5
22A
 10
88.499999999999829
 20
223.36059271512238
 30
0.0
 11
88.499999999999829
 21
216.36059271512272
 31
0.0
  0
LINE
  8
0
  6
CONTINUOUS
 62
               4
  5
22B
 10
88.499999999999829
 20
223.36059271512238
 30
0.0
 11
75.000000000000171
 21
233.36059271512238
 31
0.0
  0
ARC
  8
0
  6
CONTINUOUS
 62
               4
  5
22C
 10
77.000000000000057
 20
211.778017020167
 30
0.0
 40
4.9999999999999991
 50
113.57817847813655
 51
179.99999999989603
  0
LINE
  8
0
  6
CONTINUOUS
 62
               4
  5
22D
 10
72.284161474004407
 20
233.36059271512238
 30
0.0
 11
72.284161474004407
 21
216.36059271512272
 31
0.0
  0
LINE
  8
0
  6
CONTINUOUS
 62
               4
  5
22E
 10
86.210498200625409
 20
223.36059271512238
 30
0.0
 11
86.210498200625409
 21
216.36059271512272
 31
0.0
  0
LINE
  8
0
  6
CONTINUOUS
 62
               4
  5
22F
 10
88.499999999999829
 20
223.36059271512238
 30
0.0
 11
86.210498200625409
 21
223.36059271512238
 31
0.0
  0
LINE
  8
0
  6
CONTINUOUS
 62
               4
  5
230
 10
86.210498200625409
 20
223.36059271512238
 30
0.0
 11
72.284161474004407
 21
233.36059271512238
 31
0.0
  0
LINE
  8
0
  6
CONTINUOUS
 62
               4
  5
231
 10
425.00000000000023
 20
233.36059271512238
 30
0.0
 11
575.00000000000023
 21
233.36059271512238
 31
0.0
  0
LINE
  8
0
  6
CONTINUOUS
 62
               4
  5
232
 10
411.5
 20
223.36059271512238
 30
0.0
 11
411.5
 21
216.36059271512272
 31
0.0
  0
LINE
  8
0
  6
CONTINUOUS
 62
               4
  5
233
 10
411.5
 20
223.36059271512238
 30
0.0
 11
425.00000000000023
 21
233.36059271512238
 31
0.0
  0
ARC
  8
0
  6
CONTINUOUS
 62
               4
  5
234
 10
423.00000000000034
 20
211.778017020167
 30
0.0
 40
4.9999999999999991
 50
0.0
 51
66.421821521759654
  0
LINE
  8
0
  6
CONTINUOUS
 62
               4
  5
235
 10
411.5
 20
216.36059271512272
 30
0.0
 11
588.49999999999989
 21
216.36059271512272
 31
0.0
  0
LINE
  8
0
  6
CONTINUOUS
 62
               4
  5
236
 10
480.00000000000023
 20
216.36059271512272
 30
0.0
 11
480.00000000000023
 21
233.36059271512238
 31
0.0
  0
LINE
  8
0
  6
CONTINUOUS
 62
               4
  5
237
 10
520.00000000000023
 20
233.36059271512238
 30
0.0
 11
520.00000000000023
 21
216.36059271512272
 31
0.0
  0
LINE
  8
0
  6
CONTINUOUS
 62
               4
  5
238
 10
480.00000000000023
 20
223.36059271512238
 30
0.0
 11
520.00000000000023
 21
223.36059271512238
 31
0.0
  0
LINE
  8
0
  6
CONTINUOUS
 62
               4
  5
239
 10
427.71583852599485
 20
233.36059271512238
 30
0.0
 11
427.71583852599485
 21
216.36059271512272
 31
0.0
  0
LINE
  8
0
  6
CONTINUOUS
 62
               4
  5
23A
 10
413.78950179937499
 20
223.36059271512238
 30
0.0
 11
413.78950179937499
 21
216.36059271512272
 31
0.0
  0
LINE
  8
0
  6
CONTINUOUS
 62
               4
  5
23B
 10
411.5
 20
223.36059271512238
 30
0.0
 11
413.78950179937499
 21
223.36059271512238
 31
0.0
  0
LINE
  8
0
  6
CONTINUOUS
 62
               4
  5
23C
 10
413.78950179937499
 20
223.36059271512238
 30
0.0
 11
427.71583852599485
 21
233.36059271512238
 31
0.0
  0
LINE
  8
0
  6
CONTINUOUS
 62
               4
  5
23D
 10
588.49999999999989
 20
223.36059271512238
 30
0.0
 11
588.49999999999989
 21
216.36059271512272
 31
0.0
  0
LINE
  8
0
  6
CONTINUOUS
 62
               4
  5
23E
 10
588.49999999999989
 20
223.36059271512238
 30
0.0
 11
575.00000000000023
 21
233.36059271512238
 31
0.0
  0
ARC
  8
0
  6
CONTINUOUS
 62
               4
  5
23F
 10
577.00000000000011
 20
211.778017020167
 30
0.0
 40
4.9999999999999991
 50
113.57817847813625
 51
179.99999999989603
  0
LINE
  8
0
  6
CONTINUOUS
 62
               4
  5
240
 10
572.28416147400446
 20
233.36059271512238
 30
0.0
 11
572.28416147400446
 21
216.36059271512272
 31
0.0
  0
LINE
  8
0
  6
CONTINUOUS
 62
               4
  5
241
 10
586.21049820062547
 20
223.36059271512238
 30
0.0
 11
586.21049820062547
 21
216.36059271512272
 31
0.0
  0
LINE
  8
0
  6
CONTINUOUS
 62
               4
  5
242
 10
588.49999999999989
 20
223.36059271512238
 30
0.0
 11
586.21049820062547
 21
223.36059271512238
 31
0.0
  0
LINE
  8
0
  6
CONTINUOUS
 62
               4
  5
243
 10
586.21049820062547
 20
223.36059271512238
 30
0.0
 11
572.28416147400446
 21
233.36059271512238
 31
0.0
  0
POINT
  8
0
  6
CONTINUOUS
 62
               4
  5
244
 10
-247.03776905046851
 20
-1028.6807073697182
 30
0.0
  0
POINT
  8
0
  6
CONTINUOUS
 62
               4
  5
245
 10
-537.23776905046839
 20
-1028.6807073697182
 30
0.0
  0
POINT
  8
0
  6
CONTINUOUS
 62
               4
  5
246
 10
-349.58372644623506
 20
-920.61282330068332
 30
0.0
  0
POINT
  8
0
  6
CONTINUOUS
 62
               4
  5
247
 10
242.83392368588119
 20
-1028.6807073697182
 30
0.0
  0
POINT
  8
0
  6
CONTINUOUS
 62
               4
  5
248
 10
-1.0781087646046643
 20
-1028.6807073697182
 30
0.0
  0
POINT
  8
0
  6
CONTINUOUS
 62
               4
  5
249
 10
165.37790746063837
 20
-940.72469114447551
 30
0.0
  0
LINE
  8
0
  6
CONTINUOUS
 62
               4
  5
24A
 10
686.28652321630784
 20
-1420.4600517936587
 30
0.0
 11
681.28652321630784
 21
-1415.4600517936587
 31
0.0
  0
ARC
  8
0
  6
CONTINUOUS
 62
               4
  5
24B
 10
663.78652321630784
 20
-1430.9957055465115
 30
0.0
 40
19.999999999999996
 50
0.0
 51
31.78833061703342
  0
LINE
  8
0
  6
CONTINUOUS
 62
               4
  5
24C
 10
680.7865232163083
 20
-1420.4600517936587
 30
0.0
 11
680.7865232163083
 21
-1415.4600517936583
 31
0.0
  0
LINE
  8
0
  6
CONTINUOUS
 62
               4
  5
24D
 10
681.28652321630784
 20
-1415.4600517936587
 30
0.0
 11
680.7865232163083
 21
-1415.4600517936587
 31
0.0
  0
LINE
  8
0
  6
CONTINUOUS
 62
               4
  5
24E
 10
686.03652321630807
 20
-1420.7100517936587
 30
0.0
 11
680.7865232163083
 21
-1415.4600517936587
 31
0.0
  0
LINE
  8
0
  6
CONTINUOUS
 62
               4
  5
24F
 10
686.03652321630807
 20
-1420.7100517936587
 30
0.0
 11
686.28652321630784
 21
-1420.4600517936587
 31
0.0
  0
LINE
  8
0
  6
CONTINUOUS
 62
               4
  5
250
 10
686.28652321630784
 20
-1420.4600517936587
 30
0.0
 11
686.28652321630784
 21
-1551.1487291436288
 31
0.0
  0
LINE
  8
0
  6
CONTINUOUS
 62
               4
  5
251
 10
686.03652321630807
 20
-1420.7100517936587
 30
0.0
 11
686.03652321630807
 21
-1550.8633720364933
 31
0.0
  0
LINE
  8
0
  6
CONTINUOUS
 62
               4
  5
252
 10
683.78652321630784
 20
-1430.8426819493943
 30
0.0
 11
683.78652321630784
 21
-1549.9957055465115
 31
0.0
  0
POINT
  8
0
  6
CONTINUOUS
 62
               4
  5
253
 10
653.78652321630807
 20
-1159.8962717979275
 30
0.0
  0
POINT
  8
0
  6
CONTINUOUS
 62
               4
  5
254
 10
464.88652321630803
 20
-1445.4957055465115
 30
0.0
  0
POINT
  8
0
  6
CONTINUOUS
 62
               4
  5
255
 10
464.88652321630815
 20
-1059.996271797927
 30
0.0
  0
LINE
  8
0
  6
DASHED2
 62
               4
  5
256
 10
-56.999999999999702
 20
168.36059271512238
 30
0.0
 11
57.000000000000071
 21
168.36059271512238
 31
0.0
  0
LINE
  8
0
  6
DASHED2
 62
               4
  5
257
 10
-557.00000000000023
 20
168.36059271512238
 30
0.0
 11
-443.00000000000051
 21
168.36059271512238
 31
0.0
  0
LINE
  8
0
  6
DASHED2
 62
               4
  5
258
 10
443.00000000000023
 20
168.36059271512238
 30
0.0
 11
557.0
 21
168.36059271512238
 31
0.0
  0
LINE
  8
0
  6
DASHED2
 62
               4
  5
259
 10
57.000000000000085
 20
-351.63940728487762
 30
0.0
 11
57.000000000000085
 21
-451.63940728487762
 31
0.0
  0
LINE
  8
0
  6
DASHED2
 62
               4
  5
25A
 10
-57.132845554130768
 20
-351.63940728487762
 30
0.0
 11
-57.132845554130768
 21
-451.73783503032882
 31
0.0
  0
LINE
  8
0
  6
DASHED2
 62
               4
  5
25B
 10
-57.132845554130768
 20
-351.63940728487762
 30
0.0
 11
57.000000000000085
 21
-351.63940728487762
 31
0.0
  0
LINE
  8
0
  6
DASHED2
 62
               4
  5
25C
 10
57.000000000000085
 20
-351.63940728487762
 30
0.0
 11
58.000000000000313
 21
-350.63940728487739
 31
0.0
  0
LINE
  8
0
  6
DASHED2
 62
               4
  5
25D
 10
-57.132845554130768
 20
-351.63940728487762
 30
0.0
 11
-57.999999999999915
 21
-350.77225283900844
 31
0.0
  0
LINE
  8
0
  6
DASHED2
 62
               4
  5
25E
 10
58.000000000000313
 20
-350.63940728487739
 30
0.0
 11
58.000000000000313
 21
-339.63940728487785
 31
0.0
  0
LINE
  8
0
  6
DASHED2
 62
               4
  5
25F
 10
-57.999999999999915
 20
-350.77225283900844
 30
0.0
 11
-57.999999999999915
 21
-339.6394072848779
 31
0.0
  0
LINE
  8
0
  6
DASHED2
 62
               4
  5
260
 10
-57.500000000002785
 20
-466.63940728487876
 30
0.0
 11
-57.500000000002785
 21
-531.63940728487637
 31
0.0
  0
LINE
  8
0
  6
DASHED2
 62
               4
  5
261
 10
0.000000000000199
 20
-451.63940728487762
 30
0.0
 11
-56.999999999999972
 21
-451.63940728487762
 31
0.0
  0
LINE
  8
0
  6
DASHED2
 62
               4
  5
262
 10
-57.500000000002785
 20
-466.63940728487876
 30
0.0
 11
-0.0000000000009379
 21
-466.63940728487762
 31
0.0
  0
LINE
  8
0
  6
DASHED2
 62
               4
  5
263
 10
0.000000000000199
 20
-451.63940728487762
 30
0.0
 11
57.000000000000085
 21
-451.63940728487762
 31
0.0
  0
LINE
  8
0
  6
DASHED2
 62
               4
  5
264
 10
57.500000000001904
 20
-466.63940728487876
 30
0.0
 11
0.000000000000199
 21
-466.63940728487762
 31
0.0
  0
LINE
  8
0
  6
DASHED2
 62
               4
  5
265
 10
57.500000000001904
 20
-466.63940728487876
 30
0.0
 11
57.500000000001904
 21
-531.63940728487637
 31
0.0
  0
LINE
  8
0
  6
DASHED2
 62
               4
  5
266
 10
-136.76000000000053
 20
-451.63940728487717
 30
0.0
 11
-136.76000000000053
 21
-443.11327878556995
 31
0.0
  0
LINE
  8
0
  6
DASHED2
 62
               4
  5
267
 10
-130.87102725426612
 20
-443.11327878556995
 30
0.0
 11
-130.87102725426612
 21
-451.63940728487717
 31
0.0
  0
LINE
  8
0
  6
DASHED2
 62
               4
  5
268
 10
-133.81551362713319
 20
-442.03940728487703
 30
0.0
 11
-116.18448637286727
 21
-442.03940728487703
 31
0.0
  0
LINE
  8
0
  6
DASHED2
 62
               4
  5
269
 10
-113.24000000000021
 20
-451.63940728487717
 30
0.0
 11
-113.24000000000021
 21
-443.11327878556995
 31
0.0
  0
LINE
  8
0
  6
DASHED2
 62
               4
  5
26A
 10
-119.1289727457349
 20
-451.63940728487717
 30
0.0
 11
-119.1289727457349
 21
-443.11327878556995
 31
0.0
  0
ARC
  8
0
  6
DASHED2
 62
               4
  5
26B
 10
-133.81551362713319
 20
-446.61313886899302
 30
0.0
 40
4.5737315841157447
 50
49.925579661602562
 51
130.07442033832857
  0
ARC
  8
0
  6
DASHED2
 62
               4
  5
26C
 10
-116.18448637286727
 20
-446.61313886899302
 30
0.0
 40
4.5737315841157686
 50
49.925579661602882
 51
130.07442033832876
  0
ARC
  8
0
  6
DASHED2
 62
               4
  5
26D
 10
-125.00000000000037
 20
-458.62526555439752
 30
0.0
 40
16.58585826952007
 50
69.269184858534402
 51
110.73081514139702
  0
LINE
  8
0
  6
DASHED2
 62
               4
  5
26E
 10
-136.76000000000195
 20
-453.63940728487751
 30
0.0
 11
-136.76000000000195
 21
-462.16553578418473
 31
0.0
  0
LINE
  8
0
  6
DASHED2
 62
               4
  5
26F
 10
-130.87102725426755
 20
-462.16553578418473
 30
0.0
 11
-130.87102725426755
 21
-453.63940728487751
 31
0.0
  0
LINE
  8
0
  6
DASHED2
 62
               4
  5
270
 10
-133.81551362713461
 20
-463.2394072848773
 30
0.0
 11
-116.18448637286897
 21
-463.2394072848773
 31
0.0
  0
LINE
  8
0
  6
DASHED2
 62
               4
  5
271
 10
-113.24000000000163
 20
-453.63940728487751
 30
0.0
 11
-113.24000000000163
 21
-462.16553578418473
 31
0.0
  0
LINE
  8
0
  6
DASHED2
 62
               4
  5
272
 10
-119.12897274573604
 20
-453.63940728487751
 30
0.0
 11
-119.12897274573604
 21
-462.16553578418473
 31
0.0
  0
ARC
  8
0
  6
DASHED2
 62
               4
  5
273
 10
-133.81551362713461
 20
-458.66567570076188
 30
0.0
 40
4.5737315841157447
 50
229.92557966153424
 51
310.07442033826061
  0
ARC
  8
0
  6
DASHED2
 62
               4
  5
274
 10
-116.18448637286897
 20
-458.66567570076188
 30
0.0
 40
4.5737315841157686
 50
229.92557966153441
 51
310.07442033826021
  0
ARC
  8
0
  6
DASHED2
 62
               4
  5
275
 10
-125.00000000000179
 20
-446.65354901535738
 30
0.0
 40
16.58585826952007
 50
249.26918485846539
 51
290.73081514132792
  0
LINE
  8
0
  6
DASHED2
 62
               4
  5
276
 10
-131.00000000000031
 20
-463.2394072848773
 30
0.0
 11
-131.00000000000031
 21
-473.75877352720187
 31
0.0
  0
LINE
  8
0
  6
DASHED2
 62
               4
  5
277
 10
-119.00000000000043
 20
-463.2394072848773
 30
0.0
 11
-119.00000000000043
 21
-473.75877352720187
 31
0.0
  0
LINE
  8
0
  6
DASHED2
 62
               4
  5
278
 10
-129.80000000000055
 20
-474.95877352720237
 30
0.0
 11
-120.20000000000047
 21
-474.95877352720237
 31
0.0
  0
LINE
  8
0
  6
DASHED2
 62
               4
  5
279
 10
-131.00000000000031
 20
-473.75877352720187
 30
0.0
 11
-129.80000000000055
 21
-474.95877352720237
 31
0.0
  0
LINE
  8
0
  6
DASHED2
 62
               4
  5
27A
 10
-119.00000000000043
 20
-473.75877352720187
 30
0.0
 11
-120.20000000000047
 21
-474.95877352720237
 31
0.0
  0
LINE
  8
0
  6
DASHED2
 62
               4
  5
27B
 10
-136.76000000000053
 20
-451.63940728487717
 30
0.0
 11
-113.24000000000021
 21
-451.63940728487717
 31
0.0
  0
LINE
  8
0
  6
DASHED2
 62
               4
  5
27C
 10
-113.24000000000163
 20
-453.63940728487751
 30
0.0
 11
-136.76000000000195
 21
-453.63940728487751
 31
0.0
  0
LINE
  8
0
  6
DASHED2
 62
               4
  5
27D
 10
-131.00000000000031
 20
-336.57582780894836
 30
0.0
 11
-131.00000000000031
 21
-442.03940728487703
 31
0.0
  0
LINE
  8
0
  6
DASHED2
 62
               4
  5
27E
 10
-119.00000000000043
 20
-336.57582780894836
 30
0.0
 11
-119.00000000000043
 21
-442.03940728487703
 31
0.0
  0
LINE
  8
0
  6
DASHED2
 62
               4
  5
27F
 10
-119.00000000000043
 20
-336.57582780894836
 30
0.0
 11
-131.00000000000031
 21
-336.57582780894836
 31
0.0
  0
LINE
  8
0
  6
DASHED2
 62
               4
  5
280
 10
136.75999999999976
 20
-451.63940728487717
 30
0.0
 11
136.75999999999976
 21
-443.11327878556995
 31
0.0
  0
LINE
  8
0
  6
DASHED2
 62
               4
  5
281
 10
130.87102725426536
 20
-443.11327878556995
 30
0.0
 11
130.87102725426536
 21
-451.63940728487717
 31
0.0
  0
LINE
  8
0
  6
DASHED2
 62
               4
  5
282
 10
133.81551362713242
 20
-442.03940728487703
 30
0.0
 11
116.1844863728665
 21
-442.03940728487703
 31
0.0
  0
LINE
  8
0
  6
DASHED2
 62
               4
  5
283
 10
113.23999999999944
 20
-451.63940728487717
 30
0.0
 11
113.23999999999944
 21
-443.11327878556995
 31
0.0
  0
LINE
  8
0
  6
DASHED2
 62
               4
  5
284
 10
119.12897274573413
 20
-451.63940728487717
 30
0.0
 11
119.12897274573413
 21
-443.11327878556995
 31
0.0
  0
ARC
  8
0
  6
DASHED2
 62
               4
  5
285
 10
133.81551362713242
 20
-446.61313886899302
 30
0.0
 40
4.5737315841157447
 50
49.925579661636654
 51
130.0744203383627
  0
ARC
  8
0
  6
DASHED2
 62
               4
  5
286
 10
116.1844863728665
 20
-446.61313886899302
 30
0.0
 40
4.5737315841157686
 50
49.925579661636384
 51
130.07442033836222
  0
ARC
  8
0
  6
DASHED2
 62
               4
  5
287
 10
124.9999999999996
 20
-458.62526555439752
 30
0.0
 40
16.58585826952007
 50
69.26918485856821
 51
110.73081514143077
  0
LINE
  8
0
  6
DASHED2
 62
               4
  5
288
 10
136.76000000000118
 20
-453.63940728487751
 30
0.0
 11
136.76000000000118
 21
-462.16553578418473
 31
0.0
  0
LINE
  8
0
  6
DASHED2
 62
               4
  5
289
 10
130.87102725426678
 20
-462.16553578418473
 30
0.0
 11
130.87102725426678
 21
-453.63940728487751
 31
0.0
  0
LINE
  8
0
  6
DASHED2
 62
               4
  5
28A
 10
133.81551362713384
 20
-463.2394072848773
 30
0.0
 11
116.18448637286821
 21
-463.2394072848773
 31
0.0
  0
LINE
  8
0
  6
DASHED2
 62
               4
  5
28B
 10
113.24000000000086
 20
-453.63940728487751
 30
0.0
 11
113.24000000000086
 21
-462.16553578418473
 31
0.0
  0
LINE
  8
0
  6
DASHED2
 62
               4
  5
28C
 10
119.12897274573527
 20
-453.63940728487751
 30
0.0
 11
119.12897274573527
 21
-462.16553578418473
 31
0.0
  0
ARC
  8
0
  6
DASHED2
 62
               4
  5
28D
 10
133.81551362713384
 20
-458.66567570076188
 30
0.0
 40
4.5737315841157447
 50
229.9255796616352
 51
310.07442033836156
  0
ARC
  8
0
  6
DASHED2
 62
               4
  5
28E
 10
116.18448637286821
 20
-458.66567570076188
 30
0.0
 40
4.5737315841157686
 50
229.925579661635
 51
310.07442033836077
  0
ARC
  8
0
  6
DASHED2
 62
               4
  5
28F
 10
125.00000000000102
 20
-446.65354901535738
 30
0.0
 40
16.58585826952007
 50
249.26918485856763
 51
290.7308151414303
  0
LINE
  8
0
  6
DASHED2
 62
               4
  5
290
 10
130.99999999999955
 20
-463.2394072848773
 30
0.0
 11
130.99999999999955
 21
-473.75877352720187
 31
0.0
  0
LINE
  8
0
  6
DASHED2
 62
               4
  5
291
 10
118.99999999999966
 20
-463.2394072848773
 30
0.0
 11
118.99999999999966
 21
-473.75877352720187
 31
0.0
  0
LINE
  8
0
  6
DASHED2
 62
               4
  5
292
 10
129.79999999999978
 20
-474.95877352720237
 30
0.0
 11
120.1999999999997
 21
-474.95877352720237
 31
0.0
  0
LINE
  8
0
  6
DASHED2
 62
               4
  5
293
 10
130.99999999999955
 20
-473.75877352720187
 30
0.0
 11
129.79999999999978
 21
-474.95877352720237
 31
0.0
  0
LINE
  8
0
  6
DASHED2
 62
               4
  5
294
 10
118.99999999999966
 20
-473.75877352720187
 30
0.0
 11
120.1999999999997
 21
-474.95877352720237
 31
0.0
  0
LINE
  8
0
  6
DASHED2
 62
               4
  5
295
 10
136.75999999999976
 20
-451.63940728487717
 30
0.0
 11
113.23999999999944
 21
-451.63940728487717
 31
0.0
  0
LINE
  8
0
  6
DASHED2
 62
               4
  5
296
 10
113.24000000000086
 20
-453.63940728487751
 30
0.0
 11
136.76000000000118
 21
-453.63940728487751
 31
0.0
  0
LINE
  8
0
  6
DASHED2
 62
               4
  5
297
 10
130.99999999999955
 20
-336.57582780894836
 30
0.0
 11
130.99999999999955
 21
-442.03940728487703
 31
0.0
  0
LINE
  8
0
  6
DASHED2
 62
               4
  5
298
 10
118.99999999999966
 20
-336.57582780894836
 30
0.0
 11
118.99999999999966
 21
-442.03940728487703
 31
0.0
  0
LINE
  8
0
  6
DASHED2
 62
               4
  5
299
 10
118.99999999999966
 20
-336.57582780894836
 30
0.0
 11
130.99999999999955
 21
-336.57582780894836
 31
0.0
  0
LINE
  8
0
  6
DASHED2
 62
               4
  5
29A
 10
-556.99999999999886
 20
-351.7149687545496
 30
0.0
 11
-556.99999999999886
 21
-451.63940728487762
 31
0.0
  0
LINE
  8
0
  6
DASHED2
 62
               4
  5
29B
 10
-557.50000000000227
 20
-466.63940728487876
 30
0.0
 11
-557.50000000000227
 21
-531.63940728487637
 31
0.0
  0
LINE
  8
0
  6
DASHED2
 62
               4
  5
29C
 10
-499.99999999999926
 20
-451.63940728487762
 30
0.0
 11
-556.99999999999943
 21
-451.63940728487762
 31
0.0
  0
LINE
  8
0
  6
DASHED2
 62
               4
  5
29D
 10
-557.50000000000227
 20
-466.63940728487876
 30
0.0
 11
-500.0000000000004
 21
-466.63940728487762
 31
0.0
  0
LINE
  8
0
  6
DASHED2
 62
               4
  5
29E
 10
-442.99999999999994
 20
-351.7149687545496
 30
0.0
 11
-442.99999999999966
 21
-451.63940728487762
 31
0.0
  0
LINE
  8
0
  6
DASHED2
 62
               4
  5
29F
 10
-499.99999999999926
 20
-451.63940728487762
 30
0.0
 11
-442.99999999999937
 21
-451.63940728487762
 31
0.0
  0
LINE
  8
0
  6
DASHED2
 62
               4
  5
2A0
 10
-442.49999999999756
 20
-466.63940728487876
 30
0.0
 11
-499.99999999999926
 21
-466.63940728487762
 31
0.0
  0
LINE
  8
0
  6
DASHED2
 62
               4
  5
2A1
 10
-442.49999999999756
 20
-466.63940728487876
 30
0.0
 11
-442.49999999999756
 21
-531.63940728487637
 31
0.0
  0
LINE
  8
0
  6
DASHED2
 62
               4
  5
2A2
 10
-511.76000000000005
 20
-451.63940728487762
 30
0.0
 11
-511.76000000000005
 21
-443.1132787855704
 31
0.0
  0
LINE
  8
0
  6
DASHED2
 62
               4
  5
2A3
 10
-505.87102725426558
 20
-443.1132787855704
 30
0.0
 11
-505.87102725426558
 21
-451.63940728487762
 31
0.0
  0
LINE
  8
0
  6
DASHED2
 62
               4
  5
2A4
 10
-508.8155136271327
 20
-442.03940728487748
 30
0.0
 11
-491.18448637286673
 21
-442.03940728487748
 31
0.0
  0
LINE
  8
0
  6
DASHED2
 62
               4
  5
2A5
 10
-488.23999999999972
 20
-451.63940728487762
 30
0.0
 11
-488.23999999999972
 21
-443.1132787855704
 31
0.0
  0
LINE
  8
0
  6
DASHED2
 62
               4
  5
2A6
 10
-494.12897274573442
 20
-451.63940728487762
 30
0.0
 11
-494.12897274573442
 21
-443.1132787855704
 31
0.0
  0
ARC
  8
0
  6
DASHED2
 62
               4
  5
2A7
 10
-508.8155136271327
 20
-446.61313886899347
 30
0.0
 40
4.5737315841157447
 50
49.925579661602832
 51
130.07442033832857
  0
ARC
  8
0
  6
DASHED2
 62
               4
  5
2A8
 10
-491.18448637286673
 20
-446.61313886899347
 30
0.0
 40
4.5737315841157686
 50
49.925579661602747
 51
130.07442033832857
  0
ARC
  8
0
  6
DASHED2
 62
               4
  5
2A9
 10
-499.99999999999983
 20
-458.62526555439797
 30
0.0
 40
16.58585826952007
 50
69.269184858534501
 51
110.73081514139706
  0
LINE
  8
0
  6
DASHED2
 62
               4
  5
2AA
 10
-511.76000000000141
 20
-453.63940728487796
 30
0.0
 11
-511.76000000000141
 21
-462.16553578418518
 31
0.0
  0
LINE
  8
0
  6
DASHED2
 62
               4
  5
2AB
 10
-505.87102725426706
 20
-462.16553578418518
 30
0.0
 11
-505.87102725426706
 21
-453.63940728487796
 31
0.0
  0
LINE
  8
0
  6
DASHED2
 62
               4
  5
2AC
 10
-508.81551362713407
 20
-463.23940728487776
 30
0.0
 11
-491.18448637286843
 21
-463.23940728487776
 31
0.0
  0
LINE
  8
0
  6
DASHED2
 62
               4
  5
2AD
 10
-488.24000000000109
 20
-453.63940728487796
 30
0.0
 11
-488.24000000000109
 21
-462.16553578418518
 31
0.0
  0
LINE
  8
0
  6
DASHED2
 62
               4
  5
2AE
 10
-494.12897274573555
 20
-453.63940728487796
 30
0.0
 11
-494.12897274573555
 21
-462.16553578418518
 31
0.0
  0
ARC
  8
0
  6
DASHED2
 62
               4
  5
2AF
 10
-508.81551362713407
 20
-458.66567570076234
 30
0.0
 40
4.5737315841157447
 50
229.92557966153416
 51
310.07442033826044
  0
ARC
  8
0
  6
DASHED2
 62
               4
  5
2B0
 10
-491.18448637286843
 20
-458.66567570076234
 30
0.0
 40
4.5737315841157686
 50
229.92557966153416
 51
310.07442033825998
  0
ARC
  8
0
  6
DASHED2
 62
               4
  5
2B1
 10
-500.00000000000131
 20
-446.65354901535784
 30
0.0
 40
16.58585826952007
 50
249.26918485846539
 51
290.73081514132798
  0
LINE
  8
0
  6
DASHED2
 62
               4
  5
2B2
 10
-505.99999999999983
 20
-463.23940728487776
 30
0.0
 11
-505.99999999999983
 21
-473.75877352720232
 31
0.0
  0
LINE
  8
0
  6
DASHED2
 62
               4
  5
2B3
 10
-493.99999999999994
 20
-463.23940728487776
 30
0.0
 11
-493.99999999999994
 21
-473.75877352720232
 31
0.0
  0
LINE
  8
0
  6
DASHED2
 62
               4
  5
2B4
 10
-504.80000000000001
 20
-474.95877352720282
 30
0.0
 11
-495.19999999999999
 21
-474.95877352720282
 31
0.0
  0
LINE
  8
0
  6
DASHED2
 62
               4
  5
2B5
 10
-505.99999999999983
 20
-473.75877352720232
 30
0.0
 11
-504.80000000000001
 21
-474.95877352720282
 31
0.0
  0
LINE
  8
0
  6
DASHED2
 62
               4
  5
2B6
 10
-493.99999999999994
 20
-473.75877352720232
 30
0.0
 11
-495.19999999999999
 21
-474.95877352720282
 31
0.0
  0
LINE
  8
0
  6
DASHED2
 62
               4
  5
2B7
 10
-511.76000000000005
 20
-451.63940728487762
 30
0.0
 11
-488.23999999999972
 21
-451.63940728487762
 31
0.0
  0
LINE
  8
0
  6
DASHED2
 62
               4
  5
2B8
 10
-488.24000000000109
 20
-453.63940728487796
 30
0.0
 11
-511.76000000000141
 21
-453.63940728487796
 31
0.0
  0
LINE
  8
0
  6
DASHED2
 62
               4
  5
2B9
 10
-505.99999999999983
 20
-336.57582780894882
 30
0.0
 11
-505.99999999999983
 21
-442.03940728487748
 31
0.0
  0
LINE
  8
0
  6
DASHED2
 62
               4
  5
2BA
 10
-493.99999999999994
 20
-336.57582780894882
 30
0.0
 11
-493.99999999999994
 21
-442.03940728487748
 31
0.0
  0
LINE
  8
0
  6
DASHED2
 62
               4
  5
2BB
 10
-493.99999999999994
 20
-336.57582780894882
 30
0.0
 11
-505.99999999999983
 21
-336.57582780894882
 31
0.0
  0
LINE
  8
0
  6
DASHED2
 62
               4
  5
2BC
 10
-557.13284555413077
 20
-351.7149687545496
 30
0.0
 11
-442.99999999999994
 21
-351.7149687545496
 31
0.0
  0
LINE
  8
0
  6
DASHED2
 62
               4
  5
2BD
 10
-442.99999999999994
 20
-351.7149687545496
 30
0.0
 11
-441.99999999999972
 21
-350.71496875454937
 31
0.0
  0
LINE
  8
0
  6
DASHED2
 62
               4
  5
2BE
 10
-557.13284555413077
 20
-351.7149687545496
 30
0.0
 11
-558.0
 21
-350.84781430868043
 31
0.0
  0
LINE
  8
0
  6
DASHED2
 62
               4
  5
2BF
 10
-558.0
 20
-350.84781430868043
 30
0.0
 11
-558.0
 21
-339.71496875454989
 31
0.0
  0
LINE
  8
0
  6
DASHED2
 62
               4
  5
2C0
 10
-441.99999999999972
 20
-350.71496875454937
 30
0.0
 11
-441.99999999999972
 21
-339.71496875454983
 31
0.0
  0
LINE
  8
0
  6
DASHED2
 62
               4
  5
2C1
 10
443.00000000000114
 20
-351.7149687545496
 30
0.0
 11
443.00000000000114
 21
-451.63940728487762
 31
0.0
  0
LINE
  8
0
  6
DASHED2
 62
               4
  5
2C2
 10
442.49999999999778
 20
-466.63940728487876
 30
0.0
 11
442.49999999999778
 21
-531.63940728487637
 31
0.0
  0
LINE
  8
0
  6
DASHED2
 62
               4
  5
2C3
 10
500.0000000000008
 20
-451.63940728487762
 30
0.0
 11
443.00000000000057
 21
-451.63940728487762
 31
0.0
  0
LINE
  8
0
  6
DASHED2
 62
               4
  5
2C4
 10
442.49999999999778
 20
-466.63940728487876
 30
0.0
 11
499.99999999999966
 21
-466.63940728487762
 31
0.0
  0
LINE
  8
0
  6
DASHED2
 62
               4
  5
2C5
 10
557.00000000000011
 20
-351.7149687545496
 30
0.0
 11
557.00000000000034
 21
-451.63940728487762
 31
0.0
  0
LINE
  8
0
  6
DASHED2
 62
               4
  5
2C6
 10
500.0000000000008
 20
-451.63940728487762
 30
0.0
 11
557.00000000000057
 21
-451.63940728487762
 31
0.0
  0
LINE
  8
0
  6
DASHED2
 62
               4
  5
2C7
 10
557.50000000000239
 20
-466.63940728487876
 30
0.0
 11
500.0000000000008
 21
-466.63940728487762
 31
0.0
  0
LINE
  8
0
  6
DASHED2
 62
               4
  5
2C8
 10
557.50000000000239
 20
-466.63940728487876
 30
0.0
 11
557.50000000000239
 21
-531.63940728487637
 31
0.0
  0
LINE
  8
0
  6
DASHED2
 62
               4
  5
2C9
 10
488.2399999999999
 20
-451.63940728487762
 30
0.0
 11
488.2399999999999
 21
-443.1132787855704
 31
0.0
  0
LINE
  8
0
  6
DASHED2
 62
               4
  5
2CA
 10
494.12897274573436
 20
-443.1132787855704
 30
0.0
 11
494.12897274573436
 21
-451.63940728487762
 31
0.0
  0
LINE
  8
0
  6
DASHED2
 62
               4
  5
2CB
 10
491.18448637286735
 20
-442.03940728487748
 30
0.0
 11
508.81551362713333
 21
-442.03940728487748
 31
0.0
  0
LINE
  8
0
  6
DASHED2
 62
               4
  5
2CC
 10
511.76000000000033
 20
-451.63940728487762
 30
0.0
 11
511.76000000000033
 21
-443.1132787855704
 31
0.0
  0
LINE
  8
0
  6
DASHED2
 62
               4
  5
2CD
 10
505.87102725426564
 20
-451.63940728487762
 30
0.0
 11
505.87102725426564
 21
-443.1132787855704
 31
0.0
  0
ARC
  8
0
  6
DASHED2
 62
               4
  5
2CE
 10
491.18448637286735
 20
-446.61313886899347
 30
0.0
 40
4.5737315841157447
 50
49.925579661602285
 51
130.07442033832857
  0
ARC
  8
0
  6
DASHED2
 62
               4
  5
2CF
 10
508.81551362713333
 20
-446.61313886899347
 30
0.0
 40
4.5737315841157686
 50
49.925579661602747
 51
130.07442033832857
  0
ARC
  8
0
  6
DASHED2
 62
               4
  5
2D0
 10
500.00000000000011
 20
-458.62526555439797
 30
0.0
 40
16.58585826952007
 50
69.269184858534302
 51
110.73081514139687
  0
LINE
  8
0
  6
DASHED2
 62
               4
  5
2D1
 10
488.23999999999853
 20
-453.63940728487796
 30
0.0
 11
488.23999999999853
 21
-462.16553578418518
 31
0.0
  0
LINE
  8
0
  6
DASHED2
 62
               4
  5
2D2
 10
494.12897274573299
 20
-462.16553578418518
 30
0.0
 11
494.12897274573299
 21
-453.63940728487796
 31
0.0
  0
LINE
  8
0
  6
DASHED2
 62
               4
  5
2D3
 10
491.18448637286599
 20
-463.23940728487776
 30
0.0
 11
508.81551362713151
 21
-463.23940728487776
 31
0.0
  0
LINE
  8
0
  6
DASHED2
 62
               4
  5
2D4
 10
511.75999999999897
 20
-453.63940728487796
 30
0.0
 11
511.75999999999897
 21
-462.16553578418518
 31
0.0
  0
LINE
  8
0
  6
DASHED2
 62
               4
  5
2D5
 10
505.8710272542645
 20
-453.63940728487796
 30
0.0
 11
505.8710272542645
 21
-462.16553578418518
 31
0.0
  0
ARC
  8
0
  6
DASHED2
 62
               4
  5
2D6
 10
491.18448637286599
 20
-458.66567570076234
 30
0.0
 40
4.5737315841157447
 50
229.92557966153464
 51
310.07442033826101
  0
ARC
  8
0
  6
DASHED2
 62
               4
  5
2D7
 10
508.81551362713151
 20
-458.66567570076234
 30
0.0
 40
4.5737315841157686
 50
229.92557966153464
 51
310.07442033826055
  0
ARC
  8
0
  6
DASHED2
 62
               4
  5
2D8
 10
499.99999999999875
 20
-446.65354901535784
 30
0.0
 40
16.58585826952007
 50
249.26918485846539
 51
290.73081514132798
  0
LINE
  8
0
  6
DASHED2
 62
               4
  5
2D9
 10
494.00000000000011
 20
-463.23940728487776
 30
0.0
 11
494.00000000000011
 21
-473.75877352720232
 31
0.0
  0
LINE
  8
0
  6
DASHED2
 62
               4
  5
2DA
 10
506.00000000000011
 20
-463.23940728487776
 30
0.0
 11
506.00000000000011
 21
-473.75877352720232
 31
0.0
  0
LINE
  8
0
  6
DASHED2
 62
               4
  5
2DB
 10
495.19999999999993
 20
-474.95877352720282
 30
0.0
 11
504.80000000000007
 21
-474.95877352720282
 31
0.0
  0
LINE
  8
0
  6
DASHED2
 62
               4
  5
2DC
 10
494.00000000000011
 20
-473.75877352720232
 30
0.0
 11
495.19999999999993
 21
-474.95877352720282
 31
0.0
  0
LINE
  8
0
  6
DASHED2
 62
               4
  5
2DD
 10
506.00000000000011
 20
-473.75877352720232
 30
0.0
 11
504.80000000000007
 21
-474.95877352720282
 31
0.0
  0
LINE
  8
0
  6
DASHED2
 62
               4
  5
2DE
 10
488.2399999999999
 20
-451.63940728487762
 30
0.0
 11
511.76000000000033
 21
-451.63940728487762
 31
0.0
  0
LINE
  8
0
  6
DASHED2
 62
               4
  5
2DF
 10
511.75999999999897
 20
-453.63940728487796
 30
0.0
 11
488.23999999999853
 21
-453.63940728487796
 31
0.0
  0
LINE
  8
0
  6
DASHED2
 62
               4
  5
2E0
 10
442.86715444586923
 20
-351.7149687545496
 30
0.0
 11
557.00000000000011
 21
-351.7149687545496
 31
0.0
  0
LINE
  8
0
  6
DASHED2
 62
               4
  5
2E1
 10
557.00000000000011
 20
-351.7149687545496
 30
0.0
 11
558.00000000000034
 21
-350.71496875454937
 31
0.0
  0
LINE
  8
0
  6
DASHED2
 62
               4
  5
2E2
 10
442.86715444586923
 20
-351.7149687545496
 30
0.0
 11
442.00000000000006
 21
-350.84781430868043
 31
0.0
  0
LINE
  8
0
  6
DASHED2
 62
               4
  5
2E3
 10
494.00000000000011
 20
-336.57582780894882
 30
0.0
 11
494.00000000000011
 21
-442.03940728487748
 31
0.0
  0
LINE
  8
0
  6
DASHED2
 62
               4
  5
2E4
 10
506.00000000000011
 20
-336.57582780894882
 30
0.0
 11
506.00000000000011
 21
-442.03940728487748
 31
0.0
  0
LINE
  8
0
  6
DASHED2
 62
               4
  5
2E5
 10
506.00000000000011
 20
-336.57582780894882
 30
0.0
 11
494.00000000000011
 21
-336.57582780894882
 31
0.0
  0
LINE
  8
0
  6
DASHED2
 62
               4
  5
2E6
 10
552.28652321630818
 20
-1388.9957055465115
 30
0.0
 11
666.28652321630784
 21
-1388.9957055465115
 31
0.0
  0
LINE
  8
0
  6
DASHDOT
 62
               4
  5
2E7
 10
0.0000000000001847
 20
253.36059271512238
 30
0.0
 11
0.0000000000001847
 21
-451.63940728487762
 31
0.0
  0
LINE
  8
0
  6
DASHDOT
 62
               4
  5
2E8
 10
-499.99999999999983
 20
253.36059271512238
 30
0.0
 11
-499.99999999999983
 21
-451.63940728487762
 31
0.0
  0
LINE
  8
0
  6
DASHDOT
 62
               4
  5
2E9
 10
500.00000000000023
 20
253.36059271512238
 30
0.0
 11
500.00000000000023
 21
-451.63940728487762
 31
0.0
  0
LINE
  8
0
  6
DASHDOT
 62
               4
  5
2EA
 10
0.0000000000000995
 20
691.86059271512227
 30
0.0
 11
0.0000000000000995
 21
474.86059271512232
 31
0.0
  0
LINE
  8
0
  6
DASHDOT
 62
               4
  5
2EB
 10
-161.99999999999977
 20
583.36059271512227
 30
0.0
 11
108.50000000000034
 21
583.36059271512227
 31
0.0
  0
LINE
  8
0
  6
DASHDOT
 62
               4
  5
2EC
 10
500.00000000000023
 20
-691.86059271512227
 30
0.0
 11
500.00000000000023
 21
-402.63940728487762
 31
0.0
  0
LINE
  8
0
  6
DASHDOT
 62
               4
  5
2ED
 10
-125.00000000000037
 20
-330.64930528687228
 30
0.0
 11
-125.00000000000037
 21
-495.02766690636264
 31
0.0
  0
LINE
  8
0
  6
DASHDOT
 62
               4
  5
2EE
 10
124.9999999999996
 20
-330.64930528687228
 30
0.0
 11
124.9999999999996
 21
-495.02766690636264
 31
0.0
  0
LINE
  8
0
  6
DASHDOT
 62
               4
  5
2EF
 10
0.0000000000001847
 20
-691.86059271512227
 30
0.0
 11
0.0000000000001847
 21
-402.63940728487762
 31
0.0
  0
LINE
  8
0
  6
DASHDOT
 62
               4
  5
2F0
 10
-500.00000000000045
 20
-691.86059271512227
 30
0.0
 11
-500.00000000000045
 21
-402.63940728487762
 31
0.0
  0
LINE
  8
0
  6
DASHDOT
 62
               4
  5
2F1
 10
-431.4747752247751
 20
67.36059271512238
 30
0.0
 11
-568.17557442557427
 21
67.36059271512238
 31
0.0
  0
LINE
  8
0
  6
DASHDOT
 62
               4
  5
2F2
 10
-161.99999999999972
 20
67.360592715122365
 30
0.0
 11
-61.999999999999687
 21
67.360592715122365
 31
0.0
  0
LINE
  8
0
  6
DASHDOT
 62
               4
  5
2F3
 10
-392.13776905046853
 20
-1137.6807073697182
 30
0.0
 11
-392.13776905046842
 21
-1008.6807073697183
 31
0.0
  0
LINE
  8
0
  6
DASHDOT
 62
               4
  5
2F4
 10
-450.13776905046848
 20
-1079.6807073697182
 30
0.0
 11
-334.13776905046853
 21
-1079.6807073697182
 31
0.0
  0
LINE
  8
0
  6
DASHDOT
 62
               4
  5
2F5
 10
-461.94094753457603
 20
-1073.1807073697182
 30
0.0
 11
-327.63776905046853
 21
-1073.1807073697182
 31
0.0
  0
LINE
  8
0
  6
DASHDOT
 62
               4
  5
2F6
 10
-268.23776905046844
 20
-1073.1807073697182
 30
0.0
 11
-169.63776905046853
 21
-1073.1807073697182
 31
0.0
  0
LINE
  8
0
  6
DASHDOT
 62
               4
  5
2F7
 10
-302.63776905046853
 20
-1079.6807073697182
 30
0.0
 11
-228.23776905046856
 21
-1079.6807073697182
 31
0.0
  0
LINE
  8
0
  6
DASHDOT
 62
               4
  5
2F8
 10
-516.03776905046834
 20
-1073.1807073697182
 30
0.0
 11
-614.63776905046848
 21
-1073.1807073697178
 31
0.0
  0
LINE
  8
0
  6
DASHDOT
 62
               4
  5
2F9
 10
-481.63776905046848
 20
-1079.6807073697182
 30
0.0
 11
-556.03776905046834
 21
-1079.6807073697182
 31
0.0
  0
LINE
  8
0
  6
DASHDOT
 62
               4
  5
2FA
 10
-394.08372644623506
 20
-976.21282330068323
 30
0.0
 11
-394.08372644623506
 21
-843.21282330068323
 31
0.0
  0
LINE
  8
0
  6
DASHDOT
 62
               4
  5
2FB
 10
221.63392368588114
 20
-1073.1807073697182
 30
0.0
 11
320.23392368588128
 21
-1073.1807073697182
 31
0.0
  0
LINE
  8
0
  6
DASHDOT
 62
               4
  5
2FC
 10
196.63392368588114
 20
-1087.6807073697182
 30
0.0
 11
261.63392368588114
 21
-1087.6807073697182
 31
0.0
  0
LINE
  8
0
  6
DASHDOT
 62
               4
  5
2FD
 10
70.877907460638156
 20
-1087.6807073697182
 30
0.0
 11
170.87790746063837
 21
-1087.6807073697182
 31
0.0
  0
LINE
  8
0
  6
DASHDOT
 62
               4
  5
2FE
 10
120.87790746063816
 20
-1137.6807073697182
 30
0.0
 11
120.87790746063838
 21
-1008.6807073697183
 31
0.0
  0
LINE
  8
0
  6
DASHDOT
 62
               4
  5
2FF
 10
56.377907460638156
 20
-1073.1807073697182
 30
0.0
 11
190.92191724058938
 21
-1073.1807073697182
 31
0.0
  0
LINE
  8
0
  6
DASHDOT
 62
               4
  5
300
 10
20.121891235395381
 20
-1073.1807073697182
 30
0.0
 11
-78.478108764604642
 21
-1073.1807073697182
 31
0.0
  0
LINE
  8
0
  6
DASHDOT
 62
               4
  5
301
 10
45.121891235395381
 20
-1087.6807073697182
 30
0.0
 11
-19.878108764604619
 21
-1087.6807073697182
 31
0.0
  0
LINE
  8
0
  6
DASHDOT
 62
               4
  5
302
 10
120.87790746063838
 20
-986.92469114447556
 30
0.0
 11
120.87790746063838
 21
-863.32469114447542
 31
0.0
  0
LINE
  8
0
  6
DASHDOT
 62
               4
  5
303
 10
609.28652321630807
 20
-906.99627179792731
 30
0.0
 11
609.28652321630807
 21
-1177.5430585977538
 31
0.0
  0
LINE
  8
0
  6
DASHDOT
 62
               4
  5
304
 10
447.28652321630813
 20
-1015.4962717979273
 30
0.0
 11
717.7865232163083
 21
-1015.4962717979273
 31
0.0
  0
LINE
  8
0
  6
DASHDOT
 62
               4
  5
305
 10
677.81174799153268
 20
-1489.9957055465115
 30
0.0
 11
447.55790992287979
 21
-1489.9957055465115
 31
0.0
  0
LINE
  8
0
  6
DASHDOT
 62
               4
  5
306
 10
609.28652321630807
 20
-1303.9957055465115
 30
0.0
 11
609.28652321630807
 21
-1554.9957055465115
 31
0.0
  0
LINE
  8
0
  6
DASHDOT
 62
               4
  5
307
 10
559.28652321630807
 20
-1504.4957055465115
 30
0.0
 11
659.2865232163083
 21
-1504.4957055465115
 31
0.0
  0
LINE
  8
0
  6
DASHDOT
 62
               4
  5
308
 10
609.28652321630807
 20
-1206.0962717979273
 30
0.0
 11
609.28652321630807
 21
-1082.496271797927
 31
0.0
  0
LINE
  8
0
  6
DASHDOT
 62
               4
  5
309
 10
409.28652321630801
 20
-1496.4957055465115
 30
0.0
 11
483.68652321630799
 21
-1496.4957055465115
 31
0.0
  0
LINE
  8
0
  6
DASHDOT
 62
               4
  5
30A
 10
409.28652321630824
 20
-1015.4962717979271
 30
0.0
 11
542.2865232163083
 21
-1015.4962717979271
 31
0.0
  0
ARC
  8
0
  6
DIVIDE
 62
               4
  5
30B
 10
-28.500000000000313
 20
-698.57238858904611
 30
0.0
 40
55.0
 50
58.789629707478369
 51
121.21037029248673
  0
ARC
  8
0
  6
DIVIDE
 62
               4
  5
30C
 10
-28.500000000000313
 20
-604.49263518800853
 30
0.0
 40
55.0
 50
238.78962970744368
 51
301.21037029245184
  0
ARC
  8
0
  6
DIVIDE
 62
               4
  5
30D
 10
-32.500000000000369
 20
-674.03500932432394
 30
0.0
 40
65.0
 50
59.999999999988269
 51
119.99999999997692
  0
ARC
  8
0
  6
DIVIDE
 62
               4
  5
30E
 10
28.499999999999716
 20
-604.49263518800876
 30
0.0
 40
55.0
 50
238.78962970744377
 51
301.21037029245201
  0
ARC
  8
0
  6
DIVIDE
 62
               4
  5
30F
 10
32.499999999999631
 20
-561.45170683234687
 30
0.0
 40
65.0
 50
239.99999999995379
 51
299.99999999994202
  0
LINE
  8
0
  6
DIVIDE
 62
               4
  5
310
 10
-57.000000000000256
 20
-613.82911260315541
 30
0.0
 11
-57.000000000000256
 21
-651.53251188852732
 31
0.0
  0
LINE
  8
0
  6
DIVIDE
 62
               4
  5
311
 10
56.999999999999801
 20
-621.6576035535154
 30
0.0
 11
56.999999999999801
 21
-651.53251188852732
 31
0.0
  0
ARC
  8
0
  6
DIVIDE
 62
               4
  5
312
 10
-32.500000000000369
 20
-561.4517068323471
 30
0.0
 40
65.0
 50
239.99999999995339
 51
247.85677929850399
  0
LINE
  8
0
  6
DIVIDE
 62
               4
  5
313
 10
64.999999999999602
 20
-531.63940728487637
 30
0.0
 11
64.999999999999602
 21
-617.7433580783354
 31
0.0
  0
LINE
  8
0
  6
DIVIDE
 62
               4
  5
314
 10
-65.000000000000369
 20
-531.63940728487637
 30
0.0
 11
-65.000000000000369
 21
-617.7433580783354
 31
0.0
  0
ARC
  8
0
  6
DIVIDE
 62
               4
  5
315
 10
-528.49999999999977
 20
-698.57238858904611
 30
0.0
 40
55.0
 50
58.789629707478369
 51
121.21037029248674
  0
ARC
  8
0
  6
DIVIDE
 62
               4
  5
316
 10
-528.49999999999977
 20
-604.49263518800853
 30
0.0
 40
55.0
 50
238.78962970744368
 51
301.21037029245184
  0
ARC
  8
0
  6
DIVIDE
 62
               4
  5
317
 10
-532.49999999999977
 20
-674.03500932432394
 30
0.0
 40
65.0
 50
59.999999999988248
 51
119.99999999997692
  0
ARC
  8
0
  6
DIVIDE
 62
               4
  5
318
 10
-471.49999999999972
 20
-604.49263518800876
 30
0.0
 40
55.0
 50
238.78962970744377
 51
301.21037029245201
  0
ARC
  8
0
  6
DIVIDE
 62
               4
  5
319
 10
-467.49999999999983
 20
-561.45170683234687
 30
0.0
 40
65.0
 50
239.99999999995379
 51
299.99999999994202
  0
LINE
  8
0
  6
DIVIDE
 62
               4
  5
31A
 10
-556.99999999999977
 20
-613.82911260315541
 30
0.0
 11
-556.99999999999977
 21
-651.53251188852732
 31
0.0
  0
LINE
  8
0
  6
DIVIDE
 62
               4
  5
31B
 10
-442.99999999999966
 20
-621.6576035535154
 30
0.0
 11
-442.99999999999966
 21
-651.53251188852732
 31
0.0
  0
ARC
  8
0
  6
DIVIDE
 62
               4
  5
31C
 10
-532.49999999999977
 20
-561.4517068323471
 30
0.0
 40
65.0
 50
239.99999999995339
 51
247.85677929850399
  0
LINE
  8
0
  6
DIVIDE
 62
               4
  5
31D
 10
-434.99999999999983
 20
-531.63940728487637
 30
0.0
 11
-434.99999999999983
 21
-617.7433580783354
 31
0.0
  0
LINE
  8
0
  6
DIVIDE
 62
               4
  5
31E
 10
-564.99999999999977
 20
-531.63940728487637
 30
0.0
 11
-564.99999999999977
 21
-617.7433580783354
 31
0.0
  0
ARC
  8
0
  6
DIVIDE
 62
               4
  5
31F
 10
471.50000000000023
 20
-698.57238858904611
 30
0.0
 40
55.0
 50
58.789629707478369
 51
121.21037029248674
  0
ARC
  8
0
  6
DIVIDE
 62
               4
  5
320
 10
471.50000000000023
 20
-604.49263518800853
 30
0.0
 40
55.0
 50
238.78962970744368
 51
301.21037029245184
  0
ARC
  8
0
  6
DIVIDE
 62
               4
  5
321
 10
467.50000000000011
 20
-674.03500932432394
 30
0.0
 40
65.0
 50
59.999999999988297
 51
119.99999999997692
  0
ARC
  8
0
  6
DIVIDE
 62
               4
  5
322
 10
528.50000000000034
 20
-604.49263518800876
 30
0.0
 40
55.0
 50
238.78962970744377
 51
301.21037029245201
  0
ARC
  8
0
  6
DIVIDE
 62
               4
  5
323
 10
532.50000000000011
 20
-561.45170683234687
 30
0.0
 40
65.0
 50
239.99999999995379
 51
299.99999999994196
  0
LINE
  8
0
  6
DIVIDE
 62
               4
  5
324
 10
443.00000000000028
 20
-613.82911260315541
 30
0.0
 11
443.00000000000028
 21
-651.53251188852732
 31
0.0
  0
LINE
  8
0
  6
DIVIDE
 62
               4
  5
325
 10
557.00000000000034
 20
-621.6576035535154
 30
0.0
 11
557.00000000000034
 21
-651.53251188852732
 31
0.0
  0
ARC
  8
0
  6
DIVIDE
 62
               4
  5
326
 10
467.50000000000011
 20
-561.4517068323471
 30
0.0
 40
65.0
 50
239.99999999995339
 51
247.85677929850399
  0
LINE
  8
0
  6
DIVIDE
 62
               4
  5
327
 10
565.00000000000011
 20
-531.63940728487637
 30
0.0
 11
565.00000000000011
 21
-617.7433580783354
 31
0.0
  0
LINE
  8
0
  6
DIVIDE
 62
               4
  5
328
 10
435.00000000000017
 20
-531.63940728487637
 30
0.0
 11
435.00000000000017
 21
-617.7433580783354
 31
0.0
  0
LINE
  8
0
  6
CONTINUOUS
 62
               3
  5
329
 10
83.000000000000057
 20
141.8815278422137
 30
0.0
 11
83.000000000000057
 21
-191.09434658140663
 31
0.0
  0
LINE
  8
0
  6
CONTINUOUS
 62
               3
  5
32A
 10
80.500000000000171
 20
202.86059271512283
 30
0.0
 11
80.500000000000171
 21
146.452595654079
 31
0.0
  0
LINE
  8
0
  6
CONTINUOUS
 62
               3
  5
32B
 10
-83.499999999999801
 20
-15.760355865371139
 30
0.0
 11
-83.499999999999787
 21
-186.71199248146627
 31
0.0
  0
LINE
  8
0
  6
CONTINUOUS
 62
               3
  5
32C
 10
81.232233047033787
 20
144.68482870111268
 30
0.0
 11
82.26776695296644
 21
143.64929479518003
 31
0.0
  0
ARC
  8
0
  6
CONTINUOUS
 62
               3
  5
32D
 10
83.000000000000171
 20
146.452595654079
 30
0.0
 40
2.5
 50
179.99999999996507
 51
224.99999999995572
  0
ARC
  8
0
  6
CONTINUOUS
 62
               3
  5
32E
 10
80.500000000000057
 20
141.8815278422137
 30
0.0
 40
2.5
 50
0.0
 51
44.99999999999023
  0
LINE
  8
0
  6
CONTINUOUS
 62
               3
  5
32F
 10
-80.499999999999801
 20
202.86059271512283
 30
0.0
 11
-80.499999999999801
 21
139.66472741077246
 31
0.0
  0
LINE
  8
0
  6
CONTINUOUS
 62
               3
  5
330
 10
66.500000000000284
 20
-335.71203187941012
 30
0.0
 11
83.000000000000057
 21
-191.09434658140663
 31
0.0
  0
LINE
  8
0
  6
CONTINUOUS
 62
               3
  5
331
 10
-66.499999999999929
 20
-335.71203187941001
 30
0.0
 11
-83.499999999999787
 21
-186.71199248146627
 31
0.0
  0
LINE
  8
0
  6
CONTINUOUS
 62
               3
  5
332
 10
83.000000000000057
 20
2.3605927151223653
 30
0.0
 11
-88.564599394389688
 21
2.3605927151223796
 31
0.0
  0
LINE
  8
0
  6
CONTINUOUS
 62
               3
  5
333
 10
-583.49999999999977
 20
-11.510355865370954
 30
0.0
 11
-583.49999999999977
 21
-186.71199248146627
 31
0.0
  0
LINE
  8
0
  6
CONTINUOUS
 62
               3
  5
334
 10
-583.49999999999977
 20
-11.510355865370954
 30
0.0
 11
-583.49999999999977
 21
126.36059271512237
 31
0.0
  0
LINE
  8
0
  6
CONTINUOUS
 62
               3
  5
335
 10
-580.49999999999977
 20
202.86059271512283
 30
0.0
 11
-580.49999999999977
 21
139.66472741077246
 31
0.0
  0
LINE
  8
0
  6
CONTINUOUS
 62
               3
  5
336
 10
-566.5
 20
-335.71203187941001
 30
0.0
 11
-583.49999999999977
 21
-186.71199248146627
 31
0.0
  0
LINE
  8
0
  6
CONTINUOUS
 62
               3
  5
337
 10
-416.49999999999983
 20
-11.510355865370954
 30
0.0
 11
-416.49999999999983
 21
126.36059271512237
 31
0.0
  0
LINE
  8
0
  6
CONTINUOUS
 62
               3
  5
338
 10
-419.49999999999983
 20
202.86059271512283
 30
0.0
 11
-419.49999999999983
 21
139.66472741077246
 31
0.0
  0
LINE
  8
0
  6
CONTINUOUS
 62
               3
  5
339
 10
-416.49999999999983
 20
-11.510355865370954
 30
0.0
 11
-416.49999999999983
 21
-186.71199248146593
 31
0.0
  0
LINE
  8
0
  6
CONTINUOUS
 62
               3
  5
33A
 10
-433.49999999999972
 20
-335.71203187941012
 30
0.0
 11
-416.49999999999983
 21
-186.71199248146593
 31
0.0
  0
LINE
  8
0
  6
CONTINUOUS
 62
               3
  5
33B
 10
416.50000000000023
 20
-11.510355865370954
 30
0.0
 11
416.50000000000023
 21
-186.71199248146627
 31
0.0
  0
ARC
  8
0
  6
CONTINUOUS
 62
               3
  5
33C
 10
445.00000000000023
 20
126.36059271512237
 30
0.0
 40
28.499999999999996
 50
154.58537908480918
 51
179.99999999996524
  0
LINE
  8
0
  6
CONTINUOUS
 62
               3
  5
33D
 10
416.50000000000023
 20
-11.510355865370954
 30
0.0
 11
416.50000000000023
 21
126.36059271512237
 31
0.0
  0
LINE
  8
0
  6
CONTINUOUS
 62
               3
  5
33E
 10
419.50000000000023
 20
202.86059271512283
 30
0.0
 11
419.50000000000023
 21
139.66472741077246
 31
0.0
  0
ARC
  8
0
  6
CONTINUOUS
 62
               3
  5
33F
 10
417.00000000000023
 20
139.66472741077246
 30
0.0
 40
2.5
 50
334.58537908477393
 51
359.99999999993048
  0
LINE
  8
0
  6
CONTINUOUS
 62
               3
  5
340
 10
433.5
 20
-335.71203187941001
 30
0.0
 11
416.50000000000023
 21
-186.71199248146627
 31
0.0
  0
ARC
  8
0
  6
CONTINUOUS
 62
               3
  5
341
 10
555.00000000000023
 20
126.36059271512237
 30
0.0
 40
28.499999999999996
 50
0.0
 51
25.414620915156053
  0
LINE
  8
0
  6
CONTINUOUS
 62
               3
  5
342
 10
583.50000000000023
 20
-11.510355865370954
 30
0.0
 11
583.50000000000023
 21
126.36059271512237
 31
0.0
  0
ARC
  8
0
  6
CONTINUOUS
 62
               3
  5
343
 10
583.00000000000023
 20
139.66472741077246
 30
0.0
 40
2.5
 50
179.99999999996507
 51
205.4146209151223
  0
LINE
  8
0
  6
CONTINUOUS
 62
               3
  5
344
 10
580.50000000000023
 20
202.86059271512283
 30
0.0
 11
580.50000000000023
 21
139.66472741077246
 31
0.0
  0
LINE
  8
0
  6
CONTINUOUS
 62
               3
  5
345
 10
583.50000000000023
 20
2.3605927151223653
 30
0.0
 11
416.50000000000023
 21
2.3605927151223653
 31
0.0
  0
LINE
  8
0
  6
CONTINUOUS
 62
               3
  5
346
 10
583.50000000000023
 20
-11.510355865370954
 30
0.0
 11
583.50000000000023
 21
-186.71199248146593
 31
0.0
  0
LINE
  8
0
  6
CONTINUOUS
 62
               3
  5
347
 10
566.50000000000023
 20
-335.71203187941012
 30
0.0
 11
583.50000000000023
 21
-186.71199248146593
 31
0.0
  0
ARC
  8
0
  6
CONTINUOUS
 62
               3
  5
348
 10
-554.99999999999977
 20
126.36059271512238
 30
0.0
 40
28.499999999999996
 50
154.58537908480918
 51
179.99999999996524
  0
LINE
  8
0
  6
CONTINUOUS
 62
               3
  5
349
 10
-583.49999999999977
 20
-11.51035586537094
 30
0.0
 11
-583.49999999999989
 21
126.36059271512238
 31
0.0
  0
ARC
  8
0
  6
CONTINUOUS
 62
               3
  5
34A
 10
-582.99999999999989
 20
139.66472741077246
 30
0.0
 40
2.5
 50
334.58537908477336
 51
359.99999999993048
  0
ARC
  8
0
  6
CONTINUOUS
 62
               3
  5
34B
 10
-444.99999999999983
 20
126.36059271512238
 30
0.0
 40
28.499999999999996
 50
0.0
 51
25.414620915156053
  0
LINE
  8
0
  6
CONTINUOUS
 62
               3
  5
34C
 10
-416.49999999999983
 20
-11.51035586537094
 30
0.0
 11
-416.49999999999983
 21
126.36059271512238
 31
0.0
  0
ARC
  8
0
  6
CONTINUOUS
 62
               3
  5
34D
 10
-416.99999999999983
 20
139.66472741077246
 30
0.0
 40
2.5
 50
179.99999999996507
 51
205.41462091512173
  0
LINE
  8
0
  6
CONTINUOUS
 62
               3
  5
34E
 10
-518.17064941051672
 20
2.3605927151223796
 30
0.0
 11
-583.49999999999977
 21
2.3605927151223796
 31
0.0
  0
LINE
  8
0
  6
CONTINUOUS
 62
               3
  5
34F
 10
-416.49999999999983
 20
2.3605927151223796
 30
0.0
 11
-481.82935058948289
 21
2.3605927151223796
 31
0.0
  0
LINE
  8
0
  6
CONTINUOUS
 62
               3
  5
350
 10
-66.499999999999915
 20
-335.71203187941001
 30
0.0
 11
-66.499999999999915
 21
-371.63940728487762
 31
0.0
  0
LINE
  8
0
  6
CONTINUOUS
 62
               3
  5
351
 10
66.500000000000284
 20
-335.71203187941012
 30
0.0
 11
66.500000000000284
 21
-371.63940728487762
 31
0.0
  0
LINE
  8
0
  6
CONTINUOUS
 62
               3
  5
352
 10
-66.499999999999915
 20
-339.63940728487762
 30
0.0
 11
66.500000000000284
 21
-339.63940728487762
 31
0.0
  0
LINE
  8
0
  6
CONTINUOUS
 62
               3
  5
353
 10
-66.499999999999915
 20
-371.63940728487762
 30
0.0
 11
66.500000000000284
 21
-371.63940728487762
 31
0.0
  0
LINE
  8
0
  6
CONTINUOUS
 62
               3
  5
354
 10
-566.5
 20
-339.7149687545496
 30
0.0
 11
-433.49999999999972
 21
-339.7149687545496
 31
0.0
  0
LINE
  8
0
  6
CONTINUOUS
 62
               3
  5
355
 10
433.5
 20
-339.7149687545496
 30
0.0
 11
566.50000000000023
 21
-339.7149687545496
 31
0.0
  0
LINE
  8
0
  6
CONTINUOUS
 62
               3
  5
356
 10
-62.00000000000054
 20
-531.63940728487637
 30
0.0
 11
-62.00000000000054
 21
-516.63940728487728
 31
0.0
  0
LINE
  8
0
  6
CONTINUOUS
 62
               3
  5
357
 10
-65.000000000000369
 20
-531.63940728487637
 30
0.0
 11
64.999999999999602
 21
-531.63940728487637
 31
0.0
  0
ARC
  8
0
  6
CONTINUOUS
 62
               3
  5
358
 10
-75.999999999999744
 20
-390.6394072848783
 30
0.0
 40
4.0
 50
89.999999999965041
 51
179.9999999999304
  0
ARC
  8
0
  6
CONTINUOUS
 62
               3
  5
359
 10
-78.999999999999716
 20
-387.6394072848783
 30
0.0
 40
1.0000000000000004
 50
89.999999999964274
 51
179.99999999993119
  0
ARC
  8
0
  6
CONTINUOUS
 62
               3
  5
35A
 10
-78.999999999999716
 20
-387.6394072848783
 30
0.0
 40
1.9999999999999996
 50
89.999999999965809
 51
179.99999999993119
  0
LINE
  8
0
  6
CONTINUOUS
 62
               3
  5
35B
 10
-80.999999999999744
 20
-387.6394072848783
 30
0.0
 11
-81.000000000000313
 21
-450.63940728487717
 31
0.0
  0
LINE
  8
0
  6
CONTINUOUS
 62
               3
  5
35C
 10
-79.999999999999943
 20
-387.6394072848783
 30
0.0
 11
-80.000000000000512
 21
-450.63940728487717
 31
0.0
  0
ARC
  8
0
  6
CONTINUOUS
 62
               3
  5
35D
 10
-82.000000000000256
 20
-450.63940728487717
 30
0.0
 40
1.9999999999999996
 50
269.99999999989586
 51
359.99999999986238
  0
ARC
  8
0
  6
CONTINUOUS
 62
               3
  5
35E
 10
-82.000000000000256
 20
-450.63940728487717
 30
0.0
 40
1.0000000000000004
 50
269.99999999989581
 51
359.99999999986238
  0
LINE
  8
0
  6
CONTINUOUS
 62
               3
  5
35F
 10
-82.000000000000256
 20
-452.63940728487717
 30
0.0
 11
-145.00000000000037
 21
-452.63940728487762
 31
0.0
  0
LINE
  8
0
  6
CONTINUOUS
 62
               3
  5
360
 10
-82.000000000000256
 20
-451.63940728487717
 30
0.0
 11
-145.00000000000037
 21
-451.63940728487762
 31
0.0
  0
LINE
  8
0
  6
CONTINUOUS
 62
               3
  5
361
 10
-64.999999999999943
 20
-385.6394072848783
 30
0.0
 11
-78.999999999999716
 21
-385.6394072848783
 31
0.0
  0
LINE
  8
0
  6
CONTINUOUS
 62
               3
  5
362
 10
0.000000000000199
 20
-386.63940728487762
 30
0.0
 11
-78.999999999999716
 21
-386.6394072848783
 31
0.0
  0
LINE
  8
0
  6
CONTINUOUS
 62
               3
  5
363
 10
-64.999999999999943
 20
-385.6394072848783
 30
0.0
 11
-64.999999999999943
 21
-386.63940728487819
 31
0.0
  0
LINE
  8
0
  6
CONTINUOUS
 62
               3
  5
364
 10
-64.999999999999375
 20
-517.63940728487705
 30
0.0
 11
-78.999999999999289
 21
-517.63940728487728
 31
0.0
  0
ARC
  8
0
  6
CONTINUOUS
 62
               3
  5
365
 10
-78.999999999999289
 20
-515.63940728487728
 30
0.0
 40
1.0000000000000004
 50
179.99999999993446
 51
269.99999999989586
  0
ARC
  8
0
  6
CONTINUOUS
 62
               3
  5
366
 10
-78.999999999999289
 20
-515.63940728487728
 30
0.0
 40
1.9999999999999996
 50
179.99999999993119
 51
269.9999999998974
  0
ARC
  8
0
  6
CONTINUOUS
 62
               3
  5
367
 10
-75.99999999999946
 20
-512.63940728487728
 30
0.0
 40
4.0
 50
179.99999999993119
 51
269.9999999998974
  0
LINE
  8
0
  6
CONTINUOUS
 62
               3
  5
368
 10
-64.999999999999375
 20
-517.63940728487705
 30
0.0
 11
-64.999999999999375
 21
-516.63940728487728
 31
0.0
  0
LINE
  8
0
  6
CONTINUOUS
 62
               3
  5
369
 10
-80.99999999999946
 20
-515.63940728487728
 30
0.0
 11
-81.000000000000313
 21
-454.63940728487717
 31
0.0
  0
LINE
  8
0
  6
CONTINUOUS
 62
               3
  5
36A
 10
-79.999999999999375
 20
-515.63940728487728
 30
0.0
 11
-80.000000000000369
 21
-454.63940728487717
 31
0.0
  0
LINE
  8
0
  6
CONTINUOUS
 62
               3
  5
36B
 10
-0.0000000000003695
 20
-516.63940728487637
 30
0.0
 11
-78.999999999999289
 21
-516.63940728487728
 31
0.0
  0
LINE
  8
0
  6
CONTINUOUS
 62
               3
  5
36C
 10
-0.0000000000003695
 20
-494.13940728487643
 30
0.0
 11
-79.999999999999517
 21
-494.13940728487711
 31
0.0
  0
ARC
  8
0
  6
CONTINUOUS
 62
               3
  5
36D
 10
-82.000000000000256
 20
-454.63940728487717
 30
0.0
 40
1.9999999999999996
 50
0.0000000000016284
 51
89.999999999965809
  0
ARC
  8
0
  6
CONTINUOUS
 62
               3
  5
36E
 10
-82.000000000000256
 20
-454.63940728487717
 30
0.0
 40
1.0000000000000004
 50
0.0
 51
89.999999999967429
  0
LINE
  8
0
  6
CONTINUOUS
 62
               3
  5
36F
 10
-82.000000000000256
 20
-453.63940728487717
 30
0.0
 11
-145.00000000000037
 21
-453.63940728487762
 31
0.0
  0
LINE
  8
0
  6
CONTINUOUS
 62
               3
  5
370
 10
-79.999999999999943
 20
-409.6394072848783
 30
0.0
 11
0.000000000000199
 21
-409.6394072848783
 31
0.0
  0
LINE
  8
0
  6
CONTINUOUS
 62
               3
  5
371
 10
-76.999999999999972
 20
-409.6394072848783
 30
0.0
 11
-77.00000000000054
 21
-494.13940728487711
 31
0.0
  0
LINE
  8
0
  6
CONTINUOUS
 62
               3
  5
372
 10
-145.00000000000037
 20
-451.63940728487762
 30
0.0
 11
-145.00000000000037
 21
-452.63940728487762
 31
0.0
  0
LINE
  8
0
  6
CONTINUOUS
 62
               3
  5
373
 10
-145.00000000000037
 20
-453.63940728487762
 30
0.0
 11
-145.00000000000037
 21
-452.63940728487762
 31
0.0
  0
LINE
  8
0
  6
CONTINUOUS
 62
               3
  5
374
 10
-87.250000000000313
 20
-450.13940728487717
 30
0.0
 11
-94.750000000000313
 21
-450.13940728487717
 31
0.0
  0
LINE
  8
0
  6
CONTINUOUS
 62
               3
  5
375
 10
-87.250000000000313
 20
-455.13940728487717
 30
0.0
 11
-94.750000000000313
 21
-455.13940728487739
 31
0.0
  0
LINE
  8
0
  6
CONTINUOUS
 62
               3
  5
376
 10
-87.250000000000313
 20
-450.13940728487717
 30
0.0
 11
-87.250000000000313
 21
-451.63940728487717
 31
0.0
  0
LINE
  8
0
  6
CONTINUOUS
 62
               3
  5
377
 10
-87.250000000000313
 20
-453.63940728487717
 30
0.0
 11
-87.250000000000313
 21
-455.13940728487717
 31
0.0
  0
LINE
  8
0
  6
CONTINUOUS
 62
               3
  5
378
 10
-94.750000000000313
 20
-450.13940728487717
 30
0.0
 11
-94.750000000000313
 21
-451.63940728487717
 31
0.0
  0
LINE
  8
0
  6
CONTINUOUS
 62
               3
  5
379
 10
-94.750000000000313
 20
-453.63940728487739
 30
0.0
 11
-94.750000000000313
 21
-455.13940728487739
 31
0.0
  0
ARC
  8
0
  6
CONTINUOUS
 62
               3
  5
37A
 10
76.0
 20
-390.6394072848783
 30
0.0
 40
4.0
 50
0.0000000000341973
 51
90.000000000000199
  0
ARC
  8
0
  6
CONTINUOUS
 62
               3
  5
37B
 10
78.999999999999943
 20
-387.6394072848783
 30
0.0
 40
1.0000000000000004
 50
0.0000000000358258
 51
90.000000000001421
  0
ARC
  8
0
  6
CONTINUOUS
 62
               3
  5
37C
 10
78.999999999999943
 20
-387.6394072848783
 30
0.0
 40
1.9999999999999996
 50
0.0000000000341973
 51
89.999999999999801
  0
LINE
  8
0
  6
CONTINUOUS
 62
               3
  5
37D
 10
81.0
 20
-387.6394072848783
 30
0.0
 11
80.999999999999432
 21
-450.63940728487717
 31
0.0
  0
LINE
  8
0
  6
CONTINUOUS
 62
               3
  5
37E
 10
80.000000000000171
 20
-387.6394072848783
 30
0.0
 11
79.999999999999602
 21
-450.63940728487717
 31
0.0
  0
ARC
  8
0
  6
CONTINUOUS
 62
               3
  5
37F
 10
81.999999999999488
 20
-450.63940728487717
 30
0.0
 40
1.9999999999999996
 50
180.00000000003379
 51
269.99999999999937
  0
ARC
  8
0
  6
CONTINUOUS
 62
               3
  5
380
 10
81.999999999999488
 20
-450.63940728487717
 30
0.0
 40
1.0000000000000004
 50
180.00000000003541
 51
269.99999999999937
  0
LINE
  8
0
  6
CONTINUOUS
 62
               3
  5
381
 10
81.999999999999488
 20
-452.63940728487717
 30
0.0
 11
144.9999999999996
 21
-452.63940728487762
 31
0.0
  0
LINE
  8
0
  6
CONTINUOUS
 62
               3
  5
382
 10
81.999999999999488
 20
-451.63940728487717
 30
0.0
 11
144.9999999999996
 21
-451.63940728487762
 31
0.0
  0
LINE
  8
0
  6
CONTINUOUS
 62
               3
  5
383
 10
65.000000000000171
 20
-385.6394072848783
 30
0.0
 11
78.999999999999943
 21
-385.6394072848783
 31
0.0
  0
LINE
  8
0
  6
CONTINUOUS
 62
               3
  5
384
 10
0.000000000000199
 20
-386.63940728487762
 30
0.0
 11
78.999999999999943
 21
-386.6394072848783
 31
0.0
  0
LINE
  8
0
  6
CONTINUOUS
 62
               3
  5
385
 10
65.000000000000171
 20
-385.6394072848783
 30
0.0
 11
65.000000000000171
 21
-386.63940728487819
 31
0.0
  0
LINE
  8
0
  6
CONTINUOUS
 62
               3
  5
386
 10
64.999999999998465
 20
-517.63940728487705
 30
0.0
 11
78.999999999998522
 21
-517.63940728487728
 31
0.0
  0
ARC
  8
0
  6
CONTINUOUS
 62
               3
  5
387
 10
78.999999999998522
 20
-515.63940728487728
 30
0.0
 40
1.0000000000000004
 50
269.99999999999937
 51
359.99999999996663
  0
ARC
  8
0
  6
CONTINUOUS
 62
               3
  5
388
 10
78.999999999998522
 20
-515.63940728487728
 30
0.0
 40
1.9999999999999996
 50
269.99999999999858
 51
359.99999999996339
  0
ARC
  8
0
  6
CONTINUOUS
 62
               3
  5
389
 10
75.999999999998579
 20
-512.63940728487728
 30
0.0
 40
4.0
 50
269.99999999999818
 51
359.99999999996339
  0
LINE
  8
0
  6
CONTINUOUS
 62
               3
  5
38A
 10
64.999999999998465
 20
-517.63940728487705
 30
0.0
 11
64.999999999998465
 21
-516.63940728487728
 31
0.0
  0
LINE
  8
0
  6
CONTINUOUS
 62
               3
  5
38B
 10
80.999999999998408
 20
-515.63940728487728
 30
0.0
 11
80.999999999999432
 21
-454.63940728487717
 31
0.0
  0
LINE
  8
0
  6
CONTINUOUS
 62
               3
  5
38C
 10
79.999999999998465
 20
-515.63940728487728
 30
0.0
 11
79.999999999999488
 21
-454.63940728487717
 31
0.0
  0
LINE
  8
0
  6
CONTINUOUS
 62
               3
  5
38D
 10
-0.0000000000003695
 20
-516.63940728487637
 30
0.0
 11
78.999999999998522
 21
-516.63940728487728
 31
0.0
  0
LINE
  8
0
  6
CONTINUOUS
 62
               3
  5
38E
 10
-0.0000000000003695
 20
-494.13940728487643
 30
0.0
 11
79.999999999998749
 21
-494.13940728487711
 31
0.0
  0
ARC
  8
0
  6
CONTINUOUS
 62
               3
  5
38F
 10
81.999999999999488
 20
-454.63940728487717
 30
0.0
 40
1.9999999999999996
 50
89.999999999999801
 51
179.99999999996376
  0
ARC
  8
0
  6
CONTINUOUS
 62
               3
  5
390
 10
81.999999999999488
 20
-454.63940728487717
 30
0.0
 40
1.0000000000000004
 50
89.999999999998167
 51
179.99999999996376
  0
LINE
  8
0
  6
CONTINUOUS
 62
               3
  5
391
 10
81.999999999999488
 20
-453.63940728487717
 30
0.0
 11
144.9999999999996
 21
-453.63940728487762
 31
0.0
  0
LINE
  8
0
  6
CONTINUOUS
 62
               3
  5
392
 10
80.000000000000171
 20
-409.6394072848783
 30
0.0
 11
0.000000000000199
 21
-409.6394072848783
 31
0.0
  0
LINE
  8
0
  6
CONTINUOUS
 62
               3
  5
393
 10
77.000000000000057
 20
-409.6394072848783
 30
0.0
 11
76.999999999999488
 21
-494.13940728487711
 31
0.0
  0
LINE
  8
0
  6
CONTINUOUS
 62
               3
  5
394
 10
144.9999999999996
 20
-451.63940728487762
 30
0.0
 11
144.9999999999996
 21
-452.63940728487762
 31
0.0
  0
LINE
  8
0
  6
CONTINUOUS
 62
               3
  5
395
 10
144.9999999999996
 20
-453.63940728487762
 30
0.0
 11
144.9999999999996
 21
-452.63940728487762
 31
0.0
  0
LINE
  8
0
  6
CONTINUOUS
 62
               3
  5
396
 10
87.249999999999432
 20
-450.13940728487717
 30
0.0
 11
94.749999999999432
 21
-450.13940728487717
 31
0.0
  0
LINE
  8
0
  6
CONTINUOUS
 62
               3
  5
397
 10
87.249999999999432
 20
-455.13940728487717
 30
0.0
 11
94.749999999999432
 21
-455.13940728487739
 31
0.0
  0
LINE
  8
0
  6
CONTINUOUS
 62
               3
  5
398
 10
87.249999999999432
 20
-450.13940728487717
 30
0.0
 11
87.249999999999432
 21
-451.63940728487717
 31
0.0
  0
LINE
  8
0
  6
CONTINUOUS
 62
               3
  5
399
 10
87.249999999999432
 20
-453.63940728487717
 30
0.0
 11
87.249999999999432
 21
-455.13940728487717
 31
0.0
  0
LINE
  8
0
  6
CONTINUOUS
 62
               3
  5
39A
 10
94.749999999999432
 20
-450.13940728487717
 30
0.0
 11
94.749999999999432
 21
-451.63940728487717
 31
0.0
  0
LINE
  8
0
  6
CONTINUOUS
 62
               3
  5
39B
 10
94.749999999999432
 20
-453.63940728487739
 30
0.0
 11
94.749999999999432
 21
-455.13940728487739
 31
0.0
  0
LINE
  8
0
  6
CONTINUOUS
 62
               3
  5
39C
 10
61.999999999999517
 20
-531.63940728487637
 30
0.0
 11
61.999999999999517
 21
-516.63940728487728
 31
0.0
  0
LINE
  8
0
  6
CONTINUOUS
 62
               3
  5
39D
 10
-562.0
 20
-531.63940728487637
 30
0.0
 11
-562.0
 21
-516.63940728487728
 31
0.0
  0
LINE
  8
0
  6
CONTINUOUS
 62
               3
  5
39E
 10
-564.99999999999977
 20
-531.63940728487637
 30
0.0
 11
-434.99999999999983
 21
-531.63940728487637
 31
0.0
  0
ARC
  8
0
  6
CONTINUOUS
 62
               3
  5
39F
 10
-575.9999999999992
 20
-390.6394072848783
 30
0.0
 40
4.0
 50
89.999999999964786
 51
179.9999999999304
  0
LINE
  8
0
  6
CONTINUOUS
 62
               3
  5
3A0
 10
-579.9999999999992
 20
-390.63940728487592
 30
0.0
 11
-579.99999999999943
 21
-409.6394072848783
 31
0.0
  0
LINE
  8
0
  6
CONTINUOUS
 62
               3
  5
3A1
 10
-515.99999999999932
 20
-386.63940728487773
 30
0.0
 11
-575.99999999999932
 21
-386.6394072848783
 31
0.0
  0
LINE
  8
0
  6
CONTINUOUS
 62
               3
  5
3A2
 10
-515.99999999999932
 20
-517.63940728487637
 30
0.0
 11
-483.99999999999875
 21
-517.63940728487592
 31
0.0
  0
ARC
  8
0
  6
CONTINUOUS
 62
               3
  5
3A3
 10
-575.99999999999886
 20
-512.63940728487728
 30
0.0
 40
4.0
 50
179.99999999993119
 51
269.99999999989763
  0
LINE
  8
0
  6
CONTINUOUS
 62
               3
  5
3A4
 10
-579.99999999999898
 20
-512.63940728487728
 30
0.0
 11
-579.99999999999886
 21
-494.13940728487711
 31
0.0
  0
LINE
  8
0
  6
CONTINUOUS
 62
               3
  5
3A5
 10
-515.99999999999932
 20
-516.6394072848766
 30
0.0
 11
-576.0000000000025
 21
-516.63940728487728
 31
0.0
  0
LINE
  8
0
  6
CONTINUOUS
 62
               3
  5
3A6
 10
-515.99999999999932
 20
-494.13940728487665
 30
0.0
 11
-579.99999999999898
 21
-494.13940728487711
 31
0.0
  0
LINE
  8
0
  6
CONTINUOUS
 62
               3
  5
3A7
 10
-579.99999999999943
 20
-409.6394072848783
 30
0.0
 11
-515.99999999999932
 21
-409.6394072848783
 31
0.0
  0
LINE
  8
0
  6
CONTINUOUS
 62
               3
  5
3A8
 10
-576.99999999999943
 20
-409.6394072848783
 30
0.0
 11
-577.0
 21
-494.13940728487711
 31
0.0
  0
LINE
  8
0
  6
CONTINUOUS
 62
               3
  5
3A9
 10
-483.99999999999926
 20
-386.63940728487773
 30
0.0
 11
-420.99999999999949
 21
-386.6394072848783
 31
0.0
  0
LINE
  8
0
  6
CONTINUOUS
 62
               3
  5
3AA
 10
-483.99999999999875
 20
-516.6394072848766
 30
0.0
 11
-424.0000000000008
 21
-516.63940728487728
 31
0.0
  0
LINE
  8
0
  6
CONTINUOUS
 62
               3
  5
3AB
 10
-483.99999999999875
 20
-494.13940728487665
 30
0.0
 11
-420.00000000000068
 21
-494.13940728487711
 31
0.0
  0
LINE
  8
0
  6
CONTINUOUS
 62
               3
  5
3AC
 10
-419.99999999999926
 20
-409.6394072848783
 30
0.0
 11
-483.99999999999926
 21
-409.6394072848783
 31
0.0
  0
LINE
  8
0
  6
CONTINUOUS
 62
               3
  5
3AD
 10
-437.99999999999994
 20
-531.63940728487637
 30
0.0
 11
-437.99999999999994
 21
-516.63940728487728
 31
0.0
  0
LINE
  8
0
  6
CONTINUOUS
 62
               3
  5
3AE
 10
-515.99999999999932
 20
-385.6394072848783
 30
0.0
 11
-515.99999999999932
 21
-517.63940728487637
 31
0.0
  0
LINE
  8
0
  6
CONTINUOUS
 62
               3
  5
3AF
 10
-483.99999999999875
 20
-517.63940728487592
 30
0.0
 11
-483.99999999999926
 21
-385.6394072848783
 31
0.0
  0
LINE
  8
0
  6
CONTINUOUS
 62
               3
  5
3B0
 10
-515.99999999999977
 20
-385.6394072848783
 30
0.0
 11
-483.99999999999983
 21
-385.6394072848783
 31
0.0
  0
LINE
  8
0
  6
CONTINUOUS
 62
               3
  5
3B1
 10
-515.99999999999932
 20
-452.63940728487717
 30
0.0
 11
-483.99999999999875
 21
-452.63940728487717
 31
0.0
  0
LINE
  8
0
  6
CONTINUOUS
 62
               3
  5
3B2
 10
-515.99999999999932
 20
-451.63940728487739
 30
0.0
 11
-483.99999999999875
 21
-451.63940728487739
 31
0.0
  0
LINE
  8
0
  6
CONTINUOUS
 62
               3
  5
3B3
 10
-515.99999999999932
 20
-453.63940728487739
 30
0.0
 11
-483.99999999999875
 21
-453.63940728487739
 31
0.0
  0
ARC
  8
0
  6
CONTINUOUS
 62
               3
  5
3B4
 10
-424.00000000000045
 20
-390.6394072848783
 30
0.0
 40
4.0
 50
0.0000000000341973
 51
89.999999999999801
  0
LINE
  8
0
  6
CONTINUOUS
 62
               3
  5
3B5
 10
-420.00000000000045
 20
-390.63940728487592
 30
0.0
 11
-420.00000000000023
 21
-409.6394072848783
 31
0.0
  0
ARC
  8
0
  6
CONTINUOUS
 62
               3
  5
3B6
 10
-424.00000000000074
 20
-512.63940728487728
 30
0.0
 40
4.0
 50
269.99999999999858
 51
359.99999999996339
  0
LINE
  8
0
  6
CONTINUOUS
 62
               3
  5
3B7
 10
-420.00000000000068
 20
-512.63940728487728
 30
0.0
 11
-420.0000000000008
 21
-494.13940728487711
 31
0.0
  0
LINE
  8
0
  6
CONTINUOUS
 62
               3
  5
3B8
 10
-423.00000000000023
 20
-409.6394072848783
 30
0.0
 11
-422.99999999999966
 21
-494.13940728487711
 31
0.0
  0
LINE
  8
0
  6
CONTINUOUS
 62
               3
  5
3B9
 10
-566.5
 20
-371.7149687545496
 30
0.0
 11
-433.49999999999972
 21
-371.7149687545496
 31
0.0
  0
LINE
  8
0
  6
CONTINUOUS
 62
               3
  5
3BA
 10
-566.5
 20
-335.78759334908199
 30
0.0
 11
-566.5
 21
-371.7149687545496
 31
0.0
  0
LINE
  8
0
  6
CONTINUOUS
 62
               3
  5
3BB
 10
-433.49999999999972
 20
-335.7875933490821
 30
0.0
 11
-433.49999999999972
 21
-371.7149687545496
 31
0.0
  0
LINE
  8
0
  6
CONTINUOUS
 62
               3
  5
3BC
 10
438.0
 20
-531.63940728487637
 30
0.0
 11
438.0
 21
-516.63940728487728
 31
0.0
  0
LINE
  8
0
  6
CONTINUOUS
 62
               3
  5
3BD
 10
435.00000000000017
 20
-531.63940728487637
 30
0.0
 11
565.00000000000011
 21
-531.63940728487637
 31
0.0
  0
ARC
  8
0
  6
CONTINUOUS
 62
               3
  5
3BE
 10
424.0000000000008
 20
-390.6394072848783
 30
0.0
 40
4.0
 50
89.999999999964786
 51
179.9999999999304
  0
LINE
  8
0
  6
CONTINUOUS
 62
               3
  5
3BF
 10
420.0000000000008
 20
-390.63940728487592
 30
0.0
 11
420.00000000000057
 21
-409.6394072848783
 31
0.0
  0
LINE
  8
0
  6
CONTINUOUS
 62
               3
  5
3C0
 10
484.0000000000008
 20
-386.63940728487773
 30
0.0
 11
424.00000000000074
 21
-386.6394072848783
 31
0.0
  0
LINE
  8
0
  6
CONTINUOUS
 62
               3
  5
3C1
 10
484.0000000000008
 20
-517.63940728487637
 30
0.0
 11
516.00000000000125
 21
-517.63940728487592
 31
0.0
  0
ARC
  8
0
  6
CONTINUOUS
 62
               3
  5
3C2
 10
424.00000000000108
 20
-512.63940728487728
 30
0.0
 40
4.0
 50
179.99999999993119
 51
269.99999999989763
  0
LINE
  8
0
  6
CONTINUOUS
 62
               3
  5
3C3
 10
420.00000000000102
 20
-512.63940728487728
 30
0.0
 11
420.00000000000114
 21
-494.13940728487711
 31
0.0
  0
LINE
  8
0
  6
CONTINUOUS
 62
               3
  5
3C4
 10
484.0000000000008
 20
-516.6394072848766
 30
0.0
 11
423.99999999999756
 21
-516.63940728487728
 31
0.0
  0
LINE
  8
0
  6
CONTINUOUS
 62
               3
  5
3C5
 10
484.0000000000008
 20
-494.13940728487665
 30
0.0
 11
420.00000000000102
 21
-494.13940728487711
 31
0.0
  0
LINE
  8
0
  6
CONTINUOUS
 62
               3
  5
3C6
 10
420.00000000000057
 20
-409.6394072848783
 30
0.0
 11
484.0000000000008
 21
-409.6394072848783
 31
0.0
  0
LINE
  8
0
  6
CONTINUOUS
 62
               3
  5
3C7
 10
423.00000000000057
 20
-409.6394072848783
 30
0.0
 11
423.0
 21
-494.13940728487711
 31
0.0
  0
LINE
  8
0
  6
CONTINUOUS
 62
               3
  5
3C8
 10
516.0000000000008
 20
-386.63940728487773
 30
0.0
 11
579.00000000000057
 21
-386.6394072848783
 31
0.0
  0
LINE
  8
0
  6
CONTINUOUS
 62
               3
  5
3C9
 10
516.00000000000125
 20
-516.6394072848766
 30
0.0
 11
575.9999999999992
 21
-516.63940728487728
 31
0.0
  0
LINE
  8
0
  6
CONTINUOUS
 62
               3
  5
3CA
 10
516.00000000000125
 20
-494.13940728487665
 30
0.0
 11
579.99999999999932
 21
-494.13940728487711
 31
0.0
  0
LINE
  8
0
  6
CONTINUOUS
 62
               3
  5
3CB
 10
580.0000000000008
 20
-409.6394072848783
 30
0.0
 11
516.0000000000008
 21
-409.6394072848783
 31
0.0
  0
LINE
  8
0
  6
CONTINUOUS
 62
               3
  5
3CC
 10
562.00000000000011
 20
-531.63940728487637
 30
0.0
 11
562.00000000000011
 21
-516.63940728487728
 31
0.0
  0
LINE
  8
0
  6
CONTINUOUS
 62
               3
  5
3CD
 10
484.0000000000008
 20
-385.6394072848783
 30
0.0
 11
484.0000000000008
 21
-517.63940728487637
 31
0.0
  0
LINE
  8
0
  6
CONTINUOUS
 62
               3
  5
3CE
 10
516.00000000000125
 20
-517.63940728487592
 30
0.0
 11
516.0000000000008
 21
-385.6394072848783
 31
0.0
  0
LINE
  8
0
  6
CONTINUOUS
 62
               3
  5
3CF
 10
484.00000000000011
 20
-385.6394072848783
 30
0.0
 11
516.00000000000011
 21
-385.6394072848783
 31
0.0
  0
LINE
  8
0
  6
CONTINUOUS
 62
               3
  5
3D0
 10
484.0000000000008
 20
-452.63940728487717
 30
0.0
 11
516.00000000000125
 21
-452.63940728487717
 31
0.0
  0
LINE
  8
0
  6
CONTINUOUS
 62
               3
  5
3D1
 10
484.0000000000008
 20
-451.63940728487739
 30
0.0
 11
516.00000000000125
 21
-451.63940728487739
 31
0.0
  0
LINE
  8
0
  6
CONTINUOUS
 62
               3
  5
3D2
 10
484.0000000000008
 20
-453.63940728487739
 30
0.0
 11
516.00000000000125
 21
-453.63940728487739
 31
0.0
  0
ARC
  8
0
  6
CONTINUOUS
 62
               3
  5
3D3
 10
575.99999999999955
 20
-390.6394072848783
 30
0.0
 40
4.0
 50
0.0000000000341973
 51
89.999999999999801
  0
LINE
  8
0
  6
CONTINUOUS
 62
               3
  5
3D4
 10
579.99999999999955
 20
-390.63940728487592
 30
0.0
 11
579.99999999999977
 21
-409.6394072848783
 31
0.0
  0
ARC
  8
0
  6
CONTINUOUS
 62
               3
  5
3D5
 10
575.9999999999992
 20
-512.63940728487728
 30
0.0
 40
4.0
 50
269.99999999999778
 51
359.99999999996339
  0
LINE
  8
0
  6
CONTINUOUS
 62
               3
  5
3D6
 10
579.99999999999932
 20
-512.63940728487728
 30
0.0
 11
579.9999999999992
 21
-494.13940728487711
 31
0.0
  0
LINE
  8
0
  6
CONTINUOUS
 62
               3
  5
3D7
 10
576.99999999999977
 20
-409.6394072848783
 30
0.0
 11
577.00000000000034
 21
-494.13940728487711
 31
0.0
  0
LINE
  8
0
  6
CONTINUOUS
 62
               3
  5
3D8
 10
433.50000000000006
 20
-371.7149687545496
 30
0.0
 11
566.50000000000034
 21
-371.7149687545496
 31
0.0
  0
LINE
  8
0
  6
CONTINUOUS
 62
               3
  5
3D9
 10
433.50000000000006
 20
-335.78759334908199
 30
0.0
 11
433.50000000000006
 21
-371.7149687545496
 31
0.0
  0
LINE
  8
0
  6
CONTINUOUS
 62
               3
  5
3DA
 10
566.50000000000034
 20
-335.7875933490821
 30
0.0
 11
566.50000000000034
 21
-371.7149687545496
 31
0.0
  0
LINE
  8
0
  6
CONTINUOUS
 62
               3
  5
3DB
 10
-128.00000000000011
 20
649.67406989515848
 30
0.0
 11
-47.517615216234454
 21
652.4845767023387
 31
0.0
  0
LINE
  8
0
  6
CONTINUOUS
 62
               3
  5
3DC
 10
-128.00000000000011
 20
517.04711553508628
 30
0.0
 11
-47.517615216234454
 21
514.23660872790606
 31
0.0
  0
LINE
  8
0
  6
CONTINUOUS
 62
               3
  5
3DD
 10
-128.00000000000011
 20
649.67406989515848
 30
0.0
 11
-128.00000000000011
 21
525.55229666162631
 31
0.0
  0
LINE
  8
0
  6
CONTINUOUS
 62
               3
  5
3DE
 10
-128.00000000000011
 20
525.55229666162631
 30
0.0
 11
-128.00000000000011
 21
517.04711553508628
 31
0.0
  0
CIRCLE
  8
0
  6
CONTINUOUS
 62
               3
  5
3DF
 10
-499.99999999999983
 20
67.36059271512238
 30
0.0
 40
66.099999999999994
  0
LINE
  8
0
  6
CONTINUOUS
 62
               3
  5
3E0
 10
-97.536089160791079
 20
-0.6887327986477914
 30
0.0
 11
-84.232233047033475
 21
-13.992588912404742
 31
0.0
  0
LINE
  8
0
  6
CONTINUOUS
 62
               3
  5
3E1
 10
-83.757508187120763
 20
135.21905175349644
 30
0.0
 11
-127.99999999999997
 21
133.67406989515842
 31
0.0
  0
LINE
  8
0
  6
CONTINUOUS
 62
               3
  5
3E2
 10
-99.216607372001164
 20
0.0419773159335506
 30
0.0
 11
-127.99999999999997
 21
1.0471155350863199
 31
0.0
  0
LINE
  8
0
  6
CONTINUOUS
 62
               3
  5
3E3
 10
-127.99999999999997
 20
9.5522966616262721
 30
0.0
 11
-127.99999999999997
 21
133.67406989515842
 31
0.0
  0
LINE
  8
0
  6
CONTINUOUS
 62
               3
  5
3E4
 10
-127.99999999999997
 20
9.5522966616262721
 30
0.0
 11
-127.99999999999997
 21
1.0471155350863199
 31
0.0
  0
ARC
  8
0
  6
CONTINUOUS
 62
               3
  5
3E5
 10
-47.604863957990716
 20
511.73813166035831
 30
0.0
 40
2.5
 50
56.389448470461609
 51
87.999999999982862
  0
ARC
  8
0
  6
CONTINUOUS
 62
               3
  5
3E6
 10
0.0000000000001137
 20
583.36059271512227
 30
0.0
 40
88.5
 50
76.938975885051988
 51
103.06102411463802
  0
ARC
  8
0
  6
CONTINUOUS
 62
               3
  5
3E7
 10
-35.000000000000114
 20
666.27621247400725
 30
0.0
 40
15.0
 50
292.88538047610245
 51
359.99999999993059
  0
ARC
  8
0
  6
CONTINUOUS
 62
               3
  5
3E8
 10
35.000000000000171
 20
666.27621247400725
 30
0.0
 40
15.0
 50
179.9999999999653
 51
247.11461952379301
  0
LINE
  8
0
  6
CONTINUOUS
 62
               3
  5
3E9
 10
-19.999999999999886
 20
664.43000741635228
 30
0.0
 11
-19.999999999999886
 21
669.57109091574694
 31
0.0
  0
LINE
  8
0
  6
CONTINUOUS
 62
               3
  5
3EA
 10
20.000000000000114
 20
666.27621247400725
 30
0.0
 11
20.000000000000114
 21
669.57109091574694
 31
0.0
  0
CIRCLE
  8
0
  6
CONTINUOUS
 62
               3
  5
3EB
 10
0.0000000000001137
 20
583.36059271512227
 30
0.0
 40
75.0
  0
ARC
  8
0
  6
CONTINUOUS
 62
               3
  5
3EC
 10
0.0000000000001137
 20
583.36059271512227
 30
0.0
 40
80.500000000000043
 50
105.06541275407906
 51
165.61435521392212
  0
ARC
  8
0
  6
CONTINUOUS
 62
               3
  5
3ED
 10
0.0000000000001137
 20
583.36059271512227
 30
0.0
 40
80.500000000000043
 50
195.06541275406153
 51
254.93458724585153
  0
ARC
  8
0
  6
CONTINUOUS
 62
               3
  5
3EE
 10
0.0000000000001137
 20
583.36059271512227
 30
0.0
 40
88.5
 50
166.93897588513781
 51
193.06102411472381
  0
ARC
  8
0
  6
CONTINUOUS
 62
               3
  5
3EF
 10
-82.915619758884873
 20
618.36059271512227
 30
0.0
 40
15.0
 50
269.99999999994782
 51
337.11461952377596
  0
LINE
  8
0
  6
CONTINUOUS
 62
               3
  5
3F0
 10
-86.210498200625466
 20
563.36059271512227
 30
0.0
 11
-82.915619758884873
 21
563.36059271512227
 31
0.0
  0
LINE
  8
0
  6
CONTINUOUS
 62
               3
  5
3F1
 10
-86.210498200625466
 20
603.36059271512227
 30
0.0
 11
-81.069414701229789
 21
603.36059271512227
 31
0.0
  0
ARC
  8
0
  6
CONTINUOUS
 62
               3
  5
3F2
 10
-82.915619758884873
 20
548.36059271512227
 30
0.0
 40
15.0
 50
22.885380476153955
 51
89.999999999982606
  0
ARC
  8
0
  6
CONTINUOUS
 62
               3
  5
3F3
 10
0.0000000000001137
 20
583.36059271512227
 30
0.0
 40
88.5
 50
256.93897588508594
 51
283.06102411467197
  0
ARC
  8
0
  6
CONTINUOUS
 62
               3
  5
3F4
 10
35.000000000000057
 20
500.44497295623734
 30
0.0
 40
15.0
 50
112.88538047613694
 51
179.9999999999653
  0
ARC
  8
0
  6
CONTINUOUS
 62
               3
  5
3F5
 10
-34.999999999999886
 20
500.44497295623734
 30
0.0
 40
15.0
 50
359.99999999993037
 51
427.11461952375919
  0
LINE
  8
0
  6
CONTINUOUS
 62
               3
  5
3F6
 10
20.000000000000114
 20
497.15009451449703
 30
0.0
 11
20.000000000000114
 21
500.44497295623734
 31
0.0
  0
LINE
  8
0
  6
CONTINUOUS
 62
               3
  5
3F7
 10
-19.999999999999886
 20
497.15009451449703
 30
0.0
 11
-19.999999999999886
 21
500.44497295623734
 31
0.0
  0
ARC
  8
0
  6
CONTINUOUS
 62
               3
  5
3F8
 10
0.0000000000001137
 20
583.36059271512227
 30
0.0
 40
88.5
 50
346.93897588503427
 51
373.06102411462018
  0
LINE
  8
0
  6
CONTINUOUS
 62
               3
  5
3F9
 10
82.9156197588851
 20
563.36059271512227
 30
0.0
 11
86.210498200625011
 21
563.36059271512227
 31
0.0
  0
LINE
  8
0
  6
CONTINUOUS
 62
               3
  5
3FA
 10
82.9156197588851
 20
603.36059271512227
 30
0.0
 11
86.210498200625011
 21
603.36059271512227
 31
0.0
  0
ARC
  8
0
  6
CONTINUOUS
 62
               3
  5
3FB
 10
82.9156197588851
 20
618.36059271512227
 30
0.0
 40
15.0
 50
202.88538047611956
 51
269.99999999994782
  0
ARC
  8
0
  6
CONTINUOUS
 62
               3
  5
3FC
 10
82.9156197588851
 20
548.36059271512227
 30
0.0
 40
15.0
 50
89.999999999982649
 51
157.11461952381123
  0
ARC
  8
0
  6
CONTINUOUS
 62
               3
  5
3FD
 10
0.0000000000001137
 20
583.36059271512227
 30
0.0
 40
80.500000000000043
 50
15.065412754096313
 51
74.934587245886235
  0
ARC
  8
0
  6
CONTINUOUS
 62
               3
  5
3FE
 10
0.0000000000001137
 20
583.36059271512227
 30
0.0
 40
80.500000000000043
 50
285.06541275404408
 51
344.93458724583411
  0
ARC
  8
0
  6
CONTINUOUS
 62
               3
  5
3FF
 10
0.0000000000002132
 20
583.36059271512227
 30
0.0
 40
83.499999999999901
 50
236.38944847042708
 51
256.14173134477483
  0
ARC
  8
0
  6
CONTINUOUS
 62
               3
  5
400
 10
-48.393892694184288
 20
657.45702414001448
 30
0.0
 40
5.0
 50
271.99999999994759
 51
303.14937354327913
  0
ARC
  8
0
  6
CONTINUOUS
 62
               3
  5
401
 10
0.0000000000002132
 20
583.36059271512227
 30
0.0
 40
83.499999999999901
 50
103.85826865515554
 51
166.14173134479228
  0
ARC
  8
0
  6
CONTINUOUS
 62
               3
  5
402
 10
0.0000000000002132
 20
583.36059271512227
 30
0.0
 40
83.499999999999901
 50
103.06102411478059
 51
166.14173134479228
  0
ARC
  8
0
  6
CONTINUOUS
 62
               3
  5
403
 10
0.0000000000002132
 20
583.36059271512227
 30
0.0
 40
83.499999999999901
 50
193.85826865513812
 51
256.14173134477483
  0
ARC
  8
0
  6
CONTINUOUS
 62
               3
  5
404
 10
0.0000000000002132
 20
583.36059271512227
 30
0.0
 40
83.499999999999901
 50
193.85826865513812
 51
236.38944847042708
  0
ARC
  8
0
  6
CONTINUOUS
 62
               3
  5
405
 10
-74.09643142489162
 20
534.96670002092719
 30
0.0
 40
5.0
 50
2.0000000000029949
 51
33.149373543336843
  0
ARC
  8
0
  6
CONTINUOUS
 62
               3
  5
406
 10
74.096431424892216
 20
534.96670002093947
 30
0.0
 40
5.0
 50
146.85062645663493
 51
177.99999999996729
  0
ARC
  8
0
  6
CONTINUOUS
 62
               3
  5
407
 10
0.0000000000002132
 20
583.36059271512227
 30
0.0
 40
83.499999999999901
 50
13.858268655172921
 51
76.141731344809685
  0
ARC
  8
0
  6
CONTINUOUS
 62
               3
  5
408
 10
0.0000000000002132
 20
583.36059271512227
 30
0.0
 40
83.499999999999901
 50
283.06102411474581
 51
346.14173134475743
  0
LINE
  8
0
  6
CONTINUOUS
 62
               3
  5
409
 10
-574.99999999999977
 20
233.36059271512238
 30
0.0
 11
-425.00000000000028
 21
233.36059271512238
 31
0.0
  0
LINE
  8
0
  6
CONTINUOUS
 62
               3
  5
40A
 10
-588.49999999999989
 20
223.36059271512238
 30
0.0
 11
-588.49999999999989
 21
216.36059271512272
 31
0.0
  0
LINE
  8
0
  6
CONTINUOUS
 62
               3
  5
40B
 10
-588.49999999999989
 20
223.36059271512238
 30
0.0
 11
-574.99999999999977
 21
233.36059271512238
 31
0.0
  0
LINE
  8
0
  6
CONTINUOUS
 62
               3
  5
40C
 10
-411.50000000000006
 20
223.36059271512238
 30
0.0
 11
-411.50000000000006
 21
216.36059271512272
 31
0.0
  0
LINE
  8
0
  6
CONTINUOUS
 62
               3
  5
40D
 10
-411.50000000000006
 20
223.36059271512238
 30
0.0
 11
-425.00000000000028
 21
233.36059271512238
 31
0.0
  0
ARC
  8
0
  6
CONTINUOUS
 62
               3
  5
40E
 10
-585.49999999999966
 20
211.36059271512272
 30
0.0
 40
5.0
 50
0.0
 51
89.999999999982862
  0
LINE
  8
0
  6
CONTINUOUS
 62
               3
  5
40F
 10
-588.49999999999989
 20
216.36059271512272
 30
0.0
 11
-585.49999999999966
 21
216.36059271512272
 31
0.0
  0
ARC
  8
0
  6
CONTINUOUS
 62
               3
  5
410
 10
-414.49999999999972
 20
211.36059271512272
 30
0.0
 40
5.0
 50
89.999999999982862
 51
179.99999999996507
  0
LINE
  8
0
  6
CONTINUOUS
 62
               3
  5
411
 10
-411.50000000000006
 20
216.36059271512272
 30
0.0
 11
-414.49999999999972
 21
216.36059271512272
 31
0.0
  0
LINE
  8
0
  6
CONTINUOUS
 62
               3
  5
412
 10
-580.49999999999966
 20
211.36059271512272
 30
0.0
 11
-580.49999999999977
 21
202.86059271512283
 31
0.0
  0
LINE
  8
0
  6
CONTINUOUS
 62
               3
  5
413
 10
-419.49999999999972
 20
211.36059271512272
 30
0.0
 11
-419.49999999999972
 21
202.86059271512283
 31
0.0
  0
LINE
  8
0
  6
CONTINUOUS
 62
               3
  5
414
 10
-74.999999999999716
 20
233.36059271512238
 30
0.0
 11
74.999999999999716
 21
233.36059271512238
 31
0.0
  0
LINE
  8
0
  6
CONTINUOUS
 62
               3
  5
415
 10
-88.499999999999886
 20
223.36059271512238
 30
0.0
 11
-88.499999999999886
 21
216.36059271512272
 31
0.0
  0
LINE
  8
0
  6
CONTINUOUS
 62
               3
  5
416
 10
-88.499999999999886
 20
223.36059271512238
 30
0.0
 11
-74.999999999999716
 21
233.36059271512238
 31
0.0
  0
LINE
  8
0
  6
CONTINUOUS
 62
               3
  5
417
 10
88.499999999999943
 20
223.36059271512238
 30
0.0
 11
88.499999999999943
 21
216.36059271512272
 31
0.0
  0
LINE
  8
0
  6
CONTINUOUS
 62
               3
  5
418
 10
88.499999999999943
 20
223.36059271512238
 30
0.0
 11
74.999999999999716
 21
233.36059271512238
 31
0.0
  0
ARC
  8
0
  6
CONTINUOUS
 62
               3
  5
419
 10
-85.499999999999659
 20
211.36059271512272
 30
0.0
 40
5.0
 50
0.0
 51
89.99999999998262
  0
LINE
  8
0
  6
CONTINUOUS
 62
               3
  5
41A
 10
-88.499999999999886
 20
216.36059271512272
 30
0.0
 11
-85.499999999999659
 21
216.36059271512272
 31
0.0
  0
ARC
  8
0
  6
CONTINUOUS
 62
               3
  5
41B
 10
85.500000000000284
 20
211.36059271512272
 30
0.0
 40
5.0
 50
89.999999999982535
 51
179.99999999996507
  0
LINE
  8
0
  6
CONTINUOUS
 62
               3
  5
41C
 10
88.499999999999943
 20
216.36059271512272
 30
0.0
 11
85.500000000000284
 21
216.36059271512272
 31
0.0
  0
LINE
  8
0
  6
CONTINUOUS
 62
               3
  5
41D
 10
-80.499999999999659
 20
211.36059271512272
 30
0.0
 11
-80.499999999999773
 21
202.86059271512283
 31
0.0
  0
LINE
  8
0
  6
CONTINUOUS
 62
               3
  5
41E
 10
80.500000000000284
 20
211.36059271512272
 30
0.0
 11
80.500000000000284
 21
202.86059271512283
 31
0.0
  0
LINE
  8
0
  6
CONTINUOUS
 62
               3
  5
41F
 10
425.00000000000034
 20
233.36059271512238
 30
0.0
 11
574.99999999999977
 21
233.36059271512238
 31
0.0
  0
LINE
  8
0
  6
CONTINUOUS
 62
               3
  5
420
 10
411.50000000000017
 20
223.36059271512238
 30
0.0
 11
411.50000000000017
 21
216.36059271512272
 31
0.0
  0
LINE
  8
0
  6
CONTINUOUS
 62
               3
  5
421
 10
411.50000000000017
 20
223.36059271512238
 30
0.0
 11
425.00000000000034
 21
233.36059271512238
 31
0.0
  0
LINE
  8
0
  6
CONTINUOUS
 62
               3
  5
422
 10
588.5
 20
223.36059271512238
 30
0.0
 11
588.5
 21
216.36059271512272
 31
0.0
  0
LINE
  8
0
  6
CONTINUOUS
 62
               3
  5
423
 10
588.5
 20
223.36059271512238
 30
0.0
 11
574.99999999999977
 21
233.36059271512238
 31
0.0
  0
ARC
  8
0
  6
CONTINUOUS
 62
               3
  5
424
 10
414.5000000000004
 20
211.36059271512272
 30
0.0
 40
5.0
 50
0.0
 51
89.999999999982862
  0
LINE
  8
0
  6
CONTINUOUS
 62
               3
  5
425
 10
411.50000000000017
 20
216.36059271512272
 30
0.0
 11
414.5000000000004
 21
216.36059271512272
 31
0.0
  0
ARC
  8
0
  6
CONTINUOUS
 62
               3
  5
426
 10
585.50000000000034
 20
211.36059271512272
 30
0.0
 40
5.0
 50
89.999999999982862
 51
179.99999999996507
  0
LINE
  8
0
  6
CONTINUOUS
 62
               3
  5
427
 10
588.5
 20
216.36059271512272
 30
0.0
 11
585.50000000000034
 21
216.36059271512272
 31
0.0
  0
LINE
  8
0
  6
CONTINUOUS
 62
               3
  5
428
 10
419.5000000000004
 20
211.36059271512272
 30
0.0
 11
419.50000000000028
 21
202.86059271512283
 31
0.0
  0
LINE
  8
0
  6
CONTINUOUS
 62
               3
  5
429
 10
580.50000000000034
 20
211.36059271512272
 30
0.0
 11
580.50000000000034
 21
202.86059271512283
 31
0.0
  0
CIRCLE
  8
0
  6
CONTINUOUS
 62
               3
  5
42A
 10
609.28652321630807
 20
-1015.4962717979273
 30
0.0
 40
75.0
  0
CIRCLE
  8
0
  6
CONTINUOUS
 62
               3
  5
42B
 10
609.28652321630807
 20
-1015.4962717979273
 30
0.0
 40
52.5
  0
LINE
  8
0
  6
CONTINUOUS
 62
               3
  5
42C
 10
523.07602501568283
 20
-995.49627179792731
 30
0.0
 11
537.0023617423027
 21
-995.49627179792731
 31
0.0
  0
LINE
  8
0
  6
CONTINUOUS
 62
               3
  5
42D
 10
537.0023617423027
 20
-1035.4962717979274
 30
0.0
 11
523.07602501568283
 21
-1035.4962717979274
 31
0.0
  0
ARC
  8
0
  6
CONTINUOUS
 62
               3
  5
42E
 10
609.28652321630807
 20
-1015.4962717979273
 30
0.0
 40
88.5
 50
166.93897588510336
 51
193.06102411468945
  0
LINE
  8
0
  6
CONTINUOUS
 62
               3
  5
42F
 10
589.28652321630807
 20
-1101.7067699985523
 30
0.0
 11
589.28652321630807
 21
-1087.7804332719325
 31
0.0
  0
LINE
  8
0
  6
CONTINUOUS
 62
               3
  5
430
 10
629.28652321630807
 20
-1087.7804332719325
 30
0.0
 11
629.28652321630807
 21
-1101.7067699985523
 31
0.0
  0
ARC
  8
0
  6
CONTINUOUS
 62
               3
  5
431
 10
609.28652321630807
 20
-1015.4962717979273
 30
0.0
 40
88.5
 50
256.93897588505166
 51
283.06102411463769
  0
LINE
  8
0
  6
CONTINUOUS
 62
               3
  5
432
 10
695.49702141693274
 20
-1035.4962717979274
 30
0.0
 11
681.57068469031219
 21
-1035.4962717979274
 31
0.0
  0
LINE
  8
0
  6
CONTINUOUS
 62
               3
  5
433
 10
681.57068469031219
 20
-995.49627179792731
 30
0.0
 11
695.49702141693274
 21
-995.49627179792731
 31
0.0
  0
ARC
  8
0
  6
CONTINUOUS
 62
               3
  5
434
 10
609.28652321630807
 20
-1015.4962717979273
 30
0.0
 40
88.5
 50
346.93897588499982
 51
373.06102411458585
  0
LINE
  8
0
  6
CONTINUOUS
 62
               3
  5
435
 10
629.28652321630807
 20
-929.28577359730173
 30
0.0
 11
629.28652321630807
 21
-943.21211032392227
 31
0.0
  0
LINE
  8
0
  6
CONTINUOUS
 62
               3
  5
436
 10
589.28652321630807
 20
-943.21211032392227
 30
0.0
 11
589.28652321630807
 21
-929.28577359730173
 31
0.0
  0
ARC
  8
0
  6
CONTINUOUS
 62
               3
  5
437
 10
609.28652321630807
 20
-1015.4962717979273
 30
0.0
 40
88.5
 50
76.938975885155216
 51
103.06102411474124
  0
LINE
  8
0
  6
CONTINUOUS
 62
               3
  5
438
 10
561.61839969544701
 20
-1037.4962717979279
 30
0.0
 11
656.95464673716788
 21
-1037.4962717979279
 31
0.0
  0
ARC
  8
0
  6
CONTINUOUS
 62
               3
  5
439
 10
621.7901348656892
 20
-1006.7898741703083
 30
0.0
 40
54.763804151667173
 50
141.3859176367566
 51
145.15009542087031
  0
ARC
  8
0
  6
CONTINUOUS
 62
               3
  5
43A
 10
609.28652321630807
 20
-1015.4962717979273
 30
0.0
 40
51.5
 50
334.71098847326505
 51
410.95932736340404
  0
ARC
  8
0
  6
CONTINUOUS
 62
               3
  5
43B
 10
609.28652321630807
 20
-1015.4962717979273
 30
0.0
 40
51.5
 50
129.04067263628559
 51
205.28901152642416
  0
ARC
  8
0
  6
CONTINUOUS
 62
               3
  5
43C
 10
609.28652321630807
 20
-1015.4962717979273
 30
0.0
 40
77.5
 50
104.95524831658301
 51
128.57288309095932
  0
ARC
  8
0
  6
CONTINUOUS
 62
               3
  5
43D
 10
609.28652321630807
 20
-1015.4962717979273
 30
0.0
 40
77.5
 50
14.9552483166347
 51
75.044751683313535
  0
ARC
  8
0
  6
CONTINUOUS
 62
               3
  5
43E
 10
609.28652321630807
 20
-1015.4962717979273
 30
0.0
 40
77.5
 50
321.42711690878122
 51
345.04475168315804
  0
LINE
  8
0
  6
CONTINUOUS
 62
               3
  5
43F
 10
469.28652321630801
 20
-1070.4962717979274
 30
0.0
 11
469.95807934227224
 21
-1070.4962717979274
 31
0.0
  0
LINE
  8
0
  6
CONTINUOUS
 62
               3
  5
440
 10
472.4580793422727
 20
-1072.9962717979274
 30
0.0
 11
469.95807934227224
 21
-1070.4962717979274
 31
0.0
  0
LINE
  8
0
  6
CONTINUOUS
 62
               3
  5
441
 10
469.28652321630801
 20
-960.49627179792731
 30
0.0
 11
469.95807934227224
 21
-960.49627179792731
 31
0.0
  0
LINE
  8
0
  6
CONTINUOUS
 62
               3
  5
442
 10
472.45807934227224
 20
-957.99627179792731
 30
0.0
 11
469.95807934227224
 21
-960.49627179792731
 31
0.0
  0
LINE
  8
0
  6
CONTINUOUS
 62
               3
  5
443
 10
469.95807934227224
 20
-960.49627179792731
 30
0.0
 11
469.95807934227224
 21
-1070.4962717979274
 31
0.0
  0
LINE
  8
0
  6
CONTINUOUS
 62
               3
  5
444
 10
563.79618742993011
 20
-954.80667477958571
 30
0.0
 11
472.45807934227224
 21
-957.99627179792731
 31
0.0
  0
LINE
  8
0
  6
CONTINUOUS
 62
               3
  5
445
 10
544.45005149975702
 20
-1075.5102868628951
 30
0.0
 11
472.45807934227281
 21
-1072.9962717979274
 31
0.0
  0
LINE
  8
0
  6
CONTINUOUS
 62
               3
  5
446
 10
464.28652321630801
 20
-960.66782792389142
 30
0.0
 11
464.28652321630801
 21
-1070.5962717979273
 31
0.0
  0
LINE
  8
0
  6
CONTINUOUS
 62
               3
  5
447
 10
469.28652321630801
 20
-1073.0962717979273
 30
0.0
 11
469.28652321630801
 21
-957.89627179792717
 31
0.0
  0
LINE
  8
0
  6
CONTINUOUS
 62
               3
  5
448
 10
469.28652321630801
 20
-957.89627179792717
 30
0.0
 11
466.78652321630801
 21
-957.89627179792717
 31
0.0
  0
LINE
  8
0
  6
CONTINUOUS
 62
               3
  5
449
 10
469.28652321630801
 20
-1073.0962717979273
 30
0.0
 11
466.78652321630801
 21
-1073.0962717979273
 31
0.0
  0
ARC
  8
0
  6
CONTINUOUS
 62
               3
  5
44A
 10
466.78652321630801
 20
-1070.5962717979273
 30
0.0
 40
2.5
 50
179.99999999989538
 51
269.99999999984436
  0
ARC
  8
0
  6
CONTINUOUS
 62
               3
  5
44B
 10
466.78652321630801
 20
-960.39627179792717
 30
0.0
 40
2.5
 50
89.999999999948997
 51
179.99999999989538
  0
LINE
  8
0
  6
CONTINUOUS
 62
               3
  5
44C
 10
576.84812004969046
 20
-975.49627179792753
 30
0.0
 11
609.28652321630807
 21
-975.49627179792753
 31
0.0
  0
LINE
  8
0
  6
CONTINUOUS
 62
               3
  5
44D
 10
609.28652321630807
 20
-975.49627179792753
 30
0.0
 11
643.29019948814675
 21
-975.49627179792753
 31
0.0
  0
LINE
  8
0
  6
CONTINUOUS
 62
               3
  5
44E
 10
472.4580793422727
 20
-1072.9962717979274
 30
0.0
 11
472.45807934227224
 21
-957.99627179792731
 31
0.0
  0
ARC
  8
0
  6
CONTINUOUS
 62
               3
  5
44F
 10
563.62168994641763
 20
-949.80972064449008
 30
0.0
 40
5.0
 50
271.99999999984402
 51
304.806757870252
  0
LINE
  8
0
  6
CONTINUOUS
 62
               3
  5
450
 10
664.28652321630784
 20
-1155.4962717979274
 30
0.0
 11
664.28652321630784
 21
-1154.8247156719631
 31
0.0
  0
LINE
  8
0
  6
CONTINUOUS
 62
               3
  5
451
 10
666.78652321630784
 20
-1152.3247156719626
 30
0.0
 11
664.28652321630784
 21
-1154.8247156719631
 31
0.0
  0
LINE
  8
0
  6
CONTINUOUS
 62
               3
  5
452
 10
554.28652321630796
 20
-1155.4962717979274
 30
0.0
 11
554.28652321630796
 21
-1154.8247156719631
 31
0.0
  0
LINE
  8
0
  6
CONTINUOUS
 62
               3
  5
453
 10
551.78652321630796
 20
-1152.3247156719631
 30
0.0
 11
554.28652321630796
 21
-1154.8247156719631
 31
0.0
  0
LINE
  8
0
  6
CONTINUOUS
 62
               3
  5
454
 10
554.28652321630796
 20
-1154.8247156719631
 30
0.0
 11
664.28652321630784
 21
-1154.8247156719631
 31
0.0
  0
LINE
  8
0
  6
CONTINUOUS
 62
               3
  5
455
 10
554.45807934227207
 20
-1160.4962717979274
 30
0.0
 11
664.38652321630798
 21
-1160.4962717979274
 31
0.0
  0
LINE
  8
0
  6
CONTINUOUS
 62
               3
  5
456
 10
666.88652321630798
 20
-1155.4962717979274
 30
0.0
 11
551.68652321630793
 21
-1155.4962717979274
 31
0.0
  0
LINE
  8
0
  6
CONTINUOUS
 62
               3
  5
457
 10
551.68652321630793
 20
-1155.4962717979274
 30
0.0
 11
551.68652321630793
 21
-1157.9962717979274
 31
0.0
  0
LINE
  8
0
  6
CONTINUOUS
 62
               3
  5
458
 10
666.88652321630798
 20
-1155.4962717979274
 30
0.0
 11
666.88652321630798
 21
-1157.9962717979274
 31
0.0
  0
ARC
  8
0
  6
CONTINUOUS
 62
               3
  5
459
 10
664.38652321630798
 20
-1157.9962717979274
 30
0.0
 40
2.5
 50
269.99999999984567
 51
359.99999999979337
  0
ARC
  8
0
  6
CONTINUOUS
 62
               3
  5
45A
 10
554.18652321630793
 20
-1157.9962717979274
 30
0.0
 40
2.5
 50
179.99999999989538
 51
269.99999999984567
  0
LINE
  8
0
  6
CONTINUOUS
 62
               3
  5
45B
 10
666.78652321630784
 20
-1152.3247156719626
 30
0.0
 11
551.78652321630796
 21
-1152.3247156719631
 31
0.0
  0
LINE
  8
0
  6
CONTINUOUS
 62
               3
  5
45C
 10
669.97612023464899
 20
-1060.9866075843056
 30
0.0
 11
666.78652321630784
 21
-1152.3247156719626
 31
0.0
  0
ARC
  8
0
  6
CONTINUOUS
 62
               3
  5
45D
 10
674.97307436974461
 20
-1061.1611050678184
 30
0.0
 40
5.0
 50
145.19324212948862
 51
177.99999999989819
  0
LINE
  8
0
  6
CONTINUOUS
 62
               3
  5
45E
 10
549.27250815133993
 20
-1080.3327435144784
 30
0.0
 11
551.78652321630796
 21
-1152.3247156719631
 31
0.0
  0
ARC
  8
0
  6
CONTINUOUS
 62
               3
  5
45F
 10
544.27555401624454
 20
-1080.5072409979903
 30
0.0
 40
5.0
 50
1.9999999999958187
 51
87.99999999994921
  0
LINE
  8
0
  6
CONTINUOUS
 62
               3
  5
460
 10
534.28652321630807
 20
-1323.9957055465115
 30
0.0
 11
684.28652321630807
 21
-1323.9957055465115
 31
0.0
  0
LINE
  8
0
  6
CONTINUOUS
 62
               3
  5
461
 10
520.78652321630784
 20
-1333.9957055465115
 30
0.0
 11
520.78652321630784
 21
-1340.9957055465111
 31
0.0
  0
LINE
  8
0
  6
CONTINUOUS
 62
               3
  5
462
 10
520.78652321630784
 20
-1333.9957055465115
 30
0.0
 11
534.28652321630807
 21
-1323.9957055465115
 31
0.0
  0
ARC
  8
0
  6
CONTINUOUS
 62
               3
  5
463
 10
532.28652321630818
 20
-1345.5782812414668
 30
0.0
 40
4.9999999999999991
 50
0.0
 51
66.421821521760023
  0
LINE
  8
0
  6
CONTINUOUS
 62
               3
  5
464
 10
520.78652321630784
 20
-1340.9957055465111
 30
0.0
 11
697.78652321630761
 21
-1340.9957055465111
 31
0.0
  0
ARC
  8
0
  6
CONTINUOUS
 62
               3
  5
465
 10
554.28652321630807
 20
-1430.9957055465115
 30
0.0
 40
19.999999999999996
 50
148.21166938286279
 51
167.26981986159123
  0
LINE
  8
0
  6
CONTINUOUS
 62
               3
  5
466
 10
537.28652321630818
 20
-1345.5782812414668
 30
0.0
 11
537.28652321630818
 21
-1420.4600517936587
 31
0.0
  0
LINE
  8
0
  6
CONTINUOUS
 62
               3
  5
467
 10
681.28652321630784
 20
-1415.4600517936583
 30
0.0
 11
681.28652321630784
 21
-1345.5782812414668
 31
0.0
  0
LINE
  8
0
  6
CONTINUOUS
 62
               3
  5
468
 10
537.28652321630818
 20
-1420.4600517936587
 30
0.0
 11
680.7865232163083
 21
-1420.4600517936587
 31
0.0
  0
LINE
  8
0
  6
CONTINUOUS
 62
               3
  5
469
 10
589.28652321630807
 20
-1340.9957055465111
 30
0.0
 11
589.28652321630807
 21
-1323.9957055465115
 31
0.0
  0
LINE
  8
0
  6
CONTINUOUS
 62
               3
  5
46A
 10
629.28652321630807
 20
-1323.9957055465115
 30
0.0
 11
629.28652321630807
 21
-1340.9957055465111
 31
0.0
  0
LINE
  8
0
  6
CONTINUOUS
 62
               3
  5
46B
 10
589.28652321630807
 20
-1333.9957055465115
 30
0.0
 11
629.28652321630807
 21
-1333.9957055465115
 31
0.0
  0
LINE
  8
0
  6
CONTINUOUS
 62
               3
  5
46C
 10
537.0023617423027
 20
-1323.9957055465115
 30
0.0
 11
537.0023617423027
 21
-1340.9957055465111
 31
0.0
  0
LINE
  8
0
  6
CONTINUOUS
 62
               3
  5
46D
 10
523.07602501568283
 20
-1333.9957055465115
 30
0.0
 11
523.07602501568283
 21
-1340.9957055465111
 31
0.0
  0
LINE
  8
0
  6
CONTINUOUS
 62
               3
  5
46E
 10
520.78652321630784
 20
-1333.9957055465115
 30
0.0
 11
523.07602501568283
 21
-1333.9957055465115
 31
0.0
  0
LINE
  8
0
  6
CONTINUOUS
 62
               3
  5
46F
 10
523.07602501568283
 20
-1333.9957055465115
 30
0.0
 11
537.0023617423027
 21
-1323.9957055465115
 31
0.0
  0
LINE
  8
0
  6
CONTINUOUS
 62
               3
  5
470
 10
697.78652321630761
 20
-1333.9957055465115
 30
0.0
 11
697.78652321630761
 21
-1340.9957055465111
 31
0.0
  0
LINE
  8
0
  6
CONTINUOUS
 62
               3
  5
471
 10
697.78652321630761
 20
-1333.9957055465115
 30
0.0
 11
684.28652321630807
 21
-1323.9957055465115
 31
0.0
  0
ARC
  8
0
  6
CONTINUOUS
 62
               3
  5
472
 10
686.28652321630784
 20
-1345.5782812414668
 30
0.0
 40
4.9999999999999991
 50
113.57817847813573
 51
179.99999999989538
  0
LINE
  8
0
  6
CONTINUOUS
 62
               3
  5
473
 10
681.57068469031219
 20
-1323.9957055465115
 30
0.0
 11
681.57068469031219
 21
-1340.9957055465111
 31
0.0
  0
LINE
  8
0
  6
CONTINUOUS
 62
               3
  5
474
 10
695.49702141693319
 20
-1333.9957055465115
 30
0.0
 11
695.49702141693319
 21
-1340.9957055465111
 31
0.0
  0
LINE
  8
0
  6
CONTINUOUS
 62
               3
  5
475
 10
697.78652321630761
 20
-1333.9957055465115
 30
0.0
 11
695.49702141693319
 21
-1333.9957055465115
 31
0.0
  0
LINE
  8
0
  6
CONTINUOUS
 62
               3
  5
476
 10
695.49702141693319
 20
-1333.9957055465115
 30
0.0
 11
681.57068469031219
 21
-1323.9957055465115
 31
0.0
  0
ARC
  8
0
  6
CONTINUOUS
 62
               3
  5
477
 10
544.28652321630807
 20
-1552.4957055465115
 30
0.0
 40
2.4999999999999996
 50
89.99999999994769
 51
269.99999999984567
  0
ARC
  8
0
  6
CONTINUOUS
 62
               3
  5
478
 10
684.28652321630807
 20
-1552.4957055465115
 30
0.0
 40
2.4999999999999996
 50
269.99999999984567
 51
449.99999999974102
  0
LINE
  8
0
  6
CONTINUOUS
 62
               3
  5
479
 10
469.28652321630801
 20
-1544.9957055465115
 30
0.0
 11
469.95807934227236
 21
-1544.9957055465115
 31
0.0
  0
LINE
  8
0
  6
CONTINUOUS
 62
               3
  5
47A
 10
472.45807934227247
 20
-1547.4957055465111
 30
0.0
 11
469.95807934227236
 21
-1544.9957055465115
 31
0.0
  0
LINE
  8
0
  6
CONTINUOUS
 62
               3
  5
47B
 10
472.45807934227327
 20
-1547.4957055465115
 30
0.0
 11
514.62318959855065
 21
-1548.9681436423657
 31
0.0
  0
LINE
  8
0
  6
CONTINUOUS
 62
               3
  5
47C
 10
532.82205712224061
 20
-1565.2673949727978
 30
0.0
 11
517.98422602097082
 21
-1550.4295638715284
 31
0.0
  0
ARC
  8
0
  6
CONTINUOUS
 62
               3
  5
47D
 10
529.28652321630807
 20
-1568.8029288787307
 30
0.0
 40
4.9999999999999991
 50
0.0
 51
44.999999999973191
  0
LINE
  8
0
  6
CONTINUOUS
 62
               3
  5
47E
 10
469.28652321630801
 20
-1434.9957055465115
 30
0.0
 11
469.95807934227236
 21
-1434.9957055465115
 31
0.0
  0
LINE
  8
0
  6
CONTINUOUS
 62
               3
  5
47F
 10
472.45807934227247
 20
-1432.4957055465115
 30
0.0
 11
469.95807934227236
 21
-1434.9957055465115
 31
0.0
  0
LINE
  8
0
  6
CONTINUOUS
 62
               3
  5
480
 10
472.45807934227236
 20
-1432.4957055465115
 30
0.0
 11
530.07555554444673
 21
-1430.4836589413594
 31
0.0
  0
LINE
  8
0
  6
CONTINUOUS
 62
               3
  5
481
 10
469.95807934227236
 20
-1434.9957055465115
 30
0.0
 11
469.95807934227236
 21
-1544.9957055465115
 31
0.0
  0
LINE
  8
0
  6
CONTINUOUS
 62
               3
  5
482
 10
469.28652321630801
 20
-1547.5957055465115
 30
0.0
 11
469.28652321630801
 21
-1432.3957055465116
 31
0.0
  0
LINE
  8
0
  6
CONTINUOUS
 62
               3
  5
483
 10
469.28652321630801
 20
-1432.3957055465116
 30
0.0
 11
466.78652321630801
 21
-1432.3957055465116
 31
0.0
  0
ARC
  8
0
  6
CONTINUOUS
 62
               3
  5
484
 10
466.78652321630801
 20
-1434.8957055465116
 30
0.0
 40
2.5
 50
89.999999999948997
 51
179.99999999989538
  0
LINE
  8
0
  6
CONTINUOUS
 62
               3
  5
485
 10
464.28652321630801
 20
-1434.8957055465116
 30
0.0
 11
464.28652321630801
 21
-1545.0957055465115
 31
0.0
  0
LINE
  8
0
  6
CONTINUOUS
 62
               3
  5
486
 10
469.28652321630801
 20
-1547.5957055465115
 30
0.0
 11
466.78652321630801
 21
-1547.5957055465115
 31
0.0
  0
ARC
  8
0
  6
CONTINUOUS
 62
               3
  5
487
 10
466.78652321630801
 20
-1545.0957055465115
 30
0.0
 40
2.5
 50
179.99999999989538
 51
269.99999999984436
  0
LINE
  8
0
  6
CONTINUOUS
 62
               3
  5
488
 10
472.45807934227247
 20
-1432.4957055465115
 30
0.0
 11
472.45807934227327
 21
-1547.4957055465115
 31
0.0
  0
ARC
  8
0
  6
CONTINUOUS
 62
               3
  5
489
 10
514.44869211503817
 20
-1553.9650977774613
 30
0.0
 40
5.0
 50
44.999999999975948
 51
87.999999999949253
  0
ARC
  8
0
  6
CONTINUOUS
 62
               3
  5
48A
 10
529.90105806093425
 20
-1425.4867048062638
 30
0.0
 40
5.0
 50
271.99999999984408
 51
347.26981986148661
  0
CIRCLE
  8
0
  6
CONTINUOUS
 62
               3
  5
48B
 10
609.28652321630807
 20
-1489.9957055465115
 30
0.0
 40
48.5
  0
CIRCLE
  8
0
  6
CONTINUOUS
 62
               3
  5
48C
 10
609.28652321630807
 20
-1489.9957055465115
 30
0.0
 40
47.299999999999997
  0
LINE
  8
0
  6
CONTINUOUS
 62
               3
  5
48D
 10
577.46671806291351
 20
-1521.8155106999061
 30
0.0
 11
575.84037246618436
 21
-1523.4418562966353
 31
0.0
  0
LINE
  8
0
  6
CONTINUOUS
 62
               3
  5
48E
 10
641.10632836970262
 20
-1521.8155106999061
 30
0.0
 11
642.73267396643178
 21
-1523.4418562966353
 31
0.0
  0
ARC
  8
0
  6
CONTINUOUS
 62
               3
  5
48F
 10
609.28652321630807
 20
-1489.9957055465115
 30
0.0
 40
45.0
 50
224.99999999987043
 51
314.99999999981884
  0
CIRCLE
  8
0
  6
CONTINUOUS
 62
               3
  5
490
 10
609.28652321630807
 20
-1489.9957055465115
 30
0.0
 40
57.600000000000001
  0
ARC
  8
0
  6
CONTINUOUS
 62
               3
  5
491
 10
586.78652321630864
 20
-1552.4957055465115
 30
0.0
 40
2.4999999999999996
 50
269.99999999984567
 51
449.99999999974102
  0
ARC
  8
0
  6
CONTINUOUS
 62
               3
  5
492
 10
631.78652321630852
 20
-1552.4957055465115
 30
0.0
 40
2.4999999999999996
 50
89.99999999994769
 51
269.99999999984567
  0
LINE
  8
0
  6
CONTINUOUS
 62
               3
  5
493
 10
544.28652321630807
 20
-1554.9957055465115
 30
0.0
 11
586.78652321630864
 21
-1554.9957055465115
 31
0.0
  0
LINE
  8
0
  6
CONTINUOUS
 62
               3
  5
494
 10
544.28652321630807
 20
-1549.9957055465115
 30
0.0
 11
586.78652321630864
 21
-1549.9957055465115
 31
0.0
  0
LINE
  8
0
  6
CONTINUOUS
 62
               3
  5
495
 10
631.78652321630852
 20
-1549.9957055465115
 30
0.0
 11
684.28652321630807
 21
-1549.9957055465115
 31
0.0
  0
LINE
  8
0
  6
CONTINUOUS
 62
               3
  5
496
 10
631.78652321630852
 20
-1554.9957055465115
 30
0.0
 11
684.28652321630807
 21
-1554.9957055465115
 31
0.0
  0
CIRCLE
  8
0
  6
CONTINUOUS
 62
               3
  5
497
 10
609.28652321630807
 20
-1015.4962717979273
 30
0.0
 40
59.0
  0
INSERT
  8
0
  6
CONTINUOUS
  5
498
  2
GROUP_1
 10
0.0
 20
0.0
 30
0.0
  0
INSERT
  8
0
  6
CONTINUOUS
  5
499
  2
GROUP_2
 10
0.0
 20
0.0
 30
0.0
  0
INSERT
  8
0
  6
CONTINUOUS
  5
49A
  2
GROUP_3
 10
0.0
 20
0.0
 30
0.0
  0
LINE
  8
LAYER001
  6
DIVIDE
 62
               4
  5
49B
 10
-60.269964753300741
 20
-371.63940728487762
 30
0.0
 11
-60.269964753300741
 21
-386.63940728487762
 31
0.0
  0
LINE
  8
LAYER001
  6
DIVIDE
 62
               4
  5
49C
 10
60.269964753301025
 20
-371.63940728487762
 30
0.0
 11
60.269964753301025
 21
-386.63940728487762
 31
0.0
  0
LINE
  8
LAYER001
  6
DIVIDE
 62
               4
  5
49D
 10
-439.730035246699
 20
-371.7149687545496
 30
0.0
 11
-439.730035246699
 21
-386.7149687545496
 31
0.0
  0
LINE
  8
LAYER001
  6
DIVIDE
 62
               4
  5
49E
 10
-560.26996475330077
 20
-371.7149687545496
 30
0.0
 11
-560.26996475330077
 21
-386.7149687545496
 31
0.0
  0
LINE
  8
LAYER001
  6
DIVIDE
 62
               4
  5
49F
 10
560.269964753301
 20
-371.7149687545496
 30
0.0
 11
560.269964753301
 21
-386.7149687545496
 31
0.0
  0
LINE
  8
LAYER001
  6
DIVIDE
 62
               4
  5
4A0
 10
439.73003524669923
 20
-371.7149687545496
 30
0.0
 11
439.73003524669923
 21
-386.7149687545496
 31
0.0
  0
POINT
  8
0
  6
CONTINUOUS
 62
               5
  5
4A1
 10
-392.13776905046853
 20
-1073.1807073697182
 30
0.0
  0
POINT
  8
0
  6
CONTINUOUS
 62
               5
  5
4A2
 10
-218.9076975405082
 20
-1074.4715014446074
 30
0.0
  0
POINT
  8
0
  6
CONTINUOUS
 62
               5
  5
4A3
 10
-565.3678405604287
 20
-1074.4715014446069
 30
0.0
  0
POINT
  8
0
  6
CONTINUOUS
 62
               5
  5
4A4
 10
-395.37452052112411
 20
-892.482751790723
 30
0.0
  0
POINT
  8
0
  6
CONTINUOUS
 62
               5
  5
4A5
 10
493.01659472626835
 20
-1491.2864996214007
 30
0.0
  0
POINT
  8
0
  6
CONTINUOUS
 62
               5
  5
4A6
 10
493.01659472626847
 20
-1014.2054777230381
 30
0.0
  0
CIRCLE
  8
0
  6
CONTINUOUS
 62
               7
  5
4A7
 10
-392.13776905046853
 20
-1079.6807073697182
 30
0.0
 40
38.0
  0
CIRCLE
  8
0
  6
CONTINUOUS
 62
               7
  5
4A8
 10
-392.13776905046853
 20
-1079.6807073697182
 30
0.0
 40
33.5
  0
LINE
  8
0
  6
CONTINUOUS
 62
               7
  5
4A9
 10
-247.63776905046853
 20
-1028.6807073697182
 30
0.0
 11
-247.63776905046853
 21
-1117.6754712490438
 31
0.0
  0
LINE
  8
0
  6
CONTINUOUS
 62
               7
  5
4AA
 10
-247.03776905046851
 20
-1028.6807073697182
 30
0.0
 11
-247.63776905046853
 21
-1028.6807073697182
 31
0.0
  0
LINE
  8
0
  6
CONTINUOUS
 62
               7
  5
4AB
 10
-282.63776905046853
 20
-1116.6807073697182
 30
0.0
 11
-282.63776905046853
 21
-1042.6807073697182
 31
0.0
  0
LINE
  8
0
  6
CONTINUOUS
 62
               7
  5
4AC
 10
-189.63776905046853
 20
-1116.6807073697182
 30
0.0
 11
-189.63776905046853
 21
-1029.6807073697182
 31
0.0
  0
LINE
  8
0
  6
CONTINUOUS
 62
               7
  5
4AD
 10
-247.63776905046853
 20
-1028.6807073697182
 30
0.0
 11
-190.63776905046853
 21
-1028.6807073697182
 31
0.0
  0
LINE
  8
0
  6
CONTINUOUS
 62
               7
  5
4AE
 10
-281.63776905046853
 20
-1117.6807073697182
 30
0.0
 11
-190.63776905046853
 21
-1117.6807073697182
 31
0.0
  0
LINE
  8
0
  6
CONTINUOUS
 62
               7
  5
4AF
 10
-190.63776905046853
 20
-1028.6807073697182
 30
0.0
 11
-189.63776905046853
 21
-1029.6807073697182
 31
0.0
  0
LINE
  8
0
  6
CONTINUOUS
 62
               7
  5
4B0
 10
-189.63776905046853
 20
-1116.6807073697182
 30
0.0
 11
-190.63776905046853
 21
-1117.6807073697182
 31
0.0
  0
LINE
  8
0
  6
CONTINUOUS
 62
               7
  5
4B1
 10
-281.63776905046853
 20
-1041.6807073697182
 30
0.0
 11
-247.63776905046853
 21
-1041.6807073697182
 31
0.0
  0
CIRCLE
  8
0
  6
CONTINUOUS
 62
               7
  5
4B2
 10
-392.13776905046853
 20
-1073.1807073697182
 30
0.0
 40
44.5
  0
LINE
  8
0
  6
CONTINUOUS
 62
               7
  5
4B3
 10
-281.63776905046853
 20
-1041.6807073697182
 30
0.0
 11
-282.63776905046853
 21
-1042.6807073697182
 31
0.0
  0
LINE
  8
0
  6
CONTINUOUS
 62
               7
  5
4B4
 10
-282.63776905046853
 20
-1116.6807073697182
 30
0.0
 11
-281.63776905046853
 21
-1117.6807073697182
 31
0.0
  0
LINE
  8
0
  6
CONTINUOUS
 62
               7
  5
4B5
 10
-536.63776905046848
 20
-1028.6807073697182
 30
0.0
 11
-536.63776905046848
 21
-1117.6754712490438
 31
0.0
  0
LINE
  8
0
  6
CONTINUOUS
 62
               7
  5
4B6
 10
-537.23776905046839
 20
-1028.6807073697182
 30
0.0
 11
-536.63776905046848
 21
-1028.6807073697182
 31
0.0
  0
LINE
  8
0
  6
CONTINUOUS
 62
               7
  5
4B7
 10
-501.63776905046848
 20
-1116.6807073697182
 30
0.0
 11
-501.63776905046848
 21
-1042.6807073697182
 31
0.0
  0
LINE
  8
0
  6
CONTINUOUS
 62
               7
  5
4B8
 10
-594.63776905046848
 20
-1116.6807073697182
 30
0.0
 11
-594.63776905046848
 21
-1029.6807073697182
 31
0.0
  0
LINE
  8
0
  6
CONTINUOUS
 62
               7
  5
4B9
 10
-536.63776905046848
 20
-1028.6807073697182
 30
0.0
 11
-593.63776905046848
 21
-1028.6807073697182
 31
0.0
  0
LINE
  8
0
  6
CONTINUOUS
 62
               7
  5
4BA
 10
-502.63776905046848
 20
-1117.6807073697182
 30
0.0
 11
-593.63776905046848
 21
-1117.6807073697182
 31
0.0
  0
LINE
  8
0
  6
CONTINUOUS
 62
               7
  5
4BB
 10
-593.63776905046848
 20
-1028.6807073697182
 30
0.0
 11
-594.63776905046848
 21
-1029.6807073697182
 31
0.0
  0
LINE
  8
0
  6
CONTINUOUS
 62
               7
  5
4BC
 10
-594.63776905046848
 20
-1116.6807073697182
 30
0.0
 11
-593.63776905046848
 21
-1117.6807073697182
 31
0.0
  0
LINE
  8
0
  6
CONTINUOUS
 62
               7
  5
4BD
 10
-502.63776905046848
 20
-1041.6807073697182
 30
0.0
 11
-536.63776905046848
 21
-1041.6807073697182
 31
0.0
  0
LINE
  8
0
  6
CONTINUOUS
 62
               7
  5
4BE
 10
-502.63776905046848
 20
-1041.6807073697182
 30
0.0
 11
-501.63776905046848
 21
-1042.6807073697182
 31
0.0
  0
LINE
  8
0
  6
CONTINUOUS
 62
               7
  5
4BF
 10
-501.63776905046848
 20
-1116.6807073697182
 30
0.0
 11
-502.63776905046848
 21
-1117.6807073697182
 31
0.0
  0
LINE
  8
0
  6
CONTINUOUS
 62
               7
  5
4C0
 10
-349.58372644623506
 20
-921.21282330068345
 30
0.0
 11
-438.57849032556055
 21
-921.21282330068323
 31
0.0
  0
LINE
  8
0
  6
CONTINUOUS
 62
               7
  5
4C1
 10
-349.58372644623506
 20
-920.61282330068332
 30
0.0
 11
-349.58372644623506
 21
-921.21282330068345
 31
0.0
  0
LINE
  8
0
  6
CONTINUOUS
 62
               7
  5
4C2
 10
-431.083726446235
 20
-956.21282330068323
 30
0.0
 11
-357.08372644623506
 21
-956.21282330068345
 31
0.0
  0
LINE
  8
0
  6
CONTINUOUS
 62
               7
  5
4C3
 10
-437.583726446235
 20
-863.21282330068323
 30
0.0
 11
-350.58372644623506
 21
-863.21282330068345
 31
0.0
  0
LINE
  8
0
  6
CONTINUOUS
 62
               7
  5
4C4
 10
-349.58372644623506
 20
-921.21282330068345
 30
0.0
 11
-349.58372644623506
 21
-864.21282330068345
 31
0.0
  0
LINE
  8
0
  6
CONTINUOUS
 62
               7
  5
4C5
 10
-432.083726446235
 20
-955.21282330068323
 30
0.0
 11
-432.083726446235
 21
-921.21282330068323
 31
0.0
  0
LINE
  8
0
  6
CONTINUOUS
 62
               7
  5
4C6
 10
-349.58372644623506
 20
-864.21282330068345
 30
0.0
 11
-350.58372644623506
 21
-863.21282330068345
 31
0.0
  0
LINE
  8
0
  6
CONTINUOUS
 62
               7
  5
4C7
 10
-437.583726446235
 20
-863.21282330068323
 30
0.0
 11
-438.583726446235
 21
-864.21282330068323
 31
0.0
  0
LINE
  8
0
  6
CONTINUOUS
 62
               7
  5
4C8
 10
-356.08372644623506
 20
-955.21282330068345
 30
0.0
 11
-356.08372644623506
 21
-921.21282330068323
 31
0.0
  0
LINE
  8
0
  6
CONTINUOUS
 62
               7
  5
4C9
 10
-356.08372644623506
 20
-955.21282330068345
 30
0.0
 11
-357.08372644623506
 21
-956.21282330068345
 31
0.0
  0
LINE
  8
0
  6
CONTINUOUS
 62
               7
  5
4CA
 10
-431.083726446235
 20
-956.21282330068323
 30
0.0
 11
-432.083726446235
 21
-955.21282330068323
 31
0.0
  0
LINE
  8
0
  6
CONTINUOUS
 62
               7
  5
4CB
 10
-438.583726446235
 20
-921.21282330068323
 30
0.0
 11
-438.583726446235
 21
-864.21282330068323
 31
0.0
  0
LINE
  8
0
  6
CONTINUOUS
 62
               7
  5
4CC
 10
216.63392368588114
 20
-1116.6807073697182
 30
0.0
 11
216.63392368588114
 21
-1058.6807073697182
 31
0.0
  0
LINE
  8
0
  6
CONTINUOUS
 62
               7
  5
4CD
 10
242.23392368588105
 20
-1028.6807073697182
 30
0.0
 11
242.23392368588105
 21
-1117.6807073697182
 31
0.0
  0
LINE
  8
0
  6
CONTINUOUS
 62
               7
  5
4CE
 10
242.83392368588119
 20
-1028.6807073697182
 30
0.0
 11
242.23392368588105
 21
-1028.6807073697182
 31
0.0
  0
LINE
  8
0
  6
CONTINUOUS
 62
               7
  5
4CF
 10
300.23392368588128
 20
-1116.6807073697182
 30
0.0
 11
300.23392368588128
 21
-1029.6807073697182
 31
0.0
  0
CIRCLE
  8
0
  6
CONTINUOUS
 62
               7
  5
4D0
 10
120.87790746063816
 20
-1087.6807073697182
 30
0.0
 40
30.0
  0
CIRCLE
  8
0
  6
CONTINUOUS
 62
               7
  5
4D1
 10
120.87790746063816
 20
-1087.6807073697182
 30
0.0
 40
25.5
  0
CIRCLE
  8
0
  6
CONTINUOUS
 62
               7
  5
4D2
 10
120.87790746063816
 20
-1073.1807073697182
 30
0.0
 40
44.5
  0
LINE
  8
0
  6
CONTINUOUS
 62
               7
  5
4D3
 10
242.36837543136147
 20
-1028.6807073697182
 30
0.0
 11
299.23392368588128
 21
-1028.6807073697182
 31
0.0
  0
LINE
  8
0
  6
CONTINUOUS
 62
               7
  5
4D4
 10
217.63392368588114
 20
-1117.6807073697182
 30
0.0
 11
299.23392368588128
 21
-1117.6807073697182
 31
0.0
  0
LINE
  8
0
  6
CONTINUOUS
 62
               7
  5
4D5
 10
217.63392368588114
 20
-1057.6807073697182
 30
0.0
 11
242.23392368588105
 21
-1057.6807073697182
 31
0.0
  0
LINE
  8
0
  6
CONTINUOUS
 62
               7
  5
4D6
 10
217.63392368588114
 20
-1057.6807073697182
 30
0.0
 11
216.63392368588114
 21
-1058.6807073697182
 31
0.0
  0
LINE
  8
0
  6
CONTINUOUS
 62
               7
  5
4D7
 10
299.23392368588128
 20
-1028.6807073697182
 30
0.0
 11
300.23392368588128
 21
-1029.6807073697182
 31
0.0
  0
LINE
  8
0
  6
CONTINUOUS
 62
               7
  5
4D8
 10
216.63392368588114
 20
-1116.6807073697182
 30
0.0
 11
217.63392368588114
 21
-1117.6807073697182
 31
0.0
  0
LINE
  8
0
  6
CONTINUOUS
 62
               7
  5
4D9
 10
300.23392368588128
 20
-1116.6807073697182
 30
0.0
 11
299.23392368588128
 21
-1117.6807073697182
 31
0.0
  0
LINE
  8
0
  6
CONTINUOUS
 62
               7
  5
4DA
 10
25.121891235395381
 20
-1116.6807073697182
 30
0.0
 11
25.121891235395381
 21
-1058.6807073697182
 31
0.0
  0
LINE
  8
0
  6
CONTINUOUS
 62
               7
  5
4DB
 10
-0.4781087646046416
 20
-1028.6807073697182
 30
0.0
 11
-0.4781087646046416
 21
-1117.6807073697182
 31
0.0
  0
LINE
  8
0
  6
CONTINUOUS
 62
               7
  5
4DC
 10
-1.0781087646046643
 20
-1028.6807073697182
 30
0.0
 11
-0.4781087646046416
 21
-1028.6807073697182
 31
0.0
  0
LINE
  8
0
  6
CONTINUOUS
 62
               7
  5
4DD
 10
-58.478108764604642
 20
-1116.6807073697182
 30
0.0
 11
-58.478108764604642
 21
-1029.6807073697182
 31
0.0
  0
LINE
  8
0
  6
CONTINUOUS
 62
               7
  5
4DE
 10
-0.6125605100849469
 20
-1028.6807073697182
 30
0.0
 11
-57.478108764604642
 21
-1028.6807073697182
 31
0.0
  0
LINE
  8
0
  6
CONTINUOUS
 62
               7
  5
4DF
 10
24.121891235395381
 20
-1117.6807073697182
 30
0.0
 11
-57.478108764604642
 21
-1117.6807073697182
 31
0.0
  0
LINE
  8
0
  6
CONTINUOUS
 62
               7
  5
4E0
 10
24.121891235395381
 20
-1057.6807073697182
 30
0.0
 11
-0.4781087646046416
 21
-1057.6807073697182
 31
0.0
  0
LINE
  8
0
  6
CONTINUOUS
 62
               7
  5
4E1
 10
24.121891235395381
 20
-1057.6807073697182
 30
0.0
 11
25.121891235395381
 21
-1058.6807073697182
 31
0.0
  0
LINE
  8
0
  6
CONTINUOUS
 62
               7
  5
4E2
 10
-57.478108764604642
 20
-1028.6807073697182
 30
0.0
 11
-58.478108764604642
 21
-1029.6807073697182
 31
0.0
  0
LINE
  8
0
  6
CONTINUOUS
 62
               7
  5
4E3
 10
25.121891235395381
 20
-1116.6807073697182
 30
0.0
 11
24.121891235395381
 21
-1117.6807073697182
 31
0.0
  0
LINE
  8
0
  6
CONTINUOUS
 62
               7
  5
4E4
 10
-58.478108764604642
 20
-1116.6807073697182
 30
0.0
 11
-57.478108764604642
 21
-1117.6807073697182
 31
0.0
  0
LINE
  8
0
  6
CONTINUOUS
 62
               7
  5
4E5
 10
91.877907460638383
 20
-966.92469114447556
 30
0.0
 11
149.87790746063837
 21
-966.92469114447556
 31
0.0
  0
LINE
  8
0
  6
CONTINUOUS
 62
               7
  5
4E6
 10
165.37790746063837
 20
-941.32469114447542
 30
0.0
 11
76.377907460638383
 21
-941.32469114447542
 31
0.0
  0
LINE
  8
0
  6
CONTINUOUS
 62
               7
  5
4E7
 10
165.37790746063837
 20
-940.72469114447551
 30
0.0
 11
165.37790746063837
 21
-941.32469114447542
 31
0.0
  0
LINE
  8
0
  6
CONTINUOUS
 62
               7
  5
4E8
 10
77.377907460638383
 20
-883.32469114447542
 30
0.0
 11
164.37790746063837
 21
-883.32469114447542
 31
0.0
  0
LINE
  8
0
  6
CONTINUOUS
 62
               7
  5
4E9
 10
165.37790746063837
 20
-941.19023939899523
 30
0.0
 11
165.37790746063837
 21
-884.32469114447542
 31
0.0
  0
LINE
  8
0
  6
CONTINUOUS
 62
               7
  5
4EA
 10
90.877907460638383
 20
-965.92469114447556
 30
0.0
 11
90.877907460638383
 21
-941.32469114447542
 31
0.0
  0
LINE
  8
0
  6
CONTINUOUS
 62
               7
  5
4EB
 10
150.87790746063837
 20
-965.92469114447556
 30
0.0
 11
150.87790746063837
 21
-941.32469114447542
 31
0.0
  0
LINE
  8
0
  6
CONTINUOUS
 62
               7
  5
4EC
 10
150.87790746063837
 20
-965.92469114447556
 30
0.0
 11
149.87790746063837
 21
-966.92469114447556
 31
0.0
  0
LINE
  8
0
  6
CONTINUOUS
 62
               7
  5
4ED
 10
165.37790746063837
 20
-884.32469114447542
 30
0.0
 11
164.37790746063837
 21
-883.32469114447542
 31
0.0
  0
LINE
  8
0
  6
CONTINUOUS
 62
               7
  5
4EE
 10
91.877907460638383
 20
-966.92469114447556
 30
0.0
 11
90.877907460638383
 21
-965.92469114447556
 31
0.0
  0
LINE
  8
0
  6
CONTINUOUS
 62
               7
  5
4EF
 10
77.377907460638383
 20
-883.32469114447542
 30
0.0
 11
76.377907460638383
 21
-884.32469114447542
 31
0.0
  0
LINE
  8
0
  6
CONTINUOUS
 62
               7
  5
4F0
 10
76.377907460638383
 20
-941.190239398995
 30
0.0
 11
76.377907460638383
 21
-884.32469114447542
 31
0.0
  0
CIRCLE
  8
0
  6
CONTINUOUS
 62
               7
  5
4F1
 10
609.28652321630807
 20
-1504.4957055465115
 30
0.0
 40
25.5
  0
CIRCLE
  8
0
  6
CONTINUOUS
 62
               7
  5
4F2
 10
609.28652321630807
 20
-1489.9957055465115
 30
0.0
 40
44.5
  0
CIRCLE
  8
0
  6
CONTINUOUS
 62
               7
  5
4F3
 10
609.28652321630807
 20
-1504.4957055465115
 30
0.0
 40
30.0
  0
LINE
  8
0
  6
CONTINUOUS
 62
               7
  5
4F4
 10
580.28652321630807
 20
-1186.0962717979273
 30
0.0
 11
638.28652321630807
 21
-1186.0962717979273
 31
0.0
  0
LINE
  8
0
  6
CONTINUOUS
 62
               7
  5
4F5
 10
653.78652321630807
 20
-1160.4962717979274
 30
0.0
 11
564.78652321630807
 21
-1160.4962717979274
 31
0.0
  0
LINE
  8
0
  6
CONTINUOUS
 62
               7
  5
4F6
 10
653.78652321630807
 20
-1159.8962717979275
 30
0.0
 11
653.78652321630807
 21
-1160.4962717979274
 31
0.0
  0
LINE
  8
0
  6
CONTINUOUS
 62
               7
  5
4F7
 10
565.78652321630807
 20
-1102.496271797927
 30
0.0
 11
652.78652321630807
 21
-1102.496271797927
 31
0.0
  0
LINE
  8
0
  6
CONTINUOUS
 62
               7
  5
4F8
 10
653.78652321630807
 20
-1160.361820052447
 30
0.0
 11
653.78652321630807
 21
-1103.496271797927
 31
0.0
  0
LINE
  8
0
  6
CONTINUOUS
 62
               7
  5
4F9
 10
579.28652321630807
 20
-1185.0962717979273
 30
0.0
 11
579.28652321630807
 21
-1160.4962717979274
 31
0.0
  0
LINE
  8
0
  6
CONTINUOUS
 62
               7
  5
4FA
 10
639.28652321630807
 20
-1185.0962717979273
 30
0.0
 11
639.28652321630807
 21
-1160.4962717979274
 31
0.0
  0
LINE
  8
0
  6
CONTINUOUS
 62
               7
  5
4FB
 10
639.28652321630807
 20
-1185.0962717979273
 30
0.0
 11
638.28652321630807
 21
-1186.0962717979273
 31
0.0
  0
LINE
  8
0
  6
CONTINUOUS
 62
               7
  5
4FC
 10
653.78652321630807
 20
-1103.496271797927
 30
0.0
 11
652.78652321630807
 21
-1102.496271797927
 31
0.0
  0
LINE
  8
0
  6
CONTINUOUS
 62
               7
  5
4FD
 10
580.28652321630807
 20
-1186.0962717979273
 30
0.0
 11
579.28652321630807
 21
-1185.0962717979273
 31
0.0
  0
LINE
  8
0
  6
CONTINUOUS
 62
               7
  5
4FE
 10
565.78652321630807
 20
-1102.496271797927
 30
0.0
 11
564.78652321630807
 21
-1103.496271797927
 31
0.0
  0
LINE
  8
0
  6
CONTINUOUS
 62
               7
  5
4FF
 10
564.78652321630807
 20
-1160.361820052447
 30
0.0
 11
564.78652321630807
 21
-1103.496271797927
 31
0.0
  0
LINE
  8
0
  6
CONTINUOUS
 62
               7
  5
500
 10
464.28652321630801
 20
-1445.4957055465115
 30
0.0
 11
464.28652321630801
 21
-1534.4904694258371
 31
0.0
  0
LINE
  8
0
  6
CONTINUOUS
 62
               7
  5
501
 10
464.88652321630803
 20
-1445.4957055465115
 30
0.0
 11
464.28652321630801
 21
-1445.4957055465115
 31
0.0
  0
LINE
  8
0
  6
CONTINUOUS
 62
               7
  5
502
 10
429.28652321630801
 20
-1533.4957055465115
 30
0.0
 11
429.28652321630801
 21
-1459.4957055465115
 31
0.0
  0
LINE
  8
0
  6
CONTINUOUS
 62
               7
  5
503
 10
522.28652321630807
 20
-1533.4957055465115
 30
0.0
 11
522.28652321630807
 21
-1446.4957055465115
 31
0.0
  0
LINE
  8
0
  6
CONTINUOUS
 62
               7
  5
504
 10
464.28652321630801
 20
-1445.4957055465115
 30
0.0
 11
521.28652321630807
 21
-1445.4957055465115
 31
0.0
  0
LINE
  8
0
  6
CONTINUOUS
 62
               7
  5
505
 10
430.28652321630801
 20
-1534.4957055465115
 30
0.0
 11
521.28652321630807
 21
-1534.4957055465115
 31
0.0
  0
LINE
  8
0
  6
CONTINUOUS
 62
               7
  5
506
 10
521.28652321630807
 20
-1445.4957055465115
 30
0.0
 11
522.28652321630807
 21
-1446.4957055465115
 31
0.0
  0
LINE
  8
0
  6
CONTINUOUS
 62
               7
  5
507
 10
522.28652321630807
 20
-1533.4957055465115
 30
0.0
 11
521.28652321630807
 21
-1534.4957055465115
 31
0.0
  0
LINE
  8
0
  6
CONTINUOUS
 62
               7
  5
508
 10
430.28652321630801
 20
-1458.4957055465115
 30
0.0
 11
464.28652321630801
 21
-1458.4957055465115
 31
0.0
  0
LINE
  8
0
  6
CONTINUOUS
 62
               7
  5
509
 10
430.28652321630801
 20
-1458.4957055465115
 30
0.0
 11
429.28652321630801
 21
-1459.4957055465115
 31
0.0
  0
LINE
  8
0
  6
CONTINUOUS
 62
               7
  5
50A
 10
429.28652321630801
 20
-1533.4957055465115
 30
0.0
 11
430.28652321630801
 21
-1534.4957055465115
 31
0.0
  0
LINE
  8
0
  6
CONTINUOUS
 62
               7
  5
50B
 10
464.28652321630801
 20
-1059.996271797927
 30
0.0
 11
464.28652321630824
 21
-971.00150791860153
 31
0.0
  0
LINE
  8
0
  6
CONTINUOUS
 62
               7
  5
50C
 10
464.88652321630815
 20
-1059.996271797927
 30
0.0
 11
464.28652321630801
 21
-1059.996271797927
 31
0.0
  0
LINE
  8
0
  6
CONTINUOUS
 62
               7
  5
50D
 10
429.28652321630824
 20
-978.49627179792708
 30
0.0
 11
429.28652321630801
 21
-1052.496271797927
 31
0.0
  0
LINE
  8
0
  6
CONTINUOUS
 62
               7
  5
50E
 10
522.2865232163083
 20
-971.99627179792731
 30
0.0
 11
522.28652321630807
 21
-1058.996271797927
 31
0.0
  0
LINE
  8
0
  6
CONTINUOUS
 62
               7
  5
50F
 10
464.28652321630801
 20
-1059.996271797927
 30
0.0
 11
521.28652321630807
 21
-1059.996271797927
 31
0.0
  0
LINE
  8
0
  6
CONTINUOUS
 62
               7
  5
510
 10
430.28652321630824
 20
-977.49627179792708
 30
0.0
 11
464.28652321630824
 21
-977.49627179792708
 31
0.0
  0
LINE
  8
0
  6
CONTINUOUS
 62
               7
  5
511
 10
521.28652321630807
 20
-1059.996271797927
 30
0.0
 11
522.28652321630807
 21
-1058.996271797927
 31
0.0
  0
LINE
  8
0
  6
CONTINUOUS
 62
               7
  5
512
 10
522.2865232163083
 20
-971.99627179792731
 30
0.0
 11
521.2865232163083
 21
-970.99627179792731
 31
0.0
  0
LINE
  8
0
  6
CONTINUOUS
 62
               7
  5
513
 10
430.28652321630801
 20
-1053.496271797927
 30
0.0
 11
464.28652321630824
 21
-1053.496271797927
 31
0.0
  0
LINE
  8
0
  6
CONTINUOUS
 62
               7
  5
514
 10
430.28652321630801
 20
-1053.496271797927
 30
0.0
 11
429.28652321630801
 21
-1052.496271797927
 31
0.0
  0
LINE
  8
0
  6
CONTINUOUS
 62
               7
  5
515
 10
429.28652321630824
 20
-978.49627179792708
 30
0.0
 11
430.28652321630824
 21
-977.49627179792708
 31
0.0
  0
LINE
  8
0
  6
CONTINUOUS
 62
               7
  5
516
 10
464.28652321630824
 20
-970.99627179792708
 30
0.0
 11
521.2865232163083
 21
-970.99627179792708
 31
0.0
  0
CIRCLE
  8
0
  6
DASHED
 62
               7
  5
517
 10
-392.13776905046853
 20
-1073.1807073697182
 30
0.0
 40
40.0
  0
CIRCLE
  8
0
  6
DASHED
 62
               7
  5
518
 10
120.87790746063816
 20
-1073.1807073697182
 30
0.0
 40
40.0
  0
CIRCLE
  8
0
  6
DASHED
 62
               7
  5
519
 10
609.28652321630807
 20
-1489.9957055465115
 30
0.0
 40
40.0
  0
TEXT
  8
0
 62
               3
  5
51A
 10
-392.13776905046853
 20
-1157.6807073697182
 30
0.0
 40
40.0
  1
EMB_80×65
 41
0.8
 72
               1
 11
-392.13776905046853
 21
-1157.6807073697182
 31
0.0
 73
               3
  0
TEXT
  8
0
 62
               3
  5
51B
 10
120.87790746063816
 20
-1157.6807073697182
 30
0.0
 40
40.0
  1
EMB_80×50
 41
0.8
 72
               1
 11
120.87790746063816
 21
-1157.6807073697182
 31
0.0
 73
               3
  0
TEXT
  8
0
 62
               3
  5
51C
 10
605.58911923866776
 20
-836.04990329270788
 30
0.0
 40
40.0
  1
EMB使用例
 41
0.8
 72
               1
 11
605.58911923866776
 21
-836.04990329270788
 31
0.0
 73
               3
  0
TEXT
  8
0
 62
               3
  5
51D
 10
-123.74270409089071
 20
-781.68976739236848
 30
0.0
 40
35.0
  1
横枝管に呼び６５、５０の管を接続するときは、EMBをご使用ください。
 41
0.8
 72
               1
 11
-123.74270409089071
 21
-781.68976739236848
 31
0.0
 73
               3
  0
ENDSEC
  0
EOF
