  0
SECTION
  2
HEADER
  9
$ACADVER
  1
AC1009
  9
$INSBASE
 10
0.0
 20
0.0
 30
0.0
  9
$EXTMIN
 10
-688.00874542883332
 20
-1468.2806262146751
 30
0.0
  9
$EXTMAX
 10
688.00874542883332
 20
568.72458667397814
 30
0.0
  9
$LIMMIN
 10
-731.0092920181354
 20
-1531.9370391174455
  9
$LIMMAX
 10
731.0092920181354
 20
632.38099957674854
  9
$ORTHOMODE
 70
               0
  9
$REGENMODE
 70
               1
  9
$FILLMODE
 70
               1
  9
$QTEXTMODE
 70
               0
  9
$MIRRTEXT
 70
               1
  9
$DRAGMODE
 70
               2
  9
$LTSCALE
 40
1.0
  9
$OSMODE
 70
               0
  9
$ATTMODE
 70
               1
  9
$TEXTSIZE
 40
0.2
  9
$TRACEWID
 40
0.05
  9
$TEXTSTYLE
  7
STANDARD
  9
$CLAYER
  8
0
  9
$CELTYPE
  6
CONTINUOUS
  9
$CECOLOR
 62
             256
  9
$DIMSCALE
 40
1.0
  9
$DIMASZ
 40
0.18
  9
$DIMEXO
 40
0.0625
  9
$DIMDLI
 40
0.38
  9
$DIMRND
 40
0.0
  9
$DIMDLE
 40
0.0
  9
$DIMEXE
 40
0.18
  9
$DIMTP
 40
0.0
  9
$DIMTM
 40
0.0
  9
$DIMTXT
 40
0.18
  9
$DIMCEN
 40
0.09
  9
$DIMTSZ
 40
0.0
  9
$DIMTOL
 70
               0
  9
$DIMLIM
 70
               0
  9
$DIMTIH
 70
               1
  9
$DIMTOH
 70
               1
  9
$DIMSE1
 70
               0
  9
$DIMSE2
 70
               0
  9
$DIMTAD
 70
               0
  9
$DIMZIN
 70
               0
  9
$DIMBLK
  1

  9
$DIMASO
 70
               1
  9
$DIMSHO
 70
               1
  9
$DIMPOST
  1

  9
$DIMAPOST
  1

  9
$DIMALT
 70
               0
  9
$DIMALTD
 70
               2
  9
$DIMALTF
 40
25.399999999999999
  9
$DIMLFAC
 40
1.0
  9
$DIMTOFL
 70
               0
  9
$DIMTVP
 40
0.0
  9
$DIMTIX
 70
               0
  9
$DIMSOXD
 70
               0
  9
$DIMSAH
 70
               0
  9
$DIMBLK1
  1

  9
$DIMBLK2
  1

  9
$DIMSTYLE
  2
STANDARD
  9
$DIMCLRD
 70
               0
  9
$DIMCLRE
 70
               0
  9
$DIMCLRT
 70
               0
  9
$DIMTFAC
 40
1.0
  9
$DIMGAP
 40
0.09
  9
$LUNITS
 70
               2
  9
$LUPREC
 70
               4
  9
$AXISMODE
 70
               0
  9
$AXISUNIT
 10
0.0
 20
0.0
  9
$SKETCHINC
 40
0.1
  9
$FILLETRAD
 40
0.0
  9
$AUNITS
 70
               0
  9
$AUPREC
 70
               0
  9
$MENU
  1
acad
  9
$ELEVATION
 40
0.0
  9
$PELEVATION
 40
0.0
  9
$THICKNESS
 40
0.0
  9
$LIMCHECK
 70
               0
  9
$BLIPMODE
 70
               1
  9
$CHAMFERA
 40
0.0
  9
$CHAMFERB
 40
0.0
  9
$SKPOLY
 70
               0
  9
$TDCREATE
 40
0.000000000
  9
$TDUPDATE
 40
0.000000000
  9
$TDINDWG
 40
0.0000000000
  9
$TDUSRTIMER
 40
0.0000000000
  9
$USRTIMER
 70
               1
  9
$ANGBASE
 50
0.0
  9
$ANGDIR
 70
               0
  9
$PDMODE
 70
               0
  9
$PDSIZE
 40
1.0
  9
$PLINEWID
 40
0.0
  9
$COORDS
 70
               1
  9
$SPLFRAME
 70
               0
  9
$SPLINETYPE
 70
               6
  9
$SPLINESEGS
 70
               8
  9
$ATTDIA
 70
               0
  9
$ATTREQ
 70
               1
  9
$HANDLING
 70
               1
  9
$HANDSEED
  5
2F9
  9
$SURFTAB1
 70
               6
  9
$SURFTAB2
 70
               6
  9
$SURFTYPE
 70
               6
  9
$SURFU
 70
               6
  9
$SURFV
 70
               6
  9
$UCSNAME
  2

  9
$UCSORG
 10
0.0
 20
0.0
 30
0.0
  9
$UCSXDIR
 10
1.0
 20
0.0
 30
0.0
  9
$UCSYDIR
 10
0.0
 20
1.0
 30
0.0
  9
$PUCSNAME
  2

  9
$PUCSORG
 10
0.0
 20
0.0
 30
0.0
  9
$PUCSXDIR
 10
1.0
 20
0.0
 30
0.0
  9
$PUCSYDIR
 10
0.0
 20
1.0
 30
0.0
  9
$USERI1
 70
               0
  9
$USERI2
 70
               0
  9
$USERI3
 70
               0
  9
$USERI4
 70
               0
  9
$USERI5
 70
               0
  9
$USERR1
 40
0.0
  9
$USERR2
 40
0.0
  9
$USERR3
 40
0.0
  9
$USERR4
 40
0.0
  9
$USERR5
 40
0.0
  9
$WORLDVIEW
 70
               1
  9
$SHADEDGE
 70
               3
  9
$SHADEDIF
 70
              70
  9
$TILEMODE
 70
               1
  9
$MAXACTVP
 70
              16
  9
$PINSBASE
 10
0.0
 20
0.0
 30
0.0
  9
$PLIMCHECK
 70
               0
  9
$PEXTMIN
 10
1.0000000000000000E+20
 20
1.0000000000000000E+20
 30
1.0000000000000000E+20
  9
$PEXTMAX
 10
-1.0000000000000000E+20
 20
-1.0000000000000000E+20
 30
-1.0000000000000000E+20
  9
$PLIMMIN
 10
0.0
 20
0.0
  9
$PLIMMAX
 10
12.0
 20
9.0
  9
$UNITMODE
 70
               0
  9
$VISRETAIN
 70
               0
  9
$PLINEGEN
 70
               1
  9
$PSLTSCALE
 70
               0
  9
$TREEDEPTH
 70
            3020
  9
$DWGCODEPAGE
  3
dos932
  0
ENDSEC
  0
SECTION
  2
TABLES
  0
TABLE
  2
VPORT
 70
               1
  0
VPORT
  2
*ACTIVE
 70
               0
 10
0.0
 20
0.0
 11
1.0
 21
1.0
 12
0.0
 22
-449.77801977034846
 13
0.0
 23
0.0
 14
1.0
 24
1.0
 15
0.0
 25
0.0
 16
0.0
 26
0.0
 36
1.0
 17
0.0
 27
0.0
 37
0.0
 40
2164.318038694194
 41
0.6755100488458508
 42
50.0
 43
0.0
 44
0.0
 50
0.0
 51
0.0
 71
               0
 72
             100
 73
               1
 74
               1
 75
               0
 76
               0
 77
               0
 78
               0
  0
ENDTAB
  0
TABLE
  2
LTYPE
 70
              26
  0
LTYPE
  2
CONTINUOUS
 70
               0
  3
Solid line
 72
              65
 73
               0
 40
0.0
  0
LTYPE
  2
HIDDENX2
 70
               0
  3
CADPAC FUSION LINETYPE
 72
              65
 73
               2
 40
47.560000000000002
 49
35.670000000000002
 49
-11.890000000000001
  0
LTYPE
  2
HIDDEN
 70
               0
  3
CADPAC FUSION LINETYPE
 72
              65
 73
               2
 40
35.670000000000002
 49
23.780000000000001
 49
-11.890000000000001
  0
LTYPE
  2
HIDDEN2
 70
               0
  3
CADPAC FUSION LINETYPE
 72
              65
 73
               2
 40
29.725000000000001
 49
17.835000000000001
 49
-11.890000000000001
  0
LTYPE
  2
DASHED
 70
               0
  3
CADPAC FUSION LINETYPE
 72
              65
 73
               2
 40
35.670000000000002
 49
23.780000000000001
 49
-11.890000000000001
  0
LTYPE
  2
DASHED2
 70
               0
  3
CADPAC FUSION LINETYPE
 72
              65
 73
               2
 40
26.752500000000001
 49
17.835000000000001
 49
-8.9175000000000004
  0
LTYPE
  2
DASHEDX2
 70
               0
  3
CADPAC FUSION LINETYPE
 72
              65
 73
               2
 40
53.505000000000003
 49
35.670000000000002
 49
-17.835000000000001
  0
LTYPE
  2
DOTX2
 70
               0
  3
CADPAC FUSION LINETYPE
 72
              65
 73
               2
 40
14.862500000000001
 49
0.0
 49
-14.862500000000001
  0
LTYPE
  2
DOT
 70
               0
  3
CADPAC FUSION LINETYPE
 72
              65
 73
               2
 40
11.890000000000001
 49
0.0
 49
-11.890000000000001
  0
LTYPE
  2
DOTS
 70
               0
  3
CADPAC FUSION LINETYPE
 72
              65
 73
               2
 40
11.890000000000001
 49
0.0
 49
-11.890000000000001
  0
LTYPE
  2
DOT2
 70
               0
  3
CADPAC FUSION LINETYPE
 72
              65
 73
               2
 40
8.9175000000000004
 49
0.0
 49
-8.9175000000000004
  0
LTYPE
  2
CENTERX2
 70
               0
  3
CADPAC FUSION LINETYPE
 72
              65
 73
               4
 40
71.340000000000003
 49
29.725000000000001
 49
-14.862500000000001
 49
11.890000000000001
 49
-14.862500000000001
  0
LTYPE
  2
CENTER
 70
               0
  3
CADPAC FUSION LINETYPE
 72
              65
 73
               4
 40
54.694000000000003
 49
23.780000000000001
 49
-11.890000000000001
 49
7.1340000000000003
 49
-11.890000000000001
  0
LTYPE
  2
CENTER2
 70
               0
  3
CADPAC FUSION LINETYPE
 72
              65
 73
               4
 40
38.048000000000002
 49
17.835000000000001
 49
-8.9175000000000004
 49
2.3780000000000001
 49
-8.9175000000000004
  0
LTYPE
  2
DASHDOTX2
 70
               0
  3
CADPAC FUSION LINETYPE
 72
              65
 73
               4
 40
59.450000000000003
 49
29.725000000000001
 49
-14.862500000000001
 49
0.0
 49
-14.862500000000001
  0
LTYPE
  2
DASHDOT
 70
               0
  3
CADPAC FUSION LINETYPE
 72
              65
 73
               4
 40
47.560000000000002
 49
23.780000000000001
 49
-11.890000000000001
 49
0.0
 49
-11.890000000000001
  0
LTYPE
  2
DASHDOT2
 70
               0
  3
CADPAC FUSION LINETYPE
 72
              65
 73
               4
 40
35.670000000000002
 49
17.835000000000001
 49
-8.9175000000000004
 49
0.0
 49
-8.9175000000000004
  0
LTYPE
  2
DIVIDEX2
 70
               0
  3
CADPAC FUSION LINETYPE
 72
              65
 73
               6
 40
74.3125
 49
29.725000000000001
 49
-14.862500000000001
 49
0.0
 49
-14.862500000000001
 49
0.0
 49
-14.862500000000001
  0
LTYPE
  2
DIVIDE
 70
               0
  3
CADPAC FUSION LINETYPE
 72
              65
 73
               6
 40
59.450000000000003
 49
23.780000000000001
 49
-11.890000000000001
 49
0.0
 49
-11.890000000000001
 49
0.0
 49
-11.890000000000001
  0
LTYPE
  2
DIVIDE2
 70
               0
  3
CADPAC FUSION LINETYPE
 72
              65
 73
               6
 40
44.587500000000006
 49
17.835000000000001
 49
-8.9175000000000004
 49
0.0
 49
-8.9175000000000004
 49
0.0
 49
-8.9175000000000004
  0
LTYPE
  2
BORDERX2
 70
               0
  3
CADPAC FUSION LINETYPE
 72
              65
 73
               6
 40
104.03750000000001
 49
29.725000000000001
 49
-14.862500000000001
 49
29.725000000000001
 49
-14.862500000000001
 49
0.0
 49
-14.862500000000001
  0
LTYPE
  2
BORDER
 70
               0
  3
CADPAC FUSION LINETYPE
 72
              65
 73
               6
 40
83.230000000000004
 49
23.780000000000001
 49
-11.890000000000001
 49
23.780000000000001
 49
-11.890000000000001
 49
0.0
 49
-11.890000000000001
  0
LTYPE
  2
BORDER2
 70
               0
  3
CADPAC FUSION LINETYPE
 72
              65
 73
               6
 40
62.422499999999999
 49
17.835000000000001
 49
-8.9175000000000004
 49
17.835000000000001
 49
-8.9175000000000004
 49
0.0
 49
-8.9175000000000004
  0
LTYPE
  2
PHANTOMX2
 70
               0
  3
CADPAC FUSION LINETYPE
 72
              65
 73
               6
 40
89.175000000000011
 49
29.725000000000001
 49
-11.890000000000001
 49
11.890000000000001
 49
-11.890000000000001
 49
11.890000000000001
 49
-11.890000000000001
  0
LTYPE
  2
PHANTOM
 70
               0
  3
CADPAC FUSION LINETYPE
 72
              65
 73
               6
 40
73.718000000000004
 49
23.780000000000001
 49
-11.890000000000001
 49
7.1340000000000003
 49
-11.890000000000001
 49
7.1340000000000003
 49
-11.890000000000001
  0
LTYPE
  2
PHANTOM2
 70
               0
  3
CADPAC FUSION LINETYPE
 72
              65
 73
               6
 40
63.017000000000003
 49
17.835000000000001
 49
-11.890000000000001
 49
4.7560000000000002
 49
-11.890000000000001
 49
4.7560000000000002
 49
-11.890000000000001
  0
ENDTAB
  0
TABLE
  2
LAYER
 70
             256
  0
LAYER
  2
0
 70
               0
 62
               7
  6
CONTINUOUS
  0
LAYER
  2
LAYER001
 70
               0
 62
               7
  6
CONTINUOUS
  0
LAYER
  2
LAYER002
 70
               0
 62
               7
  6
CONTINUOUS
  0
LAYER
  2
LAYER003
 70
               0
 62
               7
  6
CONTINUOUS
  0
LAYER
  2
LAYER004
 70
               0
 62
               7
  6
CONTINUOUS
  0
LAYER
  2
LAYER005
 70
               0
 62
               7
  6
CONTINUOUS
  0
LAYER
  2
LAYER006
 70
               0
 62
               7
  6
CONTINUOUS
  0
LAYER
  2
LAYER007
 70
               0
 62
               7
  6
CONTINUOUS
  0
LAYER
  2
LAYER008
 70
               0
 62
               7
  6
CONTINUOUS
  0
LAYER
  2
LAYER009
 70
               0
 62
               7
  6
CONTINUOUS
  0
LAYER
  2
LAYER010
 70
               0
 62
               7
  6
CONTINUOUS
  0
LAYER
  2
LAYER011
 70
               0
 62
               7
  6
CONTINUOUS
  0
LAYER
  2
LAYER012
 70
               0
 62
               7
  6
CONTINUOUS
  0
LAYER
  2
LAYER013
 70
               0
 62
               7
  6
CONTINUOUS
  0
LAYER
  2
LAYER014
 70
               0
 62
               7
  6
CONTINUOUS
  0
LAYER
  2
LAYER015
 70
               0
 62
               7
  6
CONTINUOUS
  0
LAYER
  2
LAYER016
 70
               0
 62
               7
  6
CONTINUOUS
  0
LAYER
  2
LAYER017
 70
               0
 62
               7
  6
CONTINUOUS
  0
LAYER
  2
LAYER018
 70
               0
 62
               7
  6
CONTINUOUS
  0
LAYER
  2
LAYER019
 70
               0
 62
               7
  6
CONTINUOUS
  0
LAYER
  2
LAYER020
 70
               0
 62
               7
  6
CONTINUOUS
  0
LAYER
  2
LAYER021
 70
               0
 62
               7
  6
CONTINUOUS
  0
LAYER
  2
LAYER022
 70
               0
 62
               7
  6
CONTINUOUS
  0
LAYER
  2
LAYER023
 70
               0
 62
               7
  6
CONTINUOUS
  0
LAYER
  2
LAYER024
 70
               0
 62
               7
  6
CONTINUOUS
  0
LAYER
  2
LAYER025
 70
               0
 62
               7
  6
CONTINUOUS
  0
LAYER
  2
LAYER026
 70
               0
 62
               7
  6
CONTINUOUS
  0
LAYER
  2
LAYER027
 70
               0
 62
               7
  6
CONTINUOUS
  0
LAYER
  2
LAYER028
 70
               0
 62
               7
  6
CONTINUOUS
  0
LAYER
  2
LAYER029
 70
               0
 62
               7
  6
CONTINUOUS
  0
LAYER
  2
LAYER030
 70
               0
 62
               7
  6
CONTINUOUS
  0
LAYER
  2
LAYER031
 70
               0
 62
               7
  6
CONTINUOUS
  0
LAYER
  2
LAYER032
 70
               0
 62
               7
  6
CONTINUOUS
  0
LAYER
  2
LAYER033
 70
               0
 62
               7
  6
CONTINUOUS
  0
LAYER
  2
LAYER034
 70
               0
 62
               7
  6
CONTINUOUS
  0
LAYER
  2
LAYER035
 70
               0
 62
               7
  6
CONTINUOUS
  0
LAYER
  2
LAYER036
 70
               0
 62
               7
  6
CONTINUOUS
  0
LAYER
  2
LAYER037
 70
               0
 62
               7
  6
CONTINUOUS
  0
LAYER
  2
LAYER038
 70
               0
 62
               7
  6
CONTINUOUS
  0
LAYER
  2
LAYER039
 70
               0
 62
               7
  6
CONTINUOUS
  0
LAYER
  2
LAYER040
 70
               0
 62
               7
  6
CONTINUOUS
  0
LAYER
  2
LAYER041
 70
               0
 62
               7
  6
CONTINUOUS
  0
LAYER
  2
LAYER042
 70
               0
 62
               7
  6
CONTINUOUS
  0
LAYER
  2
LAYER043
 70
               0
 62
               7
  6
CONTINUOUS
  0
LAYER
  2
LAYER044
 70
               0
 62
               7
  6
CONTINUOUS
  0
LAYER
  2
LAYER045
 70
               0
 62
               7
  6
CONTINUOUS
  0
LAYER
  2
LAYER046
 70
               0
 62
               7
  6
CONTINUOUS
  0
LAYER
  2
LAYER047
 70
               0
 62
               7
  6
CONTINUOUS
  0
LAYER
  2
LAYER048
 70
               0
 62
               7
  6
CONTINUOUS
  0
LAYER
  2
LAYER049
 70
               0
 62
               7
  6
CONTINUOUS
  0
LAYER
  2
LAYER050
 70
               0
 62
               7
  6
CONTINUOUS
  0
LAYER
  2
LAYER051
 70
               0
 62
               7
  6
CONTINUOUS
  0
LAYER
  2
LAYER052
 70
               0
 62
               7
  6
CONTINUOUS
  0
LAYER
  2
LAYER053
 70
               0
 62
               7
  6
CONTINUOUS
  0
LAYER
  2
LAYER054
 70
               0
 62
               7
  6
CONTINUOUS
  0
LAYER
  2
LAYER055
 70
               0
 62
               7
  6
CONTINUOUS
  0
LAYER
  2
LAYER056
 70
               0
 62
               7
  6
CONTINUOUS
  0
LAYER
  2
LAYER057
 70
               0
 62
               7
  6
CONTINUOUS
  0
LAYER
  2
LAYER058
 70
               0
 62
               7
  6
CONTINUOUS
  0
LAYER
  2
LAYER059
 70
               0
 62
               7
  6
CONTINUOUS
  0
LAYER
  2
LAYER060
 70
               0
 62
               7
  6
CONTINUOUS
  0
LAYER
  2
LAYER061
 70
               0
 62
               7
  6
CONTINUOUS
  0
LAYER
  2
LAYER062
 70
               0
 62
               7
  6
CONTINUOUS
  0
LAYER
  2
LAYER063
 70
               0
 62
               7
  6
CONTINUOUS
  0
LAYER
  2
LAYER064
 70
               0
 62
               7
  6
CONTINUOUS
  0
LAYER
  2
LAYER065
 70
               0
 62
               7
  6
CONTINUOUS
  0
LAYER
  2
LAYER066
 70
               0
 62
               7
  6
CONTINUOUS
  0
LAYER
  2
LAYER067
 70
               0
 62
               7
  6
CONTINUOUS
  0
LAYER
  2
LAYER068
 70
               0
 62
               7
  6
CONTINUOUS
  0
LAYER
  2
LAYER069
 70
               0
 62
               7
  6
CONTINUOUS
  0
LAYER
  2
LAYER070
 70
               0
 62
               7
  6
CONTINUOUS
  0
LAYER
  2
LAYER071
 70
               0
 62
               7
  6
CONTINUOUS
  0
LAYER
  2
LAYER072
 70
               0
 62
               7
  6
CONTINUOUS
  0
LAYER
  2
LAYER073
 70
               0
 62
               7
  6
CONTINUOUS
  0
LAYER
  2
LAYER074
 70
               0
 62
               7
  6
CONTINUOUS
  0
LAYER
  2
LAYER075
 70
               0
 62
               7
  6
CONTINUOUS
  0
LAYER
  2
LAYER076
 70
               0
 62
               7
  6
CONTINUOUS
  0
LAYER
  2
LAYER077
 70
               0
 62
               7
  6
CONTINUOUS
  0
LAYER
  2
LAYER078
 70
               0
 62
               7
  6
CONTINUOUS
  0
LAYER
  2
LAYER079
 70
               0
 62
               7
  6
CONTINUOUS
  0
LAYER
  2
LAYER080
 70
               0
 62
               7
  6
CONTINUOUS
  0
LAYER
  2
LAYER081
 70
               0
 62
               7
  6
CONTINUOUS
  0
LAYER
  2
LAYER082
 70
               0
 62
               7
  6
CONTINUOUS
  0
LAYER
  2
LAYER083
 70
               0
 62
               7
  6
CONTINUOUS
  0
LAYER
  2
LAYER084
 70
               0
 62
               7
  6
CONTINUOUS
  0
LAYER
  2
LAYER085
 70
               0
 62
               7
  6
CONTINUOUS
  0
LAYER
  2
LAYER086
 70
               0
 62
               7
  6
CONTINUOUS
  0
LAYER
  2
LAYER087
 70
               0
 62
               7
  6
CONTINUOUS
  0
LAYER
  2
LAYER088
 70
               0
 62
               7
  6
CONTINUOUS
  0
LAYER
  2
LAYER089
 70
               0
 62
               7
  6
CONTINUOUS
  0
LAYER
  2
LAYER090
 70
               0
 62
               7
  6
CONTINUOUS
  0
LAYER
  2
LAYER091
 70
               0
 62
               7
  6
CONTINUOUS
  0
LAYER
  2
LAYER092
 70
               0
 62
               7
  6
CONTINUOUS
  0
LAYER
  2
LAYER093
 70
               0
 62
               7
  6
CONTINUOUS
  0
LAYER
  2
LAYER094
 70
               0
 62
               7
  6
CONTINUOUS
  0
LAYER
  2
LAYER095
 70
               0
 62
               7
  6
CONTINUOUS
  0
LAYER
  2
LAYER096
 70
               0
 62
               7
  6
CONTINUOUS
  0
LAYER
  2
LAYER097
 70
               0
 62
               7
  6
CONTINUOUS
  0
LAYER
  2
LAYER098
 70
               0
 62
               7
  6
CONTINUOUS
  0
LAYER
  2
LAYER099
 70
               0
 62
               7
  6
CONTINUOUS
  0
LAYER
  2
LAYER100
 70
               0
 62
               7
  6
CONTINUOUS
  0
LAYER
  2
LAYER101
 70
               0
 62
               7
  6
CONTINUOUS
  0
LAYER
  2
LAYER102
 70
               0
 62
               7
  6
CONTINUOUS
  0
LAYER
  2
LAYER103
 70
               0
 62
               7
  6
CONTINUOUS
  0
LAYER
  2
LAYER104
 70
               0
 62
               7
  6
CONTINUOUS
  0
LAYER
  2
LAYER105
 70
               0
 62
               7
  6
CONTINUOUS
  0
LAYER
  2
LAYER106
 70
               0
 62
               7
  6
CONTINUOUS
  0
LAYER
  2
LAYER107
 70
               0
 62
               7
  6
CONTINUOUS
  0
LAYER
  2
LAYER108
 70
               0
 62
               7
  6
CONTINUOUS
  0
LAYER
  2
LAYER109
 70
               0
 62
               7
  6
CONTINUOUS
  0
LAYER
  2
LAYER110
 70
               0
 62
               7
  6
CONTINUOUS
  0
LAYER
  2
LAYER111
 70
               0
 62
               7
  6
CONTINUOUS
  0
LAYER
  2
LAYER112
 70
               0
 62
               7
  6
CONTINUOUS
  0
LAYER
  2
LAYER113
 70
               0
 62
               7
  6
CONTINUOUS
  0
LAYER
  2
LAYER114
 70
               0
 62
               7
  6
CONTINUOUS
  0
LAYER
  2
LAYER115
 70
               0
 62
               7
  6
CONTINUOUS
  0
LAYER
  2
LAYER116
 70
               0
 62
               7
  6
CONTINUOUS
  0
LAYER
  2
LAYER117
 70
               0
 62
               7
  6
CONTINUOUS
  0
LAYER
  2
LAYER118
 70
               0
 62
               7
  6
CONTINUOUS
  0
LAYER
  2
LAYER119
 70
               0
 62
               7
  6
CONTINUOUS
  0
LAYER
  2
LAYER120
 70
               0
 62
               7
  6
CONTINUOUS
  0
LAYER
  2
LAYER121
 70
               0
 62
               7
  6
CONTINUOUS
  0
LAYER
  2
LAYER122
 70
               0
 62
               7
  6
CONTINUOUS
  0
LAYER
  2
LAYER123
 70
               0
 62
               7
  6
CONTINUOUS
  0
LAYER
  2
LAYER124
 70
               0
 62
               7
  6
CONTINUOUS
  0
LAYER
  2
LAYER125
 70
               0
 62
               7
  6
CONTINUOUS
  0
LAYER
  2
LAYER126
 70
               0
 62
               7
  6
CONTINUOUS
  0
LAYER
  2
LAYER127
 70
               0
 62
               7
  6
CONTINUOUS
  0
LAYER
  2
LAYER128
 70
               0
 62
               7
  6
CONTINUOUS
  0
LAYER
  2
LAYER129
 70
               0
 62
               7
  6
CONTINUOUS
  0
LAYER
  2
LAYER130
 70
               0
 62
               7
  6
CONTINUOUS
  0
LAYER
  2
LAYER131
 70
               0
 62
               7
  6
CONTINUOUS
  0
LAYER
  2
LAYER132
 70
               0
 62
               7
  6
CONTINUOUS
  0
LAYER
  2
LAYER133
 70
               0
 62
               7
  6
CONTINUOUS
  0
LAYER
  2
LAYER134
 70
               0
 62
               7
  6
CONTINUOUS
  0
LAYER
  2
LAYER135
 70
               0
 62
               7
  6
CONTINUOUS
  0
LAYER
  2
LAYER136
 70
               0
 62
               7
  6
CONTINUOUS
  0
LAYER
  2
LAYER137
 70
               0
 62
               7
  6
CONTINUOUS
  0
LAYER
  2
LAYER138
 70
               0
 62
               7
  6
CONTINUOUS
  0
LAYER
  2
LAYER139
 70
               0
 62
               7
  6
CONTINUOUS
  0
LAYER
  2
LAYER140
 70
               0
 62
               7
  6
CONTINUOUS
  0
LAYER
  2
LAYER141
 70
               0
 62
               7
  6
CONTINUOUS
  0
LAYER
  2
LAYER142
 70
               0
 62
               7
  6
CONTINUOUS
  0
LAYER
  2
LAYER143
 70
               0
 62
               7
  6
CONTINUOUS
  0
LAYER
  2
LAYER144
 70
               0
 62
               7
  6
CONTINUOUS
  0
LAYER
  2
LAYER145
 70
               0
 62
               7
  6
CONTINUOUS
  0
LAYER
  2
LAYER146
 70
               0
 62
               7
  6
CONTINUOUS
  0
LAYER
  2
LAYER147
 70
               0
 62
               7
  6
CONTINUOUS
  0
LAYER
  2
LAYER148
 70
               0
 62
               7
  6
CONTINUOUS
  0
LAYER
  2
LAYER149
 70
               0
 62
               7
  6
CONTINUOUS
  0
LAYER
  2
LAYER150
 70
               0
 62
               7
  6
CONTINUOUS
  0
LAYER
  2
LAYER151
 70
               0
 62
               7
  6
CONTINUOUS
  0
LAYER
  2
LAYER152
 70
               0
 62
               7
  6
CONTINUOUS
  0
LAYER
  2
LAYER153
 70
               0
 62
               7
  6
CONTINUOUS
  0
LAYER
  2
LAYER154
 70
               0
 62
               7
  6
CONTINUOUS
  0
LAYER
  2
LAYER155
 70
               0
 62
               7
  6
CONTINUOUS
  0
LAYER
  2
LAYER156
 70
               0
 62
               7
  6
CONTINUOUS
  0
LAYER
  2
LAYER157
 70
               0
 62
               7
  6
CONTINUOUS
  0
LAYER
  2
LAYER158
 70
               0
 62
               7
  6
CONTINUOUS
  0
LAYER
  2
LAYER159
 70
               0
 62
               7
  6
CONTINUOUS
  0
LAYER
  2
LAYER160
 70
               0
 62
               7
  6
CONTINUOUS
  0
LAYER
  2
LAYER161
 70
               0
 62
               7
  6
CONTINUOUS
  0
LAYER
  2
LAYER162
 70
               0
 62
               7
  6
CONTINUOUS
  0
LAYER
  2
LAYER163
 70
               0
 62
               7
  6
CONTINUOUS
  0
LAYER
  2
LAYER164
 70
               0
 62
               7
  6
CONTINUOUS
  0
LAYER
  2
LAYER165
 70
               0
 62
               7
  6
CONTINUOUS
  0
LAYER
  2
LAYER166
 70
               0
 62
               7
  6
CONTINUOUS
  0
LAYER
  2
LAYER167
 70
               0
 62
               7
  6
CONTINUOUS
  0
LAYER
  2
LAYER168
 70
               0
 62
               7
  6
CONTINUOUS
  0
LAYER
  2
LAYER169
 70
               0
 62
               7
  6
CONTINUOUS
  0
LAYER
  2
LAYER170
 70
               0
 62
               7
  6
CONTINUOUS
  0
LAYER
  2
LAYER171
 70
               0
 62
               7
  6
CONTINUOUS
  0
LAYER
  2
LAYER172
 70
               0
 62
               7
  6
CONTINUOUS
  0
LAYER
  2
LAYER173
 70
               0
 62
               7
  6
CONTINUOUS
  0
LAYER
  2
LAYER174
 70
               0
 62
               7
  6
CONTINUOUS
  0
LAYER
  2
LAYER175
 70
               0
 62
               7
  6
CONTINUOUS
  0
LAYER
  2
LAYER176
 70
               0
 62
               7
  6
CONTINUOUS
  0
LAYER
  2
LAYER177
 70
               0
 62
               7
  6
CONTINUOUS
  0
LAYER
  2
LAYER178
 70
               0
 62
               7
  6
CONTINUOUS
  0
LAYER
  2
LAYER179
 70
               0
 62
               7
  6
CONTINUOUS
  0
LAYER
  2
LAYER180
 70
               0
 62
               7
  6
CONTINUOUS
  0
LAYER
  2
LAYER181
 70
               0
 62
               7
  6
CONTINUOUS
  0
LAYER
  2
LAYER182
 70
               0
 62
               7
  6
CONTINUOUS
  0
LAYER
  2
LAYER183
 70
               0
 62
               7
  6
CONTINUOUS
  0
LAYER
  2
LAYER184
 70
               0
 62
               7
  6
CONTINUOUS
  0
LAYER
  2
LAYER185
 70
               0
 62
               7
  6
CONTINUOUS
  0
LAYER
  2
LAYER186
 70
               0
 62
               7
  6
CONTINUOUS
  0
LAYER
  2
LAYER187
 70
               0
 62
               7
  6
CONTINUOUS
  0
LAYER
  2
LAYER188
 70
               0
 62
               7
  6
CONTINUOUS
  0
LAYER
  2
LAYER189
 70
               0
 62
               7
  6
CONTINUOUS
  0
LAYER
  2
LAYER190
 70
               0
 62
               7
  6
CONTINUOUS
  0
LAYER
  2
LAYER191
 70
               0
 62
               7
  6
CONTINUOUS
  0
LAYER
  2
LAYER192
 70
               0
 62
               7
  6
CONTINUOUS
  0
LAYER
  2
LAYER193
 70
               0
 62
               7
  6
CONTINUOUS
  0
LAYER
  2
LAYER194
 70
               0
 62
               7
  6
CONTINUOUS
  0
LAYER
  2
LAYER195
 70
               0
 62
               7
  6
CONTINUOUS
  0
LAYER
  2
LAYER196
 70
               0
 62
               7
  6
CONTINUOUS
  0
LAYER
  2
LAYER197
 70
               0
 62
               7
  6
CONTINUOUS
  0
LAYER
  2
LAYER198
 70
               0
 62
               7
  6
CONTINUOUS
  0
LAYER
  2
LAYER199
 70
               0
 62
               7
  6
CONTINUOUS
  0
LAYER
  2
LAYER200
 70
               0
 62
               7
  6
CONTINUOUS
  0
LAYER
  2
LAYER201
 70
               0
 62
               7
  6
CONTINUOUS
  0
LAYER
  2
LAYER202
 70
               0
 62
               7
  6
CONTINUOUS
  0
LAYER
  2
LAYER203
 70
               0
 62
               7
  6
CONTINUOUS
  0
LAYER
  2
LAYER204
 70
               0
 62
               7
  6
CONTINUOUS
  0
LAYER
  2
LAYER205
 70
               0
 62
               7
  6
CONTINUOUS
  0
LAYER
  2
LAYER206
 70
               0
 62
               7
  6
CONTINUOUS
  0
LAYER
  2
LAYER207
 70
               0
 62
               7
  6
CONTINUOUS
  0
LAYER
  2
LAYER208
 70
               0
 62
               7
  6
CONTINUOUS
  0
LAYER
  2
LAYER209
 70
               0
 62
               7
  6
CONTINUOUS
  0
LAYER
  2
LAYER210
 70
               0
 62
               7
  6
CONTINUOUS
  0
LAYER
  2
LAYER211
 70
               0
 62
               7
  6
CONTINUOUS
  0
LAYER
  2
LAYER212
 70
               0
 62
               7
  6
CONTINUOUS
  0
LAYER
  2
LAYER213
 70
               0
 62
               7
  6
CONTINUOUS
  0
LAYER
  2
LAYER214
 70
               0
 62
               7
  6
CONTINUOUS
  0
LAYER
  2
LAYER215
 70
               0
 62
               7
  6
CONTINUOUS
  0
LAYER
  2
LAYER216
 70
               0
 62
               7
  6
CONTINUOUS
  0
LAYER
  2
LAYER217
 70
               0
 62
               7
  6
CONTINUOUS
  0
LAYER
  2
LAYER218
 70
               0
 62
               7
  6
CONTINUOUS
  0
LAYER
  2
LAYER219
 70
               0
 62
               7
  6
CONTINUOUS
  0
LAYER
  2
LAYER220
 70
               0
 62
               7
  6
CONTINUOUS
  0
LAYER
  2
LAYER221
 70
               0
 62
               7
  6
CONTINUOUS
  0
LAYER
  2
LAYER222
 70
               0
 62
               7
  6
CONTINUOUS
  0
LAYER
  2
LAYER223
 70
               0
 62
               7
  6
CONTINUOUS
  0
LAYER
  2
LAYER224
 70
               0
 62
               7
  6
CONTINUOUS
  0
LAYER
  2
LAYER225
 70
               0
 62
               7
  6
CONTINUOUS
  0
LAYER
  2
LAYER226
 70
               0
 62
               7
  6
CONTINUOUS
  0
LAYER
  2
LAYER227
 70
               0
 62
               7
  6
CONTINUOUS
  0
LAYER
  2
LAYER228
 70
               0
 62
               7
  6
CONTINUOUS
  0
LAYER
  2
LAYER229
 70
               0
 62
               7
  6
CONTINUOUS
  0
LAYER
  2
LAYER230
 70
               0
 62
               7
  6
CONTINUOUS
  0
LAYER
  2
LAYER231
 70
               0
 62
               7
  6
CONTINUOUS
  0
LAYER
  2
LAYER232
 70
               0
 62
               7
  6
CONTINUOUS
  0
LAYER
  2
LAYER233
 70
               0
 62
               7
  6
CONTINUOUS
  0
LAYER
  2
LAYER234
 70
               0
 62
               7
  6
CONTINUOUS
  0
LAYER
  2
LAYER235
 70
               0
 62
               7
  6
CONTINUOUS
  0
LAYER
  2
LAYER236
 70
               0
 62
               7
  6
CONTINUOUS
  0
LAYER
  2
LAYER237
 70
               0
 62
               7
  6
CONTINUOUS
  0
LAYER
  2
LAYER238
 70
               0
 62
               7
  6
CONTINUOUS
  0
LAYER
  2
LAYER239
 70
               0
 62
               7
  6
CONTINUOUS
  0
LAYER
  2
LAYER240
 70
               0
 62
               7
  6
CONTINUOUS
  0
LAYER
  2
LAYER241
 70
               0
 62
               7
  6
CONTINUOUS
  0
LAYER
  2
LAYER242
 70
               0
 62
               7
  6
CONTINUOUS
  0
LAYER
  2
LAYER243
 70
               0
 62
               7
  6
CONTINUOUS
  0
LAYER
  2
LAYER244
 70
               0
 62
               7
  6
CONTINUOUS
  0
LAYER
  2
LAYER245
 70
               0
 62
               7
  6
CONTINUOUS
  0
LAYER
  2
LAYER246
 70
               0
 62
               7
  6
CONTINUOUS
  0
LAYER
  2
LAYER247
 70
               0
 62
               7
  6
CONTINUOUS
  0
LAYER
  2
LAYER248
 70
               0
 62
               7
  6
CONTINUOUS
  0
LAYER
  2
LAYER249
 70
               0
 62
               7
  6
CONTINUOUS
  0
LAYER
  2
LAYER250
 70
               0
 62
               7
  6
CONTINUOUS
  0
LAYER
  2
LAYER251
 70
               0
 62
               7
  6
CONTINUOUS
  0
LAYER
  2
LAYER252
 70
               0
 62
               7
  6
CONTINUOUS
  0
LAYER
  2
LAYER253
 70
               0
 62
               7
  6
CONTINUOUS
  0
LAYER
  2
LAYER254
 70
               0
 62
               7
  6
CONTINUOUS
  0
LAYER
  2
LAYER255
 70
               0
 62
               7
  6
CONTINUOUS
  0
ENDTAB
  0
TABLE
  2
STYLE
 70
               1
  0
STYLE
  2
STANDARD
 70
               0
 40
0.0
 41
0.8
 50
0.0
 71
               0
 42
40.0
  3
MS PGothic.ttf
  4

  0
ENDTAB
  0
TABLE
  2
VIEW
 70
               0
  0
VIEW
  2
QQQQ
 70
               0
 40
2164.318038694194
 10
0.0
 20
-449.77801977034846
 41
1462.0185840362708
 11
0.0
 21
0.0
 31
1.0
 12
100.0
 22
100.0
 32
0.0
 42
50.0
 43
0.0
 44
0.0
 50
0.0
 71
               0
  0
ENDTAB
  0
TABLE
  2
UCS
 70
               0
  0
ENDTAB
  0
TABLE
  2
APPID
 70
               1
  0
APPID
  2
ACAD
 70
               0
  0
ENDTAB
  0
TABLE
  2
DIMSTYLE
 70
               1
  0
DIMSTYLE
  2
STANDARD
 70
               0
  3

  4

  5

  6

  7

 40
1.0
 41
0.18
 42
0.0625
 43
0.38
 44
0.18
 45
0.0
 46
0.0
 47
0.0
 48
0.0
140
0.18
141
0.09
142
0.0
143
25.399999999999999
144
1.0
145
0.0
146
1.0
147
0.09
 71
               0
 72
               0
 73
               1
 74
               1
 75
               0
 76
               0
 77
               0
 78
               0
170
               0
171
               2
172
               0
173
               0
174
               0
175
               0
176
               0
177
               0
178
               0
  0
ENDTAB
  0
ENDSEC
  0
SECTION
  2
BLOCKS
  0
ENDSEC
  0
SECTION
  2
ENTITIES
  0
LINE
  8
0
  6
CONTINUOUS
 62
               3
  5
136
 10
59.135949582968578
 20
3.1629679464632545
 30
0.0
 11
61.546870604647438
 21
-65.876777075430823
 31
0.0
  0
LINE
  8
0
  6
CONTINUOUS
 62
               3
  5
137
 10
61.546870604647438
 20
-65.876777075430823
 30
0.0
 11
61.546870604647438
 21
-111.15355702941258
 31
0.0
  0
LINE
  8
0
  6
CONTINUOUS
 62
               3
  5
138
 10
61.546870604647438
 20
-111.15355702941258
 30
0.0
 11
45.223251506698261
 21
-172.07413286636108
 31
0.0
  0
LINE
  8
0
  6
CONTINUOUS
 62
               3
  5
139
 10
56.807505708932922
 20
6.1629679464634819
 30
0.0
 11
56.807505708932922
 21
5.4914118204991382
 31
0.0
  0
LINE
  8
0
  6
CONTINUOUS
 62
               3
  5
13A
 10
59.135949582968578
 20
3.1629679464632545
 30
0.0
 11
56.807505708932922
 21
5.4914118204991382
 31
0.0
  0
LINE
  8
0
  6
CONTINUOUS
 62
               3
  5
13B
 10
59.135949582968578
 20
6.1629679464634819
 30
0.0
 11
59.135949582968578
 21
8.6629679464634819
 31
0.0
  0
ARC
  8
0
  6
CONTINUOUS
 62
               3
  5
13C
 10
56.635949582968578
 20
8.6629679464634819
 30
0.0
 40
2.5
 50
0.0000000000001628
 51
89.999999999982705
  0
LINE
  8
0
  6
CONTINUOUS
 62
               3
  5
13D
 10
-53.361002695537309
 20
6.1629679464634819
 30
0.0
 11
-53.361002695537309
 21
5.4914118204991382
 31
0.0
  0
LINE
  8
0
  6
CONTINUOUS
 62
               3
  5
13E
 10
-55.68944656957251
 20
3.1629679464632545
 30
0.0
 11
-53.361002695537309
 21
5.4914118204991382
 31
0.0
  0
LINE
  8
0
  6
CONTINUOUS
 62
               3
  5
13F
 10
56.807505708932922
 20
5.4914118204991382
 30
0.0
 11
-53.361002695537309
 21
5.4914118204991382
 31
0.0
  0
LINE
  8
0
  6
CONTINUOUS
 62
               3
  5
140
 10
-55.68944656957251
 20
3.1629679464632545
 30
0.0
 11
59.135949582968578
 21
3.1629679464632545
 31
0.0
  0
LINE
  8
0
  6
CONTINUOUS
 62
               3
  5
141
 10
56.635949582968578
 20
11.162967946463482
 30
0.0
 11
-53.18944656957251
 21
11.162967946463482
 31
0.0
  0
LINE
  8
0
  6
CONTINUOUS
 62
               3
  5
142
 10
-55.68944656957251
 20
6.1629679464634819
 30
0.0
 11
59.135949582968578
 21
6.1629679464634819
 31
0.0
  0
LINE
  8
0
  6
CONTINUOUS
 62
               3
  5
143
 10
-55.68944656957251
 20
6.1629679464634819
 30
0.0
 11
-55.68944656957251
 21
8.6629679464634819
 31
0.0
  0
ARC
  8
0
  6
CONTINUOUS
 62
               3
  5
144
 10
-53.18944656957251
 20
8.6629679464634819
 30
0.0
 40
2.5
 50
89.999999999982705
 51
179.99999999996524
  0
LINE
  8
0
  6
CONTINUOUS
 62
               3
  5
145
 10
-42.276748493302193
 20
-252.07413286636108
 30
0.0
 11
45.723251506697807
 21
-252.07413286636108
 31
0.0
  0
LINE
  8
0
  6
CONTINUOUS
 62
               3
  5
146
 10
45.723251506697807
 20
-252.07413286636108
 30
0.0
 11
45.223251506697807
 21
-251.57413286636108
 31
0.0
  0
LINE
  8
0
  6
CONTINUOUS
 62
               3
  5
147
 10
45.223251506697807
 20
-251.57413286636108
 30
0.0
 11
45.223251506697807
 21
-172.07413286636108
 31
0.0
  0
LINE
  8
0
  6
CONTINUOUS
 62
               3
  5
148
 10
-42.276748493301739
 20
-252.07413286636108
 30
0.0
 11
-41.776748493302193
 21
-251.57413286636108
 31
0.0
  0
LINE
  8
0
  6
CONTINUOUS
 62
               3
  5
149
 10
-41.776748493302193
 20
-251.57413286636108
 30
0.0
 11
-41.776748493302193
 21
-172.0741328663604
 31
0.0
  0
LINE
  8
0
  6
CONTINUOUS
 62
               3
  5
14A
 10
45.723251506697807
 20
-509.83703205353629
 30
0.0
 11
45.723251506697807
 21
-252.07413286636108
 31
0.0
  0
LINE
  8
0
  6
CONTINUOUS
 62
               3
  5
14B
 10
-42.276748493302193
 20
-509.83703205353629
 30
0.0
 11
-42.276748493302193
 21
-252.07413286636108
 31
0.0
  0
LINE
  8
0
  6
CONTINUOUS
 62
               3
  5
14C
 10
45.223251506697807
 20
-172.07413286636108
 30
0.0
 11
-41.776748493302193
 21
-172.0741328663604
 31
0.0
  0
LINE
  8
0
  6
CONTINUOUS
 62
               3
  5
14D
 10
43.723251506697807
 20
-511.83703205353629
 30
0.0
 11
-40.276748493302193
 21
-511.83703205353629
 31
0.0
  0
LINE
  8
0
  6
CONTINUOUS
 62
               3
  5
14E
 10
45.723251506697807
 20
-509.83703205353629
 30
0.0
 11
43.723251506697807
 21
-511.83703205353629
 31
0.0
  0
LINE
  8
0
  6
CONTINUOUS
 62
               3
  5
14F
 10
-40.276748493302193
 20
-511.83703205353629
 30
0.0
 11
-42.276748493302193
 21
-509.83703205353629
 31
0.0
  0
LINE
  8
0
  6
CONTINUOUS
 62
               3
  5
150
 10
50.394807632662605
 20
322.55140950304246
 30
0.0
 11
50.394807632662605
 21
323.22296562900681
 31
0.0
  0
LINE
  8
0
  6
CONTINUOUS
 62
               3
  5
151
 10
52.723251506697807
 20
325.55140950304269
 30
0.0
 11
50.394807632662605
 21
323.22296562900681
 31
0.0
  0
LINE
  8
0
  6
CONTINUOUS
 62
               3
  5
152
 10
-46.948304619266082
 20
322.55140950304246
 30
0.0
 11
-46.948304619266082
 21
323.22296562900681
 31
0.0
  0
LINE
  8
0
  6
CONTINUOUS
 62
               3
  5
153
 10
-49.276748493302193
 20
325.55140950304269
 30
0.0
 11
-46.948304619266082
 21
323.22296562900681
 31
0.0
  0
LINE
  8
0
  6
CONTINUOUS
 62
               3
  5
154
 10
-46.948304619266082
 20
323.22296562900681
 30
0.0
 11
50.394807632662605
 21
323.22296562900681
 31
0.0
  0
LINE
  8
0
  6
CONTINUOUS
 62
               3
  5
155
 10
52.723251506697807
 20
325.55140950304269
 30
0.0
 11
-49.276748493302193
 21
325.55140950304269
 31
0.0
  0
LINE
  8
0
  6
CONTINUOUS
 62
               3
  5
156
 10
-46.626748493302195
 20
317.55140950304246
 30
0.0
 11
50.073251506697808
 21
317.55140950304246
 31
0.0
  0
LINE
  8
0
  6
CONTINUOUS
 62
               3
  5
157
 10
52.573251506697808
 20
322.55140950304246
 30
0.0
 11
-49.126748493302195
 21
322.55140950304246
 31
0.0
  0
LINE
  8
0
  6
CONTINUOUS
 62
               3
  5
158
 10
-49.126748493302195
 20
322.55140950304246
 30
0.0
 11
-49.126748493302195
 21
320.05140950304246
 31
0.0
  0
LINE
  8
0
  6
CONTINUOUS
 62
               3
  5
159
 10
52.573251506697808
 20
322.55140950304246
 30
0.0
 11
52.573251506697808
 21
320.05140950304246
 31
0.0
  0
ARC
  8
0
  6
CONTINUOUS
 62
               3
  5
15A
 10
50.073251506697808
 20
320.05140950304246
 30
0.0
 40
2.5
 50
269.99999999994782
 51
359.99999999993014
  0
ARC
  8
0
  6
CONTINUOUS
 62
               3
  5
15B
 10
-46.626748493302195
 20
320.05140950304246
 30
0.0
 40
2.5
 50
179.99999999996572
 51
269.99999999994782
  0
LINE
  8
0
  6
CONTINUOUS
 62
               3
  5
15C
 10
56.1355552288707
 20
423.2670031693749
 30
0.0
 11
52.723251506697807
 21
325.55140950304269
 31
0.0
  0
LINE
  8
0
  6
CONTINUOUS
 62
               3
  5
15D
 10
-51.543483856477657
 20
390.46221748828407
 30
0.0
 11
-49.276748493302193
 21
325.55140950304269
 31
0.0
  0
LINE
  8
0
  6
CONTINUOUS
 62
               3
  5
15E
 10
-124.27674849330219
 20
399.87985337707852
 30
0.0
 11
-123.60519236733785
 21
399.87985337707852
 31
0.0
  0
LINE
  8
0
  6
CONTINUOUS
 62
               3
  5
15F
 10
-121.27674849330174
 20
397.55140950304332
 30
0.0
 11
-123.60519236733785
 21
399.87985337707852
 31
0.0
  0
LINE
  8
0
  6
CONTINUOUS
 62
               3
  5
160
 10
-124.27674849330219
 20
497.2229656290076
 30
0.0
 11
-123.60519236733785
 21
497.2229656290076
 31
0.0
  0
LINE
  8
0
  6
CONTINUOUS
 62
               3
  5
161
 10
-121.27674849330174
 20
499.55140950304326
 30
0.0
 11
-123.60519236733785
 21
497.2229656290076
 31
0.0
  0
LINE
  8
0
  6
CONTINUOUS
 62
               3
  5
162
 10
-123.60519236733785
 20
497.2229656290076
 30
0.0
 11
-123.60519236733785
 21
399.87985337707852
 31
0.0
  0
LINE
  8
0
  6
CONTINUOUS
 62
               3
  5
163
 10
-121.27674849330174
 20
397.55140950304332
 30
0.0
 11
-121.27674849330174
 21
499.55140950304326
 31
0.0
  0
LINE
  8
0
  6
CONTINUOUS
 62
               3
  5
164
 10
-129.27674849330219
 20
496.9014095030434
 30
0.0
 11
-129.27674849330219
 21
400.20140950304335
 31
0.0
  0
LINE
  8
0
  6
CONTINUOUS
 62
               3
  5
165
 10
-124.27674849330219
 20
397.70140950304335
 30
0.0
 11
-124.27674849330219
 21
499.4014095030434
 31
0.0
  0
LINE
  8
0
  6
CONTINUOUS
 62
               3
  5
166
 10
-124.27674849330219
 20
499.4014095030434
 30
0.0
 11
-126.77674849330219
 21
499.4014095030434
 31
0.0
  0
LINE
  8
0
  6
CONTINUOUS
 62
               3
  5
167
 10
-124.27674849330219
 20
397.70140950304335
 30
0.0
 11
-126.77674849330219
 21
397.70140950304335
 31
0.0
  0
ARC
  8
0
  6
CONTINUOUS
 62
               3
  5
168
 10
-126.77674849330219
 20
400.20140950304335
 30
0.0
 40
2.5
 50
179.99999999996572
 51
269.99999999994793
  0
ARC
  8
0
  6
CONTINUOUS
 62
               3
  5
169
 10
-126.77674849330219
 20
496.9014095030434
 30
0.0
 40
2.5
 50
89.999999999982862
 51
179.99999999996572
  0
LINE
  8
0
  6
CONTINUOUS
 62
               3
  5
16A
 10
-56.365940508060532
 20
395.28467413986664
 30
0.0
 11
-121.27674849330174
 21
397.55140950304332
 31
0.0
  0
LINE
  8
0
  6
CONTINUOUS
 62
               3
  5
16B
 10
-23.561154826969918
 20
502.96371322521532
 30
0.0
 11
-121.27674849330174
 21
499.55140950304326
 31
0.0
  0
CIRCLE
  8
0
  6
CONTINUOUS
 62
               3
  5
16C
 10
1.7232515066982614
 20
448.55140950304246
 30
0.0
 40
48.500000000000014
  0
CIRCLE
  8
0
  6
CONTINUOUS
 62
               3
  5
16D
 10
1.7232515066982614
 20
448.55140950304246
 30
0.0
 40
38.75
  0
CIRCLE
  8
0
  6
CONTINUOUS
 62
               3
  5
16E
 10
1.7232515066982614
 20
448.55140950304246
 30
0.0
 40
47.299999999999997
  0
LINE
  8
0
  6
CONTINUOUS
 62
               3
  5
16F
 10
-30.096553646696293
 20
416.73160434964768
 30
0.0
 11
-31.722899243425445
 21
415.10525875291876
 31
0.0
  0
LINE
  8
0
  6
CONTINUOUS
 62
               3
  5
170
 10
33.543056660092816
 20
416.73160434964768
 30
0.0
 11
35.169402256821968
 21
415.10525875291876
 31
0.0
  0
ARC
  8
0
  6
CONTINUOUS
 62
               3
  5
171
 10
1.7232515066982614
 20
448.55140950304246
 30
0.0
 40
45.0
 50
224.99999999995646
 51
314.99999999993918
  0
CIRCLE
  8
0
  6
CONTINUOUS
 62
               3
  5
172
 10
1.7232515066982614
 20
448.55140950304246
 30
0.0
 40
43.0
  0
CIRCLE
  8
0
  6
CONTINUOUS
 62
               3
  5
173
 10
1.7232515066982614
 20
448.55140950304246
 30
0.0
 40
57.5
  0
CIRCLE
  8
0
  6
CONTINUOUS
 62
               3
  5
174
 10
1.7232515066978067
 20
448.55140950304246
 30
0.0
 40
60.0
  0
LINE
  8
0
  6
CONTINUOUS
 62
               3
  5
175
 10
-655.68944656957297
 20
3.1629679464632545
 30
0.0
 11
-658.10036759125182
 21
-65.876777075430823
 31
0.0
  0
LINE
  8
0
  6
CONTINUOUS
 62
               3
  5
176
 10
-475.27674849330265
 20
-160.9370320535366
 30
0.0
 11
-548.81774020099067
 21
-163.50514007315516
 31
0.0
  0
LINE
  8
0
  6
CONTINUOUS
 62
               3
  5
177
 10
-475.27674849330265
 20
-58.937032053536598
 30
0.0
 11
-534.11316654382949
 21
-56.882419061074131
 31
0.0
  0
LINE
  8
0
  6
CONTINUOUS
 62
               3
  5
178
 10
-658.10036759125182
 20
-65.876777075430823
 30
0.0
 11
-658.10036759125182
 21
-111.15355702941258
 31
0.0
  0
LINE
  8
0
  6
CONTINUOUS
 62
               3
  5
179
 10
-540.86405041703142
 20
3.1629679464632545
 30
0.0
 11
-538.93562319541252
 21
-52.059962409493437
 31
0.0
  0
LINE
  8
0
  6
CONTINUOUS
 62
               3
  5
17A
 10
-658.10036759125182
 20
-111.15355702941258
 30
0.0
 11
-641.77674849330265
 21
-172.07413286636108
 31
0.0
  0
LINE
  8
0
  6
CONTINUOUS
 62
               3
  5
17B
 10
-653.36100269553685
 20
6.1629679464634819
 30
0.0
 11
-653.36100269553685
 21
5.4914118204991382
 31
0.0
  0
LINE
  8
0
  6
CONTINUOUS
 62
               3
  5
17C
 10
-655.68944656957297
 20
3.1629679464632545
 30
0.0
 11
-653.36100269553685
 21
5.4914118204991382
 31
0.0
  0
LINE
  8
0
  6
CONTINUOUS
 62
               3
  5
17D
 10
-655.68944656957297
 20
6.1629679464634819
 30
0.0
 11
-655.68944656957297
 21
8.6629679464634819
 31
0.0
  0
ARC
  8
0
  6
CONTINUOUS
 62
               3
  5
17E
 10
-653.18944656957297
 20
8.6629679464634819
 30
0.0
 40
2.5
 50
89.999999999981569
 51
179.99999999996507
  0
LINE
  8
0
  6
CONTINUOUS
 62
               3
  5
17F
 10
-543.19249429106708
 20
6.1629679464634819
 30
0.0
 11
-543.19249429106708
 21
5.4914118204991382
 31
0.0
  0
LINE
  8
0
  6
CONTINUOUS
 62
               3
  5
180
 10
-540.86405041703142
 20
3.1629679464632545
 30
0.0
 11
-543.19249429106708
 21
5.4914118204991382
 31
0.0
  0
LINE
  8
0
  6
CONTINUOUS
 62
               3
  5
181
 10
-653.36100269553685
 20
5.4914118204991382
 30
0.0
 11
-543.19249429106708
 21
5.4914118204991382
 31
0.0
  0
LINE
  8
0
  6
CONTINUOUS
 62
               3
  5
182
 10
-540.86405041703142
 20
3.1629679464632545
 30
0.0
 11
-655.68944656957297
 21
3.1629679464632545
 31
0.0
  0
LINE
  8
0
  6
CONTINUOUS
 62
               3
  5
183
 10
-653.18944656957297
 20
11.162967946463482
 30
0.0
 11
-543.36405041703142
 21
11.162967946463482
 31
0.0
  0
LINE
  8
0
  6
CONTINUOUS
 62
               3
  5
184
 10
-540.86405041703142
 20
6.1629679464634819
 30
0.0
 11
-655.68944656957297
 21
6.1629679464634819
 31
0.0
  0
LINE
  8
0
  6
CONTINUOUS
 62
               3
  5
185
 10
-540.86405041703142
 20
6.1629679464634819
 30
0.0
 11
-540.86405041703142
 21
8.6629679464634819
 31
0.0
  0
ARC
  8
0
  6
CONTINUOUS
 62
               3
  5
186
 10
-543.36405041703142
 20
8.6629679464634819
 30
0.0
 40
2.5
 50
359.99999999993014
 51
449.99999999991297
  0
LINE
  8
0
  6
CONTINUOUS
 62
               3
  5
187
 10
-472.27674849330219
 20
-61.265475927571799
 30
0.0
 11
-472.94830461926654
 21
-61.265475927571799
 31
0.0
  0
LINE
  8
0
  6
CONTINUOUS
 62
               3
  5
188
 10
-475.27674849330265
 20
-58.937032053536598
 30
0.0
 11
-472.94830461926654
 21
-61.265475927571799
 31
0.0
  0
LINE
  8
0
  6
CONTINUOUS
 62
               3
  5
189
 10
-472.27674849330219
 20
-158.60858817950071
 30
0.0
 11
-472.94830461926654
 21
-158.60858817950071
 31
0.0
  0
LINE
  8
0
  6
CONTINUOUS
 62
               3
  5
18A
 10
-475.27674849330265
 20
-160.9370320535366
 30
0.0
 11
-472.94830461926654
 21
-158.60858817950071
 31
0.0
  0
LINE
  8
0
  6
CONTINUOUS
 62
               3
  5
18B
 10
-472.94830461926654
 20
-158.60858817950094
 30
0.0
 11
-472.94830461926654
 21
-61.265475927571799
 31
0.0
  0
LINE
  8
0
  6
CONTINUOUS
 62
               3
  5
18C
 10
-475.27674849330265
 20
-58.937032053536598
 30
0.0
 11
-475.27674849330265
 21
-160.9370320535366
 31
0.0
  0
LINE
  8
0
  6
CONTINUOUS
 62
               3
  5
18D
 10
-467.27674849330219
 20
-158.28703205353659
 30
0.0
 11
-467.27674849330219
 21
-61.587032053536596
 31
0.0
  0
LINE
  8
0
  6
CONTINUOUS
 62
               3
  5
18E
 10
-472.27674849330219
 20
-59.087032053536596
 30
0.0
 11
-472.27674849330219
 21
-160.78703205353659
 31
0.0
  0
LINE
  8
0
  6
CONTINUOUS
 62
               3
  5
18F
 10
-472.27674849330219
 20
-160.78703205353659
 30
0.0
 11
-469.77674849330219
 21
-160.78703205353659
 31
0.0
  0
LINE
  8
0
  6
CONTINUOUS
 62
               3
  5
190
 10
-472.27674849330219
 20
-59.087032053536596
 30
0.0
 11
-469.77674849330219
 21
-59.087032053536596
 31
0.0
  0
ARC
  8
0
  6
CONTINUOUS
 62
               3
  5
191
 10
-469.77674849330219
 20
-61.587032053536596
 30
0.0
 40
2.5
 50
0.0
 51
89.999999999982862
  0
ARC
  8
0
  6
CONTINUOUS
 62
               3
  5
192
 10
-469.77674849330219
 20
-158.28703205353659
 30
0.0
 40
2.5
 50
269.99999999994731
 51
359.99999999993048
  0
LINE
  8
0
  6
CONTINUOUS
 62
               3
  5
193
 10
-554.27674849330219
 20
-252.07413286636108
 30
0.0
 11
-642.27674849330174
 21
-252.07413286636108
 31
0.0
  0
LINE
  8
0
  6
CONTINUOUS
 62
               3
  5
194
 10
-642.27674849330174
 20
-252.07413286636108
 30
0.0
 11
-641.77674849330219
 21
-251.57413286636108
 31
0.0
  0
LINE
  8
0
  6
CONTINUOUS
 62
               3
  5
195
 10
-641.77674849330219
 20
-251.57413286636108
 30
0.0
 11
-641.77674849330219
 21
-172.07413286636108
 31
0.0
  0
LINE
  8
0
  6
CONTINUOUS
 62
               3
  5
196
 10
-554.27674849330219
 20
-252.07413286636108
 30
0.0
 11
-554.77674849330219
 21
-251.57413286636108
 31
0.0
  0
LINE
  8
0
  6
CONTINUOUS
 62
               3
  5
197
 10
-554.77674849330219
 20
-251.57413286636108
 30
0.0
 11
-554.77674849330219
 21
-172.0741328663604
 31
0.0
  0
LINE
  8
0
  6
CONTINUOUS
 62
               3
  5
198
 10
-553.47287184892332
 20
-167.20799898273754
 30
0.0
 11
-554.77674849330219
 21
-172.0741328663604
 31
0.0
  0
LINE
  8
0
  6
CONTINUOUS
 62
               3
  5
199
 10
-642.27674849330174
 20
-509.83703205353629
 30
0.0
 11
-642.27674849330174
 21
-252.07413286636108
 31
0.0
  0
LINE
  8
0
  6
CONTINUOUS
 62
               3
  5
19A
 10
-554.27674849330219
 20
-509.83703205353629
 30
0.0
 11
-554.27674849330219
 21
-252.07413286636108
 31
0.0
  0
LINE
  8
0
  6
CONTINUOUS
 62
               3
  5
19B
 10
-641.77674849330219
 20
-172.07413286636108
 30
0.0
 11
-554.77674849330219
 21
-172.0741328663604
 31
0.0
  0
LINE
  8
0
  6
CONTINUOUS
 62
               3
  5
19C
 10
-640.27674849330174
 20
-511.83703205353629
 30
0.0
 11
-556.27674849330174
 21
-511.83703205353629
 31
0.0
  0
LINE
  8
0
  6
CONTINUOUS
 62
               3
  5
19D
 10
-642.27674849330174
 20
-509.83703205353629
 30
0.0
 11
-640.27674849330174
 21
-511.83703205353629
 31
0.0
  0
LINE
  8
0
  6
CONTINUOUS
 62
               3
  5
19E
 10
-556.27674849330174
 20
-511.83703205353629
 30
0.0
 11
-554.27674849330219
 21
-509.83703205353629
 31
0.0
  0
LINE
  8
0
  6
CONTINUOUS
 62
               3
  5
19F
 10
659.13594958296858
 20
3.1629679464632545
 30
0.0
 11
661.54687060464744
 21
-65.876777075430823
 31
0.0
  0
LINE
  8
0
  6
CONTINUOUS
 62
               3
  5
1A0
 10
661.54687060464744
 20
-65.876777075430823
 30
0.0
 11
661.54687060464744
 21
-111.15355702941258
 31
0.0
  0
LINE
  8
0
  6
CONTINUOUS
 62
               3
  5
1A1
 10
661.54687060464744
 20
-111.15355702941258
 30
0.0
 11
645.22325150669849
 21
-172.07413286636108
 31
0.0
  0
LINE
  8
0
  6
CONTINUOUS
 62
               3
  5
1A2
 10
656.80750570893292
 20
6.1629679464634819
 30
0.0
 11
656.80750570893292
 21
5.4914118204991382
 31
0.0
  0
LINE
  8
0
  6
CONTINUOUS
 62
               3
  5
1A3
 10
659.13594958296858
 20
3.1629679464632545
 30
0.0
 11
656.80750570893292
 21
5.4914118204991382
 31
0.0
  0
LINE
  8
0
  6
CONTINUOUS
 62
               3
  5
1A4
 10
659.13594958296858
 20
6.1629679464634819
 30
0.0
 11
659.13594958296858
 21
8.6629679464634819
 31
0.0
  0
ARC
  8
0
  6
CONTINUOUS
 62
               3
  5
1A5
 10
656.63594958296858
 20
8.6629679464634819
 30
0.0
 40
2.5
 50
0.0000000000001628
 51
89.999999999981569
  0
LINE
  8
0
  6
CONTINUOUS
 62
               3
  5
1A6
 10
546.63899730446292
 20
6.1629679464634819
 30
0.0
 11
546.63899730446292
 21
5.4914118204991382
 31
0.0
  0
LINE
  8
0
  6
CONTINUOUS
 62
               3
  5
1A7
 10
544.31055343042749
 20
3.1629679464632545
 30
0.0
 11
546.63899730446292
 21
5.4914118204991382
 31
0.0
  0
LINE
  8
0
  6
CONTINUOUS
 62
               3
  5
1A8
 10
656.80750570893292
 20
5.4914118204991382
 30
0.0
 11
546.63899730446292
 21
5.4914118204991382
 31
0.0
  0
LINE
  8
0
  6
CONTINUOUS
 62
               3
  5
1A9
 10
544.31055343042749
 20
3.1629679464632545
 30
0.0
 11
659.13594958296858
 21
3.1629679464632545
 31
0.0
  0
LINE
  8
0
  6
CONTINUOUS
 62
               3
  5
1AA
 10
656.63594958296858
 20
11.162967946463482
 30
0.0
 11
546.81055343042749
 21
11.162967946463482
 31
0.0
  0
LINE
  8
0
  6
CONTINUOUS
 62
               3
  5
1AB
 10
544.31055343042749
 20
6.1629679464634819
 30
0.0
 11
659.13594958296858
 21
6.1629679464634819
 31
0.0
  0
LINE
  8
0
  6
CONTINUOUS
 62
               3
  5
1AC
 10
544.31055343042749
 20
6.1629679464634819
 30
0.0
 11
544.31055343042749
 21
8.6629679464634819
 31
0.0
  0
ARC
  8
0
  6
CONTINUOUS
 62
               3
  5
1AD
 10
546.81055343042749
 20
8.6629679464634819
 30
0.0
 40
2.5
 50
89.999999999981569
 51
179.99999999996524
  0
LINE
  8
0
  6
CONTINUOUS
 62
               3
  5
1AE
 10
557.72325150669803
 20
-252.07413286636108
 30
0.0
 11
645.72325150669781
 21
-252.07413286636108
 31
0.0
  0
LINE
  8
0
  6
CONTINUOUS
 62
               3
  5
1AF
 10
645.72325150669781
 20
-252.07413286636108
 30
0.0
 11
645.22325150669803
 21
-251.57413286636108
 31
0.0
  0
LINE
  8
0
  6
CONTINUOUS
 62
               3
  5
1B0
 10
645.22325150669803
 20
-251.57413286636108
 30
0.0
 11
645.22325150669803
 21
-172.07413286636108
 31
0.0
  0
LINE
  8
0
  6
CONTINUOUS
 62
               3
  5
1B1
 10
557.72325150669826
 20
-252.07413286636108
 30
0.0
 11
558.22325150669803
 21
-251.57413286636108
 31
0.0
  0
LINE
  8
0
  6
CONTINUOUS
 62
               3
  5
1B2
 10
558.22325150669803
 20
-251.57413286636108
 30
0.0
 11
558.22325150669803
 21
-172.0741328663604
 31
0.0
  0
LINE
  8
0
  6
CONTINUOUS
 62
               3
  5
1B3
 10
645.72325150669781
 20
-509.83703205353629
 30
0.0
 11
645.72325150669781
 21
-252.07413286636108
 31
0.0
  0
LINE
  8
0
  6
CONTINUOUS
 62
               3
  5
1B4
 10
557.72325150669803
 20
-509.83703205353629
 30
0.0
 11
557.72325150669803
 21
-252.07413286636108
 31
0.0
  0
LINE
  8
0
  6
CONTINUOUS
 62
               3
  5
1B5
 10
645.22325150669803
 20
-172.07413286636108
 30
0.0
 11
558.22325150669803
 21
-172.0741328663604
 31
0.0
  0
LINE
  8
0
  6
CONTINUOUS
 62
               3
  5
1B6
 10
643.72325150669781
 20
-511.83703205353629
 30
0.0
 11
559.72325150669781
 21
-511.83703205353629
 31
0.0
  0
LINE
  8
0
  6
CONTINUOUS
 62
               3
  5
1B7
 10
645.72325150669781
 20
-509.83703205353629
 30
0.0
 11
643.72325150669781
 21
-511.83703205353629
 31
0.0
  0
LINE
  8
0
  6
CONTINUOUS
 62
               3
  5
1B8
 10
559.72325150669781
 20
-511.83703205353629
 30
0.0
 11
557.72325150669803
 21
-509.83703205353629
 31
0.0
  0
ARC
  8
0
  6
CONTINUOUS
 62
               3
  5
1B9
 10
-56.540437991573121
 20
390.28772000477124
 30
0.0
 40
5.0
 50
2.0000000000029936
 51
87.999999999981995
  0
CIRCLE
  8
0
  6
CONTINUOUS
 62
               3
  5
1BA
 10
-598.27674849330242
 20
-109.9370320535366
 30
0.0
 40
50.850000000000001
  0
CIRCLE
  8
0
  6
CONTINUOUS
 62
               3
  5
1BB
 10
1.7232515066975793
 20
-109.9370320535366
 30
0.0
 40
50.850000000000001
  0
ARC
  8
0
  6
CONTINUOUS
 62
               3
  5
1BC
 10
-533.93866906031712
 20
-51.885464925980614
 30
0.0
 40
5.0
 50
181.99999999996848
 51
267.99999999994884
  0
ARC
  8
0
  6
CONTINUOUS
 62
               3
  5
1BD
 10
-548.64324271747807
 20
-168.50209420825036
 30
0.0
 40
5.0
 50
91.999999999983899
 51
164.99999999996538
  0
LINE
  8
0
  6
CONTINUOUS
 62
               3
  5
1BE
 10
-121.27674849330174
 20
-58.937032053536598
 30
0.0
 11
-62.440330442774894
 21
-56.882419061074131
 31
0.0
  0
LINE
  8
0
  6
CONTINUOUS
 62
               3
  5
1BF
 10
-124.27674849330219
 20
-61.265475927571799
 30
0.0
 11
-123.60519236733785
 21
-61.265475927571799
 31
0.0
  0
LINE
  8
0
  6
CONTINUOUS
 62
               3
  5
1C0
 10
-121.27674849330174
 20
-58.937032053536598
 30
0.0
 11
-123.60519236733785
 21
-61.265475927571799
 31
0.0
  0
LINE
  8
0
  6
CONTINUOUS
 62
               3
  5
1C1
 10
-124.27674849330219
 20
-158.60858817950071
 30
0.0
 11
-123.60519236733785
 21
-158.60858817950071
 31
0.0
  0
LINE
  8
0
  6
CONTINUOUS
 62
               3
  5
1C2
 10
-121.27674849330174
 20
-160.9370320535366
 30
0.0
 11
-123.60519236733785
 21
-158.60858817950071
 31
0.0
  0
LINE
  8
0
  6
CONTINUOUS
 62
               3
  5
1C3
 10
-123.60519236733785
 20
-158.60858817950094
 30
0.0
 11
-123.60519236733785
 21
-61.265475927571799
 31
0.0
  0
LINE
  8
0
  6
CONTINUOUS
 62
               3
  5
1C4
 10
-121.27674849330174
 20
-58.937032053536598
 30
0.0
 11
-121.27674849330174
 21
-160.9370320535366
 31
0.0
  0
LINE
  8
0
  6
CONTINUOUS
 62
               3
  5
1C5
 10
-129.27674849330219
 20
-158.28703205353659
 30
0.0
 11
-129.27674849330219
 21
-61.587032053536596
 31
0.0
  0
LINE
  8
0
  6
CONTINUOUS
 62
               3
  5
1C6
 10
-124.27674849330219
 20
-59.087032053536596
 30
0.0
 11
-124.27674849330219
 21
-160.78703205353659
 31
0.0
  0
LINE
  8
0
  6
CONTINUOUS
 62
               3
  5
1C7
 10
-124.27674849330219
 20
-160.78703205353659
 30
0.0
 11
-126.77674849330219
 21
-160.78703205353659
 31
0.0
  0
LINE
  8
0
  6
CONTINUOUS
 62
               3
  5
1C8
 10
-124.27674849330219
 20
-59.087032053536596
 30
0.0
 11
-126.77674849330219
 21
-59.087032053536596
 31
0.0
  0
ARC
  8
0
  6
CONTINUOUS
 62
               3
  5
1C9
 10
-126.77674849330219
 20
-61.587032053536596
 30
0.0
 40
2.5
 50
89.999999999982862
 51
179.99999999996518
  0
ARC
  8
0
  6
CONTINUOUS
 62
               3
  5
1CA
 10
-126.77674849330219
 20
-158.28703205353659
 30
0.0
 40
2.5
 50
179.99999999996507
 51
269.99999999994793
  0
ARC
  8
0
  6
CONTINUOUS
 62
               3
  5
1CB
 10
-62.614827926287262
 20
-51.885464925980614
 30
0.0
 40
5.0
 50
271.99999999994662
 51
357.99999999992713
  0
LINE
  8
0
  6
CONTINUOUS
 62
               3
  5
1CC
 10
-121.27674849330174
 20
-160.9370320535366
 30
0.0
 11
-47.735756785613717
 21
-163.50514007315516
 31
0.0
  0
LINE
  8
0
  6
CONTINUOUS
 62
               3
  5
1CD
 10
-43.080625137681068
 20
-167.20799898273754
 30
0.0
 11
-41.776748493302193
 21
-172.0741328663604
 31
0.0
  0
ARC
  8
0
  6
CONTINUOUS
 62
               3
  5
1CE
 10
-47.910254269126312
 20
-168.50209420825036
 30
0.0
 40
5.0
 50
14.999999999999829
 51
87.99999999998181
  0
LINE
  8
0
  6
CONTINUOUS
 62
               3
  5
1CF
 10
-55.689446569572965
 20
3.1629679464632545
 30
0.0
 11
-57.617873791191869
 21
-52.059962409493437
 31
0.0
  0
LINE
  8
0
  6
CONTINUOUS
 62
               3
  5
1D0
 10
478.72325150669826
 20
-58.937032053536598
 30
0.0
 11
537.55966955722511
 21
-56.882419061074131
 31
0.0
  0
LINE
  8
0
  6
CONTINUOUS
 62
               3
  5
1D1
 10
475.72325150669781
 20
-61.265475927571799
 30
0.0
 11
476.39480763266215
 21
-61.265475927571799
 31
0.0
  0
LINE
  8
0
  6
CONTINUOUS
 62
               3
  5
1D2
 10
478.72325150669826
 20
-58.937032053536598
 30
0.0
 11
476.39480763266215
 21
-61.265475927571799
 31
0.0
  0
LINE
  8
0
  6
CONTINUOUS
 62
               3
  5
1D3
 10
475.72325150669781
 20
-158.60858817950071
 30
0.0
 11
476.39480763266215
 21
-158.60858817950071
 31
0.0
  0
LINE
  8
0
  6
CONTINUOUS
 62
               3
  5
1D4
 10
478.72325150669826
 20
-160.9370320535366
 30
0.0
 11
476.39480763266215
 21
-158.60858817950071
 31
0.0
  0
LINE
  8
0
  6
CONTINUOUS
 62
               3
  5
1D5
 10
476.39480763266215
 20
-158.60858817950094
 30
0.0
 11
476.39480763266215
 21
-61.265475927571799
 31
0.0
  0
LINE
  8
0
  6
CONTINUOUS
 62
               3
  5
1D6
 10
478.72325150669826
 20
-58.937032053536598
 30
0.0
 11
478.72325150669826
 21
-160.9370320535366
 31
0.0
  0
LINE
  8
0
  6
CONTINUOUS
 62
               3
  5
1D7
 10
470.72325150669781
 20
-158.28703205353659
 30
0.0
 11
470.72325150669781
 21
-61.587032053536596
 31
0.0
  0
LINE
  8
0
  6
CONTINUOUS
 62
               3
  5
1D8
 10
475.72325150669781
 20
-59.087032053536596
 30
0.0
 11
475.72325150669781
 21
-160.78703205353659
 31
0.0
  0
LINE
  8
0
  6
CONTINUOUS
 62
               3
  5
1D9
 10
475.72325150669781
 20
-160.78703205353659
 30
0.0
 11
473.22325150669781
 21
-160.78703205353659
 31
0.0
  0
LINE
  8
0
  6
CONTINUOUS
 62
               3
  5
1DA
 10
475.72325150669781
 20
-59.087032053536596
 30
0.0
 11
473.22325150669781
 21
-59.087032053536596
 31
0.0
  0
ARC
  8
0
  6
CONTINUOUS
 62
               3
  5
1DB
 10
473.22325150669781
 20
-61.587032053536596
 30
0.0
 40
2.5
 50
89.999999999982862
 51
179.99999999996518
  0
ARC
  8
0
  6
CONTINUOUS
 62
               3
  5
1DC
 10
473.22325150669781
 20
-158.28703205353659
 30
0.0
 40
2.5
 50
179.99999999996507
 51
269.99999999994731
  0
ARC
  8
0
  6
CONTINUOUS
 62
               3
  5
1DD
 10
537.38517207371274
 20
-51.885464925980614
 30
0.0
 40
5.0
 50
271.99999999994702
 51
357.99999999992713
  0
LINE
  8
0
  6
CONTINUOUS
 62
               3
  5
1DE
 10
478.72325150669826
 20
-160.9370320535366
 30
0.0
 11
552.26424321438628
 21
-163.50514007315516
 31
0.0
  0
LINE
  8
0
  6
CONTINUOUS
 62
               3
  5
1DF
 10
556.91937486231893
 20
-167.20799898273754
 30
0.0
 11
558.22325150669781
 21
-172.0741328663604
 31
0.0
  0
ARC
  8
0
  6
CONTINUOUS
 62
               3
  5
1E0
 10
552.08974573087369
 20
-168.50209420825036
 30
0.0
 40
5.0
 50
14.999999999999787
 51
87.99999999998181
  0
LINE
  8
0
  6
CONTINUOUS
 62
               3
  5
1E1
 10
544.31055343042703
 20
3.1629679464632545
 30
0.0
 11
542.38212620880813
 21
-52.059962409493437
 31
0.0
  0
LINE
  8
0
  6
CONTINUOUS
 62
               3
  5
1E2
 10
-617.35717039639474
 20
-83.83703205353649
 30
0.0
 11
-579.19632659021022
 21
-83.83703205353649
 31
0.0
  0
CIRCLE
  8
0
  6
CONTINUOUS
 62
               3
  5
1E3
 10
-598.27674849330299
 20
-109.8370320535366
 30
0.0
 40
41.849999999999994
  0
CIRCLE
  8
0
  6
CONTINUOUS
 62
               3
  5
1E4
 10
-598.27674849330299
 20
-109.8370320535366
 30
0.0
 40
40.75
  0
CIRCLE
  8
0
  6
CONTINUOUS
 62
               3
  5
1E5
 10
-598.27674849330242
 20
-109.8370320535366
 30
0.0
 40
36.399999999999999
  0
CIRCLE
  8
0
  6
CONTINUOUS
 62
               3
  5
1E6
 10
-598.27674849330242
 20
-109.8370320535366
 30
0.0
 40
32.25
  0
LINE
  8
0
  6
CONTINUOUS
 62
               3
  5
1E7
 10
-625.32358287368788
 20
-136.88386643392195
 30
0.0
 11
-627.09134982665478
 21
-138.65163338688839
 31
0.0
  0
LINE
  8
0
  6
CONTINUOUS
 62
               3
  5
1E8
 10
-571.22991411292389
 20
-136.88386643392877
 30
0.0
 11
-569.46214715995166
 21
-138.65163338688896
 31
0.0
  0
ARC
  8
0
  6
CONTINUOUS
 62
               3
  5
1E9
 10
-598.27674849330242
 20
-109.8370320535366
 30
0.0
 40
38.25
 50
224.99999999994745
 51
314.99999999992463
  0
LINE
  8
0
  6
CONTINUOUS
 62
               3
  5
1EA
 10
-579.19632659021124
 20
-83.83703205353649
 30
0.0
 11
-617.35717039639576
 21
-83.83703205353649
 31
0.0
  0
CIRCLE
  8
0
  6
CONTINUOUS
 62
               3
  5
1EB
 10
-598.27674849330299
 20
-109.8370320535366
 30
0.0
 40
41.849999999999994
  0
CIRCLE
  8
0
  6
CONTINUOUS
 62
               3
  5
1EC
 10
-598.27674849330299
 20
-109.8370320535366
 30
0.0
 40
40.75
  0
CIRCLE
  8
0
  6
CONTINUOUS
 62
               3
  5
1ED
 10
-598.27674849330356
 20
-109.8370320535366
 30
0.0
 40
36.399999999999999
  0
CIRCLE
  8
0
  6
CONTINUOUS
 62
               3
  5
1EE
 10
-598.27674849330356
 20
-109.8370320535366
 30
0.0
 40
32.25
  0
LINE
  8
0
  6
CONTINUOUS
 62
               3
  5
1EF
 10
-571.2299141129181
 20
-136.88386643392195
 30
0.0
 11
-569.4621471599512
 21
-138.65163338688839
 31
0.0
  0
LINE
  8
0
  6
CONTINUOUS
 62
               3
  5
1F0
 10
-625.32358287368208
 20
-136.88386643392877
 30
0.0
 11
-627.09134982665432
 21
-138.65163338688896
 31
0.0
  0
ARC
  8
0
  6
CONTINUOUS
 62
               3
  5
1F1
 10
-598.27674849330356
 20
-109.8370320535366
 30
0.0
 40
38.25
 50
224.99999999997101
 51
314.9999999999481
  0
LINE
  8
0
  6
CONTINUOUS
 62
               3
  5
1F2
 10
-17.357170396394736
 20
-83.83703205353649
 30
0.0
 11
20.803673409789781
 21
-83.83703205353649
 31
0.0
  0
CIRCLE
  8
0
  6
CONTINUOUS
 62
               3
  5
1F3
 10
1.7232515066970109
 20
-109.8370320535366
 30
0.0
 40
41.849999999999994
  0
CIRCLE
  8
0
  6
CONTINUOUS
 62
               3
  5
1F4
 10
1.7232515066970109
 20
-109.8370320535366
 30
0.0
 40
40.75
  0
CIRCLE
  8
0
  6
CONTINUOUS
 62
               3
  5
1F5
 10
1.7232515066975793
 20
-109.8370320535366
 30
0.0
 40
36.399999999999999
  0
CIRCLE
  8
0
  6
CONTINUOUS
 62
               3
  5
1F6
 10
1.7232515066975793
 20
-109.8370320535366
 30
0.0
 40
32.25
  0
LINE
  8
0
  6
CONTINUOUS
 62
               3
  5
1F7
 10
-25.323582873687883
 20
-136.88386643392195
 30
0.0
 11
-27.091349826654778
 21
-138.65163338688839
 31
0.0
  0
LINE
  8
0
  6
CONTINUOUS
 62
               3
  5
1F8
 10
28.770085887076107
 20
-136.88386643392877
 30
0.0
 11
30.537852840048345
 21
-138.65163338688896
 31
0.0
  0
ARC
  8
0
  6
CONTINUOUS
 62
               3
  5
1F9
 10
1.7232515066975793
 20
-109.8370320535366
 30
0.0
 40
38.25
 50
224.99999999994748
 51
314.99999999992463
  0
LINE
  8
0
  6
CONTINUOUS
 62
               3
  5
1FA
 10
20.803673409788757
 20
-83.83703205353649
 30
0.0
 11
-17.357170396395759
 21
-83.83703205353649
 31
0.0
  0
CIRCLE
  8
0
  6
CONTINUOUS
 62
               3
  5
1FB
 10
1.7232515066970109
 20
-109.8370320535366
 30
0.0
 40
41.849999999999994
  0
CIRCLE
  8
0
  6
CONTINUOUS
 62
               3
  5
1FC
 10
1.7232515066970109
 20
-109.8370320535366
 30
0.0
 40
40.75
  0
CIRCLE
  8
0
  6
CONTINUOUS
 62
               3
  5
1FD
 10
1.7232515066964424
 20
-109.8370320535366
 30
0.0
 40
36.399999999999999
  0
CIRCLE
  8
0
  6
CONTINUOUS
 62
               3
  5
1FE
 10
1.7232515066964424
 20
-109.8370320535366
 30
0.0
 40
32.25
  0
LINE
  8
0
  6
CONTINUOUS
 62
               3
  5
1FF
 10
28.770085887081905
 20
-136.88386643392195
 30
0.0
 11
30.537852840048799
 21
-138.65163338688839
 31
0.0
  0
LINE
  8
0
  6
CONTINUOUS
 62
               3
  5
200
 10
-25.323582873682085
 20
-136.88386643392877
 30
0.0
 11
-27.091349826654323
 21
-138.65163338688896
 31
0.0
  0
ARC
  8
0
  6
CONTINUOUS
 62
               3
  5
201
 10
1.7232515066964424
 20
-109.8370320535366
 30
0.0
 40
38.25
 50
224.99999999997095
 51
314.99999999994816
  0
CIRCLE
  8
0
  6
CONTINUOUS
 62
               3
  5
202
 10
511.00977472300565
 20
-875.80079196293605
 30
0.0
 40
75.0
  0
CIRCLE
  8
0
  6
CONTINUOUS
 62
               3
  5
203
 10
511.00977472300565
 20
-875.80079196293605
 30
0.0
 40
52.5
  0
LINE
  8
0
  6
CONTINUOUS
 62
               3
  5
204
 10
424.79927652238041
 20
-855.80079196293605
 30
0.0
 11
438.72561324900028
 21
-855.80079196293605
 31
0.0
  0
LINE
  8
0
  6
CONTINUOUS
 62
               3
  5
205
 10
438.72561324900028
 20
-895.80079196293605
 30
0.0
 11
424.79927652238041
 21
-895.80079196293605
 31
0.0
  0
ARC
  8
0
  6
CONTINUOUS
 62
               3
  5
206
 10
511.00977472300565
 20
-875.80079196293605
 30
0.0
 40
88.5
 50
166.93897588503955
 51
193.06102411461563
  0
LINE
  8
0
  6
CONTINUOUS
 62
               3
  5
207
 10
491.00977472300565
 20
-962.01129016356094
 30
0.0
 11
491.00977472300565
 21
-948.08495343694108
 31
0.0
  0
LINE
  8
0
  6
CONTINUOUS
 62
               3
  5
208
 10
531.00977472300565
 20
-948.08495343694108
 30
0.0
 11
531.00977472300565
 21
-962.01129016356094
 31
0.0
  0
ARC
  8
0
  6
CONTINUOUS
 62
               3
  5
209
 10
511.00977472300565
 20
-875.80079196293605
 30
0.0
 40
88.5
 50
256.93897588495344
 51
283.06102411452946
  0
LINE
  8
0
  6
CONTINUOUS
 62
               3
  5
20A
 10
597.22027292363032
 20
-895.80079196293605
 30
0.0
 11
583.29393619700988
 21
-895.80079196293605
 31
0.0
  0
LINE
  8
0
  6
CONTINUOUS
 62
               3
  5
20B
 10
583.29393619700988
 20
-855.80079196293605
 30
0.0
 11
597.22027292363032
 21
-855.80079196293605
 31
0.0
  0
ARC
  8
0
  6
CONTINUOUS
 62
               3
  5
20C
 10
511.00977472300565
 20
-875.80079196293605
 30
0.0
 40
88.5
 50
346.93897588486726
 51
373.06102411444328
  0
LINE
  8
0
  6
CONTINUOUS
 62
               3
  5
20D
 10
531.00977472300565
 20
-789.59029376231047
 30
0.0
 11
531.00977472300565
 21
-803.51663048893101
 31
0.0
  0
LINE
  8
0
  6
CONTINUOUS
 62
               3
  5
20E
 10
491.00977472300565
 20
-803.51663048893101
 30
0.0
 11
491.00977472300565
 21
-789.59029376231047
 31
0.0
  0
ARC
  8
0
  6
CONTINUOUS
 62
               3
  5
20F
 10
511.00977472300565
 20
-875.80079196293605
 30
0.0
 40
88.5
 50
76.938975885125799
 51
103.06102411470188
  0
LINE
  8
0
  6
CONTINUOUS
 62
               3
  5
210
 10
463.34165120214459
 20
-897.8007919629365
 30
0.0
 11
558.67789824386557
 21
-897.8007919629365
 31
0.0
  0
ARC
  8
0
  6
CONTINUOUS
 62
               3
  5
211
 10
523.51338637238678
 20
-867.09439433531702
 30
0.0
 40
54.763804151667173
 50
141.38591763670254
 51
145.15009542081478
  0
ARC
  8
0
  6
CONTINUOUS
 62
               3
  5
212
 10
511.00977472300565
 20
-875.80079196293605
 30
0.0
 40
51.5
 50
334.71098847313715
 51
410.95932736324704
  0
ARC
  8
0
  6
CONTINUOUS
 62
               3
  5
213
 10
511.00977472300565
 20
-875.80079196293605
 30
0.0
 40
51.5
 50
129.04067263623631
 51
205.28901152634575
  0
ARC
  8
0
  6
CONTINUOUS
 62
               3
  5
214
 10
511.00977472300565
 20
-875.80079196293605
 30
0.0
 40
77.5
 50
104.95524831654289
 51
128.57288309091018
  0
ARC
  8
0
  6
CONTINUOUS
 62
               3
  5
215
 10
511.00977472300565
 20
-875.80079196293605
 30
0.0
 40
77.5
 50
14.955248316628946
 51
75.044751683284858
  0
ARC
  8
0
  6
CONTINUOUS
 62
               3
  5
216
 10
511.00977472300565
 20
-875.80079196293605
 30
0.0
 40
77.5
 50
321.42711690865838
 51
345.04475168302622
  0
LINE
  8
0
  6
CONTINUOUS
 62
               3
  5
217
 10
371.00977472300565
 20
-930.80079196293605
 30
0.0
 11
371.68133084896988
 21
-930.80079196293605
 31
0.0
  0
LINE
  8
0
  6
CONTINUOUS
 62
               3
  5
218
 10
374.18133084897033
 20
-933.30079196293605
 30
0.0
 11
371.68133084896988
 21
-930.80079196293605
 31
0.0
  0
LINE
  8
0
  6
CONTINUOUS
 62
               3
  5
219
 10
371.00977472300565
 20
-820.80079196293605
 30
0.0
 11
371.68133084896988
 21
-820.80079196293605
 31
0.0
  0
LINE
  8
0
  6
CONTINUOUS
 62
               3
  5
21A
 10
374.18133084896988
 20
-818.30079196293605
 30
0.0
 11
371.68133084896988
 21
-820.80079196293605
 31
0.0
  0
LINE
  8
0
  6
CONTINUOUS
 62
               3
  5
21B
 10
371.68133084896988
 20
-820.80079196293605
 30
0.0
 11
371.68133084896988
 21
-930.80079196293605
 31
0.0
  0
LINE
  8
0
  6
CONTINUOUS
 62
               3
  5
21C
 10
465.51943893662769
 20
-815.11119494459444
 30
0.0
 11
374.18133084896988
 21
-818.30079196293605
 31
0.0
  0
LINE
  8
0
  6
CONTINUOUS
 62
               3
  5
21D
 10
446.1733030064546
 20
-935.81480702790373
 30
0.0
 11
374.18133084897045
 21
-933.30079196293605
 31
0.0
  0
LINE
  8
0
  6
CONTINUOUS
 62
               3
  5
21E
 10
366.00977472300565
 20
-820.97234808890016
 30
0.0
 11
366.00977472300565
 21
-930.90079196293595
 31
0.0
  0
LINE
  8
0
  6
CONTINUOUS
 62
               3
  5
21F
 10
371.00977472300565
 20
-933.40079196293595
 30
0.0
 11
371.00977472300565
 21
-818.20079196293591
 31
0.0
  0
LINE
  8
0
  6
CONTINUOUS
 62
               3
  5
220
 10
371.00977472300565
 20
-818.20079196293591
 30
0.0
 11
368.50977472300565
 21
-818.20079196293591
 31
0.0
  0
LINE
  8
0
  6
CONTINUOUS
 62
               3
  5
221
 10
371.00977472300565
 20
-933.40079196293595
 30
0.0
 11
368.50977472300565
 21
-933.40079196293595
 31
0.0
  0
ARC
  8
0
  6
CONTINUOUS
 62
               3
  5
222
 10
368.50977472300565
 20
-930.90079196293595
 30
0.0
 40
2.5
 50
179.99999999982765
 51
269.99999999974079
  0
ARC
  8
0
  6
CONTINUOUS
 62
               3
  5
223
 10
368.50977472300565
 20
-820.70079196293591
 30
0.0
 40
2.5
 50
89.999999999915119
 51
179.99999999982765
  0
LINE
  8
0
  6
CONTINUOUS
 62
               3
  5
224
 10
478.57137155638804
 20
-835.80079196293627
 30
0.0
 11
511.00977472300565
 21
-835.80079196293627
 31
0.0
  0
LINE
  8
0
  6
CONTINUOUS
 62
               3
  5
225
 10
511.00977472300565
 20
-835.80079196293627
 30
0.0
 11
545.01345099484433
 21
-835.80079196293627
 31
0.0
  0
LINE
  8
0
  6
CONTINUOUS
 62
               3
  5
226
 10
374.18133084897033
 20
-933.30079196293605
 30
0.0
 11
374.18133084896988
 21
-818.30079196293605
 31
0.0
  0
ARC
  8
0
  6
CONTINUOUS
 62
               3
  5
227
 10
465.34494145311521
 20
-810.11424080949882
 30
0.0
 40
5.0
 50
271.99999999973971
 51
304.80675787013507
  0
LINE
  8
0
  6
CONTINUOUS
 62
               3
  5
228
 10
566.00977472300553
 20
-1015.800791962936
 30
0.0
 11
566.00977472300553
 21
-1015.1292358369717
 31
0.0
  0
LINE
  8
0
  6
CONTINUOUS
 62
               3
  5
229
 10
568.50977472300553
 20
-1012.6292358369712
 30
0.0
 11
566.00977472300553
 21
-1015.1292358369717
 31
0.0
  0
LINE
  8
0
  6
CONTINUOUS
 62
               3
  5
22A
 10
456.00977472300553
 20
-1015.800791962936
 30
0.0
 11
456.00977472300553
 21
-1015.1292358369717
 31
0.0
  0
LINE
  8
0
  6
CONTINUOUS
 62
               3
  5
22B
 10
453.50977472300553
 20
-1012.6292358369717
 30
0.0
 11
456.00977472300553
 21
-1015.1292358369717
 31
0.0
  0
LINE
  8
0
  6
CONTINUOUS
 62
               3
  5
22C
 10
456.00977472300553
 20
-1015.1292358369717
 30
0.0
 11
566.00977472300553
 21
-1015.1292358369717
 31
0.0
  0
LINE
  8
0
  6
CONTINUOUS
 62
               3
  5
22D
 10
456.18133084896965
 20
-1020.800791962936
 30
0.0
 11
566.10977472300556
 21
-1020.800791962936
 31
0.0
  0
LINE
  8
0
  6
CONTINUOUS
 62
               3
  5
22E
 10
568.60977472300556
 20
-1015.800791962936
 30
0.0
 11
453.40977472300551
 21
-1015.800791962936
 31
0.0
  0
LINE
  8
0
  6
CONTINUOUS
 62
               3
  5
22F
 10
453.40977472300551
 20
-1015.800791962936
 30
0.0
 11
453.40977472300551
 21
-1018.300791962936
 31
0.0
  0
LINE
  8
0
  6
CONTINUOUS
 62
               3
  5
230
 10
568.60977472300556
 20
-1015.800791962936
 30
0.0
 11
568.60977472300556
 21
-1018.300791962936
 31
0.0
  0
ARC
  8
0
  6
CONTINUOUS
 62
               3
  5
231
 10
566.10977472300556
 20
-1018.300791962936
 30
0.0
 40
2.5
 50
269.99999999974142
 51
359.9999999996553
  0
ARC
  8
0
  6
CONTINUOUS
 62
               3
  5
232
 10
455.90977472300551
 20
-1018.300791962936
 30
0.0
 40
2.5
 50
179.99999999982765
 51
269.99999999974142
  0
LINE
  8
0
  6
CONTINUOUS
 62
               3
  5
233
 10
568.50977472300553
 20
-1012.6292358369712
 30
0.0
 11
453.50977472300553
 21
-1012.6292358369717
 31
0.0
  0
LINE
  8
0
  6
CONTINUOUS
 62
               3
  5
234
 10
571.69937174134668
 20
-921.29112774931446
 30
0.0
 11
568.50977472300553
 21
-1012.6292358369712
 31
0.0
  0
ARC
  8
0
  6
CONTINUOUS
 62
               3
  5
235
 10
576.69632587644219
 20
-921.46562523282705
 30
0.0
 40
5.0
 50
145.19324212943388
 51
177.99999999983041
  0
LINE
  8
0
  6
CONTINUOUS
 62
               3
  5
236
 10
450.99575965803751
 20
-940.63726367948698
 30
0.0
 11
453.50977472300553
 21
-1012.6292358369717
 31
0.0
  0
ARC
  8
0
  6
CONTINUOUS
 62
               3
  5
237
 10
445.99880552294212
 20
-940.81176116299912
 30
0.0
 40
5.0
 50
1.9999999999951679
 51
87.999999999915332
  0
CIRCLE
  8
0
  6
CONTINUOUS
 62
               3
  5
238
 10
511.00977472300565
 20
-875.80079196293605
 30
0.0
 40
59.0
  0
LINE
  8
0
  6
CONTINUOUS
 62
               3
  5
239
 10
436.00977472300565
 20
-1184.3002257115204
 30
0.0
 11
586.00977472300565
 21
-1184.3002257115204
 31
0.0
  0
LINE
  8
0
  6
CONTINUOUS
 62
               3
  5
23A
 10
422.50977472300542
 20
-1194.3002257115204
 30
0.0
 11
422.50977472300542
 21
-1201.3002257115199
 31
0.0
  0
LINE
  8
0
  6
CONTINUOUS
 62
               3
  5
23B
 10
422.50977472300542
 20
-1194.3002257115204
 30
0.0
 11
436.00977472300565
 21
-1184.3002257115204
 31
0.0
  0
ARC
  8
0
  6
CONTINUOUS
 62
               3
  5
23C
 10
434.00977472300576
 20
-1205.8828014064757
 30
0.0
 40
4.9999999999999991
 50
0.0
 51
66.421821521734969
  0
LINE
  8
0
  6
CONTINUOUS
 62
               3
  5
23D
 10
422.50977472300542
 20
-1201.3002257115199
 30
0.0
 11
599.50977472300531
 21
-1201.3002257115199
 31
0.0
  0
ARC
  8
0
  6
CONTINUOUS
 62
               3
  5
23E
 10
456.00977472300565
 20
-1291.3002257115204
 30
0.0
 40
19.999999999999996
 50
148.21166938280612
 51
167.26981986152714
  0
LINE
  8
0
  6
CONTINUOUS
 62
               3
  5
23F
 10
439.00977472300576
 20
-1205.8828014064757
 30
0.0
 11
439.00977472300576
 21
-1280.7645719586676
 31
0.0
  0
LINE
  8
0
  6
CONTINUOUS
 62
               3
  5
240
 10
583.00977472300553
 20
-1275.7645719586671
 30
0.0
 11
583.00977472300553
 21
-1205.8828014064757
 31
0.0
  0
LINE
  8
0
  6
CONTINUOUS
 62
               3
  5
241
 10
439.00977472300576
 20
-1280.7645719586676
 30
0.0
 11
582.50977472300599
 21
-1280.7645719586676
 31
0.0
  0
LINE
  8
0
  6
CONTINUOUS
 62
               3
  5
242
 10
491.00977472300565
 20
-1201.3002257115199
 30
0.0
 11
491.00977472300565
 21
-1184.3002257115204
 31
0.0
  0
LINE
  8
0
  6
CONTINUOUS
 62
               3
  5
243
 10
531.00977472300565
 20
-1184.3002257115204
 30
0.0
 11
531.00977472300565
 21
-1201.3002257115199
 31
0.0
  0
LINE
  8
0
  6
CONTINUOUS
 62
               3
  5
244
 10
491.00977472300565
 20
-1194.3002257115204
 30
0.0
 11
531.00977472300565
 21
-1194.3002257115204
 31
0.0
  0
LINE
  8
0
  6
CONTINUOUS
 62
               3
  5
245
 10
438.72561324900028
 20
-1184.3002257115204
 30
0.0
 11
438.72561324900028
 21
-1201.3002257115199
 31
0.0
  0
LINE
  8
0
  6
CONTINUOUS
 62
               3
  5
246
 10
424.79927652238041
 20
-1194.3002257115204
 30
0.0
 11
424.79927652238041
 21
-1201.3002257115199
 31
0.0
  0
LINE
  8
0
  6
CONTINUOUS
 62
               3
  5
247
 10
422.50977472300542
 20
-1194.3002257115204
 30
0.0
 11
424.79927652238041
 21
-1194.3002257115204
 31
0.0
  0
LINE
  8
0
  6
CONTINUOUS
 62
               3
  5
248
 10
424.79927652238041
 20
-1194.3002257115204
 30
0.0
 11
438.72561324900028
 21
-1184.3002257115204
 31
0.0
  0
LINE
  8
0
  6
CONTINUOUS
 62
               3
  5
249
 10
599.50977472300531
 20
-1194.3002257115204
 30
0.0
 11
599.50977472300531
 21
-1201.3002257115199
 31
0.0
  0
LINE
  8
0
  6
CONTINUOUS
 62
               3
  5
24A
 10
599.50977472300531
 20
-1194.3002257115204
 30
0.0
 11
586.00977472300565
 21
-1184.3002257115204
 31
0.0
  0
ARC
  8
0
  6
CONTINUOUS
 62
               3
  5
24B
 10
588.00977472300553
 20
-1205.8828014064757
 30
0.0
 40
4.9999999999999991
 50
113.57817847809196
 51
179.99999999982765
  0
LINE
  8
0
  6
CONTINUOUS
 62
               3
  5
24C
 10
583.29393619700988
 20
-1184.3002257115204
 30
0.0
 11
583.29393619700988
 21
-1201.3002257115199
 31
0.0
  0
LINE
  8
0
  6
CONTINUOUS
 62
               3
  5
24D
 10
597.22027292363089
 20
-1194.3002257115204
 30
0.0
 11
597.22027292363089
 21
-1201.3002257115199
 31
0.0
  0
LINE
  8
0
  6
CONTINUOUS
 62
               3
  5
24E
 10
599.50977472300531
 20
-1194.3002257115204
 30
0.0
 11
597.22027292363089
 21
-1194.3002257115204
 31
0.0
  0
LINE
  8
0
  6
CONTINUOUS
 62
               3
  5
24F
 10
597.22027292363089
 20
-1194.3002257115204
 30
0.0
 11
583.29393619700988
 21
-1184.3002257115204
 31
0.0
  0
ARC
  8
0
  6
CONTINUOUS
 62
               3
  5
250
 10
446.00977472300565
 20
-1412.8002257115204
 30
0.0
 40
2.4999999999999996
 50
89.999999999913825
 51
269.99999999974142
  0
ARC
  8
0
  6
CONTINUOUS
 62
               3
  5
251
 10
586.00977472300565
 20
-1412.8002257115204
 30
0.0
 40
2.4999999999999996
 50
269.99999999974142
 51
449.99999999956907
  0
LINE
  8
0
  6
CONTINUOUS
 62
               3
  5
252
 10
371.00977472300565
 20
-1405.3002257115204
 30
0.0
 11
371.68133084896999
 21
-1405.3002257115204
 31
0.0
  0
LINE
  8
0
  6
CONTINUOUS
 62
               3
  5
253
 10
374.18133084897011
 20
-1407.8002257115197
 30
0.0
 11
371.68133084896999
 21
-1405.3002257115204
 31
0.0
  0
LINE
  8
0
  6
CONTINUOUS
 62
               3
  5
254
 10
374.1813308489709
 20
-1407.8002257115204
 30
0.0
 11
416.34644110524823
 21
-1409.2726638073746
 31
0.0
  0
LINE
  8
0
  6
CONTINUOUS
 62
               3
  5
255
 10
434.54530862893819
 20
-1425.5719151378064
 30
0.0
 11
419.7074775276684
 21
-1410.7340840365371
 31
0.0
  0
ARC
  8
0
  6
CONTINUOUS
 62
               3
  5
256
 10
431.00977472300565
 20
-1429.1074490437395
 30
0.0
 40
4.9999999999999991
 50
0.0
 51
44.999999999956145
  0
LINE
  8
0
  6
CONTINUOUS
 62
               3
  5
257
 10
371.00977472300565
 20
-1295.3002257115204
 30
0.0
 11
371.68133084896999
 21
-1295.3002257115204
 31
0.0
  0
LINE
  8
0
  6
CONTINUOUS
 62
               3
  5
258
 10
374.18133084897011
 20
-1292.8002257115204
 30
0.0
 11
371.68133084896999
 21
-1295.3002257115204
 31
0.0
  0
LINE
  8
0
  6
CONTINUOUS
 62
               3
  5
259
 10
374.18133084896999
 20
-1292.8002257115204
 30
0.0
 11
431.79880705114431
 21
-1290.788179106368
 31
0.0
  0
LINE
  8
0
  6
CONTINUOUS
 62
               3
  5
25A
 10
371.68133084896999
 20
-1295.3002257115204
 30
0.0
 11
371.68133084896999
 21
-1405.3002257115204
 31
0.0
  0
LINE
  8
0
  6
CONTINUOUS
 62
               3
  5
25B
 10
371.00977472300565
 20
-1407.9002257115203
 30
0.0
 11
371.00977472300565
 21
-1292.7002257115205
 31
0.0
  0
LINE
  8
0
  6
CONTINUOUS
 62
               3
  5
25C
 10
371.00977472300565
 20
-1292.7002257115205
 30
0.0
 11
368.50977472300565
 21
-1292.7002257115205
 31
0.0
  0
ARC
  8
0
  6
CONTINUOUS
 62
               3
  5
25D
 10
368.50977472300565
 20
-1295.2002257115205
 30
0.0
 40
2.5
 50
89.999999999915119
 51
179.99999999982504
  0
LINE
  8
0
  6
CONTINUOUS
 62
               3
  5
25E
 10
366.00977472300565
 20
-1295.2002257115205
 30
0.0
 11
366.00977472300565
 21
-1405.4002257115203
 31
0.0
  0
LINE
  8
0
  6
CONTINUOUS
 62
               3
  5
25F
 10
371.00977472300565
 20
-1407.9002257115203
 30
0.0
 11
368.50977472300565
 21
-1407.9002257115203
 31
0.0
  0
ARC
  8
0
  6
CONTINUOUS
 62
               3
  5
260
 10
368.50977472300565
 20
-1405.4002257115203
 30
0.0
 40
2.5
 50
179.99999999982504
 51
269.99999999974079
  0
LINE
  8
0
  6
CONTINUOUS
 62
               3
  5
261
 10
374.18133084897011
 20
-1292.8002257115204
 30
0.0
 11
374.1813308489709
 21
-1407.8002257115204
 31
0.0
  0
ARC
  8
0
  6
CONTINUOUS
 62
               3
  5
262
 10
416.17194362173575
 20
-1414.2696179424699
 30
0.0
 40
5.0
 50
44.999999999959599
 51
87.999999999915318
  0
ARC
  8
0
  6
CONTINUOUS
 62
               3
  5
263
 10
431.62430956763183
 20
-1285.7912249712726
 30
0.0
 40
5.0
 50
271.99999999973971
 51
347.26981986135308
  0
CIRCLE
  8
0
  6
CONTINUOUS
 62
               3
  5
264
 10
511.00977472300565
 20
-1350.3002257115204
 30
0.0
 40
48.5
  0
CIRCLE
  8
0
  6
CONTINUOUS
 62
               3
  5
265
 10
511.00977472300565
 20
-1350.3002257115204
 30
0.0
 40
47.299999999999997
  0
LINE
  8
0
  6
CONTINUOUS
 62
               3
  5
266
 10
479.18996956961109
 20
-1382.120030864915
 30
0.0
 11
477.56362397288194
 21
-1383.7463764616441
 31
0.0
  0
LINE
  8
0
  6
CONTINUOUS
 62
               3
  5
267
 10
542.82957987640032
 20
-1382.120030864915
 30
0.0
 11
544.45592547312935
 21
-1383.7463764616441
 31
0.0
  0
ARC
  8
0
  6
CONTINUOUS
 62
               3
  5
268
 10
511.00977472300565
 20
-1350.3002257115204
 30
0.0
 40
45.0
 50
224.99999999978439
 51
314.9999999996985
  0
CIRCLE
  8
0
  6
CONTINUOUS
 62
               3
  5
269
 10
511.00977472300565
 20
-1350.3002257115204
 30
0.0
 40
57.600000000000001
  0
ARC
  8
0
  6
CONTINUOUS
 62
               3
  5
26A
 10
488.50977472300622
 20
-1412.8002257115204
 30
0.0
 40
2.4999999999999996
 50
269.99999999974142
 51
449.99999999956907
  0
ARC
  8
0
  6
CONTINUOUS
 62
               3
  5
26B
 10
533.50977472300622
 20
-1412.8002257115204
 30
0.0
 40
2.4999999999999996
 50
89.999999999912518
 51
269.99999999974142
  0
LINE
  8
0
  6
CONTINUOUS
 62
               3
  5
26C
 10
446.00977472300565
 20
-1415.3002257115204
 30
0.0
 11
488.50977472300622
 21
-1415.3002257115204
 31
0.0
  0
LINE
  8
0
  6
CONTINUOUS
 62
               3
  5
26D
 10
446.00977472300565
 20
-1410.3002257115204
 30
0.0
 11
488.50977472300622
 21
-1410.3002257115204
 31
0.0
  0
LINE
  8
0
  6
CONTINUOUS
 62
               3
  5
26E
 10
533.50977472300622
 20
-1410.3002257115204
 30
0.0
 11
586.00977472300565
 21
-1410.3002257115204
 31
0.0
  0
LINE
  8
0
  6
CONTINUOUS
 62
               3
  5
26F
 10
533.50977472300622
 20
-1415.3002257115204
 30
0.0
 11
586.00977472300565
 21
-1415.3002257115204
 31
0.0
  0
LINE
  8
0
  6
DASHDOT
 62
               4
  5
270
 10
1.7232515066978067
 20
-529.55140950304246
 30
0.0
 11
1.7232515066978067
 21
25.2321671814301
 31
0.0
  0
LINE
  8
0
  6
DASHDOT
 62
               4
  5
271
 10
82.723251506697807
 20
448.55140950304201
 30
0.0
 11
-149.27674849330219
 21
448.55140950304349
 31
0.0
  0
LINE
  8
0
  6
DASHDOT
 62
               4
  5
272
 10
1.7232515066978078
 20
297.55140950304246
 30
0.0
 11
1.7232515066978067
 21
529.55140950304246
 31
0.0
  0
LINE
  8
0
  6
DASHDOT
 62
               4
  5
273
 10
-598.27674849330219
 20
-529.55140950304246
 30
0.0
 11
-598.27674849330219
 21
25.2321671814301
 31
0.0
  0
LINE
  8
0
  6
DASHDOT
 62
               4
  5
274
 10
601.72325150669781
 20
-529.55140950304246
 30
0.0
 11
601.72325150669781
 21
25.2321671814301
 31
0.0
  0
LINE
  8
0
  6
DASHDOT
 62
               4
  5
275
 10
-661.54687060464744
 20
-109.8370320535366
 30
0.0
 11
-447.27674849330219
 21
-109.8370320535366
 31
0.0
  0
LINE
  8
0
  6
DASHDOT
 62
               4
  5
276
 10
-146.27674849330208
 20
-109.9370320535366
 30
0.0
 11
72.573251506697574
 21
-109.9370320535366
 31
0.0
  0
LINE
  8
0
  6
DASHDOT
 62
               4
  5
277
 10
453.72325150669826
 20
-109.76547592757248
 30
0.0
 11
553.72325150669826
 21
-109.76547592757248
 31
0.0
  0
LINE
  8
0
  6
DASHDOT
 62
               4
  5
278
 10
-98.276748493302193
 20
-972.3370320535364
 30
0.0
 11
-98.276748493302136
 21
-856.3370320535364
 31
0.0
  0
LINE
  8
0
  6
DASHDOT
 62
               4
  5
279
 10
-156.27674849330214
 20
-914.3370320535364
 30
0.0
 11
-40.276748493302136
 21
-914.3370320535364
 31
0.0
  0
LINE
  8
0
  6
DASHDOT
 62
               4
  5
27A
 10
-148.27674849330214
 20
-922.3370320535364
 30
0.0
 11
-48.276748493302136
 21
-922.3370320535364
 31
0.0
  0
LINE
  8
0
  6
DASHDOT
 62
               4
  5
27B
 10
-262.20297674989109
 20
-922.3370320535364
 30
0.0
 11
-196.73368092982173
 21
-922.3370320535364
 31
0.0
  0
LINE
  8
0
  6
DASHDOT
 62
               4
  5
27C
 10
-320.77674849330214
 20
-914.3370320535364
 30
0.0
 11
-222.17674849330206
 21
-914.3370320535364
 31
0.0
  0
LINE
  8
0
  6
DASHDOT
 62
               4
  5
27D
 10
65.649479763286791
 20
-922.33703205353663
 30
0.0
 11
0.1801839432174575
 21
-922.3370320535364
 31
0.0
  0
LINE
  8
0
  6
DASHDOT
 62
               4
  5
27E
 10
124.22325150669786
 20
-914.33703205353663
 30
0.0
 11
25.623251506697784
 21
-914.3370320535364
 31
0.0
  0
LINE
  8
0
  6
DASHDOT
 62
               4
  5
27F
 10
-98.276748493302193
 20
-691.8370320535364
 30
0.0
 11
-98.276748493302193
 21
-815.88009961701664
 31
0.0
  0
LINE
  8
0
  6
DASHDOT
 62
               4
  5
280
 10
511.00977472300565
 20
-767.30079196293605
 30
0.0
 11
511.00977472300565
 21
-1037.8475787627624
 31
0.0
  0
LINE
  8
0
  6
DASHDOT
 62
               4
  5
281
 10
349.00977472300576
 20
-875.80079196293605
 30
0.0
 11
619.50977472300588
 21
-875.80079196293605
 31
0.0
  0
LINE
  8
0
  6
DASHDOT
 62
               4
  5
282
 10
511.00977472300565
 20
-1066.4007919629362
 30
0.0
 11
511.00977472300565
 21
-942.80079196293582
 31
0.0
  0
LINE
  8
0
  6
DASHDOT
 62
               4
  5
283
 10
311.00977472300588
 20
-875.80079196293582
 30
0.0
 11
444.00977472300588
 21
-875.80079196293582
 31
0.0
  0
LINE
  8
0
  6
DASHDOT
 62
               4
  5
284
 10
579.53499949823038
 20
-1350.3002257115204
 30
0.0
 11
349.28116142957742
 21
-1350.3002257115204
 31
0.0
  0
LINE
  8
0
  6
DASHDOT
 62
               4
  5
285
 10
511.00977472300565
 20
-1164.3002257115204
 30
0.0
 11
511.00977472300565
 21
-1415.3002257115204
 31
0.0
  0
LINE
  8
0
  6
DASHDOT
 62
               4
  5
286
 10
461.00977472300565
 20
-1364.8002257115204
 30
0.0
 11
561.00977472300588
 21
-1364.8002257115204
 31
0.0
  0
LINE
  8
0
  6
DASHDOT
 62
               4
  5
287
 10
311.00977472300565
 20
-1356.8002257115204
 30
0.0
 11
385.40977472300563
 21
-1356.8002257115204
 31
0.0
  0
LINE
  8
0
  6
DASHED2
 62
               4
  5
288
 10
46.223251506697807
 20
-46.837032053536518
 30
0.0
 11
-42.776748493302193
 21
-46.837032053536518
 31
0.0
  0
LINE
  8
0
  6
DASHED2
 62
               4
  5
289
 10
-642.77674849330174
 20
-46.837032053536518
 30
0.0
 11
-553.77674849330174
 21
-46.837032053536518
 31
0.0
  0
LINE
  8
0
  6
DASHED2
 62
               4
  5
28A
 10
646.22325150669781
 20
-46.837032053536518
 30
0.0
 11
557.22325150669781
 21
-46.837032053536518
 31
0.0
  0
LINE
  8
0
  6
DASHED2
 62
               4
  5
28B
 10
454.00977472300576
 20
-1249.3002257115204
 30
0.0
 11
568.00977472300553
 21
-1249.3002257115204
 31
0.0
  0
POINT
  8
0
  6
CONTINUOUS
 62
               4
  5
28C
 10
-242.77674849330202
 20
-863.33703205353618
 30
0.0
  0
POINT
  8
0
  6
CONTINUOUS
 62
               4
  5
28D
 10
46.223251506697807
 20
-863.3370320535364
 30
0.0
  0
POINT
  8
0
  6
CONTINUOUS
 62
               4
  5
28E
 10
-47.276748493302023
 20
-769.8370320535364
 30
0.0
  0
POINT
  8
0
  6
CONTINUOUS
 62
               4
  5
28F
 10
555.50977472300565
 20
-1020.2007919629361
 30
0.0
  0
POINT
  8
0
  6
CONTINUOUS
 62
               4
  5
290
 10
366.60977472300578
 20
-920.30079196293582
 30
0.0
  0
LINE
  8
0
  6
CONTINUOUS
 62
               4
  5
291
 10
588.00977472300553
 20
-1280.7645719586676
 30
0.0
 11
583.00977472300553
 21
-1275.7645719586676
 31
0.0
  0
ARC
  8
0
  6
CONTINUOUS
 62
               4
  5
292
 10
565.50977472300553
 20
-1291.3002257115204
 30
0.0
 40
19.999999999999996
 50
0.0
 51
31.788330617021131
  0
LINE
  8
0
  6
CONTINUOUS
 62
               4
  5
293
 10
582.50977472300599
 20
-1280.7645719586676
 30
0.0
 11
582.50977472300599
 21
-1275.7645719586671
 31
0.0
  0
LINE
  8
0
  6
CONTINUOUS
 62
               4
  5
294
 10
583.00977472300553
 20
-1275.7645719586676
 30
0.0
 11
582.50977472300599
 21
-1275.7645719586676
 31
0.0
  0
LINE
  8
0
  6
CONTINUOUS
 62
               4
  5
295
 10
587.75977472300576
 20
-1281.0145719586676
 30
0.0
 11
582.50977472300599
 21
-1275.7645719586676
 31
0.0
  0
LINE
  8
0
  6
CONTINUOUS
 62
               4
  5
296
 10
587.75977472300576
 20
-1281.0145719586676
 30
0.0
 11
588.00977472300553
 21
-1280.7645719586676
 31
0.0
  0
LINE
  8
0
  6
CONTINUOUS
 62
               4
  5
297
 10
588.00977472300553
 20
-1280.7645719586676
 30
0.0
 11
588.00977472300553
 21
-1411.4532493086374
 31
0.0
  0
LINE
  8
0
  6
CONTINUOUS
 62
               4
  5
298
 10
587.75977472300576
 20
-1281.0145719586676
 30
0.0
 11
587.75977472300576
 21
-1411.1678922015019
 31
0.0
  0
LINE
  8
0
  6
CONTINUOUS
 62
               4
  5
299
 10
585.50977472300553
 20
-1291.1472021144032
 30
0.0
 11
585.50977472300553
 21
-1410.3002257115204
 31
0.0
  0
POINT
  8
0
  6
CONTINUOUS
 62
               4
  5
29A
 10
366.60977472300567
 20
-1305.8002257115204
 30
0.0
  0
CIRCLE
  8
0
  6
DASHED
 62
               4
  5
29B
 10
-98.276748493302193
 20
-914.3370320535364
 30
0.0
 40
33.5
  0
POINT
  8
0
  6
CONTINUOUS
 62
               5
  5
29C
 10
-98.276748493302136
 20
-907.8370320535364
 30
0.0
  0
POINT
  8
0
  6
CONTINUOUS
 62
               5
  5
29D
 10
-271.50682000326236
 20
-909.12782612842511
 30
0.0
  0
POINT
  8
0
  6
CONTINUOUS
 62
               5
  5
29E
 10
74.953323016658146
 20
-909.12782612842534
 30
0.0
  0
POINT
  8
0
  6
CONTINUOUS
 62
               5
  5
29F
 10
-93.067542568191072
 20
-741.10696054357618
 30
0.0
  0
POINT
  8
0
  6
CONTINUOUS
 62
               5
  5
2A0
 10
394.7398462329661
 20
-874.50999788804688
 30
0.0
  0
POINT
  8
0
  6
CONTINUOUS
 62
               5
  5
2A1
 10
394.73984623296599
 20
-1351.5910197864093
 30
0.0
  0
CIRCLE
  8
0
  6
CONTINUOUS
 62
               7
  5
2A2
 10
-98.276748493302136
 20
-914.3370320535364
 30
0.0
 40
38.0
  0
LINE
  8
0
  6
CONTINUOUS
 62
               7
  5
2A3
 10
-242.77674849330202
 20
-876.33703205353618
 30
0.0
 11
-242.77674849330214
 21
-952.33179593286172
 31
0.0
  0
LINE
  8
0
  6
CONTINUOUS
 62
               7
  5
2A4
 10
-242.77674849330202
 20
-863.33703205353618
 30
0.0
 11
-242.17674849330206
 21
-863.33703205353618
 31
0.0
  0
LINE
  8
0
  6
CONTINUOUS
 62
               7
  5
2A5
 10
-300.77674849330214
 20
-951.33703205353618
 30
0.0
 11
-300.77674849330214
 21
-877.33703205353618
 31
0.0
  0
LINE
  8
0
  6
CONTINUOUS
 62
               7
  5
2A6
 10
-242.77674849330214
 20
-952.33703205353618
 30
0.0
 11
-218.17674849330206
 21
-952.33703205353618
 31
0.0
  0
LINE
  8
0
  6
CONTINUOUS
 62
               7
  5
2A7
 10
-300.77674849330214
 20
-951.33703205353618
 30
0.0
 11
-299.77674849330214
 21
-952.33703205353618
 31
0.0
  0
LINE
  8
0
  6
CONTINUOUS
 62
               7
  5
2A8
 10
-299.77674849330214
 20
-876.33703205353618
 30
0.0
 11
-242.77674849330202
 21
-876.33703205353618
 31
0.0
  0
LINE
  8
0
  6
CONTINUOUS
 62
               7
  5
2A9
 10
-207.77674849330214
 20
-951.33703205353618
 30
0.0
 11
-208.77674849330214
 21
-952.33703205353618
 31
0.0
  0
CIRCLE
  8
0
  6
CONTINUOUS
 62
               7
  5
2AA
 10
-98.276748493302193
 20
-922.3370320535364
 30
0.0
 40
30.0
  0
CIRCLE
  8
0
  6
CONTINUOUS
 62
               7
  5
2AB
 10
-98.276748493302193
 20
-922.3370320535364
 30
0.0
 40
0.1981604108525852
  0
CIRCLE
  8
0
  6
CONTINUOUS
 62
               7
  5
2AC
 10
-98.276748493302193
 20
-922.3370320535364
 30
0.0
 40
25.5
  0
LINE
  8
0
  6
CONTINUOUS
 62
               7
  5
2AD
 10
-217.17674849330206
 20
-951.33703205353618
 30
0.0
 11
-217.17674849330206
 21
-893.3370320535364
 31
0.0
  0
LINE
  8
0
  6
CONTINUOUS
 62
               7
  5
2AE
 10
-242.77674849330202
 20
-892.3370320535364
 30
0.0
 11
-218.17674849330206
 21
-892.3370320535364
 31
0.0
  0
LINE
  8
0
  6
CONTINUOUS
 62
               7
  5
2AF
 10
-242.77674849330214
 20
-952.33179593286172
 30
0.0
 11
-299.77674849330214
 21
-952.33703205353618
 31
0.0
  0
LINE
  8
0
  6
CONTINUOUS
 62
               7
  5
2B0
 10
-299.77674849330214
 20
-876.33703205353618
 30
0.0
 11
-300.77674849330214
 21
-877.33703205353618
 31
0.0
  0
LINE
  8
0
  6
CONTINUOUS
 62
               7
  5
2B1
 10
-218.17674849330206
 20
-892.3370320535364
 30
0.0
 11
-217.17674849330206
 21
-893.3370320535364
 31
0.0
  0
LINE
  8
0
  6
CONTINUOUS
 62
               7
  5
2B2
 10
-217.17674849330206
 20
-951.33703205353618
 30
0.0
 11
-218.17674849330206
 21
-952.33703205353618
 31
0.0
  0
LINE
  8
0
  6
CONTINUOUS
 62
               7
  5
2B3
 10
46.223251506697807
 20
-876.3370320535364
 30
0.0
 11
46.223251506697778
 21
-952.33179593286195
 31
0.0
  0
LINE
  8
0
  6
CONTINUOUS
 62
               7
  5
2B4
 10
46.223251506697807
 20
-863.3370320535364
 30
0.0
 11
45.623251506697841
 21
-863.3370320535364
 31
0.0
  0
LINE
  8
0
  6
CONTINUOUS
 62
               7
  5
2B5
 10
104.22325150669781
 20
-951.3370320535364
 30
0.0
 11
104.22325150669789
 21
-877.3370320535364
 31
0.0
  0
LINE
  8
0
  6
CONTINUOUS
 62
               7
  5
2B6
 10
46.223251506697778
 20
-952.3370320535364
 30
0.0
 11
21.623251506697727
 21
-952.3370320535364
 31
0.0
  0
LINE
  8
0
  6
CONTINUOUS
 62
               7
  5
2B7
 10
104.22325150669781
 20
-951.3370320535364
 30
0.0
 11
103.22325150669781
 21
-952.3370320535364
 31
0.0
  0
LINE
  8
0
  6
CONTINUOUS
 62
               7
  5
2B8
 10
103.22325150669789
 20
-876.3370320535364
 30
0.0
 11
46.223251506697807
 21
-876.3370320535364
 31
0.0
  0
LINE
  8
0
  6
CONTINUOUS
 62
               7
  5
2B9
 10
11.223251506697807
 20
-951.3370320535364
 30
0.0
 11
12.223251506697807
 21
-952.3370320535364
 31
0.0
  0
LINE
  8
0
  6
CONTINUOUS
 62
               7
  5
2BA
 10
20.623251506697727
 20
-951.3370320535364
 30
0.0
 11
20.623251506697784
 21
-893.3370320535364
 31
0.0
  0
LINE
  8
0
  6
CONTINUOUS
 62
               7
  5
2BB
 10
46.223251506697778
 20
-892.3370320535364
 30
0.0
 11
21.623251506697784
 21
-892.3370320535364
 31
0.0
  0
LINE
  8
0
  6
CONTINUOUS
 62
               7
  5
2BC
 10
46.223251506697778
 20
-952.33179593286195
 30
0.0
 11
103.22325150669781
 21
-952.3370320535364
 31
0.0
  0
LINE
  8
0
  6
CONTINUOUS
 62
               7
  5
2BD
 10
103.22325150669789
 20
-876.3370320535364
 30
0.0
 11
104.22325150669789
 21
-877.3370320535364
 31
0.0
  0
LINE
  8
0
  6
CONTINUOUS
 62
               7
  5
2BE
 10
21.623251506697784
 20
-892.3370320535364
 30
0.0
 11
20.623251506697784
 21
-893.3370320535364
 31
0.0
  0
LINE
  8
0
  6
CONTINUOUS
 62
               7
  5
2BF
 10
20.623251506697727
 20
-951.3370320535364
 30
0.0
 11
21.623251506697727
 21
-952.3370320535364
 31
0.0
  0
LINE
  8
0
  6
CONTINUOUS
 62
               7
  5
2C0
 10
-60.276748493302023
 20
-769.8370320535364
 30
0.0
 11
-136.27151237262757
 21
-769.8370320535364
 31
0.0
  0
LINE
  8
0
  6
CONTINUOUS
 62
               7
  5
2C1
 10
-47.276748493302023
 20
-769.2370320535365
 30
0.0
 11
-47.276748493302023
 21
-769.8370320535364
 31
0.0
  0
LINE
  8
0
  6
CONTINUOUS
 62
               7
  5
2C2
 10
-135.27674849330197
 20
-711.8370320535364
 30
0.0
 11
-61.276748493301966
 21
-711.8370320535364
 31
0.0
  0
LINE
  8
0
  6
CONTINUOUS
 62
               7
  5
2C3
 10
-128.27674849330202
 20
-769.8370320535364
 30
0.0
 11
-128.27674849330202
 21
-794.43703205353654
 31
0.0
  0
LINE
  8
0
  6
CONTINUOUS
 62
               7
  5
2C4
 10
-135.27674849330197
 20
-711.8370320535364
 30
0.0
 11
-136.27674849330197
 21
-712.8370320535364
 31
0.0
  0
LINE
  8
0
  6
CONTINUOUS
 62
               7
  5
2C5
 10
-60.276748493301966
 20
-712.8370320535364
 30
0.0
 11
-60.276748493302023
 21
-769.8370320535364
 31
0.0
  0
LINE
  8
0
  6
CONTINUOUS
 62
               7
  5
2C6
 10
-127.27674849330208
 20
-804.8370320535364
 30
0.0
 11
-128.27674849330208
 21
-803.8370320535364
 31
0.0
  0
LINE
  8
0
  6
CONTINUOUS
 62
               7
  5
2C7
 10
-127.27674849330202
 20
-795.43703205353654
 30
0.0
 11
-69.276748493302193
 21
-795.43703205353654
 31
0.0
  0
LINE
  8
0
  6
CONTINUOUS
 62
               7
  5
2C8
 10
-68.276748493302193
 20
-769.8370320535364
 30
0.0
 11
-68.276748493302193
 21
-794.43703205353654
 31
0.0
  0
LINE
  8
0
  6
CONTINUOUS
 62
               7
  5
2C9
 10
-136.27151237262757
 20
-769.8370320535364
 30
0.0
 11
-136.27674849330197
 21
-712.8370320535364
 31
0.0
  0
LINE
  8
0
  6
CONTINUOUS
 62
               7
  5
2CA
 10
-60.276748493301966
 20
-712.8370320535364
 30
0.0
 11
-61.276748493301966
 21
-711.8370320535364
 31
0.0
  0
LINE
  8
0
  6
CONTINUOUS
 62
               7
  5
2CB
 10
-68.276748493302193
 20
-794.43703205353654
 30
0.0
 11
-69.276748493302193
 21
-795.43703205353654
 31
0.0
  0
LINE
  8
0
  6
CONTINUOUS
 62
               7
  5
2CC
 10
-127.27674849330202
 20
-795.43703205353654
 30
0.0
 11
-128.27674849330202
 21
-794.43703205353654
 31
0.0
  0
LINE
  8
0
  6
CONTINUOUS
 62
               7
  5
2CD
 10
482.00977472300565
 20
-1046.400791962936
 30
0.0
 11
540.00977472300565
 21
-1046.400791962936
 31
0.0
  0
LINE
  8
0
  6
CONTINUOUS
 62
               7
  5
2CE
 10
555.50977472300565
 20
-1020.800791962936
 30
0.0
 11
466.50977472300565
 21
-1020.800791962936
 31
0.0
  0
LINE
  8
0
  6
CONTINUOUS
 62
               7
  5
2CF
 10
555.50977472300565
 20
-1020.2007919629361
 30
0.0
 11
555.50977472300565
 21
-1020.800791962936
 31
0.0
  0
LINE
  8
0
  6
CONTINUOUS
 62
               7
  5
2D0
 10
467.50977472300565
 20
-962.80079196293582
 30
0.0
 11
554.50977472300565
 21
-962.80079196293582
 31
0.0
  0
LINE
  8
0
  6
CONTINUOUS
 62
               7
  5
2D1
 10
555.50977472300565
 20
-1020.6663402174556
 30
0.0
 11
555.50977472300565
 21
-963.80079196293582
 31
0.0
  0
LINE
  8
0
  6
CONTINUOUS
 62
               7
  5
2D2
 10
481.00977472300565
 20
-1045.400791962936
 30
0.0
 11
481.00977472300565
 21
-1020.800791962936
 31
0.0
  0
LINE
  8
0
  6
CONTINUOUS
 62
               7
  5
2D3
 10
541.00977472300565
 20
-1045.400791962936
 30
0.0
 11
541.00977472300565
 21
-1020.800791962936
 31
0.0
  0
LINE
  8
0
  6
CONTINUOUS
 62
               7
  5
2D4
 10
541.00977472300565
 20
-1045.400791962936
 30
0.0
 11
540.00977472300565
 21
-1046.400791962936
 31
0.0
  0
LINE
  8
0
  6
CONTINUOUS
 62
               7
  5
2D5
 10
555.50977472300565
 20
-963.80079196293582
 30
0.0
 11
554.50977472300565
 21
-962.80079196293582
 31
0.0
  0
LINE
  8
0
  6
CONTINUOUS
 62
               7
  5
2D6
 10
482.00977472300565
 20
-1046.400791962936
 30
0.0
 11
481.00977472300565
 21
-1045.400791962936
 31
0.0
  0
LINE
  8
0
  6
CONTINUOUS
 62
               7
  5
2D7
 10
467.50977472300565
 20
-962.80079196293582
 30
0.0
 11
466.50977472300565
 21
-963.80079196293582
 31
0.0
  0
LINE
  8
0
  6
CONTINUOUS
 62
               7
  5
2D8
 10
466.50977472300565
 20
-1020.6663402174556
 30
0.0
 11
466.50977472300565
 21
-963.80079196293582
 31
0.0
  0
LINE
  8
0
  6
CONTINUOUS
 62
               7
  5
2D9
 10
366.00977472300565
 20
-920.30079196293582
 30
0.0
 11
366.00977472300588
 21
-831.30602808361027
 31
0.0
  0
LINE
  8
0
  6
CONTINUOUS
 62
               7
  5
2DA
 10
366.60977472300578
 20
-920.30079196293582
 30
0.0
 11
366.00977472300565
 21
-920.30079196293582
 31
0.0
  0
LINE
  8
0
  6
CONTINUOUS
 62
               7
  5
2DB
 10
331.00977472300588
 20
-838.80079196293582
 30
0.0
 11
331.00977472300565
 21
-912.80079196293582
 31
0.0
  0
LINE
  8
0
  6
CONTINUOUS
 62
               7
  5
2DC
 10
424.00977472300588
 20
-832.30079196293605
 30
0.0
 11
424.00977472300565
 21
-919.30079196293582
 31
0.0
  0
LINE
  8
0
  6
CONTINUOUS
 62
               7
  5
2DD
 10
366.00977472300565
 20
-920.30079196293582
 30
0.0
 11
423.00977472300565
 21
-920.30079196293582
 31
0.0
  0
LINE
  8
0
  6
CONTINUOUS
 62
               7
  5
2DE
 10
332.00977472300588
 20
-837.80079196293582
 30
0.0
 11
366.00977472300588
 21
-837.80079196293582
 31
0.0
  0
LINE
  8
0
  6
CONTINUOUS
 62
               7
  5
2DF
 10
423.00977472300565
 20
-920.30079196293582
 30
0.0
 11
424.00977472300565
 21
-919.30079196293582
 31
0.0
  0
LINE
  8
0
  6
CONTINUOUS
 62
               7
  5
2E0
 10
424.00977472300588
 20
-832.30079196293605
 30
0.0
 11
423.00977472300588
 21
-831.30079196293605
 31
0.0
  0
LINE
  8
0
  6
CONTINUOUS
 62
               7
  5
2E1
 10
332.00977472300565
 20
-913.80079196293582
 30
0.0
 11
366.00977472300588
 21
-913.80079196293582
 31
0.0
  0
LINE
  8
0
  6
CONTINUOUS
 62
               7
  5
2E2
 10
332.00977472300565
 20
-913.80079196293582
 30
0.0
 11
331.00977472300565
 21
-912.80079196293582
 31
0.0
  0
LINE
  8
0
  6
CONTINUOUS
 62
               7
  5
2E3
 10
331.00977472300588
 20
-838.80079196293582
 30
0.0
 11
332.00977472300588
 21
-837.80079196293582
 31
0.0
  0
LINE
  8
0
  6
CONTINUOUS
 62
               7
  5
2E4
 10
366.00977472300588
 20
-831.30079196293582
 30
0.0
 11
423.00977472300588
 21
-831.30079196293582
 31
0.0
  0
CIRCLE
  8
0
  6
CONTINUOUS
 62
               7
  5
2E5
 10
511.00977472300565
 20
-1364.8002257115204
 30
0.0
 40
25.5
  0
CIRCLE
  8
0
  6
CONTINUOUS
 62
               7
  5
2E6
 10
511.00977472300565
 20
-1350.3002257115204
 30
0.0
 40
44.5
  0
CIRCLE
  8
0
  6
CONTINUOUS
 62
               7
  5
2E7
 10
511.00977472300565
 20
-1364.8002257115204
 30
0.0
 40
30.0
  0
LINE
  8
0
  6
CONTINUOUS
 62
               7
  5
2E8
 10
366.00977472300565
 20
-1305.8002257115204
 30
0.0
 11
366.00977472300565
 21
-1394.7949895908459
 31
0.0
  0
LINE
  8
0
  6
CONTINUOUS
 62
               7
  5
2E9
 10
366.60977472300567
 20
-1305.8002257115204
 30
0.0
 11
366.00977472300565
 21
-1305.8002257115204
 31
0.0
  0
LINE
  8
0
  6
CONTINUOUS
 62
               7
  5
2EA
 10
331.00977472300565
 20
-1393.8002257115204
 30
0.0
 11
331.00977472300565
 21
-1319.8002257115204
 31
0.0
  0
LINE
  8
0
  6
CONTINUOUS
 62
               7
  5
2EB
 10
424.00977472300565
 20
-1393.8002257115204
 30
0.0
 11
424.00977472300565
 21
-1306.8002257115204
 31
0.0
  0
LINE
  8
0
  6
CONTINUOUS
 62
               7
  5
2EC
 10
366.00977472300565
 20
-1305.8002257115204
 30
0.0
 11
423.00977472300565
 21
-1305.8002257115204
 31
0.0
  0
LINE
  8
0
  6
CONTINUOUS
 62
               7
  5
2ED
 10
332.00977472300565
 20
-1394.8002257115204
 30
0.0
 11
423.00977472300565
 21
-1394.8002257115204
 31
0.0
  0
LINE
  8
0
  6
CONTINUOUS
 62
               7
  5
2EE
 10
423.00977472300565
 20
-1305.8002257115204
 30
0.0
 11
424.00977472300565
 21
-1306.8002257115204
 31
0.0
  0
LINE
  8
0
  6
CONTINUOUS
 62
               7
  5
2EF
 10
424.00977472300565
 20
-1393.8002257115204
 30
0.0
 11
423.00977472300565
 21
-1394.8002257115204
 31
0.0
  0
LINE
  8
0
  6
CONTINUOUS
 62
               7
  5
2F0
 10
332.00977472300565
 20
-1318.8002257115204
 30
0.0
 11
366.00977472300565
 21
-1318.8002257115204
 31
0.0
  0
LINE
  8
0
  6
CONTINUOUS
 62
               7
  5
2F1
 10
332.00977472300565
 20
-1318.8002257115204
 30
0.0
 11
331.00977472300565
 21
-1319.8002257115204
 31
0.0
  0
LINE
  8
0
  6
CONTINUOUS
 62
               7
  5
2F2
 10
331.00977472300565
 20
-1393.8002257115204
 30
0.0
 11
332.00977472300565
 21
-1394.8002257115204
 31
0.0
  0
CIRCLE
  8
0
  6
DASHED
 62
               7
  5
2F3
 10
511.00977472300565
 20
-1350.3002257115204
 30
0.0
 40
40.0
  0
TEXT
  8
0
 62
               3
  5
2F4
 10
-98.276748493302193
 20
-998.8370320535364
 30
0.0
 40
40.0
  1
EMB_65×50
 41
0.8
 72
               1
 11
-98.276748493302193
 21
-998.8370320535364
 31
0.0
 73
               3
  0
TEXT
  8
0
 62
               3
  5
2F5
 10
-96.432214685400083
 20
-620.92223847781906
 30
0.0
 40
40.0
  1
横枝管に呼び５０の管を接続するときは、EMBをご使用ください。
 41
0.8
 72
               1
 11
-96.432214685400083
 21
-620.92223847781906
 31
0.0
 73
               3
  0
TEXT
  8
0
 62
               3
  5
2F6
 10
507.31237074536534
 20
-696.35442345771662
 30
0.0
 40
40.0
  1
EMB使用例
 41
0.8
 72
               1
 11
507.31237074536534
 21
-696.35442345771662
 31
0.0
 73
               3
  0
ENDSEC
  0
EOF
