  0
SECTION
  2
HEADER
  9
$ACADVER
  1
AC1009
  9
$INSBASE
 10
0.0
 20
0.0
 30
0.0
  9
$EXTMIN
 10
-317.81039503701675
 20
-290.35362242953681
 30
0.0
  9
$EXTMAX
 10
324.71946828188067
 20
465.13927355045644
 30
0.0
  9
$LIMMIN
 10
-337.8894532657323
 20
-313.96277542891158
  9
$LIMMAX
 10
344.79852651059622
 20
488.74842654983121
  9
$ORTHOMODE
 70
               0
  9
$REGENMODE
 70
               1
  9
$FILLMODE
 70
               1
  9
$QTEXTMODE
 70
               0
  9
$MIRRTEXT
 70
               1
  9
$DRAGMODE
 70
               2
  9
$LTSCALE
 40
1.0
  9
$OSMODE
 70
               0
  9
$ATTMODE
 70
               1
  9
$TEXTSIZE
 40
0.2
  9
$TRACEWID
 40
0.05
  9
$TEXTSTYLE
  7
STANDARD
  9
$CLAYER
  8
0
  9
$CELTYPE
  6
CONTINUOUS
  9
$CECOLOR
 62
             256
  9
$DIMSCALE
 40
1.0
  9
$DIMASZ
 40
0.18
  9
$DIMEXO
 40
0.0625
  9
$DIMDLI
 40
0.38
  9
$DIMRND
 40
0.0
  9
$DIMDLE
 40
0.0
  9
$DIMEXE
 40
0.18
  9
$DIMTP
 40
0.0
  9
$DIMTM
 40
0.0
  9
$DIMTXT
 40
0.18
  9
$DIMCEN
 40
0.09
  9
$DIMTSZ
 40
0.0
  9
$DIMTOL
 70
               0
  9
$DIMLIM
 70
               0
  9
$DIMTIH
 70
               1
  9
$DIMTOH
 70
               1
  9
$DIMSE1
 70
               0
  9
$DIMSE2
 70
               0
  9
$DIMTAD
 70
               0
  9
$DIMZIN
 70
               0
  9
$DIMBLK
  1

  9
$DIMASO
 70
               1
  9
$DIMSHO
 70
               1
  9
$DIMPOST
  1

  9
$DIMAPOST
  1

  9
$DIMALT
 70
               0
  9
$DIMALTD
 70
               2
  9
$DIMALTF
 40
25.399999999999999
  9
$DIMLFAC
 40
1.0
  9
$DIMTOFL
 70
               0
  9
$DIMTVP
 40
0.0
  9
$DIMTIX
 70
               0
  9
$DIMSOXD
 70
               0
  9
$DIMSAH
 70
               0
  9
$DIMBLK1
  1

  9
$DIMBLK2
  1

  9
$DIMSTYLE
  2
STANDARD
  9
$DIMCLRD
 70
               0
  9
$DIMCLRE
 70
               0
  9
$DIMCLRT
 70
               0
  9
$DIMTFAC
 40
1.0
  9
$DIMGAP
 40
0.09
  9
$LUNITS
 70
               2
  9
$LUPREC
 70
               4
  9
$AXISMODE
 70
               0
  9
$AXISUNIT
 10
0.0
 20
0.0
  9
$SKETCHINC
 40
0.1
  9
$FILLETRAD
 40
0.0
  9
$AUNITS
 70
               0
  9
$AUPREC
 70
               0
  9
$MENU
  1
acad
  9
$ELEVATION
 40
0.0
  9
$PELEVATION
 40
0.0
  9
$THICKNESS
 40
0.0
  9
$LIMCHECK
 70
               0
  9
$BLIPMODE
 70
               1
  9
$CHAMFERA
 40
0.0
  9
$CHAMFERB
 40
0.0
  9
$SKPOLY
 70
               0
  9
$TDCREATE
 40
0.000000000
  9
$TDUPDATE
 40
0.000000000
  9
$TDINDWG
 40
0.0000000000
  9
$TDUSRTIMER
 40
0.0000000000
  9
$USRTIMER
 70
               1
  9
$ANGBASE
 50
0.0
  9
$ANGDIR
 70
               0
  9
$PDMODE
 70
               0
  9
$PDSIZE
 40
1.0
  9
$PLINEWID
 40
0.0
  9
$COORDS
 70
               1
  9
$SPLFRAME
 70
               0
  9
$SPLINETYPE
 70
               6
  9
$SPLINESEGS
 70
               8
  9
$ATTDIA
 70
               0
  9
$ATTREQ
 70
               1
  9
$HANDLING
 70
               1
  9
$HANDSEED
  5
1E7
  9
$SURFTAB1
 70
               6
  9
$SURFTAB2
 70
               6
  9
$SURFTYPE
 70
               6
  9
$SURFU
 70
               6
  9
$SURFV
 70
               6
  9
$UCSNAME
  2

  9
$UCSORG
 10
0.0
 20
0.0
 30
0.0
  9
$UCSXDIR
 10
1.0
 20
0.0
 30
0.0
  9
$UCSYDIR
 10
0.0
 20
1.0
 30
0.0
  9
$PUCSNAME
  2

  9
$PUCSORG
 10
0.0
 20
0.0
 30
0.0
  9
$PUCSXDIR
 10
1.0
 20
0.0
 30
0.0
  9
$PUCSYDIR
 10
0.0
 20
1.0
 30
0.0
  9
$USERI1
 70
               0
  9
$USERI2
 70
               0
  9
$USERI3
 70
               0
  9
$USERI4
 70
               0
  9
$USERI5
 70
               0
  9
$USERR1
 40
0.0
  9
$USERR2
 40
0.0
  9
$USERR3
 40
0.0
  9
$USERR4
 40
0.0
  9
$USERR5
 40
0.0
  9
$WORLDVIEW
 70
               1
  9
$SHADEDGE
 70
               3
  9
$SHADEDIF
 70
              70
  9
$TILEMODE
 70
               1
  9
$MAXACTVP
 70
              16
  9
$PINSBASE
 10
0.0
 20
0.0
 30
0.0
  9
$PLIMCHECK
 70
               0
  9
$PEXTMIN
 10
1.0000000000000000E+20
 20
1.0000000000000000E+20
 30
1.0000000000000000E+20
  9
$PEXTMAX
 10
-1.0000000000000000E+20
 20
-1.0000000000000000E+20
 30
-1.0000000000000000E+20
  9
$PLIMMIN
 10
0.0
 20
0.0
  9
$PLIMMAX
 10
12.0
 20
9.0
  9
$UNITMODE
 70
               0
  9
$VISRETAIN
 70
               0
  9
$PLINEGEN
 70
               1
  9
$PSLTSCALE
 70
               0
  9
$TREEDEPTH
 70
            3020
  9
$DWGCODEPAGE
  3
dos932
  0
ENDSEC
  0
SECTION
  2
TABLES
  0
TABLE
  2
VPORT
 70
               1
  0
VPORT
  2
*ACTIVE
 70
               0
 10
0.0
 20
0.0
 11
1.0
 21
1.0
 12
3.4545366224319594
 22
87.392825560459812
 13
0.0
 23
0.0
 14
1.0
 24
1.0
 15
0.0
 25
0.0
 16
0.0
 26
0.0
 36
1.0
 17
0.0
 27
0.0
 37
0.0
 40
802.71120197874279
 41
0.8504777036790466
 42
50.0
 43
0.0
 44
0.0
 50
0.0
 51
0.0
 71
               0
 72
             100
 73
               1
 74
               1
 75
               0
 76
               0
 77
               0
 78
               0
  0
ENDTAB
  0
TABLE
  2
LTYPE
 70
              26
  0
LTYPE
  2
CONTINUOUS
 70
               0
  3
Solid line
 72
              65
 73
               0
 40
0.0
  0
LTYPE
  2
HIDDENX2
 70
               0
  3
CADPAC FUSION LINETYPE
 72
              65
 73
               2
 40
33.640000000000001
 49
25.23
 49
-8.4100000000000001
  0
LTYPE
  2
HIDDEN
 70
               0
  3
CADPAC FUSION LINETYPE
 72
              65
 73
               2
 40
25.23
 49
16.82
 49
-8.4100000000000001
  0
LTYPE
  2
HIDDEN2
 70
               0
  3
CADPAC FUSION LINETYPE
 72
              65
 73
               2
 40
21.024999999999999
 49
12.615
 49
-8.4100000000000001
  0
LTYPE
  2
DASHED
 70
               0
  3
CADPAC FUSION LINETYPE
 72
              65
 73
               2
 40
25.23
 49
16.82
 49
-8.4100000000000001
  0
LTYPE
  2
DASHED2
 70
               0
  3
CADPAC FUSION LINETYPE
 72
              65
 73
               2
 40
18.922499999999999
 49
12.615
 49
-6.3075000000000001
  0
LTYPE
  2
DASHEDX2
 70
               0
  3
CADPAC FUSION LINETYPE
 72
              65
 73
               2
 40
37.844999999999999
 49
25.23
 49
-12.615
  0
LTYPE
  2
DOTX2
 70
               0
  3
CADPAC FUSION LINETYPE
 72
              65
 73
               2
 40
10.512499999999999
 49
0.0
 49
-10.512499999999999
  0
LTYPE
  2
DOT
 70
               0
  3
CADPAC FUSION LINETYPE
 72
              65
 73
               2
 40
8.4100000000000001
 49
0.0
 49
-8.4100000000000001
  0
LTYPE
  2
DOTS
 70
               0
  3
CADPAC FUSION LINETYPE
 72
              65
 73
               2
 40
8.4100000000000001
 49
0.0
 49
-8.4100000000000001
  0
LTYPE
  2
DOT2
 70
               0
  3
CADPAC FUSION LINETYPE
 72
              65
 73
               2
 40
6.3075000000000001
 49
0.0
 49
-6.3075000000000001
  0
LTYPE
  2
CENTERX2
 70
               0
  3
CADPAC FUSION LINETYPE
 72
              65
 73
               4
 40
50.459999999999994
 49
21.024999999999999
 49
-10.512499999999999
 49
8.4100000000000001
 49
-10.512499999999999
  0
LTYPE
  2
CENTER
 70
               0
  3
CADPAC FUSION LINETYPE
 72
              65
 73
               4
 40
38.686
 49
16.82
 49
-8.4100000000000001
 49
5.0460000000000003
 49
-8.4100000000000001
  0
LTYPE
  2
CENTER2
 70
               0
  3
CADPAC FUSION LINETYPE
 72
              65
 73
               4
 40
26.911999999999999
 49
12.615
 49
-6.3075000000000001
 49
1.6820000000000002
 49
-6.3075000000000001
  0
LTYPE
  2
DASHDOTX2
 70
               0
  3
CADPAC FUSION LINETYPE
 72
              65
 73
               4
 40
42.049999999999997
 49
21.024999999999999
 49
-10.512499999999999
 49
0.0
 49
-10.512499999999999
  0
LTYPE
  2
DASHDOT
 70
               0
  3
CADPAC FUSION LINETYPE
 72
              65
 73
               4
 40
33.640000000000001
 49
16.82
 49
-8.4100000000000001
 49
0.0
 49
-8.4100000000000001
  0
LTYPE
  2
DASHDOT2
 70
               0
  3
CADPAC FUSION LINETYPE
 72
              65
 73
               4
 40
25.23
 49
12.615
 49
-6.3075000000000001
 49
0.0
 49
-6.3075000000000001
  0
LTYPE
  2
DIVIDEX2
 70
               0
  3
CADPAC FUSION LINETYPE
 72
              65
 73
               6
 40
52.5625
 49
21.024999999999999
 49
-10.512499999999999
 49
0.0
 49
-10.512499999999999
 49
0.0
 49
-10.512499999999999
  0
LTYPE
  2
DIVIDE
 70
               0
  3
CADPAC FUSION LINETYPE
 72
              65
 73
               6
 40
42.049999999999997
 49
16.82
 49
-8.4100000000000001
 49
0.0
 49
-8.4100000000000001
 49
0.0
 49
-8.4100000000000001
  0
LTYPE
  2
DIVIDE2
 70
               0
  3
CADPAC FUSION LINETYPE
 72
              65
 73
               6
 40
31.537500000000001
 49
12.615
 49
-6.3075000000000001
 49
0.0
 49
-6.3075000000000001
 49
0.0
 49
-6.3075000000000001
  0
LTYPE
  2
BORDERX2
 70
               0
  3
CADPAC FUSION LINETYPE
 72
              65
 73
               6
 40
73.587499999999991
 49
21.024999999999999
 49
-10.512499999999999
 49
21.024999999999999
 49
-10.512499999999999
 49
0.0
 49
-10.512499999999999
  0
LTYPE
  2
BORDER
 70
               0
  3
CADPAC FUSION LINETYPE
 72
              65
 73
               6
 40
58.870000000000005
 49
16.82
 49
-8.4100000000000001
 49
16.82
 49
-8.4100000000000001
 49
0.0
 49
-8.4100000000000001
  0
LTYPE
  2
BORDER2
 70
               0
  3
CADPAC FUSION LINETYPE
 72
              65
 73
               6
 40
44.152499999999996
 49
12.615
 49
-6.3075000000000001
 49
12.615
 49
-6.3075000000000001
 49
0.0
 49
-6.3075000000000001
  0
LTYPE
  2
PHANTOMX2
 70
               0
  3
CADPAC FUSION LINETYPE
 72
              65
 73
               6
 40
63.074999999999996
 49
21.024999999999999
 49
-8.4100000000000001
 49
8.4100000000000001
 49
-8.4100000000000001
 49
8.4100000000000001
 49
-8.4100000000000001
  0
LTYPE
  2
PHANTOM
 70
               0
  3
CADPAC FUSION LINETYPE
 72
              65
 73
               6
 40
52.141999999999996
 49
16.82
 49
-8.4100000000000001
 49
5.0460000000000003
 49
-8.4100000000000001
 49
5.0460000000000003
 49
-8.4100000000000001
  0
LTYPE
  2
PHANTOM2
 70
               0
  3
CADPAC FUSION LINETYPE
 72
              65
 73
               6
 40
44.573
 49
12.615
 49
-8.4100000000000001
 49
3.3640000000000003
 49
-8.4100000000000001
 49
3.3640000000000003
 49
-8.4100000000000001
  0
ENDTAB
  0
TABLE
  2
LAYER
 70
             256
  0
LAYER
  2
0
 70
               0
 62
               7
  6
CONTINUOUS
  0
LAYER
  2
LAYER001
 70
               0
 62
               7
  6
CONTINUOUS
  0
LAYER
  2
LAYER002
 70
               0
 62
               7
  6
CONTINUOUS
  0
LAYER
  2
LAYER003
 70
               0
 62
               7
  6
CONTINUOUS
  0
LAYER
  2
LAYER004
 70
               0
 62
               7
  6
CONTINUOUS
  0
LAYER
  2
LAYER005
 70
               0
 62
               7
  6
CONTINUOUS
  0
LAYER
  2
LAYER006
 70
               0
 62
               7
  6
CONTINUOUS
  0
LAYER
  2
LAYER007
 70
               0
 62
               7
  6
CONTINUOUS
  0
LAYER
  2
LAYER008
 70
               0
 62
               7
  6
CONTINUOUS
  0
LAYER
  2
LAYER009
 70
               0
 62
               7
  6
CONTINUOUS
  0
LAYER
  2
LAYER010
 70
               0
 62
               7
  6
CONTINUOUS
  0
LAYER
  2
LAYER011
 70
               0
 62
               7
  6
CONTINUOUS
  0
LAYER
  2
LAYER012
 70
               0
 62
               7
  6
CONTINUOUS
  0
LAYER
  2
LAYER013
 70
               0
 62
               7
  6
CONTINUOUS
  0
LAYER
  2
LAYER014
 70
               0
 62
               7
  6
CONTINUOUS
  0
LAYER
  2
LAYER015
 70
               0
 62
               7
  6
CONTINUOUS
  0
LAYER
  2
LAYER016
 70
               0
 62
               7
  6
CONTINUOUS
  0
LAYER
  2
LAYER017
 70
               0
 62
               7
  6
CONTINUOUS
  0
LAYER
  2
LAYER018
 70
               0
 62
               7
  6
CONTINUOUS
  0
LAYER
  2
LAYER019
 70
               0
 62
               7
  6
CONTINUOUS
  0
LAYER
  2
LAYER020
 70
               0
 62
               7
  6
CONTINUOUS
  0
LAYER
  2
LAYER021
 70
               0
 62
               7
  6
CONTINUOUS
  0
LAYER
  2
LAYER022
 70
               0
 62
               7
  6
CONTINUOUS
  0
LAYER
  2
LAYER023
 70
               0
 62
               7
  6
CONTINUOUS
  0
LAYER
  2
LAYER024
 70
               0
 62
               7
  6
CONTINUOUS
  0
LAYER
  2
LAYER025
 70
               0
 62
               7
  6
CONTINUOUS
  0
LAYER
  2
LAYER026
 70
               0
 62
               7
  6
CONTINUOUS
  0
LAYER
  2
LAYER027
 70
               0
 62
               7
  6
CONTINUOUS
  0
LAYER
  2
LAYER028
 70
               0
 62
               7
  6
CONTINUOUS
  0
LAYER
  2
LAYER029
 70
               0
 62
               7
  6
CONTINUOUS
  0
LAYER
  2
LAYER030
 70
               0
 62
               7
  6
CONTINUOUS
  0
LAYER
  2
LAYER031
 70
               0
 62
               7
  6
CONTINUOUS
  0
LAYER
  2
LAYER032
 70
               0
 62
               7
  6
CONTINUOUS
  0
LAYER
  2
LAYER033
 70
               0
 62
               7
  6
CONTINUOUS
  0
LAYER
  2
LAYER034
 70
               0
 62
               7
  6
CONTINUOUS
  0
LAYER
  2
LAYER035
 70
               0
 62
               7
  6
CONTINUOUS
  0
LAYER
  2
LAYER036
 70
               0
 62
               7
  6
CONTINUOUS
  0
LAYER
  2
LAYER037
 70
               0
 62
               7
  6
CONTINUOUS
  0
LAYER
  2
LAYER038
 70
               0
 62
               7
  6
CONTINUOUS
  0
LAYER
  2
LAYER039
 70
               0
 62
               7
  6
CONTINUOUS
  0
LAYER
  2
LAYER040
 70
               0
 62
               7
  6
CONTINUOUS
  0
LAYER
  2
LAYER041
 70
               0
 62
               7
  6
CONTINUOUS
  0
LAYER
  2
LAYER042
 70
               0
 62
               7
  6
CONTINUOUS
  0
LAYER
  2
LAYER043
 70
               0
 62
               7
  6
CONTINUOUS
  0
LAYER
  2
LAYER044
 70
               0
 62
               7
  6
CONTINUOUS
  0
LAYER
  2
LAYER045
 70
               0
 62
               7
  6
CONTINUOUS
  0
LAYER
  2
LAYER046
 70
               0
 62
               7
  6
CONTINUOUS
  0
LAYER
  2
LAYER047
 70
               0
 62
               7
  6
CONTINUOUS
  0
LAYER
  2
LAYER048
 70
               0
 62
               7
  6
CONTINUOUS
  0
LAYER
  2
LAYER049
 70
               0
 62
               7
  6
CONTINUOUS
  0
LAYER
  2
LAYER050
 70
               0
 62
               7
  6
CONTINUOUS
  0
LAYER
  2
LAYER051
 70
               0
 62
               7
  6
CONTINUOUS
  0
LAYER
  2
LAYER052
 70
               0
 62
               7
  6
CONTINUOUS
  0
LAYER
  2
LAYER053
 70
               0
 62
               7
  6
CONTINUOUS
  0
LAYER
  2
LAYER054
 70
               0
 62
               7
  6
CONTINUOUS
  0
LAYER
  2
LAYER055
 70
               0
 62
               7
  6
CONTINUOUS
  0
LAYER
  2
LAYER056
 70
               0
 62
               7
  6
CONTINUOUS
  0
LAYER
  2
LAYER057
 70
               0
 62
               7
  6
CONTINUOUS
  0
LAYER
  2
LAYER058
 70
               0
 62
               7
  6
CONTINUOUS
  0
LAYER
  2
LAYER059
 70
               0
 62
               7
  6
CONTINUOUS
  0
LAYER
  2
LAYER060
 70
               0
 62
               7
  6
CONTINUOUS
  0
LAYER
  2
LAYER061
 70
               0
 62
               7
  6
CONTINUOUS
  0
LAYER
  2
LAYER062
 70
               0
 62
               7
  6
CONTINUOUS
  0
LAYER
  2
LAYER063
 70
               0
 62
               7
  6
CONTINUOUS
  0
LAYER
  2
LAYER064
 70
               0
 62
               7
  6
CONTINUOUS
  0
LAYER
  2
LAYER065
 70
               0
 62
               7
  6
CONTINUOUS
  0
LAYER
  2
LAYER066
 70
               0
 62
               7
  6
CONTINUOUS
  0
LAYER
  2
LAYER067
 70
               0
 62
               7
  6
CONTINUOUS
  0
LAYER
  2
LAYER068
 70
               0
 62
               7
  6
CONTINUOUS
  0
LAYER
  2
LAYER069
 70
               0
 62
               7
  6
CONTINUOUS
  0
LAYER
  2
LAYER070
 70
               0
 62
               7
  6
CONTINUOUS
  0
LAYER
  2
LAYER071
 70
               0
 62
               7
  6
CONTINUOUS
  0
LAYER
  2
LAYER072
 70
               0
 62
               7
  6
CONTINUOUS
  0
LAYER
  2
LAYER073
 70
               0
 62
               7
  6
CONTINUOUS
  0
LAYER
  2
LAYER074
 70
               0
 62
               7
  6
CONTINUOUS
  0
LAYER
  2
LAYER075
 70
               0
 62
               7
  6
CONTINUOUS
  0
LAYER
  2
LAYER076
 70
               0
 62
               7
  6
CONTINUOUS
  0
LAYER
  2
LAYER077
 70
               0
 62
               7
  6
CONTINUOUS
  0
LAYER
  2
LAYER078
 70
               0
 62
               7
  6
CONTINUOUS
  0
LAYER
  2
LAYER079
 70
               0
 62
               7
  6
CONTINUOUS
  0
LAYER
  2
LAYER080
 70
               0
 62
               7
  6
CONTINUOUS
  0
LAYER
  2
LAYER081
 70
               0
 62
               7
  6
CONTINUOUS
  0
LAYER
  2
LAYER082
 70
               0
 62
               7
  6
CONTINUOUS
  0
LAYER
  2
LAYER083
 70
               0
 62
               7
  6
CONTINUOUS
  0
LAYER
  2
LAYER084
 70
               0
 62
               7
  6
CONTINUOUS
  0
LAYER
  2
LAYER085
 70
               0
 62
               7
  6
CONTINUOUS
  0
LAYER
  2
LAYER086
 70
               0
 62
               7
  6
CONTINUOUS
  0
LAYER
  2
LAYER087
 70
               0
 62
               7
  6
CONTINUOUS
  0
LAYER
  2
LAYER088
 70
               0
 62
               7
  6
CONTINUOUS
  0
LAYER
  2
LAYER089
 70
               0
 62
               7
  6
CONTINUOUS
  0
LAYER
  2
LAYER090
 70
               0
 62
               7
  6
CONTINUOUS
  0
LAYER
  2
LAYER091
 70
               0
 62
               7
  6
CONTINUOUS
  0
LAYER
  2
LAYER092
 70
               0
 62
               7
  6
CONTINUOUS
  0
LAYER
  2
LAYER093
 70
               0
 62
               7
  6
CONTINUOUS
  0
LAYER
  2
LAYER094
 70
               0
 62
               7
  6
CONTINUOUS
  0
LAYER
  2
LAYER095
 70
               0
 62
               7
  6
CONTINUOUS
  0
LAYER
  2
LAYER096
 70
               0
 62
               7
  6
CONTINUOUS
  0
LAYER
  2
LAYER097
 70
               0
 62
               7
  6
CONTINUOUS
  0
LAYER
  2
LAYER098
 70
               0
 62
               7
  6
CONTINUOUS
  0
LAYER
  2
LAYER099
 70
               0
 62
               7
  6
CONTINUOUS
  0
LAYER
  2
LAYER100
 70
               0
 62
               7
  6
CONTINUOUS
  0
LAYER
  2
LAYER101
 70
               0
 62
               7
  6
CONTINUOUS
  0
LAYER
  2
LAYER102
 70
               0
 62
               7
  6
CONTINUOUS
  0
LAYER
  2
LAYER103
 70
               0
 62
               7
  6
CONTINUOUS
  0
LAYER
  2
LAYER104
 70
               0
 62
               7
  6
CONTINUOUS
  0
LAYER
  2
LAYER105
 70
               0
 62
               7
  6
CONTINUOUS
  0
LAYER
  2
LAYER106
 70
               0
 62
               7
  6
CONTINUOUS
  0
LAYER
  2
LAYER107
 70
               0
 62
               7
  6
CONTINUOUS
  0
LAYER
  2
LAYER108
 70
               0
 62
               7
  6
CONTINUOUS
  0
LAYER
  2
LAYER109
 70
               0
 62
               7
  6
CONTINUOUS
  0
LAYER
  2
LAYER110
 70
               0
 62
               7
  6
CONTINUOUS
  0
LAYER
  2
LAYER111
 70
               0
 62
               7
  6
CONTINUOUS
  0
LAYER
  2
LAYER112
 70
               0
 62
               7
  6
CONTINUOUS
  0
LAYER
  2
LAYER113
 70
               0
 62
               7
  6
CONTINUOUS
  0
LAYER
  2
LAYER114
 70
               0
 62
               7
  6
CONTINUOUS
  0
LAYER
  2
LAYER115
 70
               0
 62
               7
  6
CONTINUOUS
  0
LAYER
  2
LAYER116
 70
               0
 62
               7
  6
CONTINUOUS
  0
LAYER
  2
LAYER117
 70
               0
 62
               7
  6
CONTINUOUS
  0
LAYER
  2
LAYER118
 70
               0
 62
               7
  6
CONTINUOUS
  0
LAYER
  2
LAYER119
 70
               0
 62
               7
  6
CONTINUOUS
  0
LAYER
  2
LAYER120
 70
               0
 62
               7
  6
CONTINUOUS
  0
LAYER
  2
LAYER121
 70
               0
 62
               7
  6
CONTINUOUS
  0
LAYER
  2
LAYER122
 70
               0
 62
               7
  6
CONTINUOUS
  0
LAYER
  2
LAYER123
 70
               0
 62
               7
  6
CONTINUOUS
  0
LAYER
  2
LAYER124
 70
               0
 62
               7
  6
CONTINUOUS
  0
LAYER
  2
LAYER125
 70
               0
 62
               7
  6
CONTINUOUS
  0
LAYER
  2
LAYER126
 70
               0
 62
               7
  6
CONTINUOUS
  0
LAYER
  2
LAYER127
 70
               0
 62
               7
  6
CONTINUOUS
  0
LAYER
  2
LAYER128
 70
               0
 62
               7
  6
CONTINUOUS
  0
LAYER
  2
LAYER129
 70
               0
 62
               7
  6
CONTINUOUS
  0
LAYER
  2
LAYER130
 70
               0
 62
               7
  6
CONTINUOUS
  0
LAYER
  2
LAYER131
 70
               0
 62
               7
  6
CONTINUOUS
  0
LAYER
  2
LAYER132
 70
               0
 62
               7
  6
CONTINUOUS
  0
LAYER
  2
LAYER133
 70
               0
 62
               7
  6
CONTINUOUS
  0
LAYER
  2
LAYER134
 70
               0
 62
               7
  6
CONTINUOUS
  0
LAYER
  2
LAYER135
 70
               0
 62
               7
  6
CONTINUOUS
  0
LAYER
  2
LAYER136
 70
               0
 62
               7
  6
CONTINUOUS
  0
LAYER
  2
LAYER137
 70
               0
 62
               7
  6
CONTINUOUS
  0
LAYER
  2
LAYER138
 70
               0
 62
               7
  6
CONTINUOUS
  0
LAYER
  2
LAYER139
 70
               0
 62
               7
  6
CONTINUOUS
  0
LAYER
  2
LAYER140
 70
               0
 62
               7
  6
CONTINUOUS
  0
LAYER
  2
LAYER141
 70
               0
 62
               7
  6
CONTINUOUS
  0
LAYER
  2
LAYER142
 70
               0
 62
               7
  6
CONTINUOUS
  0
LAYER
  2
LAYER143
 70
               0
 62
               7
  6
CONTINUOUS
  0
LAYER
  2
LAYER144
 70
               0
 62
               7
  6
CONTINUOUS
  0
LAYER
  2
LAYER145
 70
               0
 62
               7
  6
CONTINUOUS
  0
LAYER
  2
LAYER146
 70
               0
 62
               7
  6
CONTINUOUS
  0
LAYER
  2
LAYER147
 70
               0
 62
               7
  6
CONTINUOUS
  0
LAYER
  2
LAYER148
 70
               0
 62
               7
  6
CONTINUOUS
  0
LAYER
  2
LAYER149
 70
               0
 62
               7
  6
CONTINUOUS
  0
LAYER
  2
LAYER150
 70
               0
 62
               7
  6
CONTINUOUS
  0
LAYER
  2
LAYER151
 70
               0
 62
               7
  6
CONTINUOUS
  0
LAYER
  2
LAYER152
 70
               0
 62
               7
  6
CONTINUOUS
  0
LAYER
  2
LAYER153
 70
               0
 62
               7
  6
CONTINUOUS
  0
LAYER
  2
LAYER154
 70
               0
 62
               7
  6
CONTINUOUS
  0
LAYER
  2
LAYER155
 70
               0
 62
               7
  6
CONTINUOUS
  0
LAYER
  2
LAYER156
 70
               0
 62
               7
  6
CONTINUOUS
  0
LAYER
  2
LAYER157
 70
               0
 62
               7
  6
CONTINUOUS
  0
LAYER
  2
LAYER158
 70
               0
 62
               7
  6
CONTINUOUS
  0
LAYER
  2
LAYER159
 70
               0
 62
               7
  6
CONTINUOUS
  0
LAYER
  2
LAYER160
 70
               0
 62
               7
  6
CONTINUOUS
  0
LAYER
  2
LAYER161
 70
               0
 62
               7
  6
CONTINUOUS
  0
LAYER
  2
LAYER162
 70
               0
 62
               7
  6
CONTINUOUS
  0
LAYER
  2
LAYER163
 70
               0
 62
               7
  6
CONTINUOUS
  0
LAYER
  2
LAYER164
 70
               0
 62
               7
  6
CONTINUOUS
  0
LAYER
  2
LAYER165
 70
               0
 62
               7
  6
CONTINUOUS
  0
LAYER
  2
LAYER166
 70
               0
 62
               7
  6
CONTINUOUS
  0
LAYER
  2
LAYER167
 70
               0
 62
               7
  6
CONTINUOUS
  0
LAYER
  2
LAYER168
 70
               0
 62
               7
  6
CONTINUOUS
  0
LAYER
  2
LAYER169
 70
               0
 62
               7
  6
CONTINUOUS
  0
LAYER
  2
LAYER170
 70
               0
 62
               7
  6
CONTINUOUS
  0
LAYER
  2
LAYER171
 70
               0
 62
               7
  6
CONTINUOUS
  0
LAYER
  2
LAYER172
 70
               0
 62
               7
  6
CONTINUOUS
  0
LAYER
  2
LAYER173
 70
               0
 62
               7
  6
CONTINUOUS
  0
LAYER
  2
LAYER174
 70
               0
 62
               7
  6
CONTINUOUS
  0
LAYER
  2
LAYER175
 70
               0
 62
               7
  6
CONTINUOUS
  0
LAYER
  2
LAYER176
 70
               0
 62
               7
  6
CONTINUOUS
  0
LAYER
  2
LAYER177
 70
               0
 62
               7
  6
CONTINUOUS
  0
LAYER
  2
LAYER178
 70
               0
 62
               7
  6
CONTINUOUS
  0
LAYER
  2
LAYER179
 70
               0
 62
               7
  6
CONTINUOUS
  0
LAYER
  2
LAYER180
 70
               0
 62
               7
  6
CONTINUOUS
  0
LAYER
  2
LAYER181
 70
               0
 62
               7
  6
CONTINUOUS
  0
LAYER
  2
LAYER182
 70
               0
 62
               7
  6
CONTINUOUS
  0
LAYER
  2
LAYER183
 70
               0
 62
               7
  6
CONTINUOUS
  0
LAYER
  2
LAYER184
 70
               0
 62
               7
  6
CONTINUOUS
  0
LAYER
  2
LAYER185
 70
               0
 62
               7
  6
CONTINUOUS
  0
LAYER
  2
LAYER186
 70
               0
 62
               7
  6
CONTINUOUS
  0
LAYER
  2
LAYER187
 70
               0
 62
               7
  6
CONTINUOUS
  0
LAYER
  2
LAYER188
 70
               0
 62
               7
  6
CONTINUOUS
  0
LAYER
  2
LAYER189
 70
               0
 62
               7
  6
CONTINUOUS
  0
LAYER
  2
LAYER190
 70
               0
 62
               7
  6
CONTINUOUS
  0
LAYER
  2
LAYER191
 70
               0
 62
               7
  6
CONTINUOUS
  0
LAYER
  2
LAYER192
 70
               0
 62
               7
  6
CONTINUOUS
  0
LAYER
  2
LAYER193
 70
               0
 62
               7
  6
CONTINUOUS
  0
LAYER
  2
LAYER194
 70
               0
 62
               7
  6
CONTINUOUS
  0
LAYER
  2
LAYER195
 70
               0
 62
               7
  6
CONTINUOUS
  0
LAYER
  2
LAYER196
 70
               0
 62
               7
  6
CONTINUOUS
  0
LAYER
  2
LAYER197
 70
               0
 62
               7
  6
CONTINUOUS
  0
LAYER
  2
LAYER198
 70
               0
 62
               7
  6
CONTINUOUS
  0
LAYER
  2
LAYER199
 70
               0
 62
               7
  6
CONTINUOUS
  0
LAYER
  2
LAYER200
 70
               0
 62
               7
  6
CONTINUOUS
  0
LAYER
  2
LAYER201
 70
               0
 62
               7
  6
CONTINUOUS
  0
LAYER
  2
LAYER202
 70
               0
 62
               7
  6
CONTINUOUS
  0
LAYER
  2
LAYER203
 70
               0
 62
               7
  6
CONTINUOUS
  0
LAYER
  2
LAYER204
 70
               0
 62
               7
  6
CONTINUOUS
  0
LAYER
  2
LAYER205
 70
               0
 62
               7
  6
CONTINUOUS
  0
LAYER
  2
LAYER206
 70
               0
 62
               7
  6
CONTINUOUS
  0
LAYER
  2
LAYER207
 70
               0
 62
               7
  6
CONTINUOUS
  0
LAYER
  2
LAYER208
 70
               0
 62
               7
  6
CONTINUOUS
  0
LAYER
  2
LAYER209
 70
               0
 62
               7
  6
CONTINUOUS
  0
LAYER
  2
LAYER210
 70
               0
 62
               7
  6
CONTINUOUS
  0
LAYER
  2
LAYER211
 70
               0
 62
               7
  6
CONTINUOUS
  0
LAYER
  2
LAYER212
 70
               0
 62
               7
  6
CONTINUOUS
  0
LAYER
  2
LAYER213
 70
               0
 62
               7
  6
CONTINUOUS
  0
LAYER
  2
LAYER214
 70
               0
 62
               7
  6
CONTINUOUS
  0
LAYER
  2
LAYER215
 70
               0
 62
               7
  6
CONTINUOUS
  0
LAYER
  2
LAYER216
 70
               0
 62
               7
  6
CONTINUOUS
  0
LAYER
  2
LAYER217
 70
               0
 62
               7
  6
CONTINUOUS
  0
LAYER
  2
LAYER218
 70
               0
 62
               7
  6
CONTINUOUS
  0
LAYER
  2
LAYER219
 70
               0
 62
               7
  6
CONTINUOUS
  0
LAYER
  2
LAYER220
 70
               0
 62
               7
  6
CONTINUOUS
  0
LAYER
  2
LAYER221
 70
               0
 62
               7
  6
CONTINUOUS
  0
LAYER
  2
LAYER222
 70
               0
 62
               7
  6
CONTINUOUS
  0
LAYER
  2
LAYER223
 70
               0
 62
               7
  6
CONTINUOUS
  0
LAYER
  2
LAYER224
 70
               0
 62
               7
  6
CONTINUOUS
  0
LAYER
  2
LAYER225
 70
               0
 62
               7
  6
CONTINUOUS
  0
LAYER
  2
LAYER226
 70
               0
 62
               7
  6
CONTINUOUS
  0
LAYER
  2
LAYER227
 70
               0
 62
               7
  6
CONTINUOUS
  0
LAYER
  2
LAYER228
 70
               0
 62
               7
  6
CONTINUOUS
  0
LAYER
  2
LAYER229
 70
               0
 62
               7
  6
CONTINUOUS
  0
LAYER
  2
LAYER230
 70
               0
 62
               7
  6
CONTINUOUS
  0
LAYER
  2
LAYER231
 70
               0
 62
               7
  6
CONTINUOUS
  0
LAYER
  2
LAYER232
 70
               0
 62
               7
  6
CONTINUOUS
  0
LAYER
  2
LAYER233
 70
               0
 62
               7
  6
CONTINUOUS
  0
LAYER
  2
LAYER234
 70
               0
 62
               7
  6
CONTINUOUS
  0
LAYER
  2
LAYER235
 70
               0
 62
               7
  6
CONTINUOUS
  0
LAYER
  2
LAYER236
 70
               0
 62
               7
  6
CONTINUOUS
  0
LAYER
  2
LAYER237
 70
               0
 62
               7
  6
CONTINUOUS
  0
LAYER
  2
LAYER238
 70
               0
 62
               7
  6
CONTINUOUS
  0
LAYER
  2
LAYER239
 70
               0
 62
               7
  6
CONTINUOUS
  0
LAYER
  2
LAYER240
 70
               0
 62
               7
  6
CONTINUOUS
  0
LAYER
  2
LAYER241
 70
               0
 62
               7
  6
CONTINUOUS
  0
LAYER
  2
LAYER242
 70
               0
 62
               7
  6
CONTINUOUS
  0
LAYER
  2
LAYER243
 70
               0
 62
               7
  6
CONTINUOUS
  0
LAYER
  2
LAYER244
 70
               0
 62
               7
  6
CONTINUOUS
  0
LAYER
  2
LAYER245
 70
               0
 62
               7
  6
CONTINUOUS
  0
LAYER
  2
LAYER246
 70
               0
 62
               7
  6
CONTINUOUS
  0
LAYER
  2
LAYER247
 70
               0
 62
               7
  6
CONTINUOUS
  0
LAYER
  2
LAYER248
 70
               0
 62
               7
  6
CONTINUOUS
  0
LAYER
  2
LAYER249
 70
               0
 62
               7
  6
CONTINUOUS
  0
LAYER
  2
LAYER250
 70
               0
 62
               7
  6
CONTINUOUS
  0
LAYER
  2
LAYER251
 70
               0
 62
               7
  6
CONTINUOUS
  0
LAYER
  2
LAYER252
 70
               0
 62
               7
  6
CONTINUOUS
  0
LAYER
  2
LAYER253
 70
               0
 62
               7
  6
CONTINUOUS
  0
LAYER
  2
LAYER254
 70
               0
 62
               7
  6
CONTINUOUS
  0
LAYER
  2
LAYER255
 70
               0
 62
               7
  6
CONTINUOUS
  0
ENDTAB
  0
TABLE
  2
STYLE
 70
               1
  0
STYLE
  2
STANDARD
 70
               0
 40
0.0
 41
1.0
 50
0.0
 71
               0
 42
0.0
  3
txt
  4

  0
ENDTAB
  0
TABLE
  2
VIEW
 70
               0
  0
VIEW
  2
QQQQ
 70
               0
 40
802.71120197874279
 10
3.4545366224319594
 20
87.392825560459812
 41
682.68797977632858
 11
0.0
 21
0.0
 31
1.0
 12
100.0
 22
100.0
 32
0.0
 42
50.0
 43
0.0
 44
0.0
 50
0.0
 71
               0
  0
ENDTAB
  0
TABLE
  2
UCS
 70
               0
  0
ENDTAB
  0
TABLE
  2
APPID
 70
               1
  0
APPID
  2
ACAD
 70
               0
  0
ENDTAB
  0
TABLE
  2
DIMSTYLE
 70
               1
  0
DIMSTYLE
  2
STANDARD
 70
               0
  3

  4

  5

  6

  7

 40
1.0
 41
0.18
 42
0.0625
 43
0.38
 44
0.18
 45
0.0
 46
0.0
 47
0.0
 48
0.0
140
0.18
141
0.09
142
0.0
143
25.399999999999999
144
1.0
145
0.0
146
1.0
147
0.09
 71
               0
 72
               0
 73
               1
 74
               1
 75
               0
 76
               0
 77
               0
 78
               0
170
               0
171
               2
172
               0
173
               0
174
               0
175
               0
176
               0
177
               0
178
               0
  0
ENDTAB
  0
ENDSEC
  0
SECTION
  2
BLOCKS
  0
ENDSEC
  0
SECTION
  2
ENTITIES
  0
LINE
  8
0
  6
CONTINUOUS
 62
               3
  5
136
 10
-38.915381511653393
 20
191.58778518481046
 30
0.0
 11
-41.328079587924051
 21
189.17508710853986
 31
0.0
  0
LINE
  8
0
  6
CONTINUOUS
 62
               3
  5
137
 10
-41.328079587924051
 20
189.17508710853986
 30
0.0
 11
-43.189014395976713
 21
135.88488660215063
 31
0.0
  0
LINE
  8
0
  6
CONTINUOUS
 62
               3
  5
138
 10
60.497316564617378
 20
189.17508710853986
 30
0.0
 11
62.35825137267004
 21
135.88488660215063
 31
0.0
  0
LINE
  8
0
  6
CONTINUOUS
 62
               3
  5
139
 10
54.642320730138564
 20
127.61056401237963
 30
0.0
 11
51.910121004833385
 21
127.51515349556638
 31
0.0
  0
ARC
  8
0
  6
CONTINUOUS
 62
               3
  5
13A
 10
54.363124756517252
 20
135.60569062853233
 30
0.0
 40
8.0
 50
272.00000000000875
 51
361.99999999998693
  0
LINE
  8
0
  6
CONTINUOUS
 62
               3
  5
13B
 10
-97.828079587923881
 20
43.425087108540751
 30
0.0
 11
-95.41538151165328
 21
41.012389032270086
 31
0.0
  0
LINE
  8
0
  6
CONTINUOUS
 62
               3
  5
13C
 10
-95.41538151165328
 20
41.012389032270086
 30
0.0
 11
-32.740884028140854
 21
38.823747352637042
 31
0.0
  0
LINE
  8
0
  6
CONTINUOUS
 62
               3
  5
13D
 10
-27.415381511653507
 20
-155.82491289146
 30
0.0
 11
-27.415381511653507
 21
14.17508710854014
 31
0.0
  0
LINE
  8
0
  6
CONTINUOUS
 62
               3
  5
13E
 10
46.584618488346834
 20
14.17508710854014
 30
0.0
 11
46.584618488346834
 21
-155.82491289146
 31
0.0
  0
ARC
  8
0
  6
CONTINUOUS
 62
               3
  5
13F
 10
-48.093513908864409
 20
133.99334893678056
 30
0.0
 40
5.0
 50
271.99999999999909
 51
367.12452839694299
  0
LINE
  8
0
  6
CONTINUOUS
 62
               3
  5
140
 10
-95.41538151165328
 20
127.33778518481054
 30
0.0
 11
-47.919016425351927
 21
128.99639480168508
 31
0.0
  0
ARC
  8
0
  6
CONTINUOUS
 62
               3
  5
141
 10
-35.193887779823925
 20
135.60569062853233
 30
0.0
 40
8.0
 50
178.00000000001185
 51
187.12452839694413
  0
LINE
  8
0
  6
CONTINUOUS
 62
               3
  5
142
 10
-27.915381511653337
 20
33.826793217541564
 30
0.0
 11
-27.915381511653337
 21
24.175087108540136
 31
0.0
  0
LINE
  8
0
  6
CONTINUOUS
 62
               3
  5
143
 10
47.084618488346663
 20
24.17508710853993
 30
0.0
 11
47.084618488346663
 21
122.51819936047093
 31
0.0
  0
LINE
  8
0
  6
CONTINUOUS
 62
               3
  5
144
 10
-27.915381511653337
 20
24.175087108540136
 30
0.0
 11
-27.415381511653507
 21
14.17508710854014
 31
0.0
  0
LINE
  8
0
  6
CONTINUOUS
 62
               3
  5
145
 10
47.084618488346663
 20
24.175087108540136
 30
0.0
 11
46.584618488346834
 21
14.17508710854014
 31
0.0
  0
ARC
  8
0
  6
CONTINUOUS
 62
               3
  5
146
 10
52.084618488346663
 20
122.51819936047093
 30
0.0
 40
5.0
 50
92.000000000008654
 51
179.9999999999996
  0
ARC
  8
0
  6
CONTINUOUS
 62
               3
  5
147
 10
-32.915381511653337
 20
33.826793217541564
 30
0.0
 40
5.0
 50
0.0
 51
88.000000000000071
  0
LINE
  8
0
  6
CONTINUOUS
 62
               3
  5
148
 10
58.08461848834672
 20
191.58778518481046
 30
0.0
 11
60.497316564617435
 21
189.17508710853804
 31
0.0
  0
LINE
  8
0
  6
CONTINUOUS
 62
               3
  5
149
 10
-97.828079587923995
 20
124.92508710853991
 30
0.0
 11
-95.415381511653393
 21
127.33778518481057
 31
0.0
  0
LINE
  8
0
  6
CONTINUOUS
 62
               3
  5
14A
 10
-27.915381511653308
 20
-253.82491289146
 30
0.0
 11
-27.915381511653308
 21
-155.82491289146
 31
0.0
  0
LINE
  8
0
  6
CONTINUOUS
 62
               3
  5
14B
 10
-25.915381511653308
 20
-255.82491289146
 30
0.0
 11
-27.915381511653308
 21
-253.82491289146
 31
0.0
  0
LINE
  8
0
  6
CONTINUOUS
 62
               3
  5
14C
 10
45.084618488346749
 20
-255.82491289146
 30
0.0
 11
47.084618488346749
 21
-253.82491289146
 31
0.0
  0
LINE
  8
0
  6
CONTINUOUS
 62
               3
  5
14D
 10
-33.41538151165345
 20
47.13154383410631
 30
0.0
 11
-33.415381511653337
 21
121.2186303829742
 31
0.0
  0
LINE
  8
0
  6
CONTINUOUS
 62
               3
  5
14E
 10
54.642320694414067
 20
127.61056401237965
 30
0.0
 11
-23.683657162128142
 21
127.61056401237965
 31
0.0
  0
LINE
  8
0
  6
CONTINUOUS
 62
               3
  5
14F
 10
-25.915381511653308
 20
-255.82491289146
 30
0.0
 11
45.084618488346763
 21
-255.82491289146
 31
0.0
  0
LINE
  8
0
  6
CONTINUOUS
 62
               3
  5
150
 10
-27.915381511653308
 20
-155.82491289146
 30
0.0
 11
47.084618488346749
 21
-155.82491289146
 31
0.0
  0
LINE
  8
0
  6
CONTINUOUS
 62
               3
  5
151
 10
47.084618488346749
 20
-253.82491289146
 30
0.0
 11
47.084618488346749
 21
-155.82491289146
 31
0.0
  0
LINE
  8
0
  6
CONTINUOUS
 62
               3
  5
152
 10
-41.328079587924051
 20
189.17508710853986
 30
0.0
 11
60.497316564617378
 21
189.17508710853986
 31
0.0
  0
LINE
  8
0
  6
CONTINUOUS
 62
               3
  5
153
 10
-95.41538151165328
 20
127.33778518481054
 30
0.0
 11
-95.41538151165328
 21
41.012389032270086
 31
0.0
  0
LINE
  8
0
  6
CONTINUOUS
 62
               3
  5
154
 10
58.084618488346678
 20
192.17508710854
 30
0.0
 11
58.084618488346678
 21
191.50353098257577
 31
0.0
  0
LINE
  8
0
  6
CONTINUOUS
 62
               3
  5
155
 10
60.413062362382561
 20
192.17508710854
 30
0.0
 11
60.413062362382561
 21
194.67508710854
 31
0.0
  0
ARC
  8
0
  6
CONTINUOUS
 62
               3
  5
156
 10
57.913062362382561
 20
194.67508710854
 30
0.0
 40
2.5
 50
0.0000000000000035
 51
89.999999999999815
  0
LINE
  8
0
  6
CONTINUOUS
 62
               3
  5
157
 10
-38.915381511653322
 20
192.17508710854
 30
0.0
 11
-38.915381511653322
 21
191.50353098257577
 31
0.0
  0
LINE
  8
0
  6
CONTINUOUS
 62
               3
  5
158
 10
58.084618488346678
 20
191.50353098257577
 30
0.0
 11
-38.915381511653322
 21
191.50353098257577
 31
0.0
  0
LINE
  8
0
  6
CONTINUOUS
 62
               3
  5
159
 10
-41.243825385688524
 20
192.17508710854
 30
0.0
 11
60.413062362382561
 21
192.17508710854
 31
0.0
  0
LINE
  8
0
  6
CONTINUOUS
 62
               3
  5
15A
 10
57.913062362382561
 20
197.17508710854
 30
0.0
 11
-38.743825385688524
 21
197.17508710854
 31
0.0
  0
LINE
  8
0
  6
CONTINUOUS
 62
               3
  5
15B
 10
-41.243825385688524
 20
192.17508710854
 30
0.0
 11
-41.243825385688524
 21
194.67508710854
 31
0.0
  0
ARC
  8
0
  6
CONTINUOUS
 62
               3
  5
15C
 10
-38.743825385688524
 20
194.67508710854
 30
0.0
 40
2.5
 50
89.999999999999815
 51
179.9999999999996
  0
LINE
  8
0
  6
CONTINUOUS
 62
               3
  5
15D
 10
-98.586937637618249
 20
124.94664323450515
 30
0.0
 11
-97.91538151165382
 21
124.92508710854058
 31
0.0
  0
LINE
  8
0
  6
CONTINUOUS
 62
               3
  5
15E
 10
-98.586937637618249
 20
43.403530982575788
 30
0.0
 11
-97.91538151165382
 21
43.425087108540353
 31
0.0
  0
LINE
  8
0
  6
CONTINUOUS
 62
               3
  5
15F
 10
-97.91538151165382
 20
124.92508710854058
 30
0.0
 11
-97.91538151165382
 21
43.425087108540353
 31
0.0
  0
LINE
  8
0
  6
CONTINUOUS
 62
               3
  5
160
 10
-103.58693763761825
 20
124.77508710854035
 30
0.0
 11
-103.58693763761825
 21
43.575087108540359
 31
0.0
  0
LINE
  8
0
  6
CONTINUOUS
 62
               3
  5
161
 10
-98.586937637618249
 20
41.075087108540359
 30
0.0
 11
-98.586937637618249
 21
127.27508710854035
 31
0.0
  0
LINE
  8
0
  6
CONTINUOUS
 62
               3
  5
162
 10
-98.586937637618249
 20
127.27508710854035
 30
0.0
 11
-101.08693763761825
 21
127.27508710854035
 31
0.0
  0
LINE
  8
0
  6
CONTINUOUS
 62
               3
  5
163
 10
-98.586937637618249
 20
41.075087108540359
 30
0.0
 11
-101.08693763761825
 21
41.075087108540359
 31
0.0
  0
ARC
  8
0
  6
CONTINUOUS
 62
               3
  5
164
 10
-101.08693763761825
 20
43.575087108540359
 30
0.0
 40
2.5
 50
179.99999999993057
 51
269.99999999989649
  0
ARC
  8
0
  6
CONTINUOUS
 62
               3
  5
165
 10
-101.08693763761825
 20
124.77508710854035
 30
0.0
 40
2.5
 50
89.999999999965596
 51
179.99999999993057
  0
LINE
  8
0
  6
CONTINUOUS
 62
               3
  5
166
 10
-288.91538151165338
 20
191.58778518481046
 30
0.0
 11
-291.32807958792404
 21
189.17508710853986
 31
0.0
  0
LINE
  8
0
  6
CONTINUOUS
 62
               3
  5
167
 10
-291.32807958792404
 20
189.17508710853986
 30
0.0
 11
-293.1890143959767
 21
135.88488660215063
 31
0.0
  0
LINE
  8
0
  6
CONTINUOUS
 62
               3
  5
168
 10
-189.50268343538261
 20
189.17508710853986
 30
0.0
 11
-187.64174862732995
 21
135.88488660215063
 31
0.0
  0
LINE
  8
0
  6
CONTINUOUS
 62
               3
  5
169
 10
-195.35767926986142
 20
127.61056401237963
 30
0.0
 11
-198.0898789951666
 21
127.51515349556638
 31
0.0
  0
ARC
  8
0
  6
CONTINUOUS
 62
               3
  5
16A
 10
-195.63687524348273
 20
135.60569062853233
 30
0.0
 40
8.0
 50
272.00000000000875
 51
361.99999999998693
  0
LINE
  8
0
  6
CONTINUOUS
 62
               3
  5
16B
 10
-277.41538151165349
 20
-155.82491289146
 30
0.0
 11
-277.41538151165349
 21
14.17508710854014
 31
0.0
  0
LINE
  8
0
  6
CONTINUOUS
 62
               3
  5
16C
 10
-203.41538151165315
 20
14.17508710854014
 30
0.0
 11
-203.41538151165315
 21
-155.82491289146
 31
0.0
  0
LINE
  8
0
  6
CONTINUOUS
 62
               3
  5
16D
 10
-277.91538151165332
 20
24.175087108540136
 30
0.0
 11
-277.41538151165349
 21
14.17508710854014
 31
0.0
  0
LINE
  8
0
  6
CONTINUOUS
 62
               3
  5
16E
 10
-202.91538151165332
 20
24.175087108540136
 30
0.0
 11
-203.41538151165315
 21
14.17508710854014
 31
0.0
  0
ARC
  8
0
  6
CONTINUOUS
 62
               3
  5
16F
 10
-197.91538151165332
 20
122.51819936047093
 30
0.0
 40
5.0
 50
92.000000000008654
 51
179.9999999999996
  0
LINE
  8
0
  6
CONTINUOUS
 62
               3
  5
170
 10
-191.91538151165327
 20
191.58778518481046
 30
0.0
 11
-189.50268343538255
 21
189.17508710853804
 31
0.0
  0
LINE
  8
0
  6
CONTINUOUS
 62
               3
  5
171
 10
-277.91538151165332
 20
-253.82491289146
 30
0.0
 11
-277.91538151165332
 21
-155.82491289146
 31
0.0
  0
LINE
  8
0
  6
CONTINUOUS
 62
               3
  5
172
 10
-275.91538151165332
 20
-255.82491289146
 30
0.0
 11
-277.91538151165332
 21
-253.82491289146
 31
0.0
  0
LINE
  8
0
  6
CONTINUOUS
 62
               3
  5
173
 10
-204.91538151165327
 20
-255.82491289146
 30
0.0
 11
-202.91538151165327
 21
-253.82491289146
 31
0.0
  0
LINE
  8
0
  6
CONTINUOUS
 62
               3
  5
174
 10
-275.91538151165332
 20
-255.82491289146
 30
0.0
 11
-204.91538151165324
 21
-255.82491289146
 31
0.0
  0
LINE
  8
0
  6
CONTINUOUS
 62
               3
  5
175
 10
-277.91538151165332
 20
-155.82491289146
 30
0.0
 11
-202.91538151165327
 21
-155.82491289146
 31
0.0
  0
LINE
  8
0
  6
CONTINUOUS
 62
               3
  5
176
 10
-202.91538151165327
 20
-253.82491289146
 30
0.0
 11
-202.91538151165327
 21
-155.82491289146
 31
0.0
  0
LINE
  8
0
  6
CONTINUOUS
 62
               3
  5
177
 10
-291.32807958792404
 20
189.17508710853986
 30
0.0
 11
-189.50268343538261
 21
189.17508710853986
 31
0.0
  0
LINE
  8
0
  6
CONTINUOUS
 62
               3
  5
178
 10
-191.91538151165332
 20
192.17508710854
 30
0.0
 11
-191.91538151165332
 21
191.50353098257577
 31
0.0
  0
LINE
  8
0
  6
CONTINUOUS
 62
               3
  5
179
 10
-189.58693763761744
 20
192.17508710854
 30
0.0
 11
-189.58693763761744
 21
194.67508710854
 31
0.0
  0
ARC
  8
0
  6
CONTINUOUS
 62
               3
  5
17A
 10
-192.08693763761744
 20
194.67508710854
 30
0.0
 40
2.5
 50
0.0000000000000035
 51
89.999999999999815
  0
LINE
  8
0
  6
CONTINUOUS
 62
               3
  5
17B
 10
-288.91538151165332
 20
192.17508710854
 30
0.0
 11
-288.91538151165332
 21
191.50353098257577
 31
0.0
  0
LINE
  8
0
  6
CONTINUOUS
 62
               3
  5
17C
 10
-191.91538151165332
 20
191.50353098257577
 30
0.0
 11
-288.91538151165332
 21
191.50353098257577
 31
0.0
  0
LINE
  8
0
  6
CONTINUOUS
 62
               3
  5
17D
 10
-291.24382538568852
 20
192.17508710854
 30
0.0
 11
-189.58693763761744
 21
192.17508710854
 31
0.0
  0
LINE
  8
0
  6
CONTINUOUS
 62
               3
  5
17E
 10
-192.08693763761744
 20
197.17508710854
 30
0.0
 11
-288.74382538568852
 21
197.17508710854
 31
0.0
  0
LINE
  8
0
  6
CONTINUOUS
 62
               3
  5
17F
 10
-291.24382538568852
 20
192.17508710854
 30
0.0
 11
-291.24382538568852
 21
194.67508710854
 31
0.0
  0
ARC
  8
0
  6
CONTINUOUS
 62
               3
  5
180
 10
-288.74382538568852
 20
194.67508710854
 30
0.0
 40
2.5
 50
89.999999999999815
 51
179.9999999999996
  0
LINE
  8
0
  6
CONTINUOUS
 62
               3
  5
181
 10
211.08461848834662
 20
191.58778518481046
 30
0.0
 11
208.67192041207596
 21
189.17508710853986
 31
0.0
  0
LINE
  8
0
  6
CONTINUOUS
 62
               3
  5
182
 10
208.67192041207596
 20
189.17508710853986
 30
0.0
 11
206.8109856040233
 21
135.88488660215063
 31
0.0
  0
LINE
  8
0
  6
CONTINUOUS
 62
               3
  5
183
 10
310.49731656461739
 20
189.17508710853986
 30
0.0
 11
312.35825137267005
 21
135.88488660215063
 31
0.0
  0
LINE
  8
0
  6
CONTINUOUS
 62
               3
  5
184
 10
304.64232073013858
 20
127.61056401237963
 30
0.0
 11
301.9101210048334
 21
127.51515349556638
 31
0.0
  0
ARC
  8
0
  6
CONTINUOUS
 62
               3
  5
185
 10
304.36312475651727
 20
135.60569062853233
 30
0.0
 40
8.0
 50
272.00000000000875
 51
361.99999999998693
  0
LINE
  8
0
  6
CONTINUOUS
 62
               3
  5
186
 10
222.58461848834651
 20
-155.82491289146
 30
0.0
 11
222.58461848834651
 21
14.17508710854014
 31
0.0
  0
LINE
  8
0
  6
CONTINUOUS
 62
               3
  5
187
 10
296.58461848834685
 20
14.17508710854014
 30
0.0
 11
296.58461848834685
 21
-155.82491289146
 31
0.0
  0
LINE
  8
0
  6
CONTINUOUS
 62
               3
  5
188
 10
297.08461848834668
 20
24.17508710853993
 30
0.0
 11
297.08461848834668
 21
122.51819936047093
 31
0.0
  0
LINE
  8
0
  6
CONTINUOUS
 62
               3
  5
189
 10
222.08461848834668
 20
24.175087108540136
 30
0.0
 11
222.58461848834651
 21
14.17508710854014
 31
0.0
  0
LINE
  8
0
  6
CONTINUOUS
 62
               3
  5
18A
 10
297.08461848834668
 20
24.175087108540136
 30
0.0
 11
296.58461848834685
 21
14.17508710854014
 31
0.0
  0
ARC
  8
0
  6
CONTINUOUS
 62
               3
  5
18B
 10
302.08461848834668
 20
122.51819936047093
 30
0.0
 40
5.0
 50
92.000000000008654
 51
179.9999999999996
  0
LINE
  8
0
  6
CONTINUOUS
 62
               3
  5
18C
 10
308.08461848834673
 20
191.58778518481046
 30
0.0
 11
310.49731656461745
 21
189.17508710853804
 31
0.0
  0
LINE
  8
0
  6
CONTINUOUS
 62
               3
  5
18D
 10
222.08461848834668
 20
-253.82491289146
 30
0.0
 11
222.08461848834668
 21
-155.82491289146
 31
0.0
  0
LINE
  8
0
  6
CONTINUOUS
 62
               3
  5
18E
 10
224.08461848834668
 20
-255.82491289146
 30
0.0
 11
222.08461848834668
 21
-253.82491289146
 31
0.0
  0
LINE
  8
0
  6
CONTINUOUS
 62
               3
  5
18F
 10
295.08461848834673
 20
-255.82491289146
 30
0.0
 11
297.08461848834673
 21
-253.82491289146
 31
0.0
  0
LINE
  8
0
  6
CONTINUOUS
 62
               3
  5
190
 10
304.64232069441408
 20
127.61056401237965
 30
0.0
 11
217.25911597185996
 21
127.61056401237967
 31
0.0
  0
LINE
  8
0
  6
CONTINUOUS
 62
               3
  5
191
 10
224.08461848834668
 20
-255.82491289146
 30
0.0
 11
295.08461848834679
 21
-255.82491289146
 31
0.0
  0
LINE
  8
0
  6
CONTINUOUS
 62
               3
  5
192
 10
222.08461848834668
 20
-155.82491289146
 30
0.0
 11
297.08461848834673
 21
-155.82491289146
 31
0.0
  0
LINE
  8
0
  6
CONTINUOUS
 62
               3
  5
193
 10
297.08461848834673
 20
-253.82491289146
 30
0.0
 11
297.08461848834673
 21
-155.82491289146
 31
0.0
  0
LINE
  8
0
  6
CONTINUOUS
 62
               3
  5
194
 10
208.67192041207596
 20
189.17508710853986
 30
0.0
 11
310.49731656461739
 21
189.17508710853986
 31
0.0
  0
LINE
  8
0
  6
CONTINUOUS
 62
               3
  5
195
 10
308.08461848834668
 20
192.17508710854
 30
0.0
 11
308.08461848834668
 21
191.50353098257577
 31
0.0
  0
LINE
  8
0
  6
CONTINUOUS
 62
               3
  5
196
 10
310.41306236238256
 20
192.17508710854
 30
0.0
 11
310.41306236238256
 21
194.67508710854
 31
0.0
  0
ARC
  8
0
  6
CONTINUOUS
 62
               3
  5
197
 10
307.91306236238256
 20
194.67508710854
 30
0.0
 40
2.5
 50
0.0000000000000035
 51
89.999999999999815
  0
LINE
  8
0
  6
CONTINUOUS
 62
               3
  5
198
 10
211.08461848834668
 20
192.17508710854
 30
0.0
 11
211.08461848834668
 21
191.50353098257577
 31
0.0
  0
LINE
  8
0
  6
CONTINUOUS
 62
               3
  5
199
 10
308.08461848834668
 20
191.50353098257577
 30
0.0
 11
211.08461848834668
 21
191.50353098257577
 31
0.0
  0
LINE
  8
0
  6
CONTINUOUS
 62
               3
  5
19A
 10
208.75617461431148
 20
192.17508710854
 30
0.0
 11
310.41306236238256
 21
192.17508710854
 31
0.0
  0
LINE
  8
0
  6
CONTINUOUS
 62
               3
  5
19B
 10
307.91306236238256
 20
197.17508710854
 30
0.0
 11
211.25617461431148
 21
197.17508710854
 31
0.0
  0
LINE
  8
0
  6
CONTINUOUS
 62
               3
  5
19C
 10
208.75617461431148
 20
192.17508710854
 30
0.0
 11
208.75617461431148
 21
194.67508710854
 31
0.0
  0
ARC
  8
0
  6
CONTINUOUS
 62
               3
  5
19D
 10
211.25617461431148
 20
194.67508710854
 30
0.0
 40
2.5
 50
89.999999999999815
 51
179.9999999999996
  0
LINE
  8
0
  6
CONTINUOUS
 62
               3
  5
19E
 10
-285.47308375344522
 20
127.61056401237963
 30
0.0
 11
-282.74088402814004
 21
127.51515349556638
 31
0.0
  0
ARC
  8
0
  6
CONTINUOUS
 62
               3
  5
19F
 10
-285.19388777982391
 20
135.60569062853233
 30
0.0
 40
8.0
 50
178.00000000001185
 51
267.99999999999005
  0
ARC
  8
0
  6
CONTINUOUS
 62
               3
  5
1A0
 10
-282.91538151165332
 20
122.51819936047093
 30
0.0
 40
5.0
 50
0.0
 51
87.999999999990948
  0
ARC
  8
0
  6
CONTINUOUS
 62
               3
  5
1A1
 10
-272.36178309290847
 20
122.61056401237965
 30
0.0
 40
5.0
 50
318.16960371258682
 51
449.99999999999898
  0
ARC
  8
0
  6
CONTINUOUS
 62
               3
  5
1A2
 10
-208.46897993039815
 20
122.61056401237967
 30
0.0
 40
5.0
 50
89.999999999999801
 51
221.8303962874146
  0
ARC
  8
0
  6
CONTINUOUS
 62
               3
  5
1A3
 10
-240.41538151165332
 20
84.175087108540154
 30
0.0
 40
45.038670000000003
 50
128.79900077657251
 51
411.20099922342609
  0
LINE
  8
0
  6
CONTINUOUS
 62
               3
  5
1A4
 10
-272.36178309290847
 20
127.61056401237967
 30
0.0
 11
-282.74088402814004
 21
127.61056401237967
 31
0.0
  0
LINE
  8
0
  6
CONTINUOUS
 62
               3
  5
1A5
 10
-195.35767930558592
 20
127.61056401237965
 30
0.0
 11
-208.46897993039815
 21
127.61056401237965
 31
0.0
  0
ARC
  8
0
  6
CONTINUOUS
 62
               3
  5
1A6
 10
-240.41538151165332
 20
84.175087108540154
 30
0.0
 40
44.978580000000001
 50
51.140305624130804
 51
128.79900077657248
  0
LINE
  8
0
  6
CONTINUOUS
 62
               3
  5
1A7
 10
-277.91538151165332
 20
122.51819936047093
 30
0.0
 11
-277.91538151165332
 21
109.1196615761253
 31
0.0
  0
LINE
  8
0
  6
CONTINUOUS
 62
               3
  5
1A8
 10
-277.91538151165332
 20
59.230512640955013
 30
0.0
 11
-277.91538151165332
 21
24.175087108540136
 31
0.0
  0
LINE
  8
0
  6
CONTINUOUS
 62
               3
  5
1A9
 10
-202.91538151165332
 20
24.17508710853993
 30
0.0
 11
-202.91538151165332
 21
59.230512640955013
 31
0.0
  0
LINE
  8
0
  6
CONTINUOUS
 62
               3
  5
1AA
 10
-202.91538151165332
 20
109.1196615761253
 30
0.0
 11
-202.91538151165332
 21
122.51819936047093
 31
0.0
  0
CIRCLE
  8
0
  6
CONTINUOUS
 62
               3
  5
1AB
 10
-240.41538151165332
 20
84.175087108540154
 30
0.0
 40
34.100000000000001
  0
CIRCLE
  8
0
  6
CONTINUOUS
 62
               3
  5
1AC
 10
-240.41538151165332
 20
84.175087108540154
 30
0.0
 40
28.649999999999999
  0
CIRCLE
  8
0
  6
CONTINUOUS
 62
               3
  5
1AD
 10
-240.41538151165332
 20
84.175087108540154
 30
0.0
 40
33.0
  0
CIRCLE
  8
0
  6
CONTINUOUS
 62
               3
  5
1AE
 10
-240.41538151165332
 20
84.175087108540154
 30
0.0
 40
24.5
  0
LINE
  8
0
  6
CONTINUOUS
 62
               3
  5
1AF
 10
-261.98213833784314
 20
62.608330282350678
 30
0.0
 11
-263.7499052908089
 21
60.840563329383556
 31
0.0
  0
LINE
  8
0
  6
CONTINUOUS
 62
               3
  5
1B0
 10
-218.84862468546373
 20
62.608330282350678
 30
0.0
 11
-217.08085773249735
 21
60.840563329384011
 31
0.0
  0
ARC
  8
0
  6
CONTINUOUS
 62
               3
  5
1B1
 10
-240.41538151165344
 20
84.175087108540382
 30
0.0
 40
30.5
 50
224.99999999991346
 51
314.99999999987898
  0
CIRCLE
  8
0
  6
CONTINUOUS
 62
               3
  5
1B2
 10
-240.41538151165332
 20
84.175087108540154
 30
0.0
 40
43.100000000000001
  0
LINE
  8
0
  6
CONTINUOUS
 62
               3
  5
1B3
 10
214.52691624655478
 20
127.61056401237963
 30
0.0
 11
217.25911597185996
 21
127.51515349556638
 31
0.0
  0
ARC
  8
0
  6
CONTINUOUS
 62
               3
  5
1B4
 10
214.80611222017609
 20
135.60569062853233
 30
0.0
 40
8.0
 50
178.00000000001185
 51
267.99999999999005
  0
ARC
  8
0
  6
CONTINUOUS
 62
               3
  5
1B5
 10
217.08461848834668
 20
122.51819936047093
 30
0.0
 40
5.0
 50
0.0
 51
87.999999999990948
  0
LINE
  8
0
  6
CONTINUOUS
 62
               3
  5
1B6
 10
222.08461848834668
 20
24.17508710853993
 30
0.0
 11
222.08461848834668
 21
122.51819936047093
 31
0.0
  0
ARC
  8
0
  6
CONTINUOUS
 62
               3
  5
1B7
 10
259.58461848834668
 20
84.175087108540154
 30
0.0
 40
45.038670000000003
 50
146.36859984180197
 51
213.63140015819721
  0
ARC
  8
0
  6
CONTINUOUS
 62
               3
  5
1B8
 10
259.58461848834668
 20
84.175087108540154
 30
0.0
 40
45.038670000000003
 50
326.36859984180154
 51
393.63140015819681
  0
CIRCLE
  8
0
  6
CONTINUOUS
 62
               3
  5
1B9
 10
9.5846184883466776
 20
377.61056401237965
 30
0.0
 40
32.5
  0
LINE
  8
0
  6
CONTINUOUS
 62
               3
  5
1BA
 10
-97.828079587923867
 20
336.86056401238005
 30
0.0
 11
-95.415381511653266
 21
334.44786593610939
 31
0.0
  0
LINE
  8
0
  6
CONTINUOUS
 62
               3
  5
1BB
 10
-95.415381511653266
 20
334.44786593610939
 30
0.0
 11
-41.694577485273328
 21
332.57189412179264
 31
0.0
  0
ARC
  8
0
  6
CONTINUOUS
 62
               3
  5
1BC
 10
-41.415381511653322
 20
340.56702073794543
 30
0.0
 40
8.0
 50
267.99999999999943
 51
359.9999999999992
  0
ARC
  8
0
  6
CONTINUOUS
 62
               3
  5
1BD
 10
9.5846184883466776
 20
377.61056401237965
 30
0.0
 40
53.0
 50
179.9999999999996
 51
359.9999999999992
  0
LINE
  8
0
  6
CONTINUOUS
 62
               3
  5
1BE
 10
-33.415381511653322
 20
341.11056401237965
 30
0.0
 11
-33.415381511653322
 21
340.56702073794543
 31
0.0
  0
ARC
  8
0
  6
CONTINUOUS
 62
               3
  5
1BF
 10
-28.415381511653322
 20
341.11056401237965
 30
0.0
 40
5.0
 50
135.00000000000014
 51
179.9999999999996
  0
LINE
  8
0
  6
CONTINUOUS
 62
               3
  5
1C0
 10
-97.828079587923867
 20
418.36056401237926
 30
0.0
 11
-95.415381511653266
 21
420.77326208864991
 31
0.0
  0
LINE
  8
0
  6
CONTINUOUS
 62
               3
  5
1C1
 10
-95.415381511653266
 20
420.77326208864991
 30
0.0
 11
-41.694577485273328
 21
422.64923390296667
 31
0.0
  0
ARC
  8
0
  6
CONTINUOUS
 62
               3
  5
1C2
 10
-41.415381511653322
 20
414.65410728681388
 30
0.0
 40
8.0
 50
0.0
 51
91.999999999999773
  0
ARC
  8
0
  6
CONTINUOUS
 62
               3
  5
1C3
 10
9.5846184883466776
 20
377.61056401237965
 30
0.0
 40
53.0
 50
0.0
 51
179.9999999999996
  0
LINE
  8
0
  6
CONTINUOUS
 62
               3
  5
1C4
 10
-33.415381511653322
 20
413.47509340647849
 30
0.0
 11
-33.415381511653322
 21
414.65410728681388
 31
0.0
  0
ARC
  8
0
  6
CONTINUOUS
 62
               3
  5
1C5
 10
-28.415381511653322
 20
414.11056401237965
 30
0.0
 40
5.0
 50
179.9999999999996
 51
224.99999999999903
  0
LINE
  8
0
  6
CONTINUOUS
 62
               3
  5
1C6
 10
-98.586937637618234
 20
418.38212013834442
 30
0.0
 11
-97.915381511653806
 21
418.36056401237988
 31
0.0
  0
LINE
  8
0
  6
CONTINUOUS
 62
               3
  5
1C7
 10
-98.586937637618234
 20
336.83900788641506
 30
0.0
 11
-97.915381511653806
 21
336.86056401237965
 31
0.0
  0
LINE
  8
0
  6
CONTINUOUS
 62
               3
  5
1C8
 10
-97.915381511653806
 20
418.36056401237988
 30
0.0
 11
-97.915381511653806
 21
336.86056401237965
 31
0.0
  0
LINE
  8
0
  6
CONTINUOUS
 62
               3
  5
1C9
 10
-103.58693763761823
 20
418.21056401237962
 30
0.0
 11
-103.58693763761823
 21
337.01056401237963
 31
0.0
  0
LINE
  8
0
  6
CONTINUOUS
 62
               3
  5
1CA
 10
-98.586937637618234
 20
334.51056401237963
 30
0.0
 11
-98.586937637618234
 21
420.71056401237962
 31
0.0
  0
LINE
  8
0
  6
CONTINUOUS
 62
               3
  5
1CB
 10
-98.586937637618234
 20
420.71056401237962
 30
0.0
 11
-101.08693763761823
 21
420.71056401237962
 31
0.0
  0
LINE
  8
0
  6
CONTINUOUS
 62
               3
  5
1CC
 10
-98.586937637618234
 20
334.51056401237963
 30
0.0
 11
-101.08693763761823
 21
334.51056401237963
 31
0.0
  0
ARC
  8
0
  6
CONTINUOUS
 62
               3
  5
1CD
 10
-101.08693763761823
 20
337.01056401237963
 30
0.0
 40
2.5
 50
179.99999999993057
 51
269.99999999989649
  0
ARC
  8
0
  6
CONTINUOUS
 62
               3
  5
1CE
 10
-101.08693763761823
 20
418.21056401237962
 30
0.0
 40
2.5
 50
89.999999999965596
 51
179.99999999993057
  0
CIRCLE
  8
0
  6
CONTINUOUS
 62
               3
  5
1CF
 10
9.5846184883466918
 20
377.61056401237965
 30
0.0
 40
41.849999999999994
  0
CIRCLE
  8
0
  6
CONTINUOUS
 62
               3
  5
1D0
 10
9.5846184883466918
 20
377.61056401237965
 30
0.0
 40
40.75
  0
CIRCLE
  8
0
  6
CONTINUOUS
 62
               3
  5
1D1
 10
9.5846184883466918
 20
377.61056401237909
 30
0.0
 40
36.399999999999999
  0
CIRCLE
  8
0
  6
CONTINUOUS
 62
               3
  5
1D2
 10
9.5846184883466918
 20
377.61056401237909
 30
0.0
 40
32.25
  0
LINE
  8
0
  6
CONTINUOUS
 62
               3
  5
1D3
 10
-17.462215892038643
 20
404.65739839276455
 30
0.0
 11
-19.229982845005082
 21
406.42516534573144
 31
0.0
  0
LINE
  8
0
  6
CONTINUOUS
 62
               3
  5
1D4
 10
-17.462215892045464
 20
350.56372963200056
 30
0.0
 11
-19.229982845005651
 21
348.79596267902832
 31
0.0
  0
ARC
  8
0
  6
CONTINUOUS
 62
               3
  5
1D5
 10
9.5846184883466918
 20
377.61056401237909
 30
0.0
 40
38.25
 50
134.99999999999068
 51
224.99999999998502
  0
CIRCLE
  8
0
  6
CONTINUOUS
 62
               3
  5
1D6
 10
9.5846184883466918
 20
377.61056401237909
 30
0.0
 40
50.75
  0
LINE
  8
0
  6
CONTINUOUS
 62
               3
  5
1D7
 10
-95.415381511653266
 20
420.77326208864991
 30
0.0
 11
-95.415381511653266
 21
334.44786593610939
 31
0.0
  0
LINE
  8
0
  6
DASHED2
 62
               4
  5
1D8
 10
-33.415381511653337
 20
121.2186303829742
 30
0.0
 11
-33.415381511653337
 21
117.92508710854017
 31
0.0
  0
LINE
  8
0
  6
DASHDOT
 62
               4
  5
1D9
 10
9.5846184883466652
 20
217.17508710854
 30
0.0
 11
9.5846184883466652
 21
-275.82491289146003
 31
0.0
  0
LINE
  8
0
  6
DASHDOT
 62
               4
  5
1DA
 10
-123.58693763761825
 20
84.175087108540424
 30
0.0
 11
-25.586937637618249
 21
84.175087108540211
 31
0.0
  0
LINE
  8
0
  6
DASHDOT
 62
               4
  5
1DB
 10
-240.41538151165332
 20
217.17508710854
 30
0.0
 11
-240.41538151165332
 21
-275.82491289146003
 31
0.0
  0
LINE
  8
0
  6
DASHDOT
 62
               4
  5
1DC
 10
-305.45405151165335
 20
84.175087108540282
 30
0.0
 11
-175.37671151165333
 21
84.175087108540026
 31
0.0
  0
LINE
  8
0
  6
DASHDOT
 62
               4
  5
1DD
 10
259.58461848834668
 20
217.17508710854
 30
0.0
 11
259.58461848834668
 21
-275.82491289146003
 31
0.0
  0
LINE
  8
0
  6
DASHDOT
 62
               4
  5
1DE
 10
-123.58693763761823
 20
377.61056401237965
 30
0.0
 11
82.584618488346678
 21
377.61056401237965
 31
0.0
  0
LINE
  8
0
  6
DASHDOT
 62
               4
  5
1DF
 10
9.5846184883466794
 20
450.61056401237965
 30
0.0
 11
9.5846184883466794
 21
304.61056401237965
 31
0.0
  0
LINE
  8
0
  6
DASHED
 62
               4
  5
1E0
 10
-45.586937637618249
 20
114.17508710854038
 30
0.0
 11
-45.586937637618249
 21
54.175087108540382
 31
0.0
  0
LINE
  8
0
  6
DASHED
 62
               4
  5
1E1
 10
-278.41538151165332
 20
139.17508710854037
 30
0.0
 11
-202.41538151165332
 21
139.17508710854008
 31
0.0
  0
LINE
  8
0
  6
DASHED
 62
               4
  5
1E2
 10
-28.415381511653322
 20
139.17508710854037
 30
0.0
 11
47.584618488346678
 21
139.17508710854008
 31
0.0
  0
LINE
  8
0
  6
DASHED
 62
               4
  5
1E3
 10
221.58461848834668
 20
139.17508710854037
 30
0.0
 11
297.58461848834668
 21
139.17508710854008
 31
0.0
  0
LINE
  8
0
  6
DASHED
 62
               4
  5
1E4
 10
-45.586937637618234
 20
407.61056401237988
 30
0.0
 11
-45.586937637618234
 21
347.61056401237988
 31
0.0
  0
ENDSEC
  0
EOF
