  0
SECTION
  2
HEADER
  9
$ACADVER
  1
AC1009
  9
$INSBASE
 10
0.0
 20
0.0
 30
0.0
  9
$EXTMIN
 10
-821.60000000000048
 20
-1650.4009194672592
 30
0.0
  9
$EXTMAX
 10
821.60000000000048
 20
753.13050247705598
 30
0.0
  9
$LIMMIN
 10
-872.9500000000005
 20
-1725.5112764030191
  9
$LIMMAX
 10
872.9500000000005
 20
828.24085941281578
  9
$ORTHOMODE
 70
               0
  9
$REGENMODE
 70
               1
  9
$FILLMODE
 70
               1
  9
$QTEXTMODE
 70
               0
  9
$MIRRTEXT
 70
               1
  9
$DRAGMODE
 70
               2
  9
$LTSCALE
 40
1.0
  9
$OSMODE
 70
               0
  9
$ATTMODE
 70
               1
  9
$TEXTSIZE
 40
0.2
  9
$TRACEWID
 40
0.05
  9
$TEXTSTYLE
  7
STANDARD
  9
$CLAYER
  8
0
  9
$CELTYPE
  6
CONTINUOUS
  9
$CECOLOR
 62
             256
  9
$DIMSCALE
 40
1.0
  9
$DIMASZ
 40
0.18
  9
$DIMEXO
 40
0.0625
  9
$DIMDLI
 40
0.38
  9
$DIMRND
 40
0.0
  9
$DIMDLE
 40
0.0
  9
$DIMEXE
 40
0.18
  9
$DIMTP
 40
0.0
  9
$DIMTM
 40
0.0
  9
$DIMTXT
 40
0.18
  9
$DIMCEN
 40
0.09
  9
$DIMTSZ
 40
0.0
  9
$DIMTOL
 70
               0
  9
$DIMLIM
 70
               0
  9
$DIMTIH
 70
               1
  9
$DIMTOH
 70
               1
  9
$DIMSE1
 70
               0
  9
$DIMSE2
 70
               0
  9
$DIMTAD
 70
               0
  9
$DIMZIN
 70
               0
  9
$DIMBLK
  1

  9
$DIMASO
 70
               1
  9
$DIMSHO
 70
               1
  9
$DIMPOST
  1

  9
$DIMAPOST
  1

  9
$DIMALT
 70
               0
  9
$DIMALTD
 70
               2
  9
$DIMALTF
 40
25.399999999999999
  9
$DIMLFAC
 40
1.0
  9
$DIMTOFL
 70
               0
  9
$DIMTVP
 40
0.0
  9
$DIMTIX
 70
               0
  9
$DIMSOXD
 70
               0
  9
$DIMSAH
 70
               0
  9
$DIMBLK1
  1

  9
$DIMBLK2
  1

  9
$DIMSTYLE
  2
STANDARD
  9
$DIMCLRD
 70
               0
  9
$DIMCLRE
 70
               0
  9
$DIMCLRT
 70
               0
  9
$DIMTFAC
 40
1.0
  9
$DIMGAP
 40
0.09
  9
$LUNITS
 70
               2
  9
$LUPREC
 70
               4
  9
$AXISMODE
 70
               0
  9
$AXISUNIT
 10
0.0
 20
0.0
  9
$SKETCHINC
 40
0.1
  9
$FILLETRAD
 40
0.0
  9
$AUNITS
 70
               0
  9
$AUPREC
 70
               0
  9
$MENU
  1
acad
  9
$ELEVATION
 40
0.0
  9
$PELEVATION
 40
0.0
  9
$THICKNESS
 40
0.0
  9
$LIMCHECK
 70
               0
  9
$BLIPMODE
 70
               1
  9
$CHAMFERA
 40
0.0
  9
$CHAMFERB
 40
0.0
  9
$SKPOLY
 70
               0
  9
$TDCREATE
 40
0.000000000
  9
$TDUPDATE
 40
0.000000000
  9
$TDINDWG
 40
0.0000000000
  9
$TDUSRTIMER
 40
0.0000000000
  9
$USRTIMER
 70
               1
  9
$ANGBASE
 50
0.0
  9
$ANGDIR
 70
               0
  9
$PDMODE
 70
               0
  9
$PDSIZE
 40
1.0
  9
$PLINEWID
 40
0.0
  9
$COORDS
 70
               1
  9
$SPLFRAME
 70
               0
  9
$SPLINETYPE
 70
               6
  9
$SPLINESEGS
 70
               8
  9
$ATTDIA
 70
               0
  9
$ATTREQ
 70
               1
  9
$HANDLING
 70
               1
  9
$HANDSEED
  5
4DE
  9
$SURFTAB1
 70
               6
  9
$SURFTAB2
 70
               6
  9
$SURFTYPE
 70
               6
  9
$SURFU
 70
               6
  9
$SURFV
 70
               6
  9
$UCSNAME
  2

  9
$UCSORG
 10
0.0
 20
0.0
 30
0.0
  9
$UCSXDIR
 10
1.0
 20
0.0
 30
0.0
  9
$UCSYDIR
 10
0.0
 20
1.0
 30
0.0
  9
$PUCSNAME
  2

  9
$PUCSORG
 10
0.0
 20
0.0
 30
0.0
  9
$PUCSXDIR
 10
1.0
 20
0.0
 30
0.0
  9
$PUCSYDIR
 10
0.0
 20
1.0
 30
0.0
  9
$USERI1
 70
               0
  9
$USERI2
 70
               0
  9
$USERI3
 70
               0
  9
$USERI4
 70
               0
  9
$USERI5
 70
               0
  9
$USERR1
 40
0.0
  9
$USERR2
 40
0.0
  9
$USERR3
 40
0.0
  9
$USERR4
 40
0.0
  9
$USERR5
 40
0.0
  9
$WORLDVIEW
 70
               1
  9
$SHADEDGE
 70
               3
  9
$SHADEDIF
 70
              70
  9
$TILEMODE
 70
               1
  9
$MAXACTVP
 70
              16
  9
$PINSBASE
 10
0.0
 20
0.0
 30
0.0
  9
$PLIMCHECK
 70
               0
  9
$PEXTMIN
 10
1.0000000000000000E+20
 20
1.0000000000000000E+20
 30
1.0000000000000000E+20
  9
$PEXTMAX
 10
-1.0000000000000000E+20
 20
-1.0000000000000000E+20
 30
-1.0000000000000000E+20
  9
$PLIMMIN
 10
0.0
 20
0.0
  9
$PLIMMAX
 10
12.0
 20
9.0
  9
$UNITMODE
 70
               0
  9
$VISRETAIN
 70
               0
  9
$PLINEGEN
 70
               1
  9
$PSLTSCALE
 70
               0
  9
$TREEDEPTH
 70
            3020
  9
$DWGCODEPAGE
  3
dos932
  0
ENDSEC
  0
SECTION
  2
TABLES
  0
TABLE
  2
VPORT
 70
               1
  0
VPORT
  2
*ACTIVE
 70
               0
 10
0.0
 20
0.0
 11
1.0
 21
1.0
 12
0.0
 22
-448.63520849510166
 13
0.0
 23
0.0
 14
1.0
 24
1.0
 15
0.0
 25
0.0
 16
0.0
 26
0.0
 36
1.0
 17
0.0
 27
0.0
 37
0.0
 40
2553.7521358158347
 41
0.6836607106516416
 42
50.0
 43
0.0
 44
0.0
 50
0.0
 51
0.0
 71
               0
 72
             100
 73
               1
 74
               1
 75
               0
 76
               0
 77
               0
 78
               0
  0
ENDTAB
  0
TABLE
  2
LTYPE
 70
              26
  0
LTYPE
  2
CONTINUOUS
 70
               0
  3
Solid line
 72
              65
 73
               0
 40
0.0
  0
LTYPE
  2
HIDDENX2
 70
               0
  3
CADPAC FUSION LINETYPE
 72
              65
 73
               2
 40
47.560000000000002
 49
35.670000000000002
 49
-11.890000000000001
  0
LTYPE
  2
HIDDEN
 70
               0
  3
CADPAC FUSION LINETYPE
 72
              65
 73
               2
 40
35.670000000000002
 49
23.780000000000001
 49
-11.890000000000001
  0
LTYPE
  2
HIDDEN2
 70
               0
  3
CADPAC FUSION LINETYPE
 72
              65
 73
               2
 40
29.725000000000001
 49
17.835000000000001
 49
-11.890000000000001
  0
LTYPE
  2
DASHED
 70
               0
  3
CADPAC FUSION LINETYPE
 72
              65
 73
               2
 40
35.670000000000002
 49
23.780000000000001
 49
-11.890000000000001
  0
LTYPE
  2
DASHED2
 70
               0
  3
CADPAC FUSION LINETYPE
 72
              65
 73
               2
 40
26.752500000000001
 49
17.835000000000001
 49
-8.9175000000000004
  0
LTYPE
  2
DASHEDX2
 70
               0
  3
CADPAC FUSION LINETYPE
 72
              65
 73
               2
 40
53.505000000000003
 49
35.670000000000002
 49
-17.835000000000001
  0
LTYPE
  2
DOTX2
 70
               0
  3
CADPAC FUSION LINETYPE
 72
              65
 73
               2
 40
14.862500000000001
 49
0.0
 49
-14.862500000000001
  0
LTYPE
  2
DOT
 70
               0
  3
CADPAC FUSION LINETYPE
 72
              65
 73
               2
 40
11.890000000000001
 49
0.0
 49
-11.890000000000001
  0
LTYPE
  2
DOTS
 70
               0
  3
CADPAC FUSION LINETYPE
 72
              65
 73
               2
 40
11.890000000000001
 49
0.0
 49
-11.890000000000001
  0
LTYPE
  2
DOT2
 70
               0
  3
CADPAC FUSION LINETYPE
 72
              65
 73
               2
 40
8.9175000000000004
 49
0.0
 49
-8.9175000000000004
  0
LTYPE
  2
CENTERX2
 70
               0
  3
CADPAC FUSION LINETYPE
 72
              65
 73
               4
 40
71.340000000000003
 49
29.725000000000001
 49
-14.862500000000001
 49
11.890000000000001
 49
-14.862500000000001
  0
LTYPE
  2
CENTER
 70
               0
  3
CADPAC FUSION LINETYPE
 72
              65
 73
               4
 40
54.694000000000003
 49
23.780000000000001
 49
-11.890000000000001
 49
7.1340000000000003
 49
-11.890000000000001
  0
LTYPE
  2
CENTER2
 70
               0
  3
CADPAC FUSION LINETYPE
 72
              65
 73
               4
 40
38.048000000000002
 49
17.835000000000001
 49
-8.9175000000000004
 49
2.3780000000000001
 49
-8.9175000000000004
  0
LTYPE
  2
DASHDOTX2
 70
               0
  3
CADPAC FUSION LINETYPE
 72
              65
 73
               4
 40
59.450000000000003
 49
29.725000000000001
 49
-14.862500000000001
 49
0.0
 49
-14.862500000000001
  0
LTYPE
  2
DASHDOT
 70
               0
  3
CADPAC FUSION LINETYPE
 72
              65
 73
               4
 40
47.560000000000002
 49
23.780000000000001
 49
-11.890000000000001
 49
0.0
 49
-11.890000000000001
  0
LTYPE
  2
DASHDOT2
 70
               0
  3
CADPAC FUSION LINETYPE
 72
              65
 73
               4
 40
35.670000000000002
 49
17.835000000000001
 49
-8.9175000000000004
 49
0.0
 49
-8.9175000000000004
  0
LTYPE
  2
DIVIDEX2
 70
               0
  3
CADPAC FUSION LINETYPE
 72
              65
 73
               6
 40
74.3125
 49
29.725000000000001
 49
-14.862500000000001
 49
0.0
 49
-14.862500000000001
 49
0.0
 49
-14.862500000000001
  0
LTYPE
  2
DIVIDE
 70
               0
  3
CADPAC FUSION LINETYPE
 72
              65
 73
               6
 40
59.450000000000003
 49
23.780000000000001
 49
-11.890000000000001
 49
0.0
 49
-11.890000000000001
 49
0.0
 49
-11.890000000000001
  0
LTYPE
  2
DIVIDE2
 70
               0
  3
CADPAC FUSION LINETYPE
 72
              65
 73
               6
 40
44.587500000000006
 49
17.835000000000001
 49
-8.9175000000000004
 49
0.0
 49
-8.9175000000000004
 49
0.0
 49
-8.9175000000000004
  0
LTYPE
  2
BORDERX2
 70
               0
  3
CADPAC FUSION LINETYPE
 72
              65
 73
               6
 40
104.03750000000001
 49
29.725000000000001
 49
-14.862500000000001
 49
29.725000000000001
 49
-14.862500000000001
 49
0.0
 49
-14.862500000000001
  0
LTYPE
  2
BORDER
 70
               0
  3
CADPAC FUSION LINETYPE
 72
              65
 73
               6
 40
83.230000000000004
 49
23.780000000000001
 49
-11.890000000000001
 49
23.780000000000001
 49
-11.890000000000001
 49
0.0
 49
-11.890000000000001
  0
LTYPE
  2
BORDER2
 70
               0
  3
CADPAC FUSION LINETYPE
 72
              65
 73
               6
 40
62.422499999999999
 49
17.835000000000001
 49
-8.9175000000000004
 49
17.835000000000001
 49
-8.9175000000000004
 49
0.0
 49
-8.9175000000000004
  0
LTYPE
  2
PHANTOMX2
 70
               0
  3
CADPAC FUSION LINETYPE
 72
              65
 73
               6
 40
89.175000000000011
 49
29.725000000000001
 49
-11.890000000000001
 49
11.890000000000001
 49
-11.890000000000001
 49
11.890000000000001
 49
-11.890000000000001
  0
LTYPE
  2
PHANTOM
 70
               0
  3
CADPAC FUSION LINETYPE
 72
              65
 73
               6
 40
73.718000000000004
 49
23.780000000000001
 49
-11.890000000000001
 49
7.1340000000000003
 49
-11.890000000000001
 49
7.1340000000000003
 49
-11.890000000000001
  0
LTYPE
  2
PHANTOM2
 70
               0
  3
CADPAC FUSION LINETYPE
 72
              65
 73
               6
 40
63.017000000000003
 49
17.835000000000001
 49
-11.890000000000001
 49
4.7560000000000002
 49
-11.890000000000001
 49
4.7560000000000002
 49
-11.890000000000001
  0
ENDTAB
  0
TABLE
  2
LAYER
 70
             256
  0
LAYER
  2
0
 70
               0
 62
               7
  6
CONTINUOUS
  0
LAYER
  2
LAYER001
 70
               0
 62
               7
  6
CONTINUOUS
  0
LAYER
  2
LAYER002
 70
               0
 62
               7
  6
CONTINUOUS
  0
LAYER
  2
LAYER003
 70
               0
 62
               7
  6
CONTINUOUS
  0
LAYER
  2
LAYER004
 70
               0
 62
               7
  6
CONTINUOUS
  0
LAYER
  2
LAYER005
 70
               0
 62
               7
  6
CONTINUOUS
  0
LAYER
  2
LAYER006
 70
               0
 62
               7
  6
CONTINUOUS
  0
LAYER
  2
LAYER007
 70
               0
 62
               7
  6
CONTINUOUS
  0
LAYER
  2
LAYER008
 70
               0
 62
               7
  6
CONTINUOUS
  0
LAYER
  2
LAYER009
 70
               0
 62
               7
  6
CONTINUOUS
  0
LAYER
  2
LAYER010
 70
               0
 62
               7
  6
CONTINUOUS
  0
LAYER
  2
LAYER011
 70
               0
 62
               7
  6
CONTINUOUS
  0
LAYER
  2
LAYER012
 70
               0
 62
               7
  6
CONTINUOUS
  0
LAYER
  2
LAYER013
 70
               0
 62
               7
  6
CONTINUOUS
  0
LAYER
  2
LAYER014
 70
               0
 62
               7
  6
CONTINUOUS
  0
LAYER
  2
LAYER015
 70
               0
 62
               7
  6
CONTINUOUS
  0
LAYER
  2
LAYER016
 70
               0
 62
               7
  6
CONTINUOUS
  0
LAYER
  2
LAYER017
 70
               0
 62
               7
  6
CONTINUOUS
  0
LAYER
  2
LAYER018
 70
               0
 62
               7
  6
CONTINUOUS
  0
LAYER
  2
LAYER019
 70
               0
 62
               7
  6
CONTINUOUS
  0
LAYER
  2
LAYER020
 70
               0
 62
               7
  6
CONTINUOUS
  0
LAYER
  2
LAYER021
 70
               0
 62
               7
  6
CONTINUOUS
  0
LAYER
  2
LAYER022
 70
               0
 62
               7
  6
CONTINUOUS
  0
LAYER
  2
LAYER023
 70
               0
 62
               7
  6
CONTINUOUS
  0
LAYER
  2
LAYER024
 70
               0
 62
               7
  6
CONTINUOUS
  0
LAYER
  2
LAYER025
 70
               0
 62
               7
  6
CONTINUOUS
  0
LAYER
  2
LAYER026
 70
               0
 62
               7
  6
CONTINUOUS
  0
LAYER
  2
LAYER027
 70
               0
 62
               7
  6
CONTINUOUS
  0
LAYER
  2
LAYER028
 70
               0
 62
               7
  6
CONTINUOUS
  0
LAYER
  2
LAYER029
 70
               0
 62
               7
  6
CONTINUOUS
  0
LAYER
  2
LAYER030
 70
               0
 62
               7
  6
CONTINUOUS
  0
LAYER
  2
LAYER031
 70
               0
 62
               7
  6
CONTINUOUS
  0
LAYER
  2
LAYER032
 70
               0
 62
               7
  6
CONTINUOUS
  0
LAYER
  2
LAYER033
 70
               0
 62
               7
  6
CONTINUOUS
  0
LAYER
  2
LAYER034
 70
               0
 62
               7
  6
CONTINUOUS
  0
LAYER
  2
LAYER035
 70
               0
 62
               7
  6
CONTINUOUS
  0
LAYER
  2
LAYER036
 70
               0
 62
               7
  6
CONTINUOUS
  0
LAYER
  2
LAYER037
 70
               0
 62
               7
  6
CONTINUOUS
  0
LAYER
  2
LAYER038
 70
               0
 62
               7
  6
CONTINUOUS
  0
LAYER
  2
LAYER039
 70
               0
 62
               7
  6
CONTINUOUS
  0
LAYER
  2
LAYER040
 70
               0
 62
               7
  6
CONTINUOUS
  0
LAYER
  2
LAYER041
 70
               0
 62
               7
  6
CONTINUOUS
  0
LAYER
  2
LAYER042
 70
               0
 62
               7
  6
CONTINUOUS
  0
LAYER
  2
LAYER043
 70
               0
 62
               7
  6
CONTINUOUS
  0
LAYER
  2
LAYER044
 70
               0
 62
               7
  6
CONTINUOUS
  0
LAYER
  2
LAYER045
 70
               0
 62
               7
  6
CONTINUOUS
  0
LAYER
  2
LAYER046
 70
               0
 62
               7
  6
CONTINUOUS
  0
LAYER
  2
LAYER047
 70
               0
 62
               7
  6
CONTINUOUS
  0
LAYER
  2
LAYER048
 70
               0
 62
               7
  6
CONTINUOUS
  0
LAYER
  2
LAYER049
 70
               0
 62
               7
  6
CONTINUOUS
  0
LAYER
  2
LAYER050
 70
               0
 62
               7
  6
CONTINUOUS
  0
LAYER
  2
LAYER051
 70
               0
 62
               7
  6
CONTINUOUS
  0
LAYER
  2
LAYER052
 70
               0
 62
               7
  6
CONTINUOUS
  0
LAYER
  2
LAYER053
 70
               0
 62
               7
  6
CONTINUOUS
  0
LAYER
  2
LAYER054
 70
               0
 62
               7
  6
CONTINUOUS
  0
LAYER
  2
LAYER055
 70
               0
 62
               7
  6
CONTINUOUS
  0
LAYER
  2
LAYER056
 70
               0
 62
               7
  6
CONTINUOUS
  0
LAYER
  2
LAYER057
 70
               0
 62
               7
  6
CONTINUOUS
  0
LAYER
  2
LAYER058
 70
               0
 62
               7
  6
CONTINUOUS
  0
LAYER
  2
LAYER059
 70
               0
 62
               7
  6
CONTINUOUS
  0
LAYER
  2
LAYER060
 70
               0
 62
               7
  6
CONTINUOUS
  0
LAYER
  2
LAYER061
 70
               0
 62
               7
  6
CONTINUOUS
  0
LAYER
  2
LAYER062
 70
               0
 62
               7
  6
CONTINUOUS
  0
LAYER
  2
LAYER063
 70
               0
 62
               7
  6
CONTINUOUS
  0
LAYER
  2
LAYER064
 70
               0
 62
               7
  6
CONTINUOUS
  0
LAYER
  2
LAYER065
 70
               0
 62
               7
  6
CONTINUOUS
  0
LAYER
  2
LAYER066
 70
               0
 62
               7
  6
CONTINUOUS
  0
LAYER
  2
LAYER067
 70
               0
 62
               7
  6
CONTINUOUS
  0
LAYER
  2
LAYER068
 70
               0
 62
               7
  6
CONTINUOUS
  0
LAYER
  2
LAYER069
 70
               0
 62
               7
  6
CONTINUOUS
  0
LAYER
  2
LAYER070
 70
               0
 62
               7
  6
CONTINUOUS
  0
LAYER
  2
LAYER071
 70
               0
 62
               7
  6
CONTINUOUS
  0
LAYER
  2
LAYER072
 70
               0
 62
               7
  6
CONTINUOUS
  0
LAYER
  2
LAYER073
 70
               0
 62
               7
  6
CONTINUOUS
  0
LAYER
  2
LAYER074
 70
               0
 62
               7
  6
CONTINUOUS
  0
LAYER
  2
LAYER075
 70
               0
 62
               7
  6
CONTINUOUS
  0
LAYER
  2
LAYER076
 70
               0
 62
               7
  6
CONTINUOUS
  0
LAYER
  2
LAYER077
 70
               0
 62
               7
  6
CONTINUOUS
  0
LAYER
  2
LAYER078
 70
               0
 62
               7
  6
CONTINUOUS
  0
LAYER
  2
LAYER079
 70
               0
 62
               7
  6
CONTINUOUS
  0
LAYER
  2
LAYER080
 70
               0
 62
               7
  6
CONTINUOUS
  0
LAYER
  2
LAYER081
 70
               0
 62
               7
  6
CONTINUOUS
  0
LAYER
  2
LAYER082
 70
               0
 62
               7
  6
CONTINUOUS
  0
LAYER
  2
LAYER083
 70
               0
 62
               7
  6
CONTINUOUS
  0
LAYER
  2
LAYER084
 70
               0
 62
               7
  6
CONTINUOUS
  0
LAYER
  2
LAYER085
 70
               0
 62
               7
  6
CONTINUOUS
  0
LAYER
  2
LAYER086
 70
               0
 62
               7
  6
CONTINUOUS
  0
LAYER
  2
LAYER087
 70
               0
 62
               7
  6
CONTINUOUS
  0
LAYER
  2
LAYER088
 70
               0
 62
               7
  6
CONTINUOUS
  0
LAYER
  2
LAYER089
 70
               0
 62
               7
  6
CONTINUOUS
  0
LAYER
  2
LAYER090
 70
               0
 62
               7
  6
CONTINUOUS
  0
LAYER
  2
LAYER091
 70
               0
 62
               7
  6
CONTINUOUS
  0
LAYER
  2
LAYER092
 70
               0
 62
               7
  6
CONTINUOUS
  0
LAYER
  2
LAYER093
 70
               0
 62
               7
  6
CONTINUOUS
  0
LAYER
  2
LAYER094
 70
               0
 62
               7
  6
CONTINUOUS
  0
LAYER
  2
LAYER095
 70
               0
 62
               7
  6
CONTINUOUS
  0
LAYER
  2
LAYER096
 70
               0
 62
               7
  6
CONTINUOUS
  0
LAYER
  2
LAYER097
 70
               0
 62
               7
  6
CONTINUOUS
  0
LAYER
  2
LAYER098
 70
               0
 62
               7
  6
CONTINUOUS
  0
LAYER
  2
LAYER099
 70
               0
 62
               7
  6
CONTINUOUS
  0
LAYER
  2
LAYER100
 70
               0
 62
               7
  6
CONTINUOUS
  0
LAYER
  2
LAYER101
 70
               0
 62
               7
  6
CONTINUOUS
  0
LAYER
  2
LAYER102
 70
               0
 62
               7
  6
CONTINUOUS
  0
LAYER
  2
LAYER103
 70
               0
 62
               7
  6
CONTINUOUS
  0
LAYER
  2
LAYER104
 70
               0
 62
               7
  6
CONTINUOUS
  0
LAYER
  2
LAYER105
 70
               0
 62
               7
  6
CONTINUOUS
  0
LAYER
  2
LAYER106
 70
               0
 62
               7
  6
CONTINUOUS
  0
LAYER
  2
LAYER107
 70
               0
 62
               7
  6
CONTINUOUS
  0
LAYER
  2
LAYER108
 70
               0
 62
               7
  6
CONTINUOUS
  0
LAYER
  2
LAYER109
 70
               0
 62
               7
  6
CONTINUOUS
  0
LAYER
  2
LAYER110
 70
               0
 62
               7
  6
CONTINUOUS
  0
LAYER
  2
LAYER111
 70
               0
 62
               7
  6
CONTINUOUS
  0
LAYER
  2
LAYER112
 70
               0
 62
               7
  6
CONTINUOUS
  0
LAYER
  2
LAYER113
 70
               0
 62
               7
  6
CONTINUOUS
  0
LAYER
  2
LAYER114
 70
               0
 62
               7
  6
CONTINUOUS
  0
LAYER
  2
LAYER115
 70
               0
 62
               7
  6
CONTINUOUS
  0
LAYER
  2
LAYER116
 70
               0
 62
               7
  6
CONTINUOUS
  0
LAYER
  2
LAYER117
 70
               0
 62
               7
  6
CONTINUOUS
  0
LAYER
  2
LAYER118
 70
               0
 62
               7
  6
CONTINUOUS
  0
LAYER
  2
LAYER119
 70
               0
 62
               7
  6
CONTINUOUS
  0
LAYER
  2
LAYER120
 70
               0
 62
               7
  6
CONTINUOUS
  0
LAYER
  2
LAYER121
 70
               0
 62
               7
  6
CONTINUOUS
  0
LAYER
  2
LAYER122
 70
               0
 62
               7
  6
CONTINUOUS
  0
LAYER
  2
LAYER123
 70
               0
 62
               7
  6
CONTINUOUS
  0
LAYER
  2
LAYER124
 70
               0
 62
               7
  6
CONTINUOUS
  0
LAYER
  2
LAYER125
 70
               0
 62
               7
  6
CONTINUOUS
  0
LAYER
  2
LAYER126
 70
               0
 62
               7
  6
CONTINUOUS
  0
LAYER
  2
LAYER127
 70
               0
 62
               7
  6
CONTINUOUS
  0
LAYER
  2
LAYER128
 70
               0
 62
               7
  6
CONTINUOUS
  0
LAYER
  2
LAYER129
 70
               0
 62
               7
  6
CONTINUOUS
  0
LAYER
  2
LAYER130
 70
               0
 62
               7
  6
CONTINUOUS
  0
LAYER
  2
LAYER131
 70
               0
 62
               7
  6
CONTINUOUS
  0
LAYER
  2
LAYER132
 70
               0
 62
               7
  6
CONTINUOUS
  0
LAYER
  2
LAYER133
 70
               0
 62
               7
  6
CONTINUOUS
  0
LAYER
  2
LAYER134
 70
               0
 62
               7
  6
CONTINUOUS
  0
LAYER
  2
LAYER135
 70
               0
 62
               7
  6
CONTINUOUS
  0
LAYER
  2
LAYER136
 70
               0
 62
               7
  6
CONTINUOUS
  0
LAYER
  2
LAYER137
 70
               0
 62
               7
  6
CONTINUOUS
  0
LAYER
  2
LAYER138
 70
               0
 62
               7
  6
CONTINUOUS
  0
LAYER
  2
LAYER139
 70
               0
 62
               7
  6
CONTINUOUS
  0
LAYER
  2
LAYER140
 70
               0
 62
               7
  6
CONTINUOUS
  0
LAYER
  2
LAYER141
 70
               0
 62
               7
  6
CONTINUOUS
  0
LAYER
  2
LAYER142
 70
               0
 62
               7
  6
CONTINUOUS
  0
LAYER
  2
LAYER143
 70
               0
 62
               7
  6
CONTINUOUS
  0
LAYER
  2
LAYER144
 70
               0
 62
               7
  6
CONTINUOUS
  0
LAYER
  2
LAYER145
 70
               0
 62
               7
  6
CONTINUOUS
  0
LAYER
  2
LAYER146
 70
               0
 62
               7
  6
CONTINUOUS
  0
LAYER
  2
LAYER147
 70
               0
 62
               7
  6
CONTINUOUS
  0
LAYER
  2
LAYER148
 70
               0
 62
               7
  6
CONTINUOUS
  0
LAYER
  2
LAYER149
 70
               0
 62
               7
  6
CONTINUOUS
  0
LAYER
  2
LAYER150
 70
               0
 62
               7
  6
CONTINUOUS
  0
LAYER
  2
LAYER151
 70
               0
 62
               7
  6
CONTINUOUS
  0
LAYER
  2
LAYER152
 70
               0
 62
               7
  6
CONTINUOUS
  0
LAYER
  2
LAYER153
 70
               0
 62
               7
  6
CONTINUOUS
  0
LAYER
  2
LAYER154
 70
               0
 62
               7
  6
CONTINUOUS
  0
LAYER
  2
LAYER155
 70
               0
 62
               7
  6
CONTINUOUS
  0
LAYER
  2
LAYER156
 70
               0
 62
               7
  6
CONTINUOUS
  0
LAYER
  2
LAYER157
 70
               0
 62
               7
  6
CONTINUOUS
  0
LAYER
  2
LAYER158
 70
               0
 62
               7
  6
CONTINUOUS
  0
LAYER
  2
LAYER159
 70
               0
 62
               7
  6
CONTINUOUS
  0
LAYER
  2
LAYER160
 70
               0
 62
               7
  6
CONTINUOUS
  0
LAYER
  2
LAYER161
 70
               0
 62
               7
  6
CONTINUOUS
  0
LAYER
  2
LAYER162
 70
               0
 62
               7
  6
CONTINUOUS
  0
LAYER
  2
LAYER163
 70
               0
 62
               7
  6
CONTINUOUS
  0
LAYER
  2
LAYER164
 70
               0
 62
               7
  6
CONTINUOUS
  0
LAYER
  2
LAYER165
 70
               0
 62
               7
  6
CONTINUOUS
  0
LAYER
  2
LAYER166
 70
               0
 62
               7
  6
CONTINUOUS
  0
LAYER
  2
LAYER167
 70
               0
 62
               7
  6
CONTINUOUS
  0
LAYER
  2
LAYER168
 70
               0
 62
               7
  6
CONTINUOUS
  0
LAYER
  2
LAYER169
 70
               0
 62
               7
  6
CONTINUOUS
  0
LAYER
  2
LAYER170
 70
               0
 62
               7
  6
CONTINUOUS
  0
LAYER
  2
LAYER171
 70
               0
 62
               7
  6
CONTINUOUS
  0
LAYER
  2
LAYER172
 70
               0
 62
               7
  6
CONTINUOUS
  0
LAYER
  2
LAYER173
 70
               0
 62
               7
  6
CONTINUOUS
  0
LAYER
  2
LAYER174
 70
               0
 62
               7
  6
CONTINUOUS
  0
LAYER
  2
LAYER175
 70
               0
 62
               7
  6
CONTINUOUS
  0
LAYER
  2
LAYER176
 70
               0
 62
               7
  6
CONTINUOUS
  0
LAYER
  2
LAYER177
 70
               0
 62
               7
  6
CONTINUOUS
  0
LAYER
  2
LAYER178
 70
               0
 62
               7
  6
CONTINUOUS
  0
LAYER
  2
LAYER179
 70
               0
 62
               7
  6
CONTINUOUS
  0
LAYER
  2
LAYER180
 70
               0
 62
               7
  6
CONTINUOUS
  0
LAYER
  2
LAYER181
 70
               0
 62
               7
  6
CONTINUOUS
  0
LAYER
  2
LAYER182
 70
               0
 62
               7
  6
CONTINUOUS
  0
LAYER
  2
LAYER183
 70
               0
 62
               7
  6
CONTINUOUS
  0
LAYER
  2
LAYER184
 70
               0
 62
               7
  6
CONTINUOUS
  0
LAYER
  2
LAYER185
 70
               0
 62
               7
  6
CONTINUOUS
  0
LAYER
  2
LAYER186
 70
               0
 62
               7
  6
CONTINUOUS
  0
LAYER
  2
LAYER187
 70
               0
 62
               7
  6
CONTINUOUS
  0
LAYER
  2
LAYER188
 70
               0
 62
               7
  6
CONTINUOUS
  0
LAYER
  2
LAYER189
 70
               0
 62
               7
  6
CONTINUOUS
  0
LAYER
  2
LAYER190
 70
               0
 62
               7
  6
CONTINUOUS
  0
LAYER
  2
LAYER191
 70
               0
 62
               7
  6
CONTINUOUS
  0
LAYER
  2
LAYER192
 70
               0
 62
               7
  6
CONTINUOUS
  0
LAYER
  2
LAYER193
 70
               0
 62
               7
  6
CONTINUOUS
  0
LAYER
  2
LAYER194
 70
               0
 62
               7
  6
CONTINUOUS
  0
LAYER
  2
LAYER195
 70
               0
 62
               7
  6
CONTINUOUS
  0
LAYER
  2
LAYER196
 70
               0
 62
               7
  6
CONTINUOUS
  0
LAYER
  2
LAYER197
 70
               0
 62
               7
  6
CONTINUOUS
  0
LAYER
  2
LAYER198
 70
               0
 62
               7
  6
CONTINUOUS
  0
LAYER
  2
LAYER199
 70
               0
 62
               7
  6
CONTINUOUS
  0
LAYER
  2
LAYER200
 70
               0
 62
               7
  6
CONTINUOUS
  0
LAYER
  2
LAYER201
 70
               0
 62
               7
  6
CONTINUOUS
  0
LAYER
  2
LAYER202
 70
               0
 62
               7
  6
CONTINUOUS
  0
LAYER
  2
LAYER203
 70
               0
 62
               7
  6
CONTINUOUS
  0
LAYER
  2
LAYER204
 70
               0
 62
               7
  6
CONTINUOUS
  0
LAYER
  2
LAYER205
 70
               0
 62
               7
  6
CONTINUOUS
  0
LAYER
  2
LAYER206
 70
               0
 62
               7
  6
CONTINUOUS
  0
LAYER
  2
LAYER207
 70
               0
 62
               7
  6
CONTINUOUS
  0
LAYER
  2
LAYER208
 70
               0
 62
               7
  6
CONTINUOUS
  0
LAYER
  2
LAYER209
 70
               0
 62
               7
  6
CONTINUOUS
  0
LAYER
  2
LAYER210
 70
               0
 62
               7
  6
CONTINUOUS
  0
LAYER
  2
LAYER211
 70
               0
 62
               7
  6
CONTINUOUS
  0
LAYER
  2
LAYER212
 70
               0
 62
               7
  6
CONTINUOUS
  0
LAYER
  2
LAYER213
 70
               0
 62
               7
  6
CONTINUOUS
  0
LAYER
  2
LAYER214
 70
               0
 62
               7
  6
CONTINUOUS
  0
LAYER
  2
LAYER215
 70
               0
 62
               7
  6
CONTINUOUS
  0
LAYER
  2
LAYER216
 70
               0
 62
               7
  6
CONTINUOUS
  0
LAYER
  2
LAYER217
 70
               0
 62
               7
  6
CONTINUOUS
  0
LAYER
  2
LAYER218
 70
               0
 62
               7
  6
CONTINUOUS
  0
LAYER
  2
LAYER219
 70
               0
 62
               7
  6
CONTINUOUS
  0
LAYER
  2
LAYER220
 70
               0
 62
               7
  6
CONTINUOUS
  0
LAYER
  2
LAYER221
 70
               0
 62
               7
  6
CONTINUOUS
  0
LAYER
  2
LAYER222
 70
               0
 62
               7
  6
CONTINUOUS
  0
LAYER
  2
LAYER223
 70
               0
 62
               7
  6
CONTINUOUS
  0
LAYER
  2
LAYER224
 70
               0
 62
               7
  6
CONTINUOUS
  0
LAYER
  2
LAYER225
 70
               0
 62
               7
  6
CONTINUOUS
  0
LAYER
  2
LAYER226
 70
               0
 62
               7
  6
CONTINUOUS
  0
LAYER
  2
LAYER227
 70
               0
 62
               7
  6
CONTINUOUS
  0
LAYER
  2
LAYER228
 70
               0
 62
               7
  6
CONTINUOUS
  0
LAYER
  2
LAYER229
 70
               0
 62
               7
  6
CONTINUOUS
  0
LAYER
  2
LAYER230
 70
               0
 62
               7
  6
CONTINUOUS
  0
LAYER
  2
LAYER231
 70
               0
 62
               7
  6
CONTINUOUS
  0
LAYER
  2
LAYER232
 70
               0
 62
               7
  6
CONTINUOUS
  0
LAYER
  2
LAYER233
 70
               0
 62
               7
  6
CONTINUOUS
  0
LAYER
  2
LAYER234
 70
               0
 62
               7
  6
CONTINUOUS
  0
LAYER
  2
LAYER235
 70
               0
 62
               7
  6
CONTINUOUS
  0
LAYER
  2
LAYER236
 70
               0
 62
               7
  6
CONTINUOUS
  0
LAYER
  2
LAYER237
 70
               0
 62
               7
  6
CONTINUOUS
  0
LAYER
  2
LAYER238
 70
               0
 62
               7
  6
CONTINUOUS
  0
LAYER
  2
LAYER239
 70
               0
 62
               7
  6
CONTINUOUS
  0
LAYER
  2
LAYER240
 70
               0
 62
               7
  6
CONTINUOUS
  0
LAYER
  2
LAYER241
 70
               0
 62
               7
  6
CONTINUOUS
  0
LAYER
  2
LAYER242
 70
               0
 62
               7
  6
CONTINUOUS
  0
LAYER
  2
LAYER243
 70
               0
 62
               7
  6
CONTINUOUS
  0
LAYER
  2
LAYER244
 70
               0
 62
               7
  6
CONTINUOUS
  0
LAYER
  2
LAYER245
 70
               0
 62
               7
  6
CONTINUOUS
  0
LAYER
  2
LAYER246
 70
               0
 62
               7
  6
CONTINUOUS
  0
LAYER
  2
LAYER247
 70
               0
 62
               7
  6
CONTINUOUS
  0
LAYER
  2
LAYER248
 70
               0
 62
               7
  6
CONTINUOUS
  0
LAYER
  2
LAYER249
 70
               0
 62
               7
  6
CONTINUOUS
  0
LAYER
  2
LAYER250
 70
               0
 62
               7
  6
CONTINUOUS
  0
LAYER
  2
LAYER251
 70
               0
 62
               7
  6
CONTINUOUS
  0
LAYER
  2
LAYER252
 70
               0
 62
               7
  6
CONTINUOUS
  0
LAYER
  2
LAYER253
 70
               0
 62
               7
  6
CONTINUOUS
  0
LAYER
  2
LAYER254
 70
               0
 62
               7
  6
CONTINUOUS
  0
LAYER
  2
LAYER255
 70
               0
 62
               7
  6
CONTINUOUS
  0
ENDTAB
  0
TABLE
  2
STYLE
 70
               1
  0
STYLE
  2
STANDARD
 70
               0
 40
0.0
 41
0.8
 50
0.0
 71
               0
 42
40.0
  3
MS PGothic.ttf
  4

  0
ENDTAB
  0
TABLE
  2
VIEW
 70
               0
  0
VIEW
  2
QQQQ
 70
               0
 40
2553.7521358158347
 10
0.0
 20
-448.63520849510166
 41
1745.900000000001
 11
0.0
 21
0.0
 31
1.0
 12
100.0
 22
100.0
 32
0.0
 42
50.0
 43
0.0
 44
0.0
 50
0.0
 71
               0
  0
ENDTAB
  0
TABLE
  2
UCS
 70
               0
  0
ENDTAB
  0
TABLE
  2
APPID
 70
               1
  0
APPID
  2
ACAD
 70
               0
  0
ENDTAB
  0
TABLE
  2
DIMSTYLE
 70
               1
  0
DIMSTYLE
  2
STANDARD
 70
               0
  3

  4

  5

  6

  7

 40
1.0
 41
0.18
 42
0.0625
 43
0.38
 44
0.18
 45
0.0
 46
0.0
 47
0.0
 48
0.0
140
0.18
141
0.09
142
0.0
143
25.399999999999999
144
1.0
145
0.0
146
1.0
147
0.09
 71
               0
 72
               0
 73
               1
 74
               1
 75
               0
 76
               0
 77
               0
 78
               0
170
               0
171
               2
172
               0
173
               0
174
               0
175
               0
176
               0
177
               0
178
               0
  0
ENDTAB
  0
ENDSEC
  0
SECTION
  2
BLOCKS
  0
BLOCK
  8
0
  5
140
  2
GROUP_1
 70
               0
 10
0.0
 20
0.0
 30
0.0
  3
GROUP_1
  0
CIRCLE
  8
0
  6
CONTINUOUS
 62
               4
  5
141
 10
64.204636350973999
 20
661.25546145071871
 30
0.0
 40
9.5
  0
LINE
  8
0
  6
CONTINUOUS
 62
               4
  5
142
 10
64.204636350973999
 20
672.22511656532174
 30
0.0
 11
73.704636350973743
 21
666.74028900801977
 31
0.0
  0
LINE
  8
0
  6
CONTINUOUS
 62
               4
  5
143
 10
73.704636350973743
 20
666.74028900801977
 30
0.0
 11
73.704636350973743
 21
655.77063389341697
 31
0.0
  0
LINE
  8
0
  6
CONTINUOUS
 62
               4
  5
144
 10
73.704636350973743
 20
655.77063389341697
 30
0.0
 11
64.204636350973999
 21
650.28580633611546
 31
0.0
  0
LINE
  8
0
  6
CONTINUOUS
 62
               4
  5
145
 10
64.204636350973999
 20
650.28580633611546
 30
0.0
 11
54.704636350973971
 21
655.77063389341697
 31
0.0
  0
LINE
  8
0
  6
CONTINUOUS
 62
               4
  5
146
 10
54.704636350973971
 20
655.77063389341697
 30
0.0
 11
54.704636350973971
 21
666.74028900801977
 31
0.0
  0
LINE
  8
0
  6
CONTINUOUS
 62
               4
  5
147
 10
54.704636350973971
 20
666.74028900801977
 30
0.0
 11
64.204636350973999
 21
672.22511656532174
 31
0.0
  0
CIRCLE
  8
0
  6
CONTINUOUS
 62
               4
  5
148
 10
64.204636350973999
 20
661.25546145071871
 30
0.0
 40
5.1250000000000009
  0
CIRCLE
  8
0
  6
CONTINUOUS
 62
               4
  5
149
 10
64.204636350973999
 20
661.25546145071871
 30
0.0
 40
6.0000000000000009
  0
ENDBLK
  8
0
  5
14A
  0
BLOCK
  8
0
  5
14B
  2
GROUP_2
 70
               0
 10
0.0
 20
0.0
 30
0.0
  3
GROUP_2
  0
CIRCLE
  8
0
  6
CONTINUOUS
 62
               4
  5
14C
 10
64.204636350973999
 20
532.56202727476693
 30
0.0
 40
9.5
  0
LINE
  8
0
  6
CONTINUOUS
 62
               4
  5
14D
 10
64.204636350973999
 20
543.53168238936996
 30
0.0
 11
73.704636350973743
 21
538.04685483206822
 31
0.0
  0
LINE
  8
0
  6
CONTINUOUS
 62
               4
  5
14E
 10
73.704636350973743
 20
538.04685483206822
 30
0.0
 11
73.704636350973743
 21
527.07719971746519
 31
0.0
  0
LINE
  8
0
  6
CONTINUOUS
 62
               4
  5
14F
 10
73.704636350973743
 20
527.07719971746519
 30
0.0
 11
64.204636350973999
 21
521.5923721601639
 31
0.0
  0
LINE
  8
0
  6
CONTINUOUS
 62
               4
  5
150
 10
64.204636350973999
 20
521.5923721601639
 30
0.0
 11
54.704636350973757
 21
527.07719971746519
 31
0.0
  0
LINE
  8
0
  6
CONTINUOUS
 62
               4
  5
151
 10
54.704636350973757
 20
527.07719971746519
 30
0.0
 11
54.704636350973757
 21
538.04685483206822
 31
0.0
  0
LINE
  8
0
  6
CONTINUOUS
 62
               4
  5
152
 10
54.704636350973757
 20
538.04685483206822
 30
0.0
 11
64.204636350973999
 21
543.53168238936996
 31
0.0
  0
CIRCLE
  8
0
  6
CONTINUOUS
 62
               4
  5
153
 10
64.204636350973999
 20
532.56202727476693
 30
0.0
 40
5.1250000000000009
  0
CIRCLE
  8
0
  6
CONTINUOUS
 62
               4
  5
154
 10
64.204636350973999
 20
532.56202727476693
 30
0.0
 40
6.0000000000000009
  0
ENDBLK
  8
0
  5
155
  0
BLOCK
  8
0
  5
156
  2
GROUP_3
 70
               0
 10
0.0
 20
0.0
 30
0.0
  3
GROUP_3
  0
LINE
  8
0
  6
CONTINUOUS
 62
               4
  5
157
 10
-54.849999999999909
 20
-107.60874436274111
 30
0.0
 11
-73.850000000000023
 21
-107.60874436274111
 31
0.0
  0
LINE
  8
0
  6
CONTINUOUS
 62
               4
  5
158
 10
-73.850000000000023
 20
-107.60874436274111
 30
0.0
 11
-73.850000000000023
 21
-117.60874436274111
 31
0.0
  0
LINE
  8
0
  6
CONTINUOUS
 62
               4
  5
159
 10
-73.850000000000023
 20
-117.60874436274111
 30
0.0
 11
-54.849999999999909
 21
-117.60874436274111
 31
0.0
  0
LINE
  8
0
  6
CONTINUOUS
 62
               4
  5
15A
 10
-54.849999999999909
 20
-117.60874436274111
 30
0.0
 11
-54.849999999999909
 21
-107.60874436274111
 31
0.0
  0
LINE
  8
0
  6
CONTINUOUS
 62
               4
  5
15B
 10
-64.350000000000136
 20
-117.60874436274111
 30
0.0
 11
-64.350000000000136
 21
-108.73457738766092
 31
0.0
  0
ARC
  8
0
  6
CONTINUOUS
 62
               4
  5
15C
 10
-69.100000000000136
 20
-118.08564696868092
 30
0.0
 40
10.488326954718639
 50
63.071102706939705
 51
116.92889729302551
  0
ARC
  8
0
  6
CONTINUOUS
 62
               4
  5
15D
 10
-59.599999999999909
 20
-118.08564696868092
 30
0.0
 40
10.488326954718639
 50
63.071102706939705
 51
116.92889729302551
  0
ARC
  8
0
  6
CONTINUOUS
 62
               4
  5
15E
 10
-59.599999999999909
 20
-118.08564696868092
 30
0.0
 40
10.488326954718639
 50
63.071102706939705
 51
116.92889729302551
  0
ARC
  8
0
  6
CONTINUOUS
 62
               4
  5
15F
 10
-59.599999999999909
 20
-118.08564696868092
 30
0.0
 40
10.488326954718639
 50
63.071102706939705
 51
116.92889729302551
  0
ENDBLK
  8
0
  5
160
  0
BLOCK
  8
0
  5
161
  2
GROUP_4
 70
               0
 10
0.0
 20
0.0
 30
0.0
  3
GROUP_4
  0
LINE
  8
0
  6
CONTINUOUS
 62
               4
  5
162
 10
73.850000000000364
 20
-107.60874436274196
 30
0.0
 11
54.850000000000364
 21
-107.60874436274196
 31
0.0
  0
LINE
  8
0
  6
CONTINUOUS
 62
               4
  5
163
 10
54.850000000000364
 20
-107.60874436274196
 30
0.0
 11
54.850000000000364
 21
-117.60874436274196
 31
0.0
  0
LINE
  8
0
  6
CONTINUOUS
 62
               4
  5
164
 10
54.850000000000364
 20
-117.60874436274196
 30
0.0
 11
73.850000000000364
 21
-117.60874436274196
 31
0.0
  0
LINE
  8
0
  6
CONTINUOUS
 62
               4
  5
165
 10
73.850000000000364
 20
-117.60874436274196
 30
0.0
 11
73.850000000000364
 21
-107.60874436274196
 31
0.0
  0
LINE
  8
0
  6
CONTINUOUS
 62
               4
  5
166
 10
64.350000000000136
 20
-117.60874436274196
 30
0.0
 11
64.350000000000136
 21
-108.73457738766166
 31
0.0
  0
ARC
  8
0
  6
CONTINUOUS
 62
               4
  5
167
 10
59.60000000000025
 20
-118.08564696868177
 30
0.0
 40
10.488326954718639
 50
63.071102706939726
 51
116.92889729302549
  0
ARC
  8
0
  6
CONTINUOUS
 62
               4
  5
168
 10
69.100000000000136
 20
-118.08564696868177
 30
0.0
 40
10.488326954718639
 50
63.071102706939726
 51
116.92889729302549
  0
ARC
  8
0
  6
CONTINUOUS
 62
               4
  5
169
 10
69.100000000000136
 20
-118.08564696868177
 30
0.0
 40
10.488326954718639
 50
63.071102706939726
 51
116.92889729302549
  0
ARC
  8
0
  6
CONTINUOUS
 62
               4
  5
16A
 10
69.100000000000136
 20
-118.08564696868177
 30
0.0
 40
10.488326954718639
 50
63.071102706939726
 51
116.92889729302549
  0
ENDBLK
  8
0
  5
16B
  0
BLOCK
  8
0
  5
16C
  2
GROUP_5
 70
               0
 10
0.0
 20
0.0
 30
0.0
  3
GROUP_5
  0
LINE
  8
0
  6
CONTINUOUS
 62
               4
  5
16D
 10
-645.1500000000002
 20
-107.60874436274167
 30
0.0
 11
-626.15000000000009
 21
-107.60874436274167
 31
0.0
  0
LINE
  8
0
  6
CONTINUOUS
 62
               4
  5
16E
 10
-626.15000000000009
 20
-107.60874436274167
 30
0.0
 11
-626.15000000000009
 21
-117.60874436274167
 31
0.0
  0
LINE
  8
0
  6
CONTINUOUS
 62
               4
  5
16F
 10
-626.15000000000009
 20
-117.60874436274167
 30
0.0
 11
-645.1500000000002
 21
-117.60874436274167
 31
0.0
  0
LINE
  8
0
  6
CONTINUOUS
 62
               4
  5
170
 10
-645.1500000000002
 20
-117.60874436274167
 30
0.0
 11
-645.1500000000002
 21
-107.60874436274167
 31
0.0
  0
LINE
  8
0
  6
CONTINUOUS
 62
               4
  5
171
 10
-635.65000000000009
 20
-117.60874436274167
 30
0.0
 11
-635.65000000000009
 21
-108.73457738766155
 31
0.0
  0
ARC
  8
0
  6
CONTINUOUS
 62
               4
  5
172
 10
-630.90000000000009
 20
-118.08564696868149
 30
0.0
 40
10.488326954718639
 50
63.071102706939868
 51
116.92889729302553
  0
ARC
  8
0
  6
CONTINUOUS
 62
               4
  5
173
 10
-640.39999999999998
 20
-118.08564696868149
 30
0.0
 40
10.488326954718639
 50
63.071102706939868
 51
116.92889729302553
  0
ARC
  8
0
  6
CONTINUOUS
 62
               4
  5
174
 10
-640.39999999999998
 20
-118.08564696868149
 30
0.0
 40
10.488326954718639
 50
63.071102706939868
 51
116.92889729302553
  0
ARC
  8
0
  6
CONTINUOUS
 62
               4
  5
175
 10
-640.39999999999998
 20
-118.08564696868149
 30
0.0
 40
10.488326954718639
 50
63.071102706939868
 51
116.92889729302553
  0
ENDBLK
  8
0
  5
176
  0
BLOCK
  8
0
  5
177
  2
GROUP_6
 70
               0
 10
0.0
 20
0.0
 30
0.0
  3
GROUP_6
  0
LINE
  8
0
  6
CONTINUOUS
 62
               4
  5
178
 10
-773.85000000000036
 20
-107.60874436274253
 30
0.0
 11
-754.85000000000036
 21
-107.60874436274253
 31
0.0
  0
LINE
  8
0
  6
CONTINUOUS
 62
               4
  5
179
 10
-754.85000000000036
 20
-107.60874436274253
 30
0.0
 11
-754.85000000000036
 21
-117.60874436274253
 31
0.0
  0
LINE
  8
0
  6
CONTINUOUS
 62
               4
  5
17A
 10
-754.85000000000036
 20
-117.60874436274253
 30
0.0
 11
-773.85000000000036
 21
-117.60874436274253
 31
0.0
  0
LINE
  8
0
  6
CONTINUOUS
 62
               4
  5
17B
 10
-773.85000000000036
 20
-117.60874436274253
 30
0.0
 11
-773.85000000000036
 21
-107.60874436274253
 31
0.0
  0
LINE
  8
0
  6
CONTINUOUS
 62
               4
  5
17C
 10
-764.35000000000036
 20
-117.60874436274253
 30
0.0
 11
-764.35000000000036
 21
-108.73457738766223
 31
0.0
  0
ARC
  8
0
  6
CONTINUOUS
 62
               4
  5
17D
 10
-759.60000000000036
 20
-118.08564696868234
 30
0.0
 40
10.488326954718639
 50
63.071102706939868
 51
116.92889729302553
  0
ARC
  8
0
  6
CONTINUOUS
 62
               4
  5
17E
 10
-769.10000000000048
 20
-118.08564696868234
 30
0.0
 40
10.488326954718639
 50
63.071102706939868
 51
116.92889729302553
  0
ARC
  8
0
  6
CONTINUOUS
 62
               4
  5
17F
 10
-769.10000000000048
 20
-118.08564696868234
 30
0.0
 40
10.488326954718639
 50
63.071102706939868
 51
116.92889729302553
  0
ARC
  8
0
  6
CONTINUOUS
 62
               4
  5
180
 10
-769.10000000000048
 20
-118.08564696868234
 30
0.0
 40
10.488326954718639
 50
63.071102706939868
 51
116.92889729302553
  0
ENDBLK
  8
0
  5
181
  0
BLOCK
  8
0
  5
182
  2
GROUP_7
 70
               0
 10
0.0
 20
0.0
 30
0.0
  3
GROUP_7
  0
CIRCLE
  8
0
  6
CONTINUOUS
 62
               4
  5
183
 10
-64.48879782497761
 20
532.56202727476693
 30
0.0
 40
9.5
  0
LINE
  8
0
  6
CONTINUOUS
 62
               4
  5
184
 10
-64.48879782497761
 20
543.53168238936996
 30
0.0
 11
-73.988797824977354
 21
538.04685483206822
 31
0.0
  0
LINE
  8
0
  6
CONTINUOUS
 62
               4
  5
185
 10
-73.988797824977354
 20
538.04685483206822
 30
0.0
 11
-73.988797824977354
 21
527.07719971746519
 31
0.0
  0
LINE
  8
0
  6
CONTINUOUS
 62
               4
  5
186
 10
-73.988797824977354
 20
527.07719971746519
 30
0.0
 11
-64.48879782497761
 21
521.5923721601639
 31
0.0
  0
LINE
  8
0
  6
CONTINUOUS
 62
               4
  5
187
 10
-64.48879782497761
 20
521.5923721601639
 30
0.0
 11
-54.988797824977354
 21
527.07719971746519
 31
0.0
  0
LINE
  8
0
  6
CONTINUOUS
 62
               4
  5
188
 10
-54.988797824977354
 20
527.07719971746519
 30
0.0
 11
-54.988797824977354
 21
538.04685483206822
 31
0.0
  0
LINE
  8
0
  6
CONTINUOUS
 62
               4
  5
189
 10
-54.988797824977354
 20
538.04685483206822
 30
0.0
 11
-64.48879782497761
 21
543.53168238936996
 31
0.0
  0
CIRCLE
  8
0
  6
CONTINUOUS
 62
               4
  5
18A
 10
-64.48879782497761
 20
532.56202727476693
 30
0.0
 40
5.1250000000000009
  0
CIRCLE
  8
0
  6
CONTINUOUS
 62
               4
  5
18B
 10
-64.48879782497761
 20
532.56202727476693
 30
0.0
 40
6.0000000000000009
  0
ENDBLK
  8
0
  5
18C
  0
BLOCK
  8
0
  5
18D
  2
GROUP_8
 70
               0
 10
0.0
 20
0.0
 30
0.0
  3
GROUP_8
  0
CIRCLE
  8
0
  6
CONTINUOUS
 62
               4
  5
18E
 10
-64.48879782497761
 20
661.25546145071871
 30
0.0
 40
9.5
  0
LINE
  8
0
  6
CONTINUOUS
 62
               4
  5
18F
 10
-64.48879782497761
 20
672.22511656532174
 30
0.0
 11
-73.988797824977354
 21
666.74028900801977
 31
0.0
  0
LINE
  8
0
  6
CONTINUOUS
 62
               4
  5
190
 10
-73.988797824977354
 20
666.74028900801977
 30
0.0
 11
-73.988797824977354
 21
655.77063389341697
 31
0.0
  0
LINE
  8
0
  6
CONTINUOUS
 62
               4
  5
191
 10
-73.988797824977354
 20
655.77063389341697
 30
0.0
 11
-64.48879782497761
 21
650.28580633611546
 31
0.0
  0
LINE
  8
0
  6
CONTINUOUS
 62
               4
  5
192
 10
-64.48879782497761
 20
650.28580633611546
 30
0.0
 11
-54.988797824977581
 21
655.77063389341697
 31
0.0
  0
LINE
  8
0
  6
CONTINUOUS
 62
               4
  5
193
 10
-54.988797824977581
 20
655.77063389341697
 30
0.0
 11
-54.988797824977581
 21
666.74028900801977
 31
0.0
  0
LINE
  8
0
  6
CONTINUOUS
 62
               4
  5
194
 10
-54.988797824977581
 20
666.74028900801977
 30
0.0
 11
-64.48879782497761
 21
672.22511656532174
 31
0.0
  0
CIRCLE
  8
0
  6
CONTINUOUS
 62
               4
  5
195
 10
-64.48879782497761
 20
661.25546145071871
 30
0.0
 40
5.1250000000000009
  0
CIRCLE
  8
0
  6
CONTINUOUS
 62
               4
  5
196
 10
-64.48879782497761
 20
661.25546145071871
 30
0.0
 40
6.0000000000000009
  0
ENDBLK
  8
0
  5
197
  0
BLOCK
  8
0
  5
198
  2
GROUP_9
 70
               0
 10
0.0
 20
0.0
 30
0.0
  3
GROUP_9
  0
LINE
  8
0
  6
CONTINUOUS
 62
               4
  5
199
 10
754.84999999999968
 20
-107.60874436274167
 30
0.0
 11
773.8499999999998
 21
-107.60874436274167
 31
0.0
  0
LINE
  8
0
  6
CONTINUOUS
 62
               4
  5
19A
 10
773.8499999999998
 20
-107.60874436274167
 30
0.0
 11
773.8499999999998
 21
-117.60874436274167
 31
0.0
  0
LINE
  8
0
  6
CONTINUOUS
 62
               4
  5
19B
 10
773.8499999999998
 20
-117.60874436274167
 30
0.0
 11
754.84999999999968
 21
-117.60874436274167
 31
0.0
  0
LINE
  8
0
  6
CONTINUOUS
 62
               4
  5
19C
 10
754.84999999999968
 20
-117.60874436274167
 30
0.0
 11
754.84999999999968
 21
-107.60874436274167
 31
0.0
  0
LINE
  8
0
  6
CONTINUOUS
 62
               4
  5
19D
 10
764.3499999999998
 20
-117.60874436274167
 30
0.0
 11
764.3499999999998
 21
-108.73457738766155
 31
0.0
  0
ARC
  8
0
  6
CONTINUOUS
 62
               4
  5
19E
 10
769.0999999999998
 20
-118.08564696868149
 30
0.0
 40
10.488326954718639
 50
63.071102706939868
 51
116.92889729302553
  0
ARC
  8
0
  6
CONTINUOUS
 62
               4
  5
19F
 10
759.59999999999991
 20
-118.08564696868149
 30
0.0
 40
10.488326954718639
 50
63.071102706939868
 51
116.92889729302553
  0
ARC
  8
0
  6
CONTINUOUS
 62
               4
  5
1A0
 10
759.59999999999991
 20
-118.08564696868149
 30
0.0
 40
10.488326954718639
 50
63.071102706939868
 51
116.92889729302553
  0
ARC
  8
0
  6
CONTINUOUS
 62
               4
  5
1A1
 10
759.59999999999991
 20
-118.08564696868149
 30
0.0
 40
10.488326954718639
 50
63.071102706939868
 51
116.92889729302553
  0
ENDBLK
  8
0
  5
1A2
  0
BLOCK
  8
0
  5
1A3
  2
GROUP_10
 70
               0
 10
0.0
 20
0.0
 30
0.0
  3
GROUP_10
  0
LINE
  8
0
  6
CONTINUOUS
 62
               4
  5
1A4
 10
626.14999999999952
 20
-107.60874436274253
 30
0.0
 11
645.14999999999952
 21
-107.60874436274253
 31
0.0
  0
LINE
  8
0
  6
CONTINUOUS
 62
               4
  5
1A5
 10
645.14999999999952
 20
-107.60874436274253
 30
0.0
 11
645.14999999999952
 21
-117.60874436274253
 31
0.0
  0
LINE
  8
0
  6
CONTINUOUS
 62
               4
  5
1A6
 10
645.14999999999952
 20
-117.60874436274253
 30
0.0
 11
626.14999999999952
 21
-117.60874436274253
 31
0.0
  0
LINE
  8
0
  6
CONTINUOUS
 62
               4
  5
1A7
 10
626.14999999999952
 20
-117.60874436274253
 30
0.0
 11
626.14999999999952
 21
-107.60874436274253
 31
0.0
  0
LINE
  8
0
  6
CONTINUOUS
 62
               4
  5
1A8
 10
635.64999999999952
 20
-117.60874436274253
 30
0.0
 11
635.64999999999952
 21
-108.73457738766223
 31
0.0
  0
ARC
  8
0
  6
CONTINUOUS
 62
               4
  5
1A9
 10
640.39999999999952
 20
-118.08564696868234
 30
0.0
 40
10.488326954718639
 50
63.071102706939868
 51
116.92889729302553
  0
ARC
  8
0
  6
CONTINUOUS
 62
               4
  5
1AA
 10
630.89999999999941
 20
-118.08564696868234
 30
0.0
 40
10.488326954718639
 50
63.071102706939868
 51
116.92889729302553
  0
ARC
  8
0
  6
CONTINUOUS
 62
               4
  5
1AB
 10
630.89999999999941
 20
-118.08564696868234
 30
0.0
 40
10.488326954718639
 50
63.071102706939868
 51
116.92889729302553
  0
ARC
  8
0
  6
CONTINUOUS
 62
               4
  5
1AC
 10
630.89999999999941
 20
-118.08564696868234
 30
0.0
 40
10.488326954718639
 50
63.071102706939868
 51
116.92889729302553
  0
ENDBLK
  8
0
  5
1AD
  0
ENDSEC
  0
SECTION
  2
ENTITIES
  0
LINE
  8
0
  6
DASHDOT
 62
               4
  5
1AE
 10
-0.0000000000000568
 20
-706.90874436274225
 30
0.0
 11
-0.0000000000000568
 21
128.09125563725775
 31
0.0
  0
LINE
  8
0
  6
DASHDOT
 62
               4
  5
1AF
 10
164.85791926299828
 20
596.90874436274225
 30
0.0
 11
-165.14208073700189
 21
596.90874436274225
 31
0.0
  0
LINE
  8
0
  6
DASHDOT
 62
               4
  5
1B0
 10
-0.1420807370018054
 20
431.90874436274248
 30
0.0
 11
-0.1420807370018054
 21
706.90874436274225
 31
0.0
  0
LINE
  8
0
  6
DASHDOT
 62
               4
  5
1B1
 10
699.99999999999989
 20
-706.90874436274225
 30
0.0
 11
699.99999999999989
 21
128.09125563725775
 31
0.0
  0
LINE
  8
0
  6
DASHDOT
 62
               4
  5
1B2
 10
-700.00000000000011
 20
-706.90874436274225
 30
0.0
 11
-700.00000000000011
 21
128.09125563725775
 31
0.0
  0
LINE
  8
0
  6
DASHDOT
 62
               4
  5
1B3
 10
165.0
 20
-217.90874436274225
 30
0.0
 11
-165.00000000000011
 21
-217.90874436274223
 31
0.0
  0
LINE
  8
0
  6
DASHDOT
 62
               4
  5
1B4
 10
-525.57872588873738
 20
-217.90874436274228
 30
0.0
 11
-777.50000000000011
 21
-217.90874436274225
 31
0.0
  0
LINE
  8
0
  6
DASHDOT
 62
               4
  5
1B5
 10
525.57872588873738
 20
-217.90874436274228
 30
0.0
 11
777.49999999999989
 21
-217.90874436274225
 31
0.0
  0
LINE
  8
0
  6
DASHDOT
 62
               4
  5
1B6
 10
-392.13776905046876
 20
-1173.0569398439329
 30
0.0
 11
-392.13776905046865
 21
-1044.0569398439327
 31
0.0
  0
LINE
  8
0
  6
DASHDOT
 62
               4
  5
1B7
 10
-450.13776905046876
 20
-1115.0569398439327
 30
0.0
 11
-334.13776905046876
 21
-1115.0569398439327
 31
0.0
  0
LINE
  8
0
  6
DASHDOT
 62
               4
  5
1B8
 10
-461.9409475345762
 20
-1108.5569398439327
 30
0.0
 11
-327.63776905046876
 21
-1108.5569398439327
 31
0.0
  0
LINE
  8
0
  6
DASHDOT
 62
               4
  5
1B9
 10
-268.23776905046867
 20
-1108.5569398439327
 30
0.0
 11
-169.63776905046876
 21
-1108.5569398439327
 31
0.0
  0
LINE
  8
0
  6
DASHDOT
 62
               4
  5
1BA
 10
-302.63776905046876
 20
-1115.0569398439327
 30
0.0
 11
-228.23776905046878
 21
-1115.0569398439327
 31
0.0
  0
LINE
  8
0
  6
DASHDOT
 62
               4
  5
1BB
 10
-516.03776905046857
 20
-1108.5569398439325
 30
0.0
 11
-614.63776905046871
 21
-1108.5569398439322
 31
0.0
  0
LINE
  8
0
  6
DASHDOT
 62
               4
  5
1BC
 10
-481.63776905046876
 20
-1115.0569398439325
 30
0.0
 11
-556.03776905046857
 21
-1115.0569398439325
 31
0.0
  0
LINE
  8
0
  6
DASHDOT
 62
               4
  5
1BD
 10
-394.08372644623529
 20
-1011.5890557748976
 30
0.0
 11
-394.08372644623529
 21
-878.58905577489759
 31
0.0
  0
LINE
  8
0
  6
DASHDOT
 62
               4
  5
1BE
 10
221.63392368588092
 20
-1108.5569398439327
 30
0.0
 11
320.23392368588105
 21
-1108.5569398439327
 31
0.0
  0
LINE
  8
0
  6
DASHDOT
 62
               4
  5
1BF
 10
196.63392368588092
 20
-1123.0569398439327
 30
0.0
 11
261.63392368588092
 21
-1123.0569398439327
 31
0.0
  0
LINE
  8
0
  6
DASHDOT
 62
               4
  5
1C0
 10
70.877907460637914
 20
-1123.0569398439327
 30
0.0
 11
170.87790746063814
 21
-1123.0569398439327
 31
0.0
  0
LINE
  8
0
  6
DASHDOT
 62
               4
  5
1C1
 10
120.87790746063791
 20
-1173.0569398439329
 30
0.0
 11
120.87790746063814
 21
-1044.0569398439327
 31
0.0
  0
LINE
  8
0
  6
DASHDOT
 62
               4
  5
1C2
 10
56.377907460637914
 20
-1108.5569398439327
 30
0.0
 11
190.92191724058915
 21
-1108.5569398439327
 31
0.0
  0
LINE
  8
0
  6
DASHDOT
 62
               4
  5
1C3
 10
20.12189123539514
 20
-1108.5569398439327
 30
0.0
 11
-78.478108764604883
 21
-1108.5569398439327
 31
0.0
  0
LINE
  8
0
  6
DASHDOT
 62
               4
  5
1C4
 10
45.12189123539514
 20
-1123.0569398439327
 30
0.0
 11
-19.87810876460486
 21
-1123.0569398439327
 31
0.0
  0
LINE
  8
0
  6
DASHDOT
 62
               4
  5
1C5
 10
120.87790746063814
 20
-1022.3009236186899
 30
0.0
 11
120.87790746063814
 21
-898.70092361868979
 31
0.0
  0
LINE
  8
0
  6
DASHDOT
 62
               4
  5
1C6
 10
609.28652321630784
 20
-942.37250427214167
 30
0.0
 11
609.28652321630784
 21
-1212.919291071968
 31
0.0
  0
LINE
  8
0
  6
DASHDOT
 62
               4
  5
1C7
 10
447.2865232163079
 20
-1050.8725042721417
 30
0.0
 11
717.78652321630807
 21
-1050.8725042721417
 31
0.0
  0
LINE
  8
0
  6
DASHDOT
 62
               4
  5
1C8
 10
677.81174799153268
 20
-1525.3719380207262
 30
0.0
 11
447.55790992287956
 21
-1525.3719380207262
 31
0.0
  0
LINE
  8
0
  6
DASHDOT
 62
               4
  5
1C9
 10
609.28652321630784
 20
-1339.3719380207262
 30
0.0
 11
609.28652321630784
 21
-1590.3719380207262
 31
0.0
  0
LINE
  8
0
  6
DASHDOT
 62
               4
  5
1CA
 10
559.28652321630784
 20
-1539.8719380207262
 30
0.0
 11
659.28652321630807
 21
-1539.8719380207262
 31
0.0
  0
LINE
  8
0
  6
DASHDOT
 62
               4
  5
1CB
 10
609.28652321630784
 20
-1241.472504272142
 30
0.0
 11
609.28652321630784
 21
-1117.8725042721417
 31
0.0
  0
LINE
  8
0
  6
DASHDOT
 62
               4
  5
1CC
 10
409.28652321630778
 20
-1531.8719380207262
 30
0.0
 11
483.68652321630776
 21
-1531.8719380207262
 31
0.0
  0
LINE
  8
0
  6
DASHDOT
 62
               4
  5
1CD
 10
409.28652321630801
 20
-1050.8725042721414
 30
0.0
 11
542.28652321630807
 21
-1050.8725042721414
 31
0.0
  0
CIRCLE
  8
0
  6
CONTINUOUS
 62
               4
  5
1CE
 10
64.204636350973999
 20
661.25546145071871
 30
0.0
 40
13.0
  0
CIRCLE
  8
0
  6
CONTINUOUS
 62
               4
  5
1CF
 10
64.204636350973999
 20
532.56202727476693
 30
0.0
 40
13.0
  0
LINE
  8
0
  6
CONTINUOUS
 62
               4
  5
1D0
 10
-51.350000000000023
 20
-119.908744362741
 30
0.0
 11
-51.350000000000023
 21
-117.60874436274111
 31
0.0
  0
LINE
  8
0
  6
CONTINUOUS
 62
               4
  5
1D1
 10
-51.350000000000023
 20
-117.60874436274111
 30
0.0
 11
-77.349999999999909
 21
-117.60874436274111
 31
0.0
  0
LINE
  8
0
  6
CONTINUOUS
 62
               4
  5
1D2
 10
-77.349999999999909
 20
-117.60874436274111
 30
0.0
 11
-77.349999999999909
 21
-119.908744362741
 31
0.0
  0
LINE
  8
0
  6
CONTINUOUS
 62
               4
  5
1D3
 10
-77.349999999999909
 20
-119.908744362741
 30
0.0
 11
-51.350000000000023
 21
-119.908744362741
 31
0.0
  0
LINE
  8
0
  6
CONTINUOUS
 62
               4
  5
1D4
 10
51.350000000000364
 20
-117.60874436274196
 30
0.0
 11
51.350000000000364
 21
-119.90874436274186
 31
0.0
  0
LINE
  8
0
  6
CONTINUOUS
 62
               4
  5
1D5
 10
51.350000000000364
 20
-119.90874436274186
 30
0.0
 11
77.350000000000364
 21
-119.90874436274186
 31
0.0
  0
LINE
  8
0
  6
CONTINUOUS
 62
               4
  5
1D6
 10
77.350000000000364
 20
-119.90874436274186
 30
0.0
 11
77.350000000000364
 21
-117.60874436274196
 31
0.0
  0
LINE
  8
0
  6
CONTINUOUS
 62
               4
  5
1D7
 10
77.350000000000364
 20
-117.60874436274196
 30
0.0
 11
51.350000000000364
 21
-117.60874436274196
 31
0.0
  0
LINE
  8
0
  6
CONTINUOUS
 62
               4
  5
1D8
 10
-70.350000000000136
 20
-107.60874436274111
 30
0.0
 11
-70.350000000000136
 21
-98.908744362741345
 31
0.0
  0
LINE
  8
0
  6
CONTINUOUS
 62
               4
  5
1D9
 10
-58.349999999999909
 20
-98.908744362741345
 30
0.0
 11
-58.349999999999909
 21
-107.60874436274111
 31
0.0
  0
LINE
  8
0
  6
CONTINUOUS
 62
               4
  5
1DA
 10
-58.349999999999909
 20
-98.908744362741345
 30
0.0
 11
-70.350000000000136
 21
-98.908744362741345
 31
0.0
  0
LINE
  8
0
  6
CONTINUOUS
 62
               4
  5
1DB
 10
58.35000000000025
 20
-107.60874436274196
 30
0.0
 11
58.35000000000025
 21
-98.908744362741913
 31
0.0
  0
LINE
  8
0
  6
CONTINUOUS
 62
               4
  5
1DC
 10
70.350000000000136
 20
-98.908744362741913
 30
0.0
 11
70.350000000000136
 21
-107.60874436274196
 31
0.0
  0
LINE
  8
0
  6
CONTINUOUS
 62
               4
  5
1DD
 10
70.350000000000136
 20
-98.908744362741913
 30
0.0
 11
58.35000000000025
 21
-98.908744362741913
 31
0.0
  0
ARC
  8
0
  6
CONTINUOUS
 62
               4
  5
1DE
 10
-25.783965811966254
 20
1.0912556372577455
 30
0.0
 40
17.566965811965957
 50
0.0
 51
36.851448659223813
  0
LINE
  8
0
  6
CONTINUOUS
 62
               4
  5
1DF
 10
11.727000000000089
 20
16.626909390110427
 30
0.0
 11
-11.727000000000317
 21
16.626909390110427
 31
0.0
  0
ARC
  8
0
  6
CONTINUOUS
 62
               4
  5
1E0
 10
25.783965811965459
 20
1.0912556372577455
 30
0.0
 40
17.566965811965957
 50
143.14855134074139
 51
179.99999999996521
  0
LINE
  8
0
  6
CONTINUOUS
 62
               4
  5
1E1
 10
-11.727000000000317
 20
11.626909390110427
 30
0.0
 11
-11.727000000000317
 21
16.626909390110427
 31
0.0
  0
LINE
  8
0
  6
CONTINUOUS
 62
               4
  5
1E2
 10
11.727000000000089
 20
11.626909390110427
 30
0.0
 11
11.727000000000089
 21
16.626909390110427
 31
0.0
  0
LINE
  8
0
  6
CONTINUOUS
 62
               4
  5
1E3
 10
-11.727000000000317
 20
16.626909390110427
 30
0.0
 11
-6.0000000000003411
 21
11.626909390110427
 31
0.0
  0
LINE
  8
0
  6
CONTINUOUS
 62
               4
  5
1E4
 10
5.9999999999995453
 20
11.626909390110427
 30
0.0
 11
11.727000000000089
 21
16.626909390110427
 31
0.0
  0
LINE
  8
0
  6
CONTINUOUS
 62
               4
  5
1E5
 10
-6.0000000000003411
 20
11.626909390110427
 30
0.0
 11
5.9999999999995453
 21
11.626909390110427
 31
0.0
  0
LINE
  8
0
  6
CONTINUOUS
 62
               4
  5
1E6
 10
5.9999999999995453
 20
-114.90874436274169
 30
0.0
 11
5.9999999999995453
 21
11.626909390110427
 31
0.0
  0
LINE
  8
0
  6
CONTINUOUS
 62
               4
  5
1E7
 10
-6.0000000000003411
 20
11.626909390110427
 30
0.0
 11
-6.0000000000003411
 21
-114.90874436274169
 31
0.0
  0
ARC
  8
0
  6
CONTINUOUS
 62
               4
  5
1E8
 10
-13.217000000000326
 20
-114.90874436274129
 30
0.0
 40
5.0
 50
269.99999999994782
 51
359.99999999993042
  0
ARC
  8
0
  6
CONTINUOUS
 62
               4
  5
1E9
 10
13.21699999999953
 20
-114.90874436274129
 30
0.0
 40
5.0
 50
179.99999999996518
 51
269.99999999994782
  0
LINE
  8
0
  6
CONTINUOUS
 62
               4
  5
1EA
 10
-8.2170000000003256
 20
1.0912556372577455
 30
0.0
 11
-8.2170000000003256
 21
-114.90874436274129
 31
0.0
  0
LINE
  8
0
  6
CONTINUOUS
 62
               4
  5
1EB
 10
8.2169999999995298
 20
1.0912556372577455
 30
0.0
 11
8.2169999999995298
 21
-114.90874436274129
 31
0.0
  0
ARC
  8
0
  6
CONTINUOUS
 62
               4
  5
1EC
 10
-11.0
 20
-114.90874436274146
 30
0.0
 40
5.0
 50
269.99999999994782
 51
359.99999999993042
  0
ARC
  8
0
  6
CONTINUOUS
 62
               4
  5
1ED
 10
10.999999999999773
 20
-114.90874436274169
 30
0.0
 40
5.0
 50
179.99999999996518
 51
269.99999999994782
  0
LINE
  8
0
  6
CONTINUOUS
 62
               4
  5
1EE
 10
-622.99999999999989
 20
11.626909390110427
 30
0.0
 11
-627.99999999999989
 21
16.626909390110427
 31
0.0
  0
ARC
  8
0
  6
CONTINUOUS
 62
               4
  5
1EF
 10
-645.49999999999989
 20
1.0912556372576887
 30
0.0
 40
19.999999999999996
 50
359.99999999993042
 51
391.788330616976
  0
LINE
  8
0
  6
CONTINUOUS
 62
               4
  5
1F0
 10
-628.49999999999943
 20
11.626909390110427
 30
0.0
 11
-628.49999999999943
 21
16.626909390111109
 31
0.0
  0
LINE
  8
0
  6
CONTINUOUS
 62
               4
  5
1F1
 10
-627.99999999999989
 20
16.626909390110427
 30
0.0
 11
-628.49999999999943
 21
16.626909390110427
 31
0.0
  0
LINE
  8
0
  6
CONTINUOUS
 62
               4
  5
1F2
 10
-623.25
 20
11.376909390110541
 30
0.0
 11
-628.49999999999943
 21
16.626909390110427
 31
0.0
  0
LINE
  8
0
  6
CONTINUOUS
 62
               4
  5
1F3
 10
-623.25
 20
11.376909390110541
 30
0.0
 11
-622.99999999999989
 21
11.626909390110427
 31
0.0
  0
LINE
  8
0
  6
CONTINUOUS
 62
               4
  5
1F4
 10
-625.49999999999989
 20
1.0912556372576887
 30
0.0
 11
-625.50000000000068
 21
-114.90874436274044
 31
0.0
  0
LINE
  8
0
  6
CONTINUOUS
 62
               4
  5
1F5
 10
-623.25
 20
11.376909390110541
 30
0.0
 11
-623.25
 21
-114.90874436274157
 31
0.0
  0
LINE
  8
0
  6
CONTINUOUS
 62
               4
  5
1F6
 10
-622.99999999999989
 20
11.626909390110427
 30
0.0
 11
-622.99999999999989
 21
-114.90874436274254
 31
0.0
  0
LINE
  8
0
  6
CONTINUOUS
 62
               4
  5
1F7
 10
-648.65000000000009
 20
-119.90874436274157
 30
0.0
 11
-648.65000000000009
 21
-117.60874436274167
 31
0.0
  0
LINE
  8
0
  6
CONTINUOUS
 62
               4
  5
1F8
 10
-648.65000000000009
 20
-117.60874436274167
 30
0.0
 11
-622.6500000000002
 21
-117.60874436274167
 31
0.0
  0
LINE
  8
0
  6
CONTINUOUS
 62
               4
  5
1F9
 10
-622.6500000000002
 20
-117.60874436274167
 30
0.0
 11
-622.6500000000002
 21
-119.90874436274157
 31
0.0
  0
LINE
  8
0
  6
CONTINUOUS
 62
               4
  5
1FA
 10
-622.6500000000002
 20
-119.90874436274157
 30
0.0
 11
-648.65000000000009
 21
-119.90874436274157
 31
0.0
  0
LINE
  8
0
  6
CONTINUOUS
 62
               4
  5
1FB
 10
-751.35000000000036
 20
-117.60874436274253
 30
0.0
 11
-751.35000000000036
 21
-119.90874436274242
 31
0.0
  0
LINE
  8
0
  6
CONTINUOUS
 62
               4
  5
1FC
 10
-751.35000000000036
 20
-119.90874436274242
 30
0.0
 11
-777.35000000000048
 21
-119.90874436274242
 31
0.0
  0
LINE
  8
0
  6
CONTINUOUS
 62
               4
  5
1FD
 10
-777.35000000000048
 20
-119.90874436274242
 30
0.0
 11
-777.35000000000048
 21
-117.60874436274253
 31
0.0
  0
LINE
  8
0
  6
CONTINUOUS
 62
               4
  5
1FE
 10
-777.35000000000048
 20
-117.60874436274253
 30
0.0
 11
-751.35000000000036
 21
-117.60874436274253
 31
0.0
  0
LINE
  8
0
  6
CONTINUOUS
 62
               4
  5
1FF
 10
-629.65000000000009
 20
-107.60874436274167
 30
0.0
 11
-629.65000000000009
 21
-98.908744362741913
 31
0.0
  0
LINE
  8
0
  6
CONTINUOUS
 62
               4
  5
200
 10
-641.64999999999998
 20
-98.908744362741913
 30
0.0
 11
-641.64999999999998
 21
-107.60874436274167
 31
0.0
  0
LINE
  8
0
  6
CONTINUOUS
 62
               4
  5
201
 10
-641.64999999999998
 20
-98.908744362741913
 30
0.0
 11
-629.65000000000009
 21
-98.908744362741913
 31
0.0
  0
LINE
  8
0
  6
CONTINUOUS
 62
               4
  5
202
 10
-758.35000000000036
 20
-107.60874436274253
 30
0.0
 11
-758.35000000000036
 21
-98.908744362742482
 31
0.0
  0
LINE
  8
0
  6
CONTINUOUS
 62
               4
  5
203
 10
-770.35000000000036
 20
-98.908744362742482
 30
0.0
 11
-770.35000000000036
 21
-107.60874436274253
 31
0.0
  0
LINE
  8
0
  6
CONTINUOUS
 62
               4
  5
204
 10
-770.35000000000036
 20
-98.908744362742482
 30
0.0
 11
-758.35000000000036
 21
-98.908744362742482
 31
0.0
  0
ARC
  8
0
  6
CONTINUOUS
 62
               4
  5
205
 10
-618.00000000000068
 20
-114.9087443627414
 30
0.0
 40
5.0
 50
179.99999999996518
 51
269.99999999994731
  0
ARC
  8
0
  6
CONTINUOUS
 62
               4
  5
206
 10
-618.2500000000008
 20
-114.90874436274044
 30
0.0
 40
5.0
 50
179.99999999996518
 51
269.99999999994731
  0
ARC
  8
0
  6
CONTINUOUS
 62
               4
  5
207
 10
-620.50000000000068
 20
-114.90874436274044
 30
0.0
 40
5.0
 50
179.99999999996518
 51
212.68363884623398
  0
ARC
  8
0
  6
CONTINUOUS
 62
               4
  5
208
 10
-620.50000000000068
 20
-114.90874436274044
 30
0.0
 40
5.0
 50
244.5324398574885
 51
269.99999999994731
  0
CIRCLE
  8
0
  6
CONTINUOUS
 62
               4
  5
209
 10
-64.48879782497761
 20
532.56202727476693
 30
0.0
 40
13.0
  0
CIRCLE
  8
0
  6
CONTINUOUS
 62
               4
  5
20A
 10
-64.48879782497761
 20
661.25546145071871
 30
0.0
 40
13.0
  0
LINE
  8
0
  6
CONTINUOUS
 62
               4
  5
20B
 10
-777.00000000000023
 20
11.626909390110427
 30
0.0
 11
-772.00000000000023
 21
16.626909390110427
 31
0.0
  0
ARC
  8
0
  6
CONTINUOUS
 62
               4
  5
20C
 10
-754.50000000000023
 20
1.0912556372576887
 30
0.0
 40
19.999999999999996
 50
148.21166938291961
 51
179.99999999996518
  0
LINE
  8
0
  6
CONTINUOUS
 62
               4
  5
20D
 10
-771.50000000000068
 20
11.626909390110427
 30
0.0
 11
-771.50000000000068
 21
16.626909390111109
 31
0.0
  0
LINE
  8
0
  6
CONTINUOUS
 62
               4
  5
20E
 10
-772.00000000000023
 20
16.626909390110427
 30
0.0
 11
-771.50000000000068
 21
16.626909390110427
 31
0.0
  0
LINE
  8
0
  6
CONTINUOUS
 62
               4
  5
20F
 10
-776.75000000000023
 20
11.376909390110541
 30
0.0
 11
-771.50000000000068
 21
16.626909390110427
 31
0.0
  0
LINE
  8
0
  6
CONTINUOUS
 62
               4
  5
210
 10
-776.75000000000023
 20
11.376909390110541
 30
0.0
 11
-777.00000000000023
 21
11.626909390110427
 31
0.0
  0
LINE
  8
0
  6
CONTINUOUS
 62
               4
  5
211
 10
-774.50000000000023
 20
1.0912556372576887
 30
0.0
 11
-774.49999999999932
 21
-114.90874436274044
 31
0.0
  0
LINE
  8
0
  6
CONTINUOUS
 62
               4
  5
212
 10
-776.75000000000023
 20
11.376909390110541
 30
0.0
 11
-776.75000000000023
 21
-114.90874436274157
 31
0.0
  0
LINE
  8
0
  6
CONTINUOUS
 62
               4
  5
213
 10
-777.00000000000023
 20
11.626909390110427
 30
0.0
 11
-777.00000000000023
 21
-114.90874436274254
 31
0.0
  0
ARC
  8
0
  6
CONTINUOUS
 62
               4
  5
214
 10
-781.99999999999932
 20
-114.9087443627414
 30
0.0
 40
5.0
 50
269.99999999994731
 51
359.99999999993042
  0
ARC
  8
0
  6
CONTINUOUS
 62
               4
  5
215
 10
-781.74999999999932
 20
-114.90874436274044
 30
0.0
 40
5.0
 50
269.99999999994731
 51
359.99999999993042
  0
ARC
  8
0
  6
CONTINUOUS
 62
               4
  5
216
 10
-779.49999999999932
 20
-114.90874436274044
 30
0.0
 40
5.0
 50
327.31636115366211
 51
359.99999999993042
  0
ARC
  8
0
  6
CONTINUOUS
 62
               4
  5
217
 10
-779.49999999999932
 20
-114.90874436274044
 30
0.0
 40
5.0
 50
269.99999999994731
 51
295.46756014240651
  0
LINE
  8
0
  6
CONTINUOUS
 62
               4
  5
218
 10
622.99999999999977
 20
11.626909390110427
 30
0.0
 11
627.99999999999977
 21
16.626909390110427
 31
0.0
  0
ARC
  8
0
  6
CONTINUOUS
 62
               4
  5
219
 10
645.49999999999977
 20
1.0912556372576887
 30
0.0
 40
19.999999999999996
 50
148.21166938291961
 51
179.99999999996518
  0
LINE
  8
0
  6
CONTINUOUS
 62
               4
  5
21A
 10
628.49999999999932
 20
11.626909390110427
 30
0.0
 11
628.49999999999932
 21
16.626909390111109
 31
0.0
  0
LINE
  8
0
  6
CONTINUOUS
 62
               4
  5
21B
 10
627.99999999999977
 20
16.626909390110427
 30
0.0
 11
628.49999999999932
 21
16.626909390110427
 31
0.0
  0
LINE
  8
0
  6
CONTINUOUS
 62
               4
  5
21C
 10
623.24999999999989
 20
11.376909390110541
 30
0.0
 11
628.49999999999932
 21
16.626909390110427
 31
0.0
  0
LINE
  8
0
  6
CONTINUOUS
 62
               4
  5
21D
 10
623.24999999999989
 20
11.376909390110541
 30
0.0
 11
622.99999999999977
 21
11.626909390110427
 31
0.0
  0
LINE
  8
0
  6
CONTINUOUS
 62
               4
  5
21E
 10
625.49999999999977
 20
1.0912556372576887
 30
0.0
 11
625.50000000000057
 21
-114.90874436274044
 31
0.0
  0
LINE
  8
0
  6
CONTINUOUS
 62
               4
  5
21F
 10
623.24999999999989
 20
11.376909390110541
 30
0.0
 11
623.24999999999989
 21
-114.90874436274157
 31
0.0
  0
LINE
  8
0
  6
CONTINUOUS
 62
               4
  5
220
 10
622.99999999999977
 20
11.626909390110427
 30
0.0
 11
622.99999999999977
 21
-114.90874436274254
 31
0.0
  0
LINE
  8
0
  6
CONTINUOUS
 62
               4
  5
221
 10
751.3499999999998
 20
-119.90874436274157
 30
0.0
 11
751.3499999999998
 21
-117.60874436274167
 31
0.0
  0
LINE
  8
0
  6
CONTINUOUS
 62
               4
  5
222
 10
751.3499999999998
 20
-117.60874436274167
 30
0.0
 11
777.34999999999968
 21
-117.60874436274167
 31
0.0
  0
LINE
  8
0
  6
CONTINUOUS
 62
               4
  5
223
 10
777.34999999999968
 20
-117.60874436274167
 30
0.0
 11
777.34999999999968
 21
-119.90874436274157
 31
0.0
  0
LINE
  8
0
  6
CONTINUOUS
 62
               4
  5
224
 10
777.34999999999968
 20
-119.90874436274157
 30
0.0
 11
751.3499999999998
 21
-119.90874436274157
 31
0.0
  0
LINE
  8
0
  6
CONTINUOUS
 62
               4
  5
225
 10
648.64999999999952
 20
-117.60874436274253
 30
0.0
 11
648.64999999999952
 21
-119.90874436274242
 31
0.0
  0
LINE
  8
0
  6
CONTINUOUS
 62
               4
  5
226
 10
648.64999999999952
 20
-119.90874436274242
 30
0.0
 11
622.64999999999941
 21
-119.90874436274242
 31
0.0
  0
LINE
  8
0
  6
CONTINUOUS
 62
               4
  5
227
 10
622.64999999999941
 20
-119.90874436274242
 30
0.0
 11
622.64999999999941
 21
-117.60874436274253
 31
0.0
  0
LINE
  8
0
  6
CONTINUOUS
 62
               4
  5
228
 10
622.64999999999941
 20
-117.60874436274253
 30
0.0
 11
648.64999999999952
 21
-117.60874436274253
 31
0.0
  0
LINE
  8
0
  6
CONTINUOUS
 62
               4
  5
229
 10
770.3499999999998
 20
-107.60874436274167
 30
0.0
 11
770.3499999999998
 21
-98.908744362741913
 31
0.0
  0
LINE
  8
0
  6
CONTINUOUS
 62
               4
  5
22A
 10
758.34999999999991
 20
-98.908744362741913
 30
0.0
 11
758.34999999999991
 21
-107.60874436274167
 31
0.0
  0
LINE
  8
0
  6
CONTINUOUS
 62
               4
  5
22B
 10
758.34999999999991
 20
-98.908744362741913
 30
0.0
 11
770.3499999999998
 21
-98.908744362741913
 31
0.0
  0
LINE
  8
0
  6
CONTINUOUS
 62
               4
  5
22C
 10
641.64999999999952
 20
-107.60874436274253
 30
0.0
 11
641.64999999999952
 21
-98.908744362742482
 31
0.0
  0
LINE
  8
0
  6
CONTINUOUS
 62
               4
  5
22D
 10
629.64999999999952
 20
-98.908744362742482
 30
0.0
 11
629.64999999999952
 21
-107.60874436274253
 31
0.0
  0
LINE
  8
0
  6
CONTINUOUS
 62
               4
  5
22E
 10
629.64999999999952
 20
-98.908744362742482
 30
0.0
 11
641.64999999999952
 21
-98.908744362742482
 31
0.0
  0
ARC
  8
0
  6
CONTINUOUS
 62
               4
  5
22F
 10
781.9999999999992
 20
-114.9087443627414
 30
0.0
 40
5.0
 50
179.99999999996518
 51
269.99999999994731
  0
ARC
  8
0
  6
CONTINUOUS
 62
               4
  5
230
 10
781.74999999999909
 20
-114.90874436274044
 30
0.0
 40
5.0
 50
179.99999999996518
 51
269.99999999994731
  0
ARC
  8
0
  6
CONTINUOUS
 62
               4
  5
231
 10
779.4999999999992
 20
-114.90874436274044
 30
0.0
 40
5.0
 50
179.99999999996518
 51
212.68363884623398
  0
ARC
  8
0
  6
CONTINUOUS
 62
               4
  5
232
 10
779.4999999999992
 20
-114.90874436274044
 30
0.0
 40
5.0
 50
244.5324398574885
 51
269.99999999994731
  0
LINE
  8
0
  6
CONTINUOUS
 62
               4
  5
233
 10
777.00000000000011
 20
11.626909390110427
 30
0.0
 11
772.00000000000011
 21
16.626909390110427
 31
0.0
  0
ARC
  8
0
  6
CONTINUOUS
 62
               4
  5
234
 10
754.50000000000011
 20
1.0912556372576887
 30
0.0
 40
19.999999999999996
 50
359.99999999993042
 51
391.788330616976
  0
LINE
  8
0
  6
CONTINUOUS
 62
               4
  5
235
 10
771.50000000000057
 20
11.626909390110427
 30
0.0
 11
771.50000000000057
 21
16.626909390111109
 31
0.0
  0
LINE
  8
0
  6
CONTINUOUS
 62
               4
  5
236
 10
772.00000000000011
 20
16.626909390110427
 30
0.0
 11
771.50000000000057
 21
16.626909390110427
 31
0.0
  0
LINE
  8
0
  6
CONTINUOUS
 62
               4
  5
237
 10
776.75000000000011
 20
11.376909390110541
 30
0.0
 11
771.50000000000057
 21
16.626909390110427
 31
0.0
  0
LINE
  8
0
  6
CONTINUOUS
 62
               4
  5
238
 10
776.75000000000011
 20
11.376909390110541
 30
0.0
 11
777.00000000000011
 21
11.626909390110427
 31
0.0
  0
LINE
  8
0
  6
CONTINUOUS
 62
               4
  5
239
 10
774.50000000000011
 20
1.0912556372576887
 30
0.0
 11
774.4999999999992
 21
-114.90874436274044
 31
0.0
  0
LINE
  8
0
  6
CONTINUOUS
 62
               4
  5
23A
 10
776.75000000000011
 20
11.376909390110541
 30
0.0
 11
776.75000000000011
 21
-114.90874436274157
 31
0.0
  0
LINE
  8
0
  6
CONTINUOUS
 62
               4
  5
23B
 10
777.00000000000011
 20
11.626909390110427
 30
0.0
 11
777.00000000000011
 21
-114.90874436274254
 31
0.0
  0
ARC
  8
0
  6
CONTINUOUS
 62
               4
  5
23C
 10
618.00000000000057
 20
-114.9087443627414
 30
0.0
 40
5.0
 50
269.99999999994731
 51
359.99999999993042
  0
ARC
  8
0
  6
CONTINUOUS
 62
               4
  5
23D
 10
618.25000000000057
 20
-114.90874436274044
 30
0.0
 40
5.0
 50
269.99999999994731
 51
359.99999999993042
  0
ARC
  8
0
  6
CONTINUOUS
 62
               4
  5
23E
 10
620.50000000000057
 20
-114.90874436274044
 30
0.0
 40
5.0
 50
327.31636115366211
 51
359.99999999993042
  0
ARC
  8
0
  6
CONTINUOUS
 62
               4
  5
23F
 10
620.50000000000057
 20
-114.90874436274044
 30
0.0
 40
5.0
 50
269.99999999994731
 51
295.46756014240651
  0
LINE
  8
0
  6
CONTINUOUS
 62
               4
  5
240
 10
-78.226474001362249
 20
-167.50874436274222
 30
0.0
 11
-72.350000000000477
 21
-170.90874436274225
 31
0.0
  0
LINE
  8
0
  6
CONTINUOUS
 62
               4
  5
241
 10
-55.850000000000421
 20
-170.90874436274225
 30
0.0
 11
-55.850000000000421
 21
-163.90874436274225
 31
0.0
  0
LINE
  8
0
  6
CONTINUOUS
 62
               4
  5
242
 10
-55.850000000000421
 20
-170.90874436274225
 30
0.0
 11
-72.350000000000477
 21
-170.90874436274225
 31
0.0
  0
LINE
  8
0
  6
CONTINUOUS
 62
               4
  5
243
 10
-81.177061466478108
 20
-167.50874436274222
 30
0.0
 11
-78.226474001362249
 21
-167.50874436274222
 31
0.0
  0
LINE
  8
0
  6
CONTINUOUS
 62
               4
  5
244
 10
-81.177061466478108
 20
-163.90874436274225
 30
0.0
 11
-81.177061466478108
 21
-167.50874436274222
 31
0.0
  0
LINE
  8
0
  6
CONTINUOUS
 62
               4
  5
245
 10
-55.850000000000421
 20
-163.90874436274225
 30
0.0
 11
-81.177061466478108
 21
-163.90874436274225
 31
0.0
  0
LINE
  8
0
  6
CONTINUOUS
 62
               4
  5
246
 10
47.522938533522279
 20
-163.90874436274225
 30
0.0
 11
47.522938533522279
 21
-167.50874436274222
 31
0.0
  0
LINE
  8
0
  6
CONTINUOUS
 62
               4
  5
247
 10
47.522938533522279
 20
-167.50874436274222
 30
0.0
 11
62.494341278809429
 21
-167.50874436274222
 31
0.0
  0
LINE
  8
0
  6
CONTINUOUS
 62
               4
  5
248
 10
50.473525998638138
 20
-167.50874436274222
 30
0.0
 11
56.349999999999909
 21
-170.90874436274225
 31
0.0
  0
LINE
  8
0
  6
CONTINUOUS
 62
               4
  5
249
 10
59.54375381369357
 20
-163.90874436274225
 30
0.0
 11
59.54375381369357
 21
-167.50874436274222
 31
0.0
  0
LINE
  8
0
  6
CONTINUOUS
 62
               4
  5
24A
 10
70.006854249492221
 20
-170.90874436274225
 30
0.0
 11
62.494341278809429
 21
-167.50874436274222
 31
0.0
  0
LINE
  8
0
  6
CONTINUOUS
 62
               4
  5
24B
 10
72.849999999999909
 20
-170.90874436274225
 30
0.0
 11
56.349999999999909
 21
-170.90874436274225
 31
0.0
  0
LINE
  8
0
  6
CONTINUOUS
 62
               4
  5
24C
 10
72.849999999999909
 20
-170.90874436274225
 30
0.0
 11
72.849999999999909
 21
-163.90874436274225
 31
0.0
  0
LINE
  8
0
  6
CONTINUOUS
 62
               4
  5
24D
 10
72.849999999999909
 20
-163.90874436274225
 30
0.0
 11
47.522938533522279
 21
-163.90874436274225
 31
0.0
  0
LINE
  8
0
  6
CONTINUOUS
 62
               4
  5
24E
 10
621.77352599863775
 20
-167.50874436274222
 30
0.0
 11
627.64999999999952
 21
-170.90874436274225
 31
0.0
  0
LINE
  8
0
  6
CONTINUOUS
 62
               4
  5
24F
 10
644.14999999999964
 20
-170.90874436274225
 30
0.0
 11
644.14999999999964
 21
-163.90874436274225
 31
0.0
  0
LINE
  8
0
  6
CONTINUOUS
 62
               4
  5
250
 10
644.14999999999964
 20
-170.90874436274225
 30
0.0
 11
627.64999999999952
 21
-170.90874436274225
 31
0.0
  0
LINE
  8
0
  6
CONTINUOUS
 62
               4
  5
251
 10
618.82293853352189
 20
-167.50874436274222
 30
0.0
 11
621.77352599863775
 21
-167.50874436274222
 31
0.0
  0
LINE
  8
0
  6
CONTINUOUS
 62
               4
  5
252
 10
618.82293853352189
 20
-163.90874436274225
 30
0.0
 11
618.82293853352189
 21
-167.50874436274222
 31
0.0
  0
LINE
  8
0
  6
CONTINUOUS
 62
               4
  5
253
 10
644.14999999999964
 20
-163.90874436274225
 30
0.0
 11
618.82293853352189
 21
-163.90874436274225
 31
0.0
  0
LINE
  8
0
  6
CONTINUOUS
 62
               4
  5
254
 10
747.52293853352228
 20
-163.90874436274225
 30
0.0
 11
747.52293853352228
 21
-167.50874436274222
 31
0.0
  0
LINE
  8
0
  6
CONTINUOUS
 62
               4
  5
255
 10
747.52293853352228
 20
-167.50874436274222
 30
0.0
 11
762.49434127880943
 21
-167.50874436274222
 31
0.0
  0
LINE
  8
0
  6
CONTINUOUS
 62
               4
  5
256
 10
750.47352599863814
 20
-167.50874436274222
 30
0.0
 11
756.34999999999991
 21
-170.90874436274225
 31
0.0
  0
LINE
  8
0
  6
CONTINUOUS
 62
               4
  5
257
 10
759.54375381369357
 20
-163.90874436274225
 30
0.0
 11
759.54375381369357
 21
-167.50874436274222
 31
0.0
  0
LINE
  8
0
  6
CONTINUOUS
 62
               4
  5
258
 10
770.00685424949222
 20
-170.90874436274225
 30
0.0
 11
762.49434127880943
 21
-167.50874436274222
 31
0.0
  0
LINE
  8
0
  6
CONTINUOUS
 62
               4
  5
259
 10
772.84999999999991
 20
-170.90874436274225
 30
0.0
 11
756.34999999999991
 21
-170.90874436274225
 31
0.0
  0
LINE
  8
0
  6
CONTINUOUS
 62
               4
  5
25A
 10
772.84999999999991
 20
-170.90874436274225
 30
0.0
 11
772.84999999999991
 21
-163.90874436274225
 31
0.0
  0
LINE
  8
0
  6
CONTINUOUS
 62
               4
  5
25B
 10
772.84999999999991
 20
-163.90874436274225
 30
0.0
 11
747.52293853352228
 21
-163.90874436274225
 31
0.0
  0
LINE
  8
0
  6
CONTINUOUS
 62
               4
  5
25C
 10
-778.22647400136225
 20
-167.50874436274222
 30
0.0
 11
-772.35000000000048
 21
-170.90874436274225
 31
0.0
  0
LINE
  8
0
  6
CONTINUOUS
 62
               4
  5
25D
 10
-755.85000000000036
 20
-170.90874436274225
 30
0.0
 11
-755.85000000000036
 21
-163.90874436274225
 31
0.0
  0
LINE
  8
0
  6
CONTINUOUS
 62
               4
  5
25E
 10
-755.85000000000036
 20
-170.90874436274225
 30
0.0
 11
-772.35000000000048
 21
-170.90874436274225
 31
0.0
  0
LINE
  8
0
  6
CONTINUOUS
 62
               4
  5
25F
 10
-781.17706146647811
 20
-167.50874436274222
 30
0.0
 11
-778.22647400136225
 21
-167.50874436274222
 31
0.0
  0
LINE
  8
0
  6
CONTINUOUS
 62
               4
  5
260
 10
-781.17706146647811
 20
-163.90874436274225
 30
0.0
 11
-781.17706146647811
 21
-167.50874436274222
 31
0.0
  0
LINE
  8
0
  6
CONTINUOUS
 62
               4
  5
261
 10
-755.85000000000036
 20
-163.90874436274225
 30
0.0
 11
-781.17706146647811
 21
-163.90874436274225
 31
0.0
  0
LINE
  8
0
  6
CONTINUOUS
 62
               4
  5
262
 10
-652.47706146647772
 20
-163.90874436274225
 30
0.0
 11
-652.47706146647772
 21
-167.50874436274222
 31
0.0
  0
LINE
  8
0
  6
CONTINUOUS
 62
               4
  5
263
 10
-652.47706146647772
 20
-167.50874436274222
 30
0.0
 11
-637.50565872119057
 21
-167.50874436274222
 31
0.0
  0
LINE
  8
0
  6
CONTINUOUS
 62
               4
  5
264
 10
-649.52647400136186
 20
-167.50874436274222
 30
0.0
 11
-643.65000000000009
 21
-170.90874436274225
 31
0.0
  0
LINE
  8
0
  6
CONTINUOUS
 62
               4
  5
265
 10
-640.45624618630643
 20
-163.90874436274225
 30
0.0
 11
-640.45624618630643
 21
-167.50874436274222
 31
0.0
  0
LINE
  8
0
  6
CONTINUOUS
 62
               4
  5
266
 10
-629.99314575050778
 20
-170.90874436274225
 30
0.0
 11
-637.50565872119057
 21
-167.50874436274222
 31
0.0
  0
LINE
  8
0
  6
CONTINUOUS
 62
               4
  5
267
 10
-627.15000000000009
 20
-170.90874436274225
 30
0.0
 11
-643.65000000000009
 21
-170.90874436274225
 31
0.0
  0
LINE
  8
0
  6
CONTINUOUS
 62
               4
  5
268
 10
-627.15000000000009
 20
-170.90874436274225
 30
0.0
 11
-627.15000000000009
 21
-163.90874436274225
 31
0.0
  0
LINE
  8
0
  6
CONTINUOUS
 62
               4
  5
269
 10
-627.15000000000009
 20
-163.90874436274225
 30
0.0
 11
-652.47706146647772
 21
-163.90874436274225
 31
0.0
  0
POINT
  8
0
  6
CONTINUOUS
 62
               4
  5
26A
 10
-247.03776905046874
 20
-1064.0569398439327
 30
0.0
  0
POINT
  8
0
  6
CONTINUOUS
 62
               4
  5
26B
 10
-537.23776905046861
 20
-1064.0569398439325
 30
0.0
  0
POINT
  8
0
  6
CONTINUOUS
 62
               4
  5
26C
 10
-349.58372644623529
 20
-955.98905577489768
 30
0.0
  0
POINT
  8
0
  6
CONTINUOUS
 62
               4
  5
26D
 10
242.83392368588096
 20
-1064.0569398439327
 30
0.0
  0
POINT
  8
0
  6
CONTINUOUS
 62
               4
  5
26E
 10
-1.0781087646049059
 20
-1064.0569398439327
 30
0.0
  0
POINT
  8
0
  6
CONTINUOUS
 62
               4
  5
26F
 10
165.37790746063814
 20
-976.10092361868988
 30
0.0
  0
LINE
  8
0
  6
CONTINUOUS
 62
               4
  5
270
 10
686.28652321630784
 20
-1455.8362842678735
 30
0.0
 11
681.28652321630784
 21
-1450.8362842678735
 31
0.0
  0
ARC
  8
0
  6
CONTINUOUS
 62
               4
  5
271
 10
663.78652321630784
 20
-1466.3719380207262
 30
0.0
 40
19.999999999999996
 50
0.0
 51
31.78833061703342
  0
LINE
  8
0
  6
CONTINUOUS
 62
               4
  5
272
 10
680.7865232163083
 20
-1455.8362842678735
 30
0.0
 11
680.7865232163083
 21
-1450.836284267873
 31
0.0
  0
LINE
  8
0
  6
CONTINUOUS
 62
               4
  5
273
 10
681.28652321630784
 20
-1450.8362842678735
 30
0.0
 11
680.7865232163083
 21
-1450.8362842678735
 31
0.0
  0
LINE
  8
0
  6
CONTINUOUS
 62
               4
  5
274
 10
686.03652321630807
 20
-1456.0862842678735
 30
0.0
 11
680.7865232163083
 21
-1450.8362842678735
 31
0.0
  0
LINE
  8
0
  6
CONTINUOUS
 62
               4
  5
275
 10
686.03652321630807
 20
-1456.0862842678735
 30
0.0
 11
686.28652321630784
 21
-1455.8362842678735
 31
0.0
  0
LINE
  8
0
  6
CONTINUOUS
 62
               4
  5
276
 10
686.28652321630784
 20
-1455.8362842678735
 30
0.0
 11
686.28652321630784
 21
-1586.524961617843
 31
0.0
  0
LINE
  8
0
  6
CONTINUOUS
 62
               4
  5
277
 10
686.03652321630807
 20
-1456.0862842678735
 30
0.0
 11
686.03652321630807
 21
-1586.2396045107075
 31
0.0
  0
LINE
  8
0
  6
CONTINUOUS
 62
               4
  5
278
 10
683.78652321630784
 20
-1466.218914423609
 30
0.0
 11
683.78652321630784
 21
-1585.3719380207262
 31
0.0
  0
POINT
  8
0
  6
CONTINUOUS
 62
               4
  5
279
 10
653.78652321630784
 20
-1195.2725042721418
 30
0.0
  0
POINT
  8
0
  6
CONTINUOUS
 62
               4
  5
27A
 10
464.88652321630781
 20
-1480.8719380207262
 30
0.0
  0
POINT
  8
0
  6
CONTINUOUS
 62
               4
  5
27B
 10
464.88652321630792
 20
-1095.3725042721414
 30
0.0
  0
LINE
  8
0
  6
DASHED2
 62
               4
  5
27C
 10
-51.500000000000057
 20
-686.90874495403727
 30
0.0
 11
-51.500000000000057
 21
-293.99478561490787
 31
0.0
  0
LINE
  8
0
  6
DASHED2
 62
               4
  5
27D
 10
51.500000000000057
 20
-686.90874495403727
 30
0.0
 11
51.500000000000057
 21
-293.99478561490787
 31
0.0
  0
LINE
  8
0
  6
DASHED2
 62
               4
  5
27E
 10
-757.0
 20
43.091255637257746
 30
0.0
 11
-642.99999999999989
 21
43.091255637257746
 31
0.0
  0
LINE
  8
0
  6
DASHED2
 62
               4
  5
27F
 10
-57.0
 20
43.091255637257746
 30
0.0
 11
57.000000000000114
 21
43.091255637257746
 31
0.0
  0
LINE
  8
0
  6
DASHED2
 62
               4
  5
280
 10
756.99999999999989
 20
43.091255637257746
 30
0.0
 11
642.99999999999977
 21
43.091255637257746
 31
0.0
  0
LINE
  8
0
  6
DASHED2
 62
               4
  5
281
 10
-751.5
 20
-686.90874495403727
 30
0.0
 11
-751.5
 21
-293.99478561490787
 31
0.0
  0
LINE
  8
0
  6
DASHED2
 62
               4
  5
282
 10
-648.5
 20
-686.90874495403727
 30
0.0
 11
-648.5
 21
-293.99478561490787
 31
0.0
  0
LINE
  8
0
  6
DASHED2
 62
               4
  5
283
 10
751.49999999999989
 20
-686.90874495403727
 30
0.0
 11
751.49999999999989
 21
-293.99478561490787
 31
0.0
  0
LINE
  8
0
  6
DASHED2
 62
               4
  5
284
 10
648.49999999999989
 20
-686.90874495403727
 30
0.0
 11
648.49999999999989
 21
-293.99478561490787
 31
0.0
  0
LINE
  8
0
  6
DASHED2
 62
               4
  5
285
 10
552.28652321630807
 20
-1424.3719380207262
 30
0.0
 11
666.28652321630784
 21
-1424.3719380207262
 31
0.0
  0
CIRCLE
  8
0
  6
CONTINUOUS
 62
               3
  5
286
 10
-0.1420807370018054
 20
596.90874436274225
 30
0.0
 40
75.0
  0
CIRCLE
  8
0
  6
CONTINUOUS
 62
               3
  5
287
 10
-0.1420807370018054
 20
596.90874436274225
 30
0.0
 40
52.5
  0
LINE
  8
0
  6
CONTINUOUS
 62
               3
  5
288
 10
19.857919262998195
 20
510.69824616211713
 30
0.0
 11
19.857919262998195
 21
524.62458288873677
 31
0.0
  0
LINE
  8
0
  6
CONTINUOUS
 62
               3
  5
289
 10
-20.142080737001805
 20
524.62458288873677
 30
0.0
 11
-20.142080737001805
 21
510.69824616211713
 31
0.0
  0
ARC
  8
0
  6
CONTINUOUS
 62
               3
  5
28A
 10
-0.1420807370018054
 20
596.90874436274225
 30
0.0
 40
88.5
 50
256.93897588514983
 51
283.06102411474581
  0
LINE
  8
0
  6
CONTINUOUS
 62
               3
  5
28B
 10
-86.352578937626703
 20
576.90874436274225
 30
0.0
 11
-72.426242211006837
 21
576.90874436274225
 31
0.0
  0
LINE
  8
0
  6
CONTINUOUS
 62
               3
  5
28C
 10
-72.426242211006837
 20
616.90874436274225
 30
0.0
 11
-86.352578937626703
 21
616.90874436274225
 31
0.0
  0
ARC
  8
0
  6
CONTINUOUS
 62
               3
  5
28D
 10
-0.1420807370018054
 20
596.90874436274225
 30
0.0
 40
88.5
 50
166.9389758851672
 51
193.06102411476326
  0
LINE
  8
0
  6
CONTINUOUS
 62
               3
  5
28E
 10
-20.142080737001805
 20
683.11924256336692
 30
0.0
 11
-20.142080737001805
 21
669.1929058367466
 31
0.0
  0
LINE
  8
0
  6
CONTINUOUS
 62
               3
  5
28F
 10
19.857919262998195
 20
669.1929058367466
 30
0.0
 11
19.857919262998195
 21
683.11924256336692
 31
0.0
  0
ARC
  8
0
  6
CONTINUOUS
 62
               3
  5
290
 10
-0.1420807370018054
 20
596.90874436274225
 30
0.0
 40
88.5
 50
76.938975885184604
 51
103.06102411478065
  0
LINE
  8
0
  6
CONTINUOUS
 62
               3
  5
291
 10
86.068417463623803
 20
616.90874436274225
 30
0.0
 11
72.142080737002999
 21
616.90874436274225
 31
0.0
  0
LINE
  8
0
  6
CONTINUOUS
 62
               3
  5
292
 10
72.142080737002999
 20
576.90874436274225
 30
0.0
 11
86.068417463623803
 21
576.90874436274225
 31
0.0
  0
ARC
  8
0
  6
CONTINUOUS
 62
               3
  5
293
 10
-0.1420807370018054
 20
596.90874436274225
 30
0.0
 40
88.5
 50
346.93897588513232
 51
373.06102411472841
  0
ARC
  8
0
  6
CONTINUOUS
 62
               3
  5
294
 10
-0.1420807370018054
 20
596.90874436274225
 30
0.0
 40
77.5
 50
284.95524831658821
 51
345.04475168328997
  0
ARC
  8
0
  6
CONTINUOUS
 62
               3
  5
295
 10
-0.1420807370018054
 20
596.90874436274225
 30
0.0
 40
77.5
 50
14.955248316640434
 51
75.04475168334217
  0
ARC
  8
0
  6
CONTINUOUS
 62
               3
  5
296
 10
64.204636350973999
 20
532.56202727476693
 30
0.0
 40
17.5
 50
277.81643360641743
 51
352.18356639346098
  0
ARC
  8
0
  6
CONTINUOUS
 62
               3
  5
297
 10
64.204636350973999
 20
661.25546145071871
 30
0.0
 40
17.5
 50
7.8164336064694728
 51
82.183566393512976
  0
ARC
  8
0
  6
CONTINUOUS
 62
               3
  5
298
 10
-64.488797824977325
 20
661.25546145071871
 30
0.0
 40
17.5
 50
97.816433606452208
 51
172.1835663934956
  0
ARC
  8
0
  6
CONTINUOUS
 62
               3
  5
299
 10
-64.488797824977325
 20
532.56202727476693
 30
0.0
 40
17.5
 50
187.81643360643486
 51
262.1835663934782
  0
LINE
  8
0
  6
CONTINUOUS
 62
               3
  5
29A
 10
-66.868793164368924
 20
678.59286674056716
 30
0.0
 11
-12.382056768158435
 21
686.0725429962506
 31
0.0
  0
ARC
  8
0
  6
CONTINUOUS
 62
               3
  5
29B
 10
-0.1420807370018054
 20
596.90874436274225
 30
0.0
 40
90.0
 50
82.183566393512947
 51
97.816433606452236
  0
LINE
  8
0
  6
CONTINUOUS
 62
               3
  5
29C
 10
66.584631690365597
 20
678.59286674056716
 30
0.0
 11
12.097895294154597
 21
686.0725429962506
 31
0.0
  0
LINE
  8
0
  6
CONTINUOUS
 62
               3
  5
29D
 10
81.542041640822902
 20
663.63545679011008
 30
0.0
 11
89.021717896505891
 21
609.14872039389911
 31
0.0
  0
ARC
  8
0
  6
CONTINUOUS
 62
               3
  5
29E
 10
-0.1420807370018054
 20
596.90874436274225
 30
0.0
 40
90.0
 50
352.18356639346075
 51
367.81643360639998
  0
LINE
  8
0
  6
CONTINUOUS
 62
               3
  5
29F
 10
81.542041640822902
 20
530.18203193537511
 30
0.0
 11
89.021717896505891
 21
584.66876833158585
 31
0.0
  0
ARC
  8
0
  6
CONTINUOUS
 62
               3
  5
2A0
 10
-0.1420807370018054
 20
596.90874436274225
 30
0.0
 40
77.5
 50
194.95524831660566
 51
255.04475168330734
  0
ARC
  8
0
  6
CONTINUOUS
 62
               3
  5
2A1
 10
-0.1420807370018054
 20
596.90874436274225
 30
0.0
 40
77.5
 50
104.95524831662307
 51
165.04475168332479
  0
LINE
  8
0
  6
CONTINUOUS
 62
               3
  5
2A2
 10
21.857919262997711
 20
596.90874436274225
 30
0.0
 11
21.857919262997711
 21
644.57686788360297
 31
0.0
  0
LINE
  8
0
  6
CONTINUOUS
 62
               3
  5
2A3
 10
44.728410629483506
 20
569.65275411233824
 30
0.0
 11
21.857919262997711
 21
596.90874436274225
 31
0.0
  0
LINE
  8
0
  6
CONTINUOUS
 62
               3
  5
2A4
 10
-66.868793164368924
 20
515.22462198491758
 30
0.0
 11
-12.382056768158435
 21
507.7449457292339
 31
0.0
  0
LINE
  8
0
  6
CONTINUOUS
 62
               3
  5
2A5
 10
66.584631690365597
 20
515.22462198491758
 30
0.0
 11
12.097895294154654
 21
507.74494572923436
 31
0.0
  0
ARC
  8
0
  6
CONTINUOUS
 62
               3
  5
2A6
 10
-0.1420807370018054
 20
596.90874436274225
 30
0.0
 40
90.0
 50
262.1835663934782
 51
277.81643360641743
  0
LINE
  8
0
  6
CONTINUOUS
 62
               3
  5
2A7
 10
56.5
 20
-686.90874436274225
 30
0.0
 11
-56.500000000000028
 21
-686.90874436274225
 31
0.0
  0
LINE
  8
0
  6
CONTINUOUS
 62
               3
  5
2A8
 10
56.5
 20
-385.40874436274248
 30
0.0
 11
-56.500000000000028
 21
-385.40874436274214
 31
0.0
  0
LINE
  8
0
  6
CONTINUOUS
 62
               3
  5
2A9
 10
56.5
 20
-385.40874436274248
 30
0.0
 11
56.5
 21
-686.90874436274225
 31
0.0
  0
LINE
  8
0
  6
CONTINUOUS
 62
               3
  5
2AA
 10
-56.500000000000028
 20
-385.40874436274214
 30
0.0
 11
-56.500000000000028
 21
-686.90874436274225
 31
0.0
  0
LINE
  8
0
  6
CONTINUOUS
 62
               3
  5
2AB
 10
-86.000000000000369
 20
-137.90874436274225
 30
0.0
 11
-86.000000000000369
 21
-145.40874436274225
 31
0.0
  0
LINE
  8
0
  6
CONTINUOUS
 62
               3
  5
2AC
 10
86.000000000000512
 20
-137.90874436274225
 30
0.0
 11
86.000000000000512
 21
-145.40874436274225
 31
0.0
  0
LINE
  8
0
  6
CONTINUOUS
 62
               3
  5
2AD
 10
-90.000000000000057
 20
-137.90874436274225
 30
0.0
 11
-90.000000000000057
 21
-119.90874436274225
 31
0.0
  0
LINE
  8
0
  6
CONTINUOUS
 62
               3
  5
2AE
 10
89.999999999999943
 20
-137.90874436274225
 30
0.0
 11
89.999999999999943
 21
-119.90874436274225
 31
0.0
  0
LINE
  8
0
  6
CONTINUOUS
 62
               3
  5
2AF
 10
90.000000000000512
 20
-137.90874436274225
 30
0.0
 11
-89.999999999999631
 21
-137.90874436274225
 31
0.0
  0
LINE
  8
0
  6
CONTINUOUS
 62
               3
  5
2B0
 10
-613.99999999999966
 20
-137.90874436274254
 30
0.0
 11
-613.99999999999966
 21
-145.40874436274225
 31
0.0
  0
LINE
  8
0
  6
CONTINUOUS
 62
               3
  5
2B1
 10
-786.00000000000068
 20
-137.90874436274254
 30
0.0
 11
-786.00000000000068
 21
-145.40874436274225
 31
0.0
  0
LINE
  8
0
  6
CONTINUOUS
 62
               3
  5
2B2
 10
-609.99999999999966
 20
-137.90874436274254
 30
0.0
 11
-609.99999999999966
 21
-119.90874436274242
 31
0.0
  0
LINE
  8
0
  6
CONTINUOUS
 62
               3
  5
2B3
 10
-789.99999999999966
 20
-137.90874436274254
 30
0.0
 11
-789.99999999999966
 21
-119.90874436274242
 31
0.0
  0
LINE
  8
0
  6
CONTINUOUS
 62
               3
  5
2B4
 10
-609.99999999999966
 20
-137.90874436274254
 30
0.0
 11
-789.99999999999966
 21
-137.90874436274254
 31
0.0
  0
LINE
  8
0
  6
CONTINUOUS
 62
               3
  5
2B5
 10
786.28416147400389
 20
-137.90874436274225
 30
0.0
 11
786.28416147400389
 21
-145.40874436274225
 31
0.0
  0
LINE
  8
0
  6
CONTINUOUS
 62
               3
  5
2B6
 10
614.28416147400287
 20
-137.90874436274225
 30
0.0
 11
614.28416147400287
 21
-145.40874436274225
 31
0.0
  0
LINE
  8
0
  6
CONTINUOUS
 62
               3
  5
2B7
 10
-74.999999999999545
 20
108.09125563725775
 30
0.0
 11
74.999999999999886
 21
108.09125563725775
 31
0.0
  0
LINE
  8
0
  6
CONTINUOUS
 62
               3
  5
2B8
 10
-88.499999999999773
 20
98.091255637257746
 30
0.0
 11
-88.499999999999773
 21
91.091255637257973
 31
0.0
  0
LINE
  8
0
  6
CONTINUOUS
 62
               3
  5
2B9
 10
-88.499999999999773
 20
98.091255637257746
 30
0.0
 11
-74.999999999999545
 21
108.09125563725775
 31
0.0
  0
ARC
  8
0
  6
CONTINUOUS
 62
               3
  5
2BA
 10
-76.999999999999773
 20
86.508679942302251
 30
0.0
 40
4.9999999999999991
 50
0.0
 51
66.421821521785375
  0
LINE
  8
0
  6
CONTINUOUS
 62
               3
  5
2BB
 10
-88.499999999999773
 20
91.091255637257973
 30
0.0
 11
88.500000000000455
 21
91.091255637257973
 31
0.0
  0
ARC
  8
0
  6
CONTINUOUS
 62
               3
  5
2BC
 10
-54.999999999999545
 20
1.0912556372577455
 30
0.0
 40
19.999999999999996
 50
148.21166938291961
 51
179.99999999996518
  0
LINE
  8
0
  6
CONTINUOUS
 62
               3
  5
2BD
 10
-71.999999999999773
 20
86.508679942302251
 30
0.0
 11
-71.999999999999773
 21
11.626909390110427
 31
0.0
  0
ARC
  8
0
  6
CONTINUOUS
 62
               3
  5
2BE
 10
54.999999999999886
 20
1.0912556372577455
 30
0.0
 40
19.999999999999996
 50
0.0
 51
31.788330617045659
  0
LINE
  8
0
  6
CONTINUOUS
 62
               3
  5
2BF
 10
72.000000000000341
 20
11.626909390110427
 30
0.0
 11
72.000000000000341
 21
86.508679942302251
 31
0.0
  0
LINE
  8
0
  6
CONTINUOUS
 62
               3
  5
2C0
 10
-19.999999999999545
 20
91.091255637257973
 30
0.0
 11
-19.999999999999545
 21
108.09125563725775
 31
0.0
  0
LINE
  8
0
  6
CONTINUOUS
 62
               3
  5
2C1
 10
19.999999999999886
 20
108.09125563725775
 30
0.0
 11
19.999999999999886
 21
91.091255637257973
 31
0.0
  0
LINE
  8
0
  6
CONTINUOUS
 62
               3
  5
2C2
 10
-19.999999999999545
 20
98.091255637257746
 30
0.0
 11
19.999999999999886
 21
98.091255637257746
 31
0.0
  0
LINE
  8
0
  6
CONTINUOUS
 62
               3
  5
2C3
 10
-72.284161474003781
 20
108.09125563725775
 30
0.0
 11
-72.284161474003781
 21
91.091255637257973
 31
0.0
  0
LINE
  8
0
  6
CONTINUOUS
 62
               3
  5
2C4
 10
-86.210498200624443
 20
98.091255637257746
 30
0.0
 11
-86.210498200624443
 21
91.091255637257973
 31
0.0
  0
LINE
  8
0
  6
CONTINUOUS
 62
               3
  5
2C5
 10
-88.499999999999773
 20
98.091255637257746
 30
0.0
 11
-86.210498200624443
 21
98.091255637257746
 31
0.0
  0
LINE
  8
0
  6
CONTINUOUS
 62
               3
  5
2C6
 10
-86.210498200624443
 20
98.091255637257746
 30
0.0
 11
-72.284161474003781
 21
108.09125563725775
 31
0.0
  0
LINE
  8
0
  6
CONTINUOUS
 62
               3
  5
2C7
 10
88.500000000000455
 20
98.091255637257746
 30
0.0
 11
88.500000000000455
 21
91.091255637257973
 31
0.0
  0
LINE
  8
0
  6
CONTINUOUS
 62
               3
  5
2C8
 10
88.500000000000455
 20
98.091255637257746
 30
0.0
 11
74.999999999999886
 21
108.09125563725775
 31
0.0
  0
ARC
  8
0
  6
CONTINUOUS
 62
               3
  5
2C9
 10
77.000000000000341
 20
86.508679942302251
 30
0.0
 40
4.9999999999999991
 50
113.57817847817988
 51
179.99999999996507
  0
LINE
  8
0
  6
CONTINUOUS
 62
               3
  5
2CA
 10
72.284161474005259
 20
108.09125563725775
 30
0.0
 11
72.284161474005259
 21
91.091255637257973
 31
0.0
  0
LINE
  8
0
  6
CONTINUOUS
 62
               3
  5
2CB
 10
86.210498200625693
 20
98.091255637257746
 30
0.0
 11
86.210498200625693
 21
91.091255637257973
 31
0.0
  0
LINE
  8
0
  6
CONTINUOUS
 62
               3
  5
2CC
 10
88.500000000000455
 20
98.091255637257746
 30
0.0
 11
86.210498200625693
 21
98.091255637257746
 31
0.0
  0
LINE
  8
0
  6
CONTINUOUS
 62
               3
  5
2CD
 10
86.210498200625693
 20
98.091255637257746
 30
0.0
 11
72.284161474005259
 21
108.09125563725775
 31
0.0
  0
LINE
  8
0
  6
CONTINUOUS
 62
               3
  5
2CE
 10
-89.999999999999545
 20
-119.90874436274089
 30
0.0
 11
90.000000000000455
 21
-119.90874436274203
 31
0.0
  0
LINE
  8
0
  6
CONTINUOUS
 62
               3
  5
2CF
 10
790.00000000000045
 20
-137.90874436274225
 30
0.0
 11
790.00000000000045
 21
-119.90874436274231
 31
0.0
  0
LINE
  8
0
  6
CONTINUOUS
 62
               3
  5
2D0
 10
610.00000000000045
 20
-137.90874436274225
 30
0.0
 11
610.00000000000045
 21
-119.90874436274231
 31
0.0
  0
LINE
  8
0
  6
CONTINUOUS
 62
               3
  5
2D1
 10
790.00000000000045
 20
-137.90874436274225
 30
0.0
 11
610.00000000000045
 21
-137.90874436274225
 31
0.0
  0
LINE
  8
0
  6
CONTINUOUS
 62
               3
  5
2D2
 10
74.999999999999886
 20
-114.90874436274203
 30
0.0
 11
74.999999999999886
 21
1.0912556372577455
 31
0.0
  0
LINE
  8
0
  6
CONTINUOUS
 62
               3
  5
2D3
 10
-74.999999999999545
 20
1.0912556372577455
 30
0.0
 11
-74.999999999999545
 21
-114.908744362741
 31
0.0
  0
ARC
  8
0
  6
CONTINUOUS
 62
               3
  5
2D4
 10
-79.999999999999545
 20
-114.908744362741
 30
0.0
 40
5.0
 50
269.99999999994782
 51
302.00545482770229
  0
ARC
  8
0
  6
CONTINUOUS
 62
               3
  5
2D5
 10
-79.999999999999545
 20
-114.908744362741
 30
0.0
 40
5.0
 50
327.31636115367843
 51
359.99999999993042
  0
ARC
  8
0
  6
CONTINUOUS
 62
               3
  5
2D6
 10
80.000000000000455
 20
-114.90874436274203
 30
0.0
 40
5.0
 50
179.99999999996518
 51
212.68363884621539
  0
ARC
  8
0
  6
CONTINUOUS
 62
               3
  5
2D7
 10
80.000000000000455
 20
-114.90874436274203
 30
0.0
 40
5.0
 50
237.99454517218854
 51
269.99999999994782
  0
LINE
  8
0
  6
CONTINUOUS
 62
               3
  5
2D8
 10
-71.999999999999773
 20
11.626909390110427
 30
0.0
 11
-11.727000000000317
 21
11.626909390110598
 31
0.0
  0
LINE
  8
0
  6
CONTINUOUS
 62
               3
  5
2D9
 10
11.726999999999521
 20
11.626909390110427
 30
0.0
 11
72.000000000000341
 21
11.626909390110427
 31
0.0
  0
LINE
  8
0
  6
CONTINUOUS
 62
               3
  5
2DA
 10
56.000000000000171
 20
-298.90874436274322
 30
0.0
 11
56.000000000000171
 21
-384.90874436274271
 31
0.0
  0
LINE
  8
0
  6
CONTINUOUS
 62
               3
  5
2DB
 10
-56.000000000000568
 20
-384.90874436274265
 30
0.0
 11
-56.000000000000455
 21
-298.90874436274231
 31
0.0
  0
LINE
  8
0
  6
CONTINUOUS
 62
               3
  5
2DC
 10
56.000000000000171
 20
-384.90874436274271
 30
0.0
 11
-56.000000000000568
 21
-384.90874436274271
 31
0.0
  0
LINE
  8
0
  6
CONTINUOUS
 62
               3
  5
2DD
 10
-0.1420807370018054
 20
636.90874436274225
 30
0.0
 11
-16.114238064524308
 21
646.92014496605339
 31
0.0
  0
LINE
  8
0
  6
CONTINUOUS
 62
               3
  5
2DE
 10
-0.1420807370018054
 20
636.90874436274225
 30
0.0
 11
21.857919262997711
 21
636.90874436274225
 31
0.0
  0
LINE
  8
0
  6
CONTINUOUS
 62
               3
  5
2DF
 10
-774.99999999999989
 20
108.09125563725775
 30
0.0
 11
-625.0
 21
108.09125563725775
 31
0.0
  0
LINE
  8
0
  6
CONTINUOUS
 62
               3
  5
2E0
 10
-788.50000000000045
 20
98.091255637257746
 30
0.0
 11
-788.50000000000045
 21
91.091255637257973
 31
0.0
  0
LINE
  8
0
  6
CONTINUOUS
 62
               3
  5
2E1
 10
-788.50000000000045
 20
98.091255637257746
 30
0.0
 11
-774.99999999999989
 21
108.09125563725775
 31
0.0
  0
ARC
  8
0
  6
CONTINUOUS
 62
               3
  5
2E2
 10
-777.0
 20
86.508679942302251
 30
0.0
 40
4.9999999999999991
 50
359.99999999993048
 51
426.42182152171608
  0
LINE
  8
0
  6
CONTINUOUS
 62
               3
  5
2E3
 10
-788.50000000000045
 20
91.091255637257973
 30
0.0
 11
-611.50000000000045
 21
91.091255637257973
 31
0.0
  0
LINE
  8
0
  6
CONTINUOUS
 62
               3
  5
2E4
 10
-772.0
 20
86.508679942302251
 30
0.0
 11
-772.0
 21
16.626909390110711
 31
0.0
  0
LINE
  8
0
  6
CONTINUOUS
 62
               3
  5
2E5
 10
-627.99999999999989
 20
16.626909390111109
 30
0.0
 11
-627.99999999999989
 21
86.508679942302251
 31
0.0
  0
LINE
  8
0
  6
CONTINUOUS
 62
               3
  5
2E6
 10
-771.50000000000068
 20
11.626909390109688
 30
0.0
 11
-628.49999999999943
 21
11.626909390110427
 31
0.0
  0
LINE
  8
0
  6
CONTINUOUS
 62
               3
  5
2E7
 10
-719.99999999999989
 20
91.091255637257973
 30
0.0
 11
-719.99999999999989
 21
108.09125563725775
 31
0.0
  0
LINE
  8
0
  6
CONTINUOUS
 62
               3
  5
2E8
 10
-679.99999999999989
 20
108.09125563725775
 30
0.0
 11
-679.99999999999989
 21
91.091255637257973
 31
0.0
  0
LINE
  8
0
  6
CONTINUOUS
 62
               3
  5
2E9
 10
-719.99999999999989
 20
98.091255637257746
 30
0.0
 11
-679.99999999999989
 21
98.091255637257746
 31
0.0
  0
LINE
  8
0
  6
CONTINUOUS
 62
               3
  5
2EA
 10
-772.28416147400549
 20
108.09125563725775
 30
0.0
 11
-772.28416147400549
 21
91.091255637257973
 31
0.0
  0
LINE
  8
0
  6
CONTINUOUS
 62
               3
  5
2EB
 10
-786.21049820062535
 20
98.091255637257746
 30
0.0
 11
-786.21049820062535
 21
91.091255637257973
 31
0.0
  0
LINE
  8
0
  6
CONTINUOUS
 62
               3
  5
2EC
 10
-788.50000000000045
 20
98.091255637257746
 30
0.0
 11
-786.21049820062535
 21
98.091255637257746
 31
0.0
  0
LINE
  8
0
  6
CONTINUOUS
 62
               3
  5
2ED
 10
-786.21049820062535
 20
98.091255637257746
 30
0.0
 11
-772.28416147400549
 21
108.09125563725775
 31
0.0
  0
LINE
  8
0
  6
CONTINUOUS
 62
               3
  5
2EE
 10
-611.50000000000045
 20
98.091255637257746
 30
0.0
 11
-611.50000000000045
 21
91.091255637257973
 31
0.0
  0
LINE
  8
0
  6
CONTINUOUS
 62
               3
  5
2EF
 10
-611.50000000000045
 20
98.091255637257746
 30
0.0
 11
-625.0
 21
108.09125563725775
 31
0.0
  0
ARC
  8
0
  6
CONTINUOUS
 62
               3
  5
2F0
 10
-622.99999999999989
 20
86.508679942302251
 30
0.0
 40
4.9999999999999991
 50
113.57817847818016
 51
179.99999999996507
  0
LINE
  8
0
  6
CONTINUOUS
 62
               3
  5
2F1
 10
-627.71583852599588
 20
108.09125563725775
 30
0.0
 11
-627.71583852599588
 21
91.091255637257973
 31
0.0
  0
LINE
  8
0
  6
CONTINUOUS
 62
               3
  5
2F2
 10
-613.78950179937453
 20
98.091255637257746
 30
0.0
 11
-613.78950179937453
 21
91.091255637257973
 31
0.0
  0
LINE
  8
0
  6
CONTINUOUS
 62
               3
  5
2F3
 10
-611.50000000000045
 20
98.091255637257746
 30
0.0
 11
-613.78950179937453
 21
98.091255637257746
 31
0.0
  0
LINE
  8
0
  6
CONTINUOUS
 62
               3
  5
2F4
 10
-613.78950179937453
 20
98.091255637257746
 30
0.0
 11
-627.71583852599588
 21
108.09125563725775
 31
0.0
  0
LINE
  8
0
  6
CONTINUOUS
 62
               3
  5
2F5
 10
-610.00000000000034
 20
-119.9087443627414
 30
0.0
 11
-790.00000000000045
 21
-119.90874436274254
 31
0.0
  0
LINE
  8
0
  6
CONTINUOUS
 62
               3
  5
2F6
 10
-81.826203114826484
 20
663.63545679011008
 30
0.0
 11
-89.305879370509501
 21
609.14872039389911
 31
0.0
  0
ARC
  8
0
  6
CONTINUOUS
 62
               3
  5
2F7
 10
-0.1420807370018054
 20
596.90874436274225
 30
0.0
 40
90.0
 50
172.18356639349557
 51
187.8164336064348
  0
LINE
  8
0
  6
CONTINUOUS
 62
               3
  5
2F8
 10
-81.826203114826484
 20
530.18203193537511
 30
0.0
 11
-89.305879370509501
 21
584.66876833158585
 31
0.0
  0
LINE
  8
0
  6
CONTINUOUS
 62
               3
  5
2F9
 10
26.787357092479397
 20
-189.90874436274237
 30
0.0
 11
-26.787357092479503
 21
-189.90874436274237
 31
0.0
  0
CIRCLE
  8
0
  6
CONTINUOUS
 62
               3
  5
2FA
 10
-0.0000000000000568
 20
-217.90874436274225
 30
0.0
 40
48.5
  0
CIRCLE
  8
0
  6
CONTINUOUS
 62
               3
  5
2FB
 10
-0.0000000000000568
 20
-217.90874436274225
 30
0.0
 40
38.75
  0
CIRCLE
  8
0
  6
CONTINUOUS
 62
               3
  5
2FC
 10
-0.0000000000000568
 20
-217.90874436274225
 30
0.0
 40
47.299999999999997
  0
LINE
  8
0
  6
CONTINUOUS
 62
               3
  5
2FD
 10
-31.819805153394661
 20
-249.72854951613681
 30
0.0
 11
-33.446150750123756
 21
-251.35489511286596
 31
0.0
  0
LINE
  8
0
  6
CONTINUOUS
 62
               3
  5
2FE
 10
31.819805153394611
 20
-249.72854951613681
 30
0.0
 11
33.446150750123707
 21
-251.35489511286585
 31
0.0
  0
ARC
  8
0
  6
CONTINUOUS
 62
               3
  5
2FF
 10
-0.0000000000000568
 20
-217.90874436274225
 30
0.0
 40
45.0
 50
224.99999999987045
 51
314.99999999981878
  0
CIRCLE
  8
0
  6
CONTINUOUS
 62
               3
  5
300
 10
-0.0000000000000568
 20
-217.90874436274225
 30
0.0
 40
43.0
  0
LINE
  8
0
  6
CONTINUOUS
 62
               3
  5
301
 10
774.99999999999977
 20
108.09125563725775
 30
0.0
 11
624.99999999999989
 21
108.09125563725775
 31
0.0
  0
LINE
  8
0
  6
CONTINUOUS
 62
               3
  5
302
 10
788.50000000000034
 20
98.091255637257746
 30
0.0
 11
788.50000000000034
 21
91.091255637257973
 31
0.0
  0
LINE
  8
0
  6
CONTINUOUS
 62
               3
  5
303
 10
788.50000000000034
 20
98.091255637257746
 30
0.0
 11
774.99999999999977
 21
108.09125563725775
 31
0.0
  0
ARC
  8
0
  6
CONTINUOUS
 62
               3
  5
304
 10
776.99999999999989
 20
86.508679942302251
 30
0.0
 40
4.9999999999999991
 50
113.57817847818016
 51
179.99999999996507
  0
LINE
  8
0
  6
CONTINUOUS
 62
               3
  5
305
 10
788.50000000000034
 20
91.091255637257973
 30
0.0
 11
611.50000000000034
 21
91.091255637257973
 31
0.0
  0
LINE
  8
0
  6
CONTINUOUS
 62
               3
  5
306
 10
771.99999999999989
 20
86.508679942302251
 30
0.0
 11
771.99999999999989
 21
16.626909390110711
 31
0.0
  0
LINE
  8
0
  6
CONTINUOUS
 62
               3
  5
307
 10
627.99999999999977
 20
16.626909390111109
 30
0.0
 11
627.99999999999977
 21
86.508679942302251
 31
0.0
  0
LINE
  8
0
  6
CONTINUOUS
 62
               3
  5
308
 10
771.50000000000057
 20
11.626909390109688
 30
0.0
 11
628.49999999999932
 21
11.626909390110427
 31
0.0
  0
LINE
  8
0
  6
CONTINUOUS
 62
               3
  5
309
 10
719.99999999999977
 20
91.091255637257973
 30
0.0
 11
719.99999999999977
 21
108.09125563725775
 31
0.0
  0
LINE
  8
0
  6
CONTINUOUS
 62
               3
  5
30A
 10
679.99999999999977
 20
108.09125563725775
 30
0.0
 11
679.99999999999977
 21
91.091255637257973
 31
0.0
  0
LINE
  8
0
  6
CONTINUOUS
 62
               3
  5
30B
 10
719.99999999999977
 20
98.091255637257746
 30
0.0
 11
679.99999999999977
 21
98.091255637257746
 31
0.0
  0
LINE
  8
0
  6
CONTINUOUS
 62
               3
  5
30C
 10
772.28416147400537
 20
108.09125563725775
 30
0.0
 11
772.28416147400537
 21
91.091255637257973
 31
0.0
  0
LINE
  8
0
  6
CONTINUOUS
 62
               3
  5
30D
 10
786.21049820062524
 20
98.091255637257746
 30
0.0
 11
786.21049820062524
 21
91.091255637257973
 31
0.0
  0
LINE
  8
0
  6
CONTINUOUS
 62
               3
  5
30E
 10
788.50000000000034
 20
98.091255637257746
 30
0.0
 11
786.21049820062524
 21
98.091255637257746
 31
0.0
  0
LINE
  8
0
  6
CONTINUOUS
 62
               3
  5
30F
 10
786.21049820062524
 20
98.091255637257746
 30
0.0
 11
772.28416147400537
 21
108.09125563725775
 31
0.0
  0
LINE
  8
0
  6
CONTINUOUS
 62
               3
  5
310
 10
611.50000000000034
 20
98.091255637257746
 30
0.0
 11
611.50000000000034
 21
91.091255637257973
 31
0.0
  0
LINE
  8
0
  6
CONTINUOUS
 62
               3
  5
311
 10
611.50000000000034
 20
98.091255637257746
 30
0.0
 11
624.99999999999989
 21
108.09125563725775
 31
0.0
  0
ARC
  8
0
  6
CONTINUOUS
 62
               3
  5
312
 10
622.99999999999977
 20
86.508679942302251
 30
0.0
 40
4.9999999999999991
 50
0.0
 51
66.421821521785304
  0
LINE
  8
0
  6
CONTINUOUS
 62
               3
  5
313
 10
627.71583852599576
 20
108.09125563725775
 30
0.0
 11
627.71583852599576
 21
91.091255637257973
 31
0.0
  0
LINE
  8
0
  6
CONTINUOUS
 62
               3
  5
314
 10
613.78950179937442
 20
98.091255637257746
 30
0.0
 11
613.78950179937442
 21
91.091255637257973
 31
0.0
  0
LINE
  8
0
  6
CONTINUOUS
 62
               3
  5
315
 10
611.50000000000034
 20
98.091255637257746
 30
0.0
 11
613.78950179937442
 21
98.091255637257746
 31
0.0
  0
LINE
  8
0
  6
CONTINUOUS
 62
               3
  5
316
 10
613.78950179937442
 20
98.091255637257746
 30
0.0
 11
627.71583852599576
 21
108.09125563725775
 31
0.0
  0
LINE
  8
0
  6
CONTINUOUS
 62
               3
  5
317
 10
610.00000000000023
 20
-119.9087443627414
 30
0.0
 11
790.00000000000034
 21
-119.90874436274254
 31
0.0
  0
CIRCLE
  8
0
  6
CONTINUOUS
 62
               3
  5
318
 10
-0.1420807370018054
 20
596.90874436274225
 30
0.0
 40
59.0
  0
CIRCLE
  8
0
  6
CONTINUOUS
 62
               3
  5
319
 10
-0.0000000000000568
 20
-217.90874436274225
 30
0.0
 40
57.5
  0
LINE
  8
0
  6
CONTINUOUS
 62
               3
  5
31A
 10
-643.5
 20
-686.90874436274225
 30
0.0
 11
-756.5
 21
-686.90874436274225
 31
0.0
  0
LINE
  8
0
  6
CONTINUOUS
 62
               3
  5
31B
 10
-643.5
 20
-385.40874436274248
 30
0.0
 11
-756.5
 21
-385.40874436274214
 31
0.0
  0
LINE
  8
0
  6
CONTINUOUS
 62
               3
  5
31C
 10
-643.5
 20
-385.40874436274248
 30
0.0
 11
-643.5
 21
-686.90874436274225
 31
0.0
  0
LINE
  8
0
  6
CONTINUOUS
 62
               3
  5
31D
 10
-756.5
 20
-385.40874436274214
 30
0.0
 11
-756.5
 21
-686.90874436274225
 31
0.0
  0
LINE
  8
0
  6
CONTINUOUS
 62
               3
  5
31E
 10
-643.99999999999977
 20
-298.90874436274322
 30
0.0
 11
-643.99999999999977
 21
-384.90874436274271
 31
0.0
  0
LINE
  8
0
  6
CONTINUOUS
 62
               3
  5
31F
 10
-756.00000000000057
 20
-384.90874436274265
 30
0.0
 11
-756.00000000000045
 21
-298.90874436274231
 31
0.0
  0
LINE
  8
0
  6
CONTINUOUS
 62
               3
  5
320
 10
-643.99999999999977
 20
-384.90874436274271
 30
0.0
 11
-756.00000000000057
 21
-384.90874436274271
 31
0.0
  0
LINE
  8
0
  6
CONTINUOUS
 62
               3
  5
321
 10
-759.46446609406735
 20
-283.98335577269711
 30
0.0
 11
-772.07106781186542
 21
-271.37675405489904
 31
0.0
  0
LINE
  8
0
  6
CONTINUOUS
 62
               3
  5
322
 10
-758.00000000000045
 20
-287.51888967862942
 30
0.0
 11
-758.00000000000045
 21
-288.90874436274231
 31
0.0
  0
LINE
  8
0
  6
CONTINUOUS
 62
               3
  5
323
 10
-756.00000000000045
 20
-298.90874436274231
 30
0.0
 11
-758.00000000000045
 21
-288.90874436274231
 31
0.0
  0
ARC
  8
0
  6
CONTINUOUS
 62
               3
  5
324
 10
-762.99999999999977
 20
-287.51888967862942
 30
0.0
 40
5.0
 50
359.99999999993048
 51
404.9999999999215
  0
LINE
  8
0
  6
CONTINUOUS
 62
               3
  5
325
 10
-640.53553390593265
 20
-283.98335577269711
 30
0.0
 11
-635.84270519222423
 21
-279.29052705898846
 31
0.0
  0
LINE
  8
0
  6
CONTINUOUS
 62
               3
  5
326
 10
-641.99999999999966
 20
-287.51888967862942
 30
0.0
 11
-641.99999999999966
 21
-288.90874436274231
 31
0.0
  0
LINE
  8
0
  6
CONTINUOUS
 62
               3
  5
327
 10
-643.99999999999966
 20
-298.90874436274231
 30
0.0
 11
-641.99999999999966
 21
-288.90874436274231
 31
0.0
  0
ARC
  8
0
  6
CONTINUOUS
 62
               3
  5
328
 10
-637.00000000000034
 20
-287.51888967862942
 30
0.0
 40
5.0
 50
134.99999999997416
 51
179.99999999996507
  0
ARC
  8
0
  6
CONTINUOUS
 62
               3
  5
329
 10
-765.0
 20
-264.30568624303351
 30
0.0
 40
10.0
 50
179.99999999996524
 51
224.99999999995677
  0
LINE
  8
0
  6
CONTINUOUS
 62
               3
  5
32A
 10
643.49999999999989
 20
-686.90874436274225
 30
0.0
 11
756.49999999999989
 21
-686.90874436274225
 31
0.0
  0
LINE
  8
0
  6
CONTINUOUS
 62
               3
  5
32B
 10
643.49999999999989
 20
-385.40874436274248
 30
0.0
 11
756.49999999999989
 21
-385.40874436274214
 31
0.0
  0
LINE
  8
0
  6
CONTINUOUS
 62
               3
  5
32C
 10
643.49999999999989
 20
-385.40874436274248
 30
0.0
 11
643.49999999999989
 21
-686.90874436274225
 31
0.0
  0
LINE
  8
0
  6
CONTINUOUS
 62
               3
  5
32D
 10
756.49999999999989
 20
-385.40874436274214
 30
0.0
 11
756.49999999999989
 21
-686.90874436274225
 31
0.0
  0
LINE
  8
0
  6
CONTINUOUS
 62
               3
  5
32E
 10
643.99999999999966
 20
-298.90874436274322
 30
0.0
 11
643.99999999999966
 21
-384.90874436274271
 31
0.0
  0
LINE
  8
0
  6
CONTINUOUS
 62
               3
  5
32F
 10
756.00000000000045
 20
-384.90874436274265
 30
0.0
 11
756.00000000000034
 21
-298.90874436274231
 31
0.0
  0
LINE
  8
0
  6
CONTINUOUS
 62
               3
  5
330
 10
643.99999999999966
 20
-384.90874436274271
 30
0.0
 11
756.00000000000045
 21
-384.90874436274271
 31
0.0
  0
CIRCLE
  8
0
  6
CONTINUOUS
 62
               3
  5
331
 10
699.99999999999989
 20
-217.90874436274225
 30
0.0
 40
57.5
  0
LINE
  8
0
  6
CONTINUOUS
 62
               3
  5
332
 10
759.46446609406723
 20
-283.98335577269711
 30
0.0
 11
772.0710678118653
 21
-271.37675405489904
 31
0.0
  0
LINE
  8
0
  6
CONTINUOUS
 62
               3
  5
333
 10
758.00000000000034
 20
-287.51888967862942
 30
0.0
 11
758.00000000000034
 21
-288.90874436274231
 31
0.0
  0
LINE
  8
0
  6
CONTINUOUS
 62
               3
  5
334
 10
756.00000000000034
 20
-298.90874436274231
 30
0.0
 11
758.00000000000034
 21
-288.90874436274231
 31
0.0
  0
ARC
  8
0
  6
CONTINUOUS
 62
               3
  5
335
 10
762.99999999999966
 20
-287.51888967862942
 30
0.0
 40
5.0
 50
134.99999999997416
 51
179.99999999996507
  0
LINE
  8
0
  6
CONTINUOUS
 62
               3
  5
336
 10
774.99999999999989
 20
-163.90874436274223
 30
0.0
 11
774.99999999999989
 21
-264.30568624303351
 31
0.0
  0
ARC
  8
0
  6
CONTINUOUS
 62
               3
  5
337
 10
764.99999999999989
 20
-264.30568624303351
 30
0.0
 40
10.0
 50
314.99999999993884
 51
359.99999999993048
  0
LINE
  8
0
  6
CONTINUOUS
 62
               3
  5
338
 10
-89.999999999999886
 20
-145.40874436274225
 30
0.0
 11
-90.0
 21
-160.90874436274225
 31
0.0
  0
LINE
  8
0
  6
CONTINUOUS
 62
               3
  5
339
 10
-55.0
 20
-146.90874436274225
 30
0.0
 11
55.0
 21
-146.90874436274225
 31
0.0
  0
LINE
  8
0
  6
CONTINUOUS
 62
               3
  5
33A
 10
-56.499999999999829
 20
-145.40874436274225
 30
0.0
 11
-89.999999999999886
 21
-145.40874436274225
 31
0.0
  0
LINE
  8
0
  6
CONTINUOUS
 62
               3
  5
33B
 10
-56.499999999999829
 20
-145.40874436274225
 30
0.0
 11
-54.999999999999943
 21
-146.90874436274225
 31
0.0
  0
LINE
  8
0
  6
CONTINUOUS
 62
               3
  5
33C
 10
56.499999999999773
 20
-145.40874436274225
 30
0.0
 11
90.0
 21
-145.40874436274225
 31
0.0
  0
LINE
  8
0
  6
CONTINUOUS
 62
               3
  5
33D
 10
56.499999999999773
 20
-145.40874436274225
 30
0.0
 11
54.999999999999886
 21
-146.90874436274225
 31
0.0
  0
ARC
  8
0
  6
CONTINUOUS
 62
               3
  5
33E
 10
-87.0
 20
-160.90874436274225
 30
0.0
 40
3.0000000000000004
 50
179.99999999996515
 51
269.99999999994782
  0
LINE
  8
0
  6
CONTINUOUS
 62
               3
  5
33F
 10
-87.0
 20
-163.90874436274225
 30
0.0
 11
-19.754746265137953
 21
-163.90874436274208
 31
0.0
  0
ARC
  8
0
  6
CONTINUOUS
 62
               3
  5
340
 10
86.999999999999886
 20
-160.90874436274225
 30
0.0
 40
3.0000000000000004
 50
269.99999999994782
 51
359.99999999993054
  0
LINE
  8
0
  6
CONTINUOUS
 62
               3
  5
341
 10
90.0
 20
-145.40874436274225
 30
0.0
 11
90.000000000000469
 21
-160.90874436274217
 31
0.0
  0
LINE
  8
0
  6
CONTINUOUS
 62
               3
  5
342
 10
19.754746265137783
 20
-163.90874436274208
 30
0.0
 11
86.999999999999886
 21
-163.90874436274225
 31
0.0
  0
ARC
  8
0
  6
CONTINUOUS
 62
               3
  5
343
 10
606.9999999999992
 20
-156.04195799817302
 30
0.0
 40
3.0
 50
271.99999999994657
 51
359.99999999993054
  0
LINE
  8
0
  6
CONTINUOUS
 62
               3
  5
344
 10
610.00000000000011
 20
-145.40874436274225
 30
0.0
 11
610.0
 21
-160.90874436274225
 31
0.0
  0
LINE
  8
0
  6
CONTINUOUS
 62
               3
  5
345
 10
645.0
 20
-146.90874436274225
 30
0.0
 11
755.0
 21
-146.90874436274225
 31
0.0
  0
LINE
  8
0
  6
CONTINUOUS
 62
               3
  5
346
 10
643.50000000000023
 20
-145.40874436274225
 30
0.0
 11
610.00000000000011
 21
-145.40874436274225
 31
0.0
  0
LINE
  8
0
  6
CONTINUOUS
 62
               3
  5
347
 10
643.50000000000023
 20
-145.40874436274225
 30
0.0
 11
645.0
 21
-146.90874436274225
 31
0.0
  0
LINE
  8
0
  6
CONTINUOUS
 62
               3
  5
348
 10
756.49999999999977
 20
-145.40874436274225
 30
0.0
 11
790.0
 21
-145.40874436274225
 31
0.0
  0
LINE
  8
0
  6
CONTINUOUS
 62
               3
  5
349
 10
756.49999999999977
 20
-145.40874436274225
 30
0.0
 11
754.99999999999989
 21
-146.90874436274225
 31
0.0
  0
ARC
  8
0
  6
CONTINUOUS
 62
               3
  5
34A
 10
613.0
 20
-160.90874436274225
 30
0.0
 40
3.0000000000000004
 50
179.99999999996515
 51
269.99999999994731
  0
LINE
  8
0
  6
CONTINUOUS
 62
               3
  5
34B
 10
613.0
 20
-163.90874436274225
 30
0.0
 11
680.24525373486199
 21
-163.90874436274208
 31
0.0
  0
ARC
  8
0
  6
CONTINUOUS
 62
               3
  5
34C
 10
786.99999999999989
 20
-160.90874436274225
 30
0.0
 40
3.0000000000000004
 50
269.99999999994731
 51
359.99999999993054
  0
LINE
  8
0
  6
CONTINUOUS
 62
               3
  5
34D
 10
790.0
 20
-145.40874436274225
 30
0.0
 11
790.00000000000045
 21
-160.90874436274217
 31
0.0
  0
LINE
  8
0
  6
CONTINUOUS
 62
               3
  5
34E
 10
719.75474626513778
 20
-163.90874436274208
 30
0.0
 11
786.99999999999989
 21
-163.90874436274225
 31
0.0
  0
LINE
  8
0
  6
CONTINUOUS
 62
               3
  5
34F
 10
-789.99999999999989
 20
-145.40874436274225
 30
0.0
 11
-790.0
 21
-160.90874436274225
 31
0.0
  0
LINE
  8
0
  6
CONTINUOUS
 62
               3
  5
350
 10
-755.0
 20
-146.90874436274225
 30
0.0
 11
-645.0
 21
-146.90874436274225
 31
0.0
  0
LINE
  8
0
  6
CONTINUOUS
 62
               3
  5
351
 10
-756.49999999999977
 20
-145.40874436274225
 30
0.0
 11
-789.99999999999989
 21
-145.40874436274225
 31
0.0
  0
LINE
  8
0
  6
CONTINUOUS
 62
               3
  5
352
 10
-756.49999999999977
 20
-145.40874436274225
 30
0.0
 11
-755.0
 21
-146.90874436274225
 31
0.0
  0
LINE
  8
0
  6
CONTINUOUS
 62
               3
  5
353
 10
-643.50000000000023
 20
-145.40874436274225
 30
0.0
 11
-610.0
 21
-145.40874436274225
 31
0.0
  0
LINE
  8
0
  6
CONTINUOUS
 62
               3
  5
354
 10
-643.50000000000023
 20
-145.40874436274225
 30
0.0
 11
-645.00000000000011
 21
-146.90874436274225
 31
0.0
  0
ARC
  8
0
  6
CONTINUOUS
 62
               3
  5
355
 10
-787.0
 20
-160.90874436274225
 30
0.0
 40
3.0000000000000004
 50
179.99999999996515
 51
269.99999999994731
  0
LINE
  8
0
  6
CONTINUOUS
 62
               3
  5
356
 10
-787.0
 20
-163.90874436274225
 30
0.0
 11
-719.75474626513801
 21
-163.90874436274208
 31
0.0
  0
ARC
  8
0
  6
CONTINUOUS
 62
               3
  5
357
 10
-613.00000000000011
 20
-160.90874436274225
 30
0.0
 40
3.0000000000000004
 50
269.99999999994731
 51
359.99999999993054
  0
LINE
  8
0
  6
CONTINUOUS
 62
               3
  5
358
 10
-610.0
 20
-145.40874436274225
 30
0.0
 11
-610.00000000000011
 21
-160.90874436274225
 31
0.0
  0
LINE
  8
0
  6
CONTINUOUS
 62
               3
  5
359
 10
-680.24525373486222
 20
-163.90874436274208
 30
0.0
 11
-613.00000000000011
 21
-163.90874436274225
 31
0.0
  0
LINE
  8
0
  6
CONTINUOUS
 62
               3
  5
35A
 10
-775.0
 20
-264.3056862181927
 30
0.0
 11
-775.0
 21
-169.37551198460261
 31
0.0
  0
LINE
  8
0
  6
CONTINUOUS
 62
               3
  5
35B
 10
-560.00000000000011
 20
-272.90874436274231
 30
0.0
 11
-560.67155612596457
 21
-272.90874436274231
 31
0.0
  0
LINE
  8
0
  6
CONTINUOUS
 62
               3
  5
35C
 10
-563.17155612596457
 20
-275.40874436274157
 30
0.0
 11
-560.67155612596457
 21
-272.90874436274231
 31
0.0
  0
LINE
  8
0
  6
CONTINUOUS
 62
               3
  5
35D
 10
-560.00000000000011
 20
-162.90874436274242
 30
0.0
 11
-560.67155612596457
 21
-162.90874436274242
 31
0.0
  0
LINE
  8
0
  6
CONTINUOUS
 62
               3
  5
35E
 10
-563.17155612596457
 20
-160.4087443627422
 30
0.0
 11
-560.67155612596457
 21
-162.90874436274242
 31
0.0
  0
LINE
  8
0
  6
CONTINUOUS
 62
               3
  5
35F
 10
-560.67155612596457
 20
-162.90874436274242
 30
0.0
 11
-560.67155612596457
 21
-272.90874436274231
 31
0.0
  0
LINE
  8
0
  6
CONTINUOUS
 62
               3
  5
360
 10
-560.00000000000011
 20
-275.50874436274228
 30
0.0
 11
-560.00000000000011
 21
-160.30874436274229
 31
0.0
  0
LINE
  8
0
  6
CONTINUOUS
 62
               3
  5
361
 10
-560.00000000000011
 20
-160.30874436274229
 30
0.0
 11
-557.50000000000011
 21
-160.30874436274229
 31
0.0
  0
ARC
  8
0
  6
CONTINUOUS
 62
               3
  5
362
 10
-557.50000000000011
 20
-162.80874436274229
 30
0.0
 40
2.5
 50
0.000000000069046
 51
90.000000000018048
  0
LINE
  8
0
  6
CONTINUOUS
 62
               3
  5
363
 10
-555.00000000000011
 20
-162.80874436274229
 30
0.0
 11
-555.00000000000011
 21
-273.00874436274228
 31
0.0
  0
LINE
  8
0
  6
CONTINUOUS
 62
               3
  5
364
 10
-560.00000000000011
 20
-275.50874436274228
 30
0.0
 11
-557.50000000000011
 21
-275.50874436274228
 31
0.0
  0
ARC
  8
0
  6
CONTINUOUS
 62
               3
  5
365
 10
-557.50000000000011
 20
-273.00874436274228
 30
0.0
 40
2.5
 50
270.0000000000515
 51
359.9999999999992
  0
LINE
  8
0
  6
CONTINUOUS
 62
               3
  5
366
 10
-563.17155612596457
 20
-160.4087443627422
 30
0.0
 11
-563.17155612596525
 21
-275.40874436274231
 31
0.0
  0
ARC
  8
0
  6
CONTINUOUS
 62
               3
  5
367
 10
-557.49999999998977
 20
-273.0087443627591
 30
0.0
 40
2.5
 50
270.0000000000515
 51
359.9999999999992
  0
LINE
  8
0
  6
CONTINUOUS
 62
               3
  5
368
 10
-563.17155612596525
 20
-275.40874436274231
 30
0.0
 11
-632.48166876980395
 21
-277.82910682982561
 31
0.0
  0
LINE
  8
0
  6
CONTINUOUS
 62
               3
  5
369
 10
-563.17155612596457
 20
-160.40874436274225
 30
0.0
 11
-607.10469849010758
 21
-158.87456522519597
 31
0.0
  0
ARC
  8
0
  6
CONTINUOUS
 62
               3
  5
36A
 10
-607.0
 20
-155.87639274413868
 30
0.0
 40
3.0
 50
179.99999999996515
 51
267.99999999994577
  0
ARC
  8
0
  6
CONTINUOUS
 62
               3
  5
36B
 10
-632.30717128629135
 20
-282.82606096492106
 30
0.0
 40
5.0
 50
91.999999999983899
 51
134.99999999997621
  0
CIRCLE
  8
0
  6
CONTINUOUS
 62
               3
  5
36C
 10
-700.00000000000011
 20
-217.90874436274225
 30
0.0
 40
57.5
  0
LINE
  8
0
  6
CONTINUOUS
 62
               3
  5
36D
 10
-140.00000000000011
 20
-272.90874436274237
 30
0.0
 11
-139.32844387403566
 21
-272.90874436274237
 31
0.0
  0
LINE
  8
0
  6
CONTINUOUS
 62
               3
  5
36E
 10
-136.82844387403566
 20
-275.40874436274163
 30
0.0
 11
-139.32844387403566
 21
-272.90874436274237
 31
0.0
  0
LINE
  8
0
  6
CONTINUOUS
 62
               3
  5
36F
 10
-140.00000000000011
 20
-162.90874436274248
 30
0.0
 11
-139.32844387403566
 21
-162.90874436274248
 31
0.0
  0
LINE
  8
0
  6
CONTINUOUS
 62
               3
  5
370
 10
-136.82844387403566
 20
-160.40874436274225
 30
0.0
 11
-139.32844387403566
 21
-162.90874436274248
 31
0.0
  0
LINE
  8
0
  6
CONTINUOUS
 62
               3
  5
371
 10
-139.32844387403566
 20
-162.90874436274248
 30
0.0
 11
-139.32844387403566
 21
-272.90874436274237
 31
0.0
  0
LINE
  8
0
  6
CONTINUOUS
 62
               3
  5
372
 10
-140.00000000000011
 20
-275.50874436274233
 30
0.0
 11
-140.00000000000011
 21
-160.30874436274235
 31
0.0
  0
LINE
  8
0
  6
CONTINUOUS
 62
               3
  5
373
 10
-140.00000000000011
 20
-160.30874436274235
 30
0.0
 11
-142.50000000000011
 21
-160.30874436274235
 31
0.0
  0
ARC
  8
0
  6
CONTINUOUS
 62
               3
  5
374
 10
-142.50000000000011
 20
-162.80874436274235
 30
0.0
 40
2.5
 50
89.999999999948344
 51
179.99999999989603
  0
LINE
  8
0
  6
CONTINUOUS
 62
               3
  5
375
 10
-145.00000000000011
 20
-162.80874436274235
 30
0.0
 11
-145.00000000000011
 21
-273.00874436274233
 31
0.0
  0
LINE
  8
0
  6
CONTINUOUS
 62
               3
  5
376
 10
-140.00000000000011
 20
-275.50874436274233
 30
0.0
 11
-142.50000000000011
 21
-275.50874436274233
 31
0.0
  0
ARC
  8
0
  6
CONTINUOUS
 62
               3
  5
377
 10
-142.50000000000011
 20
-273.00874436274233
 30
0.0
 40
2.5
 50
179.99999999989603
 51
269.9999999998447
  0
LINE
  8
0
  6
CONTINUOUS
 62
               3
  5
378
 10
-136.82844387403566
 20
-160.40874436274225
 30
0.0
 11
-136.82844387403497
 21
-275.40874436274237
 31
0.0
  0
ARC
  8
0
  6
CONTINUOUS
 62
               3
  5
379
 10
-142.50000000001046
 20
-273.00874436275916
 30
0.0
 40
2.5
 50
179.99999999989603
 51
269.9999999998447
  0
LINE
  8
0
  6
CONTINUOUS
 62
               3
  5
37A
 10
-136.82844387403497
 20
-275.40874436274237
 30
0.0
 11
-67.518331230196281
 21
-277.82910682982566
 31
0.0
  0
LINE
  8
0
  6
CONTINUOUS
 62
               3
  5
37B
 10
-136.82844387403566
 20
-160.40874436274231
 30
0.0
 11
-92.895301509892647
 21
-158.87456522519602
 31
0.0
  0
ARC
  8
0
  6
CONTINUOUS
 62
               3
  5
37C
 10
-93.000000000000227
 20
-155.87639274413874
 30
0.0
 40
3.0
 50
271.99999999994901
 51
359.99999999993054
  0
LINE
  8
0
  6
CONTINUOUS
 62
               3
  5
37D
 10
-59.464466094067575
 20
-283.98335577269717
 30
0.0
 11
-64.157294807775997
 21
-279.29052705898852
 31
0.0
  0
LINE
  8
0
  6
CONTINUOUS
 62
               3
  5
37E
 10
-58.000000000000568
 20
-287.51888967862948
 30
0.0
 11
-58.000000000000568
 21
-288.90874436274237
 31
0.0
  0
LINE
  8
0
  6
CONTINUOUS
 62
               3
  5
37F
 10
-56.000000000000568
 20
-298.90874436274237
 30
0.0
 11
-58.000000000000568
 21
-288.90874436274237
 31
0.0
  0
ARC
  8
0
  6
CONTINUOUS
 62
               3
  5
380
 10
-62.999999999999886
 20
-287.51888967862948
 30
0.0
 40
5.0
 50
359.99999999993048
 51
404.99999999992167
  0
ARC
  8
0
  6
CONTINUOUS
 62
               3
  5
381
 10
-67.692828713708877
 20
-282.82606096492111
 30
0.0
 40
5.0
 50
44.999999999988901
 51
87.999999999981895
  0
LINE
  8
0
  6
CONTINUOUS
 62
               3
  5
382
 10
-140.14208073700189
 20
541.90874436274237
 30
0.0
 11
-139.47052461103766
 21
541.90874436274237
 31
0.0
  0
LINE
  8
0
  6
CONTINUOUS
 62
               3
  5
383
 10
-136.97052461103721
 20
539.40874436274237
 30
0.0
 11
-139.47052461103766
 21
541.90874436274237
 31
0.0
  0
LINE
  8
0
  6
CONTINUOUS
 62
               3
  5
384
 10
-140.14208073700189
 20
651.90874436274237
 30
0.0
 11
-139.47052461103766
 21
651.90874436274237
 31
0.0
  0
LINE
  8
0
  6
CONTINUOUS
 62
               3
  5
385
 10
-136.97052461103766
 20
654.40874436274237
 30
0.0
 11
-139.47052461103766
 21
651.90874436274237
 31
0.0
  0
LINE
  8
0
  6
CONTINUOUS
 62
               3
  5
386
 10
-139.47052461103766
 20
651.90874436274237
 30
0.0
 11
-139.47052461103766
 21
541.90874436274237
 31
0.0
  0
LINE
  8
0
  6
CONTINUOUS
 62
               3
  5
387
 10
-145.14208073700189
 20
652.00874436274535
 30
0.0
 11
-145.14208073700189
 21
541.80874436274235
 31
0.0
  0
LINE
  8
0
  6
CONTINUOUS
 62
               3
  5
388
 10
-140.14208073700189
 20
539.30874436274235
 30
0.0
 11
-140.14208073700189
 21
654.50874436274239
 31
0.0
  0
LINE
  8
0
  6
CONTINUOUS
 62
               3
  5
389
 10
-140.14208073700189
 20
654.50874436274239
 30
0.0
 11
-142.64208073700189
 21
654.50874436274239
 31
0.0
  0
LINE
  8
0
  6
CONTINUOUS
 62
               3
  5
38A
 10
-140.14208073700189
 20
539.30874436274235
 30
0.0
 11
-142.64208073700189
 21
539.30874436274235
 31
0.0
  0
ARC
  8
0
  6
CONTINUOUS
 62
               3
  5
38B
 10
-142.64208073700189
 20
541.80874436274235
 30
0.0
 40
2.5
 50
179.99999999989538
 51
269.99999999984499
  0
ARC
  8
0
  6
CONTINUOUS
 62
               3
  5
38C
 10
-142.64208073700189
 20
652.00874436274239
 30
0.0
 40
2.5
 50
89.999999999948344
 51
179.99999999989538
  0
LINE
  8
0
  6
CONTINUOUS
 62
               3
  5
38D
 10
-136.97052461103721
 20
539.40874436274237
 30
0.0
 11
-136.97052461103766
 21
654.40874436274237
 31
0.0
  0
LINE
  8
0
  6
CONTINUOUS
 62
               3
  5
38E
 10
-82.833281007200995
 20
656.29925856755062
 30
0.0
 11
-136.97052461103766
 21
654.40874436274237
 31
0.0
  0
LINE
  8
0
  6
CONTINUOUS
 62
               3
  5
38F
 10
-82.833281007200952
 20
537.51823015793411
 30
0.0
 11
-136.97052461103721
 21
539.40874436274237
 31
0.0
  0
LINE
  8
0
  6
CONTINUOUS
 62
               3
  5
390
 10
82.549119533197342
 20
537.51823015793411
 30
0.0
 11
136.6863631370336
 21
539.40874436274237
 31
0.0
  0
LINE
  8
0
  6
CONTINUOUS
 62
               3
  5
391
 10
139.85791926299828
 20
541.90874436274237
 30
0.0
 11
139.18636313703405
 21
541.90874436274237
 31
0.0
  0
LINE
  8
0
  6
CONTINUOUS
 62
               3
  5
392
 10
136.6863631370336
 20
539.40874436274237
 30
0.0
 11
139.18636313703405
 21
541.90874436274237
 31
0.0
  0
LINE
  8
0
  6
CONTINUOUS
 62
               3
  5
393
 10
139.85791926299828
 20
651.90874436274237
 30
0.0
 11
139.18636313703405
 21
651.90874436274237
 31
0.0
  0
LINE
  8
0
  6
CONTINUOUS
 62
               3
  5
394
 10
136.68636313703405
 20
654.40874436274237
 30
0.0
 11
139.18636313703405
 21
651.90874436274237
 31
0.0
  0
LINE
  8
0
  6
CONTINUOUS
 62
               3
  5
395
 10
139.18636313703405
 20
651.90874436274237
 30
0.0
 11
139.18636313703405
 21
541.90874436274237
 31
0.0
  0
LINE
  8
0
  6
CONTINUOUS
 62
               3
  5
396
 10
144.85791926299828
 20
652.00874436274535
 30
0.0
 11
144.85791926299828
 21
541.80874436274235
 31
0.0
  0
LINE
  8
0
  6
CONTINUOUS
 62
               3
  5
397
 10
139.85791926299828
 20
539.30874436274235
 30
0.0
 11
139.85791926299828
 21
654.50874436274239
 31
0.0
  0
LINE
  8
0
  6
CONTINUOUS
 62
               3
  5
398
 10
139.85791926299828
 20
654.50874436274239
 30
0.0
 11
142.35791926299828
 21
654.50874436274239
 31
0.0
  0
LINE
  8
0
  6
CONTINUOUS
 62
               3
  5
399
 10
139.85791926299828
 20
539.30874436274235
 30
0.0
 11
142.35791926299828
 21
539.30874436274235
 31
0.0
  0
ARC
  8
0
  6
CONTINUOUS
 62
               3
  5
39A
 10
142.35791926299828
 20
541.80874436274235
 30
0.0
 40
2.5
 50
270.00000000005082
 51
359.9999999999992
  0
ARC
  8
0
  6
CONTINUOUS
 62
               3
  5
39B
 10
142.35791926299828
 20
652.00874436274239
 30
0.0
 40
2.5
 50
0.0000000000677433
 51
90.000000000016726
  0
LINE
  8
0
  6
CONTINUOUS
 62
               3
  5
39C
 10
136.6863631370336
 20
539.40874436274237
 30
0.0
 11
136.68636313703405
 21
654.40874436274237
 31
0.0
  0
LINE
  8
0
  6
CONTINUOUS
 62
               3
  5
39D
 10
82.549119533197384
 20
656.29925856755062
 30
0.0
 11
136.68636313703405
 21
654.40874436274237
 31
0.0
  0
LINE
  8
0
  6
CONTINUOUS
 62
               3
  5
39E
 10
54.857919262998053
 20
456.90874436274214
 30
0.0
 11
54.857919262998053
 21
457.58030048870637
 31
0.0
  0
LINE
  8
0
  6
CONTINUOUS
 62
               3
  5
39F
 10
57.357919262998053
 20
460.08030048870683
 30
0.0
 11
54.857919262998053
 21
457.58030048870637
 31
0.0
  0
LINE
  8
0
  6
CONTINUOUS
 62
               3
  5
3A0
 10
-55.142080737001947
 20
456.90874436274214
 30
0.0
 11
-55.142080737001947
 21
457.58030048870637
 31
0.0
  0
LINE
  8
0
  6
CONTINUOUS
 62
               3
  5
3A1
 10
-57.642080737001947
 20
460.08030048870637
 30
0.0
 11
-55.142080737001947
 21
457.58030048870637
 31
0.0
  0
LINE
  8
0
  6
CONTINUOUS
 62
               3
  5
3A2
 10
-55.142080737001947
 20
457.58030048870637
 30
0.0
 11
54.857919262998053
 21
457.58030048870637
 31
0.0
  0
LINE
  8
0
  6
CONTINUOUS
 62
               3
  5
3A3
 10
-55.242080737004926
 20
451.90874436274214
 30
0.0
 11
54.957919262998075
 21
451.90874436274214
 31
0.0
  0
LINE
  8
0
  6
CONTINUOUS
 62
               3
  5
3A4
 10
57.457919262998075
 20
456.90874436274214
 30
0.0
 11
-57.74208073700197
 21
456.90874436274214
 31
0.0
  0
LINE
  8
0
  6
CONTINUOUS
 62
               3
  5
3A5
 10
-57.74208073700197
 20
456.90874436274214
 30
0.0
 11
-57.74208073700197
 21
454.40874436274214
 31
0.0
  0
LINE
  8
0
  6
CONTINUOUS
 62
               3
  5
3A6
 10
57.457919262998075
 20
456.90874436274214
 30
0.0
 11
57.457919262998075
 21
454.40874436274214
 31
0.0
  0
ARC
  8
0
  6
CONTINUOUS
 62
               3
  5
3A7
 10
54.957919262998075
 20
454.40874436274214
 30
0.0
 40
2.5
 50
269.99999999987887
 51
359.99999999982725
  0
ARC
  8
0
  6
CONTINUOUS
 62
               3
  5
3A8
 10
-55.24208073700197
 20
454.40874436274214
 30
0.0
 40
2.5
 50
179.99999999993187
 51
269.99999999987904
  0
LINE
  8
0
  6
CONTINUOUS
 62
               3
  5
3A9
 10
57.357919262998053
 20
460.08030048870683
 30
0.0
 11
-57.642080737001947
 21
460.08030048870637
 31
0.0
  0
LINE
  8
0
  6
CONTINUOUS
 62
               3
  5
3AA
 10
-59.532594941810203
 20
514.21754409254299
 30
0.0
 11
-57.642080737001947
 21
460.08030048870637
 31
0.0
  0
LINE
  8
0
  6
CONTINUOUS
 62
               3
  5
3AB
 10
59.248433467806308
 20
514.21754409254311
 30
0.0
 11
57.357919262998053
 21
460.08030048870683
 31
0.0
  0
LINE
  8
0
  6
CONTINUOUS
 62
               3
  5
3AC
 10
640.53553390593254
 20
-283.98335577269711
 30
0.0
 11
635.84270519222412
 21
-279.29052705898846
 31
0.0
  0
LINE
  8
0
  6
CONTINUOUS
 62
               3
  5
3AD
 10
641.99999999999955
 20
-287.51888967862942
 30
0.0
 11
641.99999999999955
 21
-288.90874436274231
 31
0.0
  0
LINE
  8
0
  6
CONTINUOUS
 62
               3
  5
3AE
 10
643.99999999999955
 20
-298.90874436274231
 30
0.0
 11
641.99999999999955
 21
-288.90874436274231
 31
0.0
  0
ARC
  8
0
  6
CONTINUOUS
 62
               3
  5
3AF
 10
637.00000000000023
 20
-287.51888967862942
 30
0.0
 40
5.0
 50
359.99999999993048
 51
404.9999999999215
  0
ARC
  8
0
  6
CONTINUOUS
 62
               3
  5
3B0
 10
632.30717128629124
 20
-282.82606096492106
 30
0.0
 40
5.0
 50
44.999999999988617
 51
87.99999999998181
  0
LINE
  8
0
  6
CONTINUOUS
 62
               3
  5
3B1
 10
560.0
 20
-272.90874436274231
 30
0.0
 11
560.67155612596446
 21
-272.90874436274231
 31
0.0
  0
LINE
  8
0
  6
CONTINUOUS
 62
               3
  5
3B2
 10
563.17155612596446
 20
-275.40874436274157
 30
0.0
 11
560.67155612596446
 21
-272.90874436274231
 31
0.0
  0
LINE
  8
0
  6
CONTINUOUS
 62
               3
  5
3B3
 10
560.0
 20
-162.90874436274242
 30
0.0
 11
560.67155612596446
 21
-162.90874436274242
 31
0.0
  0
LINE
  8
0
  6
CONTINUOUS
 62
               3
  5
3B4
 10
563.17155612596446
 20
-160.4087443627422
 30
0.0
 11
560.67155612596446
 21
-162.90874436274242
 31
0.0
  0
LINE
  8
0
  6
CONTINUOUS
 62
               3
  5
3B5
 10
560.67155612596446
 20
-162.90874436274242
 30
0.0
 11
560.67155612596446
 21
-272.90874436274231
 31
0.0
  0
LINE
  8
0
  6
CONTINUOUS
 62
               3
  5
3B6
 10
560.0
 20
-275.50874436274228
 30
0.0
 11
560.0
 21
-160.30874436274229
 31
0.0
  0
LINE
  8
0
  6
CONTINUOUS
 62
               3
  5
3B7
 10
560.0
 20
-160.30874436274229
 30
0.0
 11
557.5
 21
-160.30874436274229
 31
0.0
  0
ARC
  8
0
  6
CONTINUOUS
 62
               3
  5
3B8
 10
557.5
 20
-162.80874436274229
 30
0.0
 40
2.5
 50
89.99999999994769
 51
179.99999999989603
  0
LINE
  8
0
  6
CONTINUOUS
 62
               3
  5
3B9
 10
555.0
 20
-162.80874436274229
 30
0.0
 11
555.0
 21
-273.00874436274228
 31
0.0
  0
LINE
  8
0
  6
CONTINUOUS
 62
               3
  5
3BA
 10
560.0
 20
-275.50874436274228
 30
0.0
 11
557.5
 21
-275.50874436274228
 31
0.0
  0
ARC
  8
0
  6
CONTINUOUS
 62
               3
  5
3BB
 10
557.5
 20
-273.00874436274228
 30
0.0
 40
2.5
 50
179.99999999989603
 51
269.99999999984567
  0
LINE
  8
0
  6
CONTINUOUS
 62
               3
  5
3BC
 10
563.17155612596446
 20
-160.4087443627422
 30
0.0
 11
563.17155612596514
 21
-275.40874436274231
 31
0.0
  0
ARC
  8
0
  6
CONTINUOUS
 62
               3
  5
3BD
 10
557.49999999998965
 20
-273.0087443627591
 30
0.0
 40
2.5
 50
179.99999999989603
 51
269.99999999984567
  0
LINE
  8
0
  6
CONTINUOUS
 62
               3
  5
3BE
 10
563.17155612596446
 20
-160.40874436274225
 30
0.0
 11
607.10469849010747
 21
-158.87456522519597
 31
0.0
  0
ARC
  8
0
  6
CONTINUOUS
 62
               3
  5
3BF
 10
606.99999999999989
 20
-155.87639274413868
 30
0.0
 40
3.0
 50
271.99999999994873
 51
359.99999999993054
  0
LINE
  8
0
  6
CONTINUOUS
 62
               3
  5
3C0
 10
563.17155612596514
 20
-275.40874436274231
 30
0.0
 11
632.48166876980383
 21
-277.82910682982561
 31
0.0
  0
LINE
  8
0
  6
CONTINUOUS
 62
               3
  5
3C1
 10
59.464466094067461
 20
-283.98335577269717
 30
0.0
 11
64.157294807775884
 21
-279.29052705898852
 31
0.0
  0
LINE
  8
0
  6
CONTINUOUS
 62
               3
  5
3C2
 10
58.000000000000455
 20
-287.51888967862948
 30
0.0
 11
58.000000000000455
 21
-288.90874436274237
 31
0.0
  0
LINE
  8
0
  6
CONTINUOUS
 62
               3
  5
3C3
 10
56.000000000000455
 20
-298.90874436274237
 30
0.0
 11
58.000000000000455
 21
-288.90874436274237
 31
0.0
  0
ARC
  8
0
  6
CONTINUOUS
 62
               3
  5
3C4
 10
62.999999999999773
 20
-287.51888967862948
 30
0.0
 40
5.0
 50
134.99999999997391
 51
179.99999999996507
  0
ARC
  8
0
  6
CONTINUOUS
 62
               3
  5
3C5
 10
67.692828713708764
 20
-282.82606096492111
 30
0.0
 40
5.0
 50
91.999999999983245
 51
134.99999999997621
  0
LINE
  8
0
  6
CONTINUOUS
 62
               3
  5
3C6
 10
140.0
 20
-272.90874436274237
 30
0.0
 11
139.32844387403554
 21
-272.90874436274237
 31
0.0
  0
LINE
  8
0
  6
CONTINUOUS
 62
               3
  5
3C7
 10
136.82844387403554
 20
-275.40874436274163
 30
0.0
 11
139.32844387403554
 21
-272.90874436274237
 31
0.0
  0
LINE
  8
0
  6
CONTINUOUS
 62
               3
  5
3C8
 10
140.0
 20
-162.90874436274248
 30
0.0
 11
139.32844387403554
 21
-162.90874436274248
 31
0.0
  0
LINE
  8
0
  6
CONTINUOUS
 62
               3
  5
3C9
 10
136.82844387403554
 20
-160.40874436274225
 30
0.0
 11
139.32844387403554
 21
-162.90874436274248
 31
0.0
  0
LINE
  8
0
  6
CONTINUOUS
 62
               3
  5
3CA
 10
139.32844387403554
 20
-162.90874436274248
 30
0.0
 11
139.32844387403554
 21
-272.90874436274237
 31
0.0
  0
LINE
  8
0
  6
CONTINUOUS
 62
               3
  5
3CB
 10
140.0
 20
-275.50874436274233
 30
0.0
 11
140.0
 21
-160.30874436274235
 31
0.0
  0
LINE
  8
0
  6
CONTINUOUS
 62
               3
  5
3CC
 10
140.0
 20
-160.30874436274235
 30
0.0
 11
142.5
 21
-160.30874436274235
 31
0.0
  0
ARC
  8
0
  6
CONTINUOUS
 62
               3
  5
3CD
 10
142.5
 20
-162.80874436274235
 30
0.0
 40
2.5
 50
0.000000000069046
 51
90.000000000016726
  0
LINE
  8
0
  6
CONTINUOUS
 62
               3
  5
3CE
 10
145.0
 20
-162.80874436274235
 30
0.0
 11
145.0
 21
-273.00874436274233
 31
0.0
  0
LINE
  8
0
  6
CONTINUOUS
 62
               3
  5
3CF
 10
140.0
 20
-275.50874436274233
 30
0.0
 11
142.5
 21
-275.50874436274233
 31
0.0
  0
ARC
  8
0
  6
CONTINUOUS
 62
               3
  5
3D0
 10
142.5
 20
-273.00874436274233
 30
0.0
 40
2.5
 50
270.00000000005082
 51
359.9999999999992
  0
LINE
  8
0
  6
CONTINUOUS
 62
               3
  5
3D1
 10
136.82844387403554
 20
-160.40874436274225
 30
0.0
 11
136.82844387403486
 21
-275.40874436274237
 31
0.0
  0
ARC
  8
0
  6
CONTINUOUS
 62
               3
  5
3D2
 10
142.50000000001035
 20
-273.00874436275916
 30
0.0
 40
2.5
 50
270.00000000005082
 51
359.9999999999992
  0
LINE
  8
0
  6
CONTINUOUS
 62
               3
  5
3D3
 10
136.82844387403554
 20
-160.40874436274231
 30
0.0
 11
92.895301509892533
 21
-158.87456522519602
 31
0.0
  0
LINE
  8
0
  6
CONTINUOUS
 62
               3
  5
3D4
 10
136.82844387403486
 20
-275.40874436274237
 30
0.0
 11
67.518331230196168
 21
-277.82910682982566
 31
0.0
  0
ARC
  8
0
  6
CONTINUOUS
 62
               3
  5
3D5
 10
93.000000000000114
 20
-155.87639274413874
 30
0.0
 40
3.0
 50
179.99999999996515
 51
267.99999999994685
  0
LINE
  8
0
  6
CONTINUOUS
 62
               3
  5
3D6
 10
-673.2126429075206
 20
-189.90874436274237
 30
0.0
 11
-726.78735709247951
 21
-189.90874436274237
 31
0.0
  0
CIRCLE
  8
0
  6
CONTINUOUS
 62
               3
  5
3D7
 10
-700.0
 20
-217.90874436274225
 30
0.0
 40
48.5
  0
CIRCLE
  8
0
  6
CONTINUOUS
 62
               3
  5
3D8
 10
-700.0
 20
-217.90874436274225
 30
0.0
 40
38.75
  0
CIRCLE
  8
0
  6
CONTINUOUS
 62
               3
  5
3D9
 10
-700.0
 20
-217.90874436274225
 30
0.0
 40
47.299999999999997
  0
LINE
  8
0
  6
CONTINUOUS
 62
               3
  5
3DA
 10
-731.81980515339467
 20
-249.72854951613681
 30
0.0
 11
-733.44615075012371
 21
-251.35489511286596
 31
0.0
  0
LINE
  8
0
  6
CONTINUOUS
 62
               3
  5
3DB
 10
-668.18019484660545
 20
-249.72854951613681
 30
0.0
 11
-666.55384924987629
 21
-251.35489511286585
 31
0.0
  0
ARC
  8
0
  6
CONTINUOUS
 62
               3
  5
3DC
 10
-700.0
 20
-217.90874436274225
 30
0.0
 40
45.0
 50
224.99999999987045
 51
314.99999999981878
  0
CIRCLE
  8
0
  6
CONTINUOUS
 62
               3
  5
3DD
 10
-700.0
 20
-217.90874436274225
 30
0.0
 40
43.0
  0
LINE
  8
0
  6
CONTINUOUS
 62
               3
  5
3DE
 10
726.7873570924794
 20
-189.90874436274237
 30
0.0
 11
673.21264290752049
 21
-189.90874436274237
 31
0.0
  0
CIRCLE
  8
0
  6
CONTINUOUS
 62
               3
  5
3DF
 10
700.0
 20
-217.90874436274225
 30
0.0
 40
48.5
  0
CIRCLE
  8
0
  6
CONTINUOUS
 62
               3
  5
3E0
 10
700.0
 20
-217.90874436274225
 30
0.0
 40
38.75
  0
CIRCLE
  8
0
  6
CONTINUOUS
 62
               3
  5
3E1
 10
700.0
 20
-217.90874436274225
 30
0.0
 40
47.299999999999997
  0
LINE
  8
0
  6
CONTINUOUS
 62
               3
  5
3E2
 10
668.18019484660533
 20
-249.72854951613681
 30
0.0
 11
666.55384924987629
 21
-251.35489511286596
 31
0.0
  0
LINE
  8
0
  6
CONTINUOUS
 62
               3
  5
3E3
 10
731.81980515339455
 20
-249.72854951613681
 30
0.0
 11
733.44615075012371
 21
-251.35489511286585
 31
0.0
  0
ARC
  8
0
  6
CONTINUOUS
 62
               3
  5
3E4
 10
700.0
 20
-217.90874436274225
 30
0.0
 40
45.0
 50
224.99999999987045
 51
314.99999999981878
  0
CIRCLE
  8
0
  6
CONTINUOUS
 62
               3
  5
3E5
 10
700.0
 20
-217.90874436274225
 30
0.0
 40
43.0
  0
CIRCLE
  8
0
  6
CONTINUOUS
 62
               3
  5
3E6
 10
609.28652321630784
 20
-1050.8725042721417
 30
0.0
 40
75.0
  0
CIRCLE
  8
0
  6
CONTINUOUS
 62
               3
  5
3E7
 10
609.28652321630784
 20
-1050.8725042721417
 30
0.0
 40
52.5
  0
LINE
  8
0
  6
CONTINUOUS
 62
               3
  5
3E8
 10
523.07602501568249
 20
-1030.8725042721417
 30
0.0
 11
537.00236174230258
 21
-1030.8725042721417
 31
0.0
  0
LINE
  8
0
  6
CONTINUOUS
 62
               3
  5
3E9
 10
537.00236174230258
 20
-1070.8725042721417
 30
0.0
 11
523.07602501568249
 21
-1070.8725042721417
 31
0.0
  0
ARC
  8
0
  6
CONTINUOUS
 62
               3
  5
3EA
 10
609.28652321630784
 20
-1050.8725042721417
 30
0.0
 40
88.5
 50
166.93897588510336
 51
193.06102411468945
  0
LINE
  8
0
  6
CONTINUOUS
 62
               3
  5
3EB
 10
589.28652321630784
 20
-1137.0830024727666
 30
0.0
 11
589.28652321630784
 21
-1123.1566657461467
 31
0.0
  0
LINE
  8
0
  6
CONTINUOUS
 62
               3
  5
3EC
 10
629.28652321630784
 20
-1123.1566657461467
 30
0.0
 11
629.28652321630784
 21
-1137.0830024727666
 31
0.0
  0
ARC
  8
0
  6
CONTINUOUS
 62
               3
  5
3ED
 10
609.28652321630784
 20
-1050.8725042721417
 30
0.0
 40
88.5
 50
256.93897588505166
 51
283.06102411463769
  0
LINE
  8
0
  6
CONTINUOUS
 62
               3
  5
3EE
 10
695.49702141693251
 20
-1070.8725042721417
 30
0.0
 11
681.57068469031219
 21
-1070.8725042721417
 31
0.0
  0
LINE
  8
0
  6
CONTINUOUS
 62
               3
  5
3EF
 10
681.57068469031219
 20
-1030.8725042721417
 30
0.0
 11
695.49702141693251
 21
-1030.8725042721417
 31
0.0
  0
ARC
  8
0
  6
CONTINUOUS
 62
               3
  5
3F0
 10
609.28652321630784
 20
-1050.8725042721417
 30
0.0
 40
88.5
 50
346.93897588499982
 51
373.06102411458585
  0
LINE
  8
0
  6
CONTINUOUS
 62
               3
  5
3F1
 10
629.28652321630784
 20
-964.66200607151609
 30
0.0
 11
629.28652321630784
 21
-978.58834279813664
 31
0.0
  0
LINE
  8
0
  6
CONTINUOUS
 62
               3
  5
3F2
 10
589.28652321630784
 20
-978.58834279813664
 30
0.0
 11
589.28652321630784
 21
-964.66200607151609
 31
0.0
  0
ARC
  8
0
  6
CONTINUOUS
 62
               3
  5
3F3
 10
609.28652321630784
 20
-1050.8725042721417
 30
0.0
 40
88.5
 50
76.938975885155216
 51
103.06102411474124
  0
LINE
  8
0
  6
CONTINUOUS
 62
               3
  5
3F4
 10
561.6183996954469
 20
-1072.8725042721421
 30
0.0
 11
656.95464673716788
 21
-1072.8725042721421
 31
0.0
  0
ARC
  8
0
  6
CONTINUOUS
 62
               3
  5
3F5
 10
621.79013486568897
 20
-1042.1661066445226
 30
0.0
 40
54.763804151667173
 50
141.3859176367566
 51
145.15009542087031
  0
ARC
  8
0
  6
CONTINUOUS
 62
               3
  5
3F6
 10
609.28652321630784
 20
-1050.8725042721417
 30
0.0
 40
51.5
 50
334.71098847326505
 51
410.95932736340404
  0
ARC
  8
0
  6
CONTINUOUS
 62
               3
  5
3F7
 10
609.28652321630784
 20
-1050.8725042721417
 30
0.0
 40
51.5
 50
129.04067263628559
 51
205.28901152642416
  0
ARC
  8
0
  6
CONTINUOUS
 62
               3
  5
3F8
 10
609.28652321630784
 20
-1050.8725042721417
 30
0.0
 40
77.5
 50
104.95524831658298
 51
128.57288309095932
  0
ARC
  8
0
  6
CONTINUOUS
 62
               3
  5
3F9
 10
609.28652321630784
 20
-1050.8725042721417
 30
0.0
 40
77.5
 50
14.9552483166347
 51
75.044751683313535
  0
ARC
  8
0
  6
CONTINUOUS
 62
               3
  5
3FA
 10
609.28652321630784
 20
-1050.8725042721417
 30
0.0
 40
77.5
 50
321.42711690878122
 51
345.04475168315804
  0
LINE
  8
0
  6
CONTINUOUS
 62
               3
  5
3FB
 10
469.28652321630778
 20
-1105.8725042721417
 30
0.0
 11
469.95807934227201
 21
-1105.8725042721417
 31
0.0
  0
LINE
  8
0
  6
CONTINUOUS
 62
               3
  5
3FC
 10
472.45807934227247
 20
-1108.3725042721417
 30
0.0
 11
469.95807934227201
 21
-1105.8725042721417
 31
0.0
  0
LINE
  8
0
  6
CONTINUOUS
 62
               3
  5
3FD
 10
469.28652321630778
 20
-995.87250427214167
 30
0.0
 11
469.95807934227201
 21
-995.87250427214167
 31
0.0
  0
LINE
  8
0
  6
CONTINUOUS
 62
               3
  5
3FE
 10
472.45807934227201
 20
-993.37250427214167
 30
0.0
 11
469.95807934227201
 21
-995.87250427214167
 31
0.0
  0
LINE
  8
0
  6
CONTINUOUS
 62
               3
  5
3FF
 10
469.95807934227201
 20
-995.87250427214167
 30
0.0
 11
469.95807934227201
 21
-1105.8725042721417
 31
0.0
  0
LINE
  8
0
  6
CONTINUOUS
 62
               3
  5
400
 10
563.79618742992989
 20
-990.18290725380007
 30
0.0
 11
472.45807934227201
 21
-993.37250427214167
 31
0.0
  0
LINE
  8
0
  6
CONTINUOUS
 62
               3
  5
401
 10
544.45005149975691
 20
-1110.8865193371093
 30
0.0
 11
472.45807934227258
 21
-1108.3725042721417
 31
0.0
  0
LINE
  8
0
  6
CONTINUOUS
 62
               3
  5
402
 10
464.28652321630778
 20
-996.04406039810578
 30
0.0
 11
464.28652321630778
 21
-1105.9725042721416
 31
0.0
  0
LINE
  8
0
  6
CONTINUOUS
 62
               3
  5
403
 10
469.28652321630778
 20
-1108.4725042721416
 30
0.0
 11
469.28652321630778
 21
-993.27250427214165
 31
0.0
  0
LINE
  8
0
  6
CONTINUOUS
 62
               3
  5
404
 10
469.28652321630778
 20
-993.27250427214165
 30
0.0
 11
466.78652321630778
 21
-993.27250427214165
 31
0.0
  0
LINE
  8
0
  6
CONTINUOUS
 62
               3
  5
405
 10
469.28652321630778
 20
-1108.4725042721416
 30
0.0
 11
466.78652321630778
 21
-1108.4725042721416
 31
0.0
  0
ARC
  8
0
  6
CONTINUOUS
 62
               3
  5
406
 10
466.78652321630778
 20
-1105.9725042721416
 30
0.0
 40
2.5
 50
179.99999999989538
 51
269.99999999984436
  0
ARC
  8
0
  6
CONTINUOUS
 62
               3
  5
407
 10
466.78652321630778
 20
-995.77250427214165
 30
0.0
 40
2.5
 50
89.999999999948997
 51
179.99999999989538
  0
LINE
  8
0
  6
CONTINUOUS
 62
               3
  5
408
 10
576.84812004969035
 20
-1010.8725042721419
 30
0.0
 11
609.28652321630784
 21
-1010.8725042721419
 31
0.0
  0
LINE
  8
0
  6
CONTINUOUS
 62
               3
  5
409
 10
609.28652321630784
 20
-1010.8725042721419
 30
0.0
 11
643.29019948814653
 21
-1010.8725042721419
 31
0.0
  0
LINE
  8
0
  6
CONTINUOUS
 62
               3
  5
40A
 10
472.45807934227247
 20
-1108.3725042721417
 30
0.0
 11
472.45807934227201
 21
-993.37250427214167
 31
0.0
  0
ARC
  8
0
  6
CONTINUOUS
 62
               3
  5
40B
 10
563.62168994641752
 20
-985.18595311870456
 30
0.0
 40
5.0
 50
271.99999999984402
 51
304.806757870252
  0
LINE
  8
0
  6
CONTINUOUS
 62
               3
  5
40C
 10
664.28652321630784
 20
-1190.8725042721417
 30
0.0
 11
664.28652321630784
 21
-1190.2009481461773
 31
0.0
  0
LINE
  8
0
  6
CONTINUOUS
 62
               3
  5
40D
 10
666.78652321630784
 20
-1187.7009481461769
 30
0.0
 11
664.28652321630784
 21
-1190.2009481461773
 31
0.0
  0
LINE
  8
0
  6
CONTINUOUS
 62
               3
  5
40E
 10
554.28652321630784
 20
-1190.8725042721417
 30
0.0
 11
554.28652321630784
 21
-1190.2009481461773
 31
0.0
  0
LINE
  8
0
  6
CONTINUOUS
 62
               3
  5
40F
 10
551.78652321630784
 20
-1187.7009481461773
 30
0.0
 11
554.28652321630784
 21
-1190.2009481461773
 31
0.0
  0
LINE
  8
0
  6
CONTINUOUS
 62
               3
  5
410
 10
554.28652321630784
 20
-1190.2009481461773
 30
0.0
 11
664.28652321630784
 21
-1190.2009481461773
 31
0.0
  0
LINE
  8
0
  6
CONTINUOUS
 62
               3
  5
411
 10
554.45807934227196
 20
-1195.8725042721417
 30
0.0
 11
664.38652321630775
 21
-1195.8725042721417
 31
0.0
  0
LINE
  8
0
  6
CONTINUOUS
 62
               3
  5
412
 10
666.88652321630775
 20
-1190.8725042721417
 30
0.0
 11
551.68652321630771
 21
-1190.8725042721417
 31
0.0
  0
LINE
  8
0
  6
CONTINUOUS
 62
               3
  5
413
 10
551.68652321630771
 20
-1190.8725042721417
 30
0.0
 11
551.68652321630771
 21
-1193.3725042721417
 31
0.0
  0
LINE
  8
0
  6
CONTINUOUS
 62
               3
  5
414
 10
666.88652321630775
 20
-1190.8725042721417
 30
0.0
 11
666.88652321630775
 21
-1193.3725042721417
 31
0.0
  0
ARC
  8
0
  6
CONTINUOUS
 62
               3
  5
415
 10
664.38652321630775
 20
-1193.3725042721417
 30
0.0
 40
2.5
 50
269.99999999984567
 51
359.99999999979076
  0
ARC
  8
0
  6
CONTINUOUS
 62
               3
  5
416
 10
554.18652321630771
 20
-1193.3725042721417
 30
0.0
 40
2.5
 50
179.99999999989538
 51
269.99999999984567
  0
LINE
  8
0
  6
CONTINUOUS
 62
               3
  5
417
 10
666.78652321630784
 20
-1187.7009481461769
 30
0.0
 11
551.78652321630784
 21
-1187.7009481461773
 31
0.0
  0
LINE
  8
0
  6
CONTINUOUS
 62
               3
  5
418
 10
669.97612023464899
 20
-1096.3628400585203
 30
0.0
 11
666.78652321630784
 21
-1187.7009481461769
 31
0.0
  0
ARC
  8
0
  6
CONTINUOUS
 62
               3
  5
419
 10
674.97307436974438
 20
-1096.5373375420327
 30
0.0
 40
5.0
 50
145.19324212948862
 51
177.99999999989819
  0
LINE
  8
0
  6
CONTINUOUS
 62
               3
  5
41A
 10
549.27250815133971
 20
-1115.7089759886926
 30
0.0
 11
551.78652321630784
 21
-1187.7009481461773
 31
0.0
  0
ARC
  8
0
  6
CONTINUOUS
 62
               3
  5
41B
 10
544.27555401624431
 20
-1115.883473472205
 30
0.0
 40
5.0
 50
1.9999999999958187
 51
87.99999999994921
  0
LINE
  8
0
  6
CONTINUOUS
 62
               3
  5
41C
 10
534.28652321630784
 20
-1359.3719380207262
 30
0.0
 11
684.28652321630784
 21
-1359.3719380207262
 31
0.0
  0
LINE
  8
0
  6
CONTINUOUS
 62
               3
  5
41D
 10
520.78652321630761
 20
-1369.3719380207262
 30
0.0
 11
520.78652321630761
 21
-1376.3719380207258
 31
0.0
  0
LINE
  8
0
  6
CONTINUOUS
 62
               3
  5
41E
 10
520.78652321630761
 20
-1369.3719380207262
 30
0.0
 11
534.28652321630784
 21
-1359.3719380207262
 31
0.0
  0
ARC
  8
0
  6
CONTINUOUS
 62
               3
  5
41F
 10
532.28652321630807
 20
-1380.9545137156815
 30
0.0
 40
4.9999999999999991
 50
0.0
 51
66.421821521760023
  0
LINE
  8
0
  6
CONTINUOUS
 62
               3
  5
420
 10
520.78652321630761
 20
-1376.3719380207258
 30
0.0
 11
697.78652321630761
 21
-1376.3719380207258
 31
0.0
  0
ARC
  8
0
  6
CONTINUOUS
 62
               3
  5
421
 10
554.28652321630784
 20
-1466.3719380207262
 30
0.0
 40
19.999999999999996
 50
148.21166938286279
 51
167.26981986159123
  0
LINE
  8
0
  6
CONTINUOUS
 62
               3
  5
422
 10
537.28652321630807
 20
-1380.9545137156815
 30
0.0
 11
537.28652321630807
 21
-1455.8362842678735
 31
0.0
  0
LINE
  8
0
  6
CONTINUOUS
 62
               3
  5
423
 10
681.28652321630784
 20
-1450.836284267873
 30
0.0
 11
681.28652321630784
 21
-1380.9545137156815
 31
0.0
  0
LINE
  8
0
  6
CONTINUOUS
 62
               3
  5
424
 10
537.28652321630807
 20
-1455.8362842678735
 30
0.0
 11
680.7865232163083
 21
-1455.8362842678735
 31
0.0
  0
LINE
  8
0
  6
CONTINUOUS
 62
               3
  5
425
 10
589.28652321630784
 20
-1376.3719380207258
 30
0.0
 11
589.28652321630784
 21
-1359.3719380207262
 31
0.0
  0
LINE
  8
0
  6
CONTINUOUS
 62
               3
  5
426
 10
629.28652321630784
 20
-1359.3719380207262
 30
0.0
 11
629.28652321630784
 21
-1376.3719380207258
 31
0.0
  0
LINE
  8
0
  6
CONTINUOUS
 62
               3
  5
427
 10
589.28652321630784
 20
-1369.3719380207262
 30
0.0
 11
629.28652321630784
 21
-1369.3719380207262
 31
0.0
  0
LINE
  8
0
  6
CONTINUOUS
 62
               3
  5
428
 10
537.00236174230258
 20
-1359.3719380207262
 30
0.0
 11
537.00236174230258
 21
-1376.3719380207258
 31
0.0
  0
LINE
  8
0
  6
CONTINUOUS
 62
               3
  5
429
 10
523.07602501568249
 20
-1369.3719380207262
 30
0.0
 11
523.07602501568249
 21
-1376.3719380207258
 31
0.0
  0
LINE
  8
0
  6
CONTINUOUS
 62
               3
  5
42A
 10
520.78652321630761
 20
-1369.3719380207262
 30
0.0
 11
523.07602501568249
 21
-1369.3719380207262
 31
0.0
  0
LINE
  8
0
  6
CONTINUOUS
 62
               3
  5
42B
 10
523.07602501568249
 20
-1369.3719380207262
 30
0.0
 11
537.00236174230258
 21
-1359.3719380207262
 31
0.0
  0
LINE
  8
0
  6
CONTINUOUS
 62
               3
  5
42C
 10
697.78652321630761
 20
-1369.3719380207262
 30
0.0
 11
697.78652321630761
 21
-1376.3719380207258
 31
0.0
  0
LINE
  8
0
  6
CONTINUOUS
 62
               3
  5
42D
 10
697.78652321630761
 20
-1369.3719380207262
 30
0.0
 11
684.28652321630784
 21
-1359.3719380207262
 31
0.0
  0
ARC
  8
0
  6
CONTINUOUS
 62
               3
  5
42E
 10
686.28652321630784
 20
-1380.9545137156815
 30
0.0
 40
4.9999999999999991
 50
113.57817847813573
 51
179.99999999989538
  0
LINE
  8
0
  6
CONTINUOUS
 62
               3
  5
42F
 10
681.57068469031219
 20
-1359.3719380207262
 30
0.0
 11
681.57068469031219
 21
-1376.3719380207258
 31
0.0
  0
LINE
  8
0
  6
CONTINUOUS
 62
               3
  5
430
 10
695.49702141693319
 20
-1369.3719380207262
 30
0.0
 11
695.49702141693319
 21
-1376.3719380207258
 31
0.0
  0
LINE
  8
0
  6
CONTINUOUS
 62
               3
  5
431
 10
697.78652321630761
 20
-1369.3719380207262
 30
0.0
 11
695.49702141693319
 21
-1369.3719380207262
 31
0.0
  0
LINE
  8
0
  6
CONTINUOUS
 62
               3
  5
432
 10
695.49702141693319
 20
-1369.3719380207262
 30
0.0
 11
681.57068469031219
 21
-1359.3719380207262
 31
0.0
  0
ARC
  8
0
  6
CONTINUOUS
 62
               3
  5
433
 10
544.28652321630784
 20
-1587.8719380207262
 30
0.0
 40
2.4999999999999996
 50
89.99999999994769
 51
269.99999999984567
  0
ARC
  8
0
  6
CONTINUOUS
 62
               3
  5
434
 10
684.28652321630784
 20
-1587.8719380207262
 30
0.0
 40
2.4999999999999996
 50
269.99999999984567
 51
449.99999999974102
  0
LINE
  8
0
  6
CONTINUOUS
 62
               3
  5
435
 10
469.28652321630778
 20
-1580.3719380207262
 30
0.0
 11
469.95807934227213
 21
-1580.3719380207262
 31
0.0
  0
LINE
  8
0
  6
CONTINUOUS
 62
               3
  5
436
 10
472.45807934227224
 20
-1582.8719380207253
 30
0.0
 11
469.95807934227213
 21
-1580.3719380207262
 31
0.0
  0
LINE
  8
0
  6
CONTINUOUS
 62
               3
  5
437
 10
472.45807934227304
 20
-1582.8719380207262
 30
0.0
 11
514.62318959855043
 21
-1584.3443761165804
 31
0.0
  0
LINE
  8
0
  6
CONTINUOUS
 62
               3
  5
438
 10
532.82205712224049
 20
-1600.643627447012
 30
0.0
 11
517.98422602097048
 21
-1585.8057963457427
 31
0.0
  0
ARC
  8
0
  6
CONTINUOUS
 62
               3
  5
439
 10
529.28652321630784
 20
-1604.1791613529454
 30
0.0
 40
4.9999999999999991
 50
0.0
 51
44.999999999973191
  0
LINE
  8
0
  6
CONTINUOUS
 62
               3
  5
43A
 10
469.28652321630778
 20
-1470.3719380207262
 30
0.0
 11
469.95807934227213
 21
-1470.3719380207262
 31
0.0
  0
LINE
  8
0
  6
CONTINUOUS
 62
               3
  5
43B
 10
472.45807934227224
 20
-1467.8719380207262
 30
0.0
 11
469.95807934227213
 21
-1470.3719380207262
 31
0.0
  0
LINE
  8
0
  6
CONTINUOUS
 62
               3
  5
43C
 10
472.45807934227213
 20
-1467.8719380207262
 30
0.0
 11
530.07555554444662
 21
-1465.8598914155737
 31
0.0
  0
LINE
  8
0
  6
CONTINUOUS
 62
               3
  5
43D
 10
469.95807934227213
 20
-1470.3719380207262
 30
0.0
 11
469.95807934227213
 21
-1580.3719380207262
 31
0.0
  0
LINE
  8
0
  6
CONTINUOUS
 62
               3
  5
43E
 10
469.28652321630778
 20
-1582.9719380207262
 30
0.0
 11
469.28652321630778
 21
-1467.7719380207263
 31
0.0
  0
LINE
  8
0
  6
CONTINUOUS
 62
               3
  5
43F
 10
469.28652321630778
 20
-1467.7719380207263
 30
0.0
 11
466.78652321630778
 21
-1467.7719380207263
 31
0.0
  0
ARC
  8
0
  6
CONTINUOUS
 62
               3
  5
440
 10
466.78652321630778
 20
-1470.2719380207263
 30
0.0
 40
2.5
 50
89.999999999948997
 51
179.99999999989538
  0
LINE
  8
0
  6
CONTINUOUS
 62
               3
  5
441
 10
464.28652321630778
 20
-1470.2719380207263
 30
0.0
 11
464.28652321630778
 21
-1580.4719380207262
 31
0.0
  0
LINE
  8
0
  6
CONTINUOUS
 62
               3
  5
442
 10
469.28652321630778
 20
-1582.9719380207262
 30
0.0
 11
466.78652321630778
 21
-1582.9719380207262
 31
0.0
  0
ARC
  8
0
  6
CONTINUOUS
 62
               3
  5
443
 10
466.78652321630778
 20
-1580.4719380207262
 30
0.0
 40
2.5
 50
179.99999999989538
 51
269.99999999984436
  0
LINE
  8
0
  6
CONTINUOUS
 62
               3
  5
444
 10
472.45807934227224
 20
-1467.8719380207262
 30
0.0
 11
472.45807934227304
 21
-1582.8719380207262
 31
0.0
  0
ARC
  8
0
  6
CONTINUOUS
 62
               3
  5
445
 10
514.44869211503783
 20
-1589.3413302516756
 30
0.0
 40
5.0
 50
44.999999999975948
 51
87.999999999949253
  0
ARC
  8
0
  6
CONTINUOUS
 62
               3
  5
446
 10
529.90105806093402
 20
-1460.8629372804785
 30
0.0
 40
5.0
 50
271.99999999984408
 51
347.26981986148661
  0
CIRCLE
  8
0
  6
CONTINUOUS
 62
               3
  5
447
 10
609.28652321630784
 20
-1525.3719380207262
 30
0.0
 40
48.5
  0
CIRCLE
  8
0
  6
CONTINUOUS
 62
               3
  5
448
 10
609.28652321630784
 20
-1525.3719380207262
 30
0.0
 40
47.299999999999997
  0
LINE
  8
0
  6
CONTINUOUS
 62
               3
  5
449
 10
577.46671806291329
 20
-1557.1917431741208
 30
0.0
 11
575.84037246618414
 21
-1558.81808877085
 31
0.0
  0
LINE
  8
0
  6
CONTINUOUS
 62
               3
  5
44A
 10
641.10632836970262
 20
-1557.1917431741208
 30
0.0
 11
642.73267396643155
 21
-1558.81808877085
 31
0.0
  0
ARC
  8
0
  6
CONTINUOUS
 62
               3
  5
44B
 10
609.28652321630784
 20
-1525.3719380207262
 30
0.0
 40
45.0
 50
224.99999999987043
 51
314.99999999981884
  0
CIRCLE
  8
0
  6
CONTINUOUS
 62
               3
  5
44C
 10
609.28652321630784
 20
-1525.3719380207262
 30
0.0
 40
57.600000000000001
  0
ARC
  8
0
  6
CONTINUOUS
 62
               3
  5
44D
 10
586.78652321630852
 20
-1587.8719380207262
 30
0.0
 40
2.4999999999999996
 50
269.99999999984567
 51
449.99999999974102
  0
ARC
  8
0
  6
CONTINUOUS
 62
               3
  5
44E
 10
631.78652321630852
 20
-1587.8719380207262
 30
0.0
 40
2.4999999999999996
 50
89.99999999994769
 51
269.99999999984567
  0
LINE
  8
0
  6
CONTINUOUS
 62
               3
  5
44F
 10
544.28652321630784
 20
-1590.3719380207262
 30
0.0
 11
586.78652321630852
 21
-1590.3719380207262
 31
0.0
  0
LINE
  8
0
  6
CONTINUOUS
 62
               3
  5
450
 10
544.28652321630784
 20
-1585.3719380207262
 30
0.0
 11
586.78652321630852
 21
-1585.3719380207262
 31
0.0
  0
LINE
  8
0
  6
CONTINUOUS
 62
               3
  5
451
 10
631.78652321630852
 20
-1585.3719380207262
 30
0.0
 11
684.28652321630784
 21
-1585.3719380207262
 31
0.0
  0
LINE
  8
0
  6
CONTINUOUS
 62
               3
  5
452
 10
631.78652321630852
 20
-1590.3719380207262
 30
0.0
 11
684.28652321630784
 21
-1590.3719380207262
 31
0.0
  0
CIRCLE
  8
0
  6
CONTINUOUS
 62
               3
  5
453
 10
609.28652321630784
 20
-1050.8725042721417
 30
0.0
 40
59.0
  0
INSERT
  8
0
  6
CONTINUOUS
  5
454
  2
GROUP_1
 10
0.0
 20
0.0
 30
0.0
  0
INSERT
  8
0
  6
CONTINUOUS
  5
455
  2
GROUP_2
 10
0.0
 20
0.0
 30
0.0
  0
INSERT
  8
0
  6
CONTINUOUS
  5
456
  2
GROUP_3
 10
0.0
 20
0.0
 30
0.0
  0
INSERT
  8
0
  6
CONTINUOUS
  5
457
  2
GROUP_4
 10
0.0
 20
0.0
 30
0.0
  0
INSERT
  8
0
  6
CONTINUOUS
  5
458
  2
GROUP_5
 10
0.0
 20
0.0
 30
0.0
  0
INSERT
  8
0
  6
CONTINUOUS
  5
459
  2
GROUP_6
 10
0.0
 20
0.0
 30
0.0
  0
INSERT
  8
0
  6
CONTINUOUS
  5
45A
  2
GROUP_7
 10
0.0
 20
0.0
 30
0.0
  0
INSERT
  8
0
  6
CONTINUOUS
  5
45B
  2
GROUP_8
 10
0.0
 20
0.0
 30
0.0
  0
INSERT
  8
0
  6
CONTINUOUS
  5
45C
  2
GROUP_9
 10
0.0
 20
0.0
 30
0.0
  0
INSERT
  8
0
  6
CONTINUOUS
  5
45D
  2
GROUP_10
 10
0.0
 20
0.0
 30
0.0
  0
POINT
  8
0
  6
CONTINUOUS
 62
               5
  5
45E
 10
-22.517579717671651
 20
-93.562884075095781
 30
0.0
  0
POINT
  8
0
  6
CONTINUOUS
 62
               5
  5
45F
 10
-392.13776905046876
 20
-1108.5569398439327
 30
0.0
  0
POINT
  8
0
  6
CONTINUOUS
 62
               5
  5
460
 10
-218.90769754050842
 20
-1109.8477339188216
 30
0.0
  0
POINT
  8
0
  6
CONTINUOUS
 62
               5
  5
461
 10
-565.36784056042893
 20
-1109.8477339188214
 30
0.0
  0
POINT
  8
0
  6
CONTINUOUS
 62
               5
  5
462
 10
-395.37452052112434
 20
-927.85898426493736
 30
0.0
  0
POINT
  8
0
  6
CONTINUOUS
 62
               5
  5
463
 10
493.01659472626812
 20
-1526.662732095615
 30
0.0
  0
POINT
  8
0
  6
CONTINUOUS
 62
               5
  5
464
 10
493.01659472626824
 20
-1049.5817101972525
 30
0.0
  0
CIRCLE
  8
0
  6
CONTINUOUS
 62
               7
  5
465
 10
-392.13776905046876
 20
-1115.0569398439327
 30
0.0
 40
38.0
  0
CIRCLE
  8
0
  6
CONTINUOUS
 62
               7
  5
466
 10
-392.13776905046876
 20
-1115.0569398439327
 30
0.0
 40
33.5
  0
LINE
  8
0
  6
CONTINUOUS
 62
               7
  5
467
 10
-247.63776905046876
 20
-1064.0569398439327
 30
0.0
 11
-247.63776905046876
 21
-1153.0517037232582
 31
0.0
  0
LINE
  8
0
  6
CONTINUOUS
 62
               7
  5
468
 10
-247.03776905046874
 20
-1064.0569398439327
 30
0.0
 11
-247.63776905046876
 21
-1064.0569398439327
 31
0.0
  0
LINE
  8
0
  6
CONTINUOUS
 62
               7
  5
469
 10
-282.63776905046876
 20
-1152.0569398439327
 30
0.0
 11
-282.63776905046876
 21
-1078.0569398439327
 31
0.0
  0
LINE
  8
0
  6
CONTINUOUS
 62
               7
  5
46A
 10
-189.63776905046876
 20
-1152.0569398439327
 30
0.0
 11
-189.63776905046876
 21
-1065.0569398439327
 31
0.0
  0
LINE
  8
0
  6
CONTINUOUS
 62
               7
  5
46B
 10
-247.63776905046876
 20
-1064.0569398439327
 30
0.0
 11
-190.63776905046876
 21
-1064.0569398439327
 31
0.0
  0
LINE
  8
0
  6
CONTINUOUS
 62
               7
  5
46C
 10
-281.63776905046876
 20
-1153.0569398439327
 30
0.0
 11
-190.63776905046876
 21
-1153.0569398439327
 31
0.0
  0
LINE
  8
0
  6
CONTINUOUS
 62
               7
  5
46D
 10
-190.63776905046876
 20
-1064.0569398439327
 30
0.0
 11
-189.63776905046876
 21
-1065.0569398439327
 31
0.0
  0
LINE
  8
0
  6
CONTINUOUS
 62
               7
  5
46E
 10
-189.63776905046876
 20
-1152.0569398439327
 30
0.0
 11
-190.63776905046876
 21
-1153.0569398439327
 31
0.0
  0
LINE
  8
0
  6
CONTINUOUS
 62
               7
  5
46F
 10
-281.63776905046876
 20
-1077.0569398439327
 30
0.0
 11
-247.63776905046876
 21
-1077.0569398439327
 31
0.0
  0
CIRCLE
  8
0
  6
CONTINUOUS
 62
               7
  5
470
 10
-392.13776905046876
 20
-1108.5569398439327
 30
0.0
 40
44.5
  0
LINE
  8
0
  6
CONTINUOUS
 62
               7
  5
471
 10
-281.63776905046876
 20
-1077.0569398439327
 30
0.0
 11
-282.63776905046876
 21
-1078.0569398439327
 31
0.0
  0
LINE
  8
0
  6
CONTINUOUS
 62
               7
  5
472
 10
-282.63776905046876
 20
-1152.0569398439327
 30
0.0
 11
-281.63776905046876
 21
-1153.0569398439327
 31
0.0
  0
LINE
  8
0
  6
CONTINUOUS
 62
               7
  5
473
 10
-536.63776905046848
 20
-1064.0569398439325
 30
0.0
 11
-536.63776905046871
 21
-1153.051703723258
 31
0.0
  0
LINE
  8
0
  6
CONTINUOUS
 62
               7
  5
474
 10
-537.23776905046861
 20
-1064.0569398439325
 30
0.0
 11
-536.63776905046848
 21
-1064.0569398439325
 31
0.0
  0
LINE
  8
0
  6
CONTINUOUS
 62
               7
  5
475
 10
-501.63776905046882
 20
-1152.0569398439325
 30
0.0
 11
-501.63776905046859
 21
-1078.0569398439325
 31
0.0
  0
LINE
  8
0
  6
CONTINUOUS
 62
               7
  5
476
 10
-594.63776905046871
 20
-1152.0569398439325
 30
0.0
 11
-594.63776905046848
 21
-1065.0569398439325
 31
0.0
  0
LINE
  8
0
  6
CONTINUOUS
 62
               7
  5
477
 10
-536.63776905046848
 20
-1064.0569398439325
 30
0.0
 11
-593.63776905046848
 21
-1064.0569398439325
 31
0.0
  0
LINE
  8
0
  6
CONTINUOUS
 62
               7
  5
478
 10
-502.63776905046882
 20
-1153.0569398439325
 30
0.0
 11
-593.63776905046871
 21
-1153.0569398439325
 31
0.0
  0
LINE
  8
0
  6
CONTINUOUS
 62
               7
  5
479
 10
-593.63776905046848
 20
-1064.0569398439325
 30
0.0
 11
-594.63776905046848
 21
-1065.0569398439325
 31
0.0
  0
LINE
  8
0
  6
CONTINUOUS
 62
               7
  5
47A
 10
-594.63776905046871
 20
-1152.0569398439325
 30
0.0
 11
-593.63776905046871
 21
-1153.0569398439325
 31
0.0
  0
LINE
  8
0
  6
CONTINUOUS
 62
               7
  5
47B
 10
-502.63776905046859
 20
-1077.0569398439325
 30
0.0
 11
-536.63776905046848
 21
-1077.0569398439325
 31
0.0
  0
LINE
  8
0
  6
CONTINUOUS
 62
               7
  5
47C
 10
-502.63776905046859
 20
-1077.0569398439325
 30
0.0
 11
-501.63776905046859
 21
-1078.0569398439325
 31
0.0
  0
LINE
  8
0
  6
CONTINUOUS
 62
               7
  5
47D
 10
-501.63776905046882
 20
-1152.0569398439325
 30
0.0
 11
-502.63776905046882
 21
-1153.0569398439325
 31
0.0
  0
LINE
  8
0
  6
CONTINUOUS
 62
               7
  5
47E
 10
-349.58372644623529
 20
-956.58905577489782
 30
0.0
 11
-438.57849032556084
 21
-956.58905577489759
 31
0.0
  0
LINE
  8
0
  6
CONTINUOUS
 62
               7
  5
47F
 10
-349.58372644623529
 20
-955.98905577489768
 30
0.0
 11
-349.58372644623529
 21
-956.58905577489782
 31
0.0
  0
LINE
  8
0
  6
CONTINUOUS
 62
               7
  5
480
 10
-431.08372644623529
 20
-991.58905577489759
 30
0.0
 11
-357.08372644623529
 21
-991.58905577489782
 31
0.0
  0
LINE
  8
0
  6
CONTINUOUS
 62
               7
  5
481
 10
-437.58372644623518
 20
-898.58905577489759
 30
0.0
 11
-350.58372644623529
 21
-898.58905577489782
 31
0.0
  0
LINE
  8
0
  6
CONTINUOUS
 62
               7
  5
482
 10
-349.58372644623529
 20
-956.58905577489782
 30
0.0
 11
-349.58372644623529
 21
-899.58905577489782
 31
0.0
  0
LINE
  8
0
  6
CONTINUOUS
 62
               7
  5
483
 10
-432.08372644623529
 20
-990.58905577489759
 30
0.0
 11
-432.08372644623529
 21
-956.58905577489759
 31
0.0
  0
LINE
  8
0
  6
CONTINUOUS
 62
               7
  5
484
 10
-349.58372644623529
 20
-899.58905577489782
 30
0.0
 11
-350.58372644623529
 21
-898.58905577489782
 31
0.0
  0
LINE
  8
0
  6
CONTINUOUS
 62
               7
  5
485
 10
-437.58372644623518
 20
-898.58905577489759
 30
0.0
 11
-438.58372644623518
 21
-899.58905577489759
 31
0.0
  0
LINE
  8
0
  6
CONTINUOUS
 62
               7
  5
486
 10
-356.08372644623529
 20
-990.58905577489782
 30
0.0
 11
-356.08372644623529
 21
-956.58905577489759
 31
0.0
  0
LINE
  8
0
  6
CONTINUOUS
 62
               7
  5
487
 10
-356.08372644623529
 20
-990.58905577489782
 30
0.0
 11
-357.08372644623529
 21
-991.58905577489782
 31
0.0
  0
LINE
  8
0
  6
CONTINUOUS
 62
               7
  5
488
 10
-431.08372644623529
 20
-991.58905577489759
 30
0.0
 11
-432.08372644623529
 21
-990.58905577489759
 31
0.0
  0
LINE
  8
0
  6
CONTINUOUS
 62
               7
  5
489
 10
-438.58372644623529
 20
-956.58905577489759
 30
0.0
 11
-438.58372644623529
 21
-899.58905577489759
 31
0.0
  0
LINE
  8
0
  6
CONTINUOUS
 62
               7
  5
48A
 10
216.63392368588092
 20
-1152.0569398439327
 30
0.0
 11
216.63392368588092
 21
-1094.0569398439327
 31
0.0
  0
LINE
  8
0
  6
CONTINUOUS
 62
               7
  5
48B
 10
242.23392368588082
 20
-1064.0569398439327
 30
0.0
 11
242.23392368588082
 21
-1153.0569398439327
 31
0.0
  0
LINE
  8
0
  6
CONTINUOUS
 62
               7
  5
48C
 10
242.83392368588096
 20
-1064.0569398439327
 30
0.0
 11
242.23392368588082
 21
-1064.0569398439327
 31
0.0
  0
LINE
  8
0
  6
CONTINUOUS
 62
               7
  5
48D
 10
300.23392368588105
 20
-1152.0569398439327
 30
0.0
 11
300.23392368588105
 21
-1065.0569398439327
 31
0.0
  0
CIRCLE
  8
0
  6
CONTINUOUS
 62
               7
  5
48E
 10
120.87790746063791
 20
-1123.0569398439327
 30
0.0
 40
30.0
  0
CIRCLE
  8
0
  6
CONTINUOUS
 62
               7
  5
48F
 10
120.87790746063791
 20
-1123.0569398439327
 30
0.0
 40
25.5
  0
CIRCLE
  8
0
  6
CONTINUOUS
 62
               7
  5
490
 10
120.87790746063791
 20
-1108.5569398439327
 30
0.0
 40
44.5
  0
LINE
  8
0
  6
CONTINUOUS
 62
               7
  5
491
 10
242.36837543136124
 20
-1064.0569398439327
 30
0.0
 11
299.23392368588105
 21
-1064.0569398439327
 31
0.0
  0
LINE
  8
0
  6
CONTINUOUS
 62
               7
  5
492
 10
217.63392368588092
 20
-1153.0569398439327
 30
0.0
 11
299.23392368588105
 21
-1153.0569398439327
 31
0.0
  0
LINE
  8
0
  6
CONTINUOUS
 62
               7
  5
493
 10
217.63392368588092
 20
-1093.0569398439327
 30
0.0
 11
242.23392368588082
 21
-1093.0569398439327
 31
0.0
  0
LINE
  8
0
  6
CONTINUOUS
 62
               7
  5
494
 10
217.63392368588092
 20
-1093.0569398439327
 30
0.0
 11
216.63392368588092
 21
-1094.0569398439327
 31
0.0
  0
LINE
  8
0
  6
CONTINUOUS
 62
               7
  5
495
 10
299.23392368588105
 20
-1064.0569398439327
 30
0.0
 11
300.23392368588105
 21
-1065.0569398439327
 31
0.0
  0
LINE
  8
0
  6
CONTINUOUS
 62
               7
  5
496
 10
216.63392368588092
 20
-1152.0569398439327
 30
0.0
 11
217.63392368588092
 21
-1153.0569398439327
 31
0.0
  0
LINE
  8
0
  6
CONTINUOUS
 62
               7
  5
497
 10
300.23392368588105
 20
-1152.0569398439327
 30
0.0
 11
299.23392368588105
 21
-1153.0569398439327
 31
0.0
  0
LINE
  8
0
  6
CONTINUOUS
 62
               7
  5
498
 10
25.12189123539514
 20
-1152.0569398439327
 30
0.0
 11
25.12189123539514
 21
-1094.0569398439327
 31
0.0
  0
LINE
  8
0
  6
CONTINUOUS
 62
               7
  5
499
 10
-0.4781087646048832
 20
-1064.0569398439327
 30
0.0
 11
-0.4781087646048832
 21
-1153.0569398439327
 31
0.0
  0
LINE
  8
0
  6
CONTINUOUS
 62
               7
  5
49A
 10
-1.0781087646049059
 20
-1064.0569398439327
 30
0.0
 11
-0.4781087646048832
 21
-1064.0569398439327
 31
0.0
  0
LINE
  8
0
  6
CONTINUOUS
 62
               7
  5
49B
 10
-58.478108764604883
 20
-1152.0569398439327
 30
0.0
 11
-58.478108764604883
 21
-1065.0569398439327
 31
0.0
  0
LINE
  8
0
  6
CONTINUOUS
 62
               7
  5
49C
 10
-0.6125605100851885
 20
-1064.0569398439327
 30
0.0
 11
-57.478108764604883
 21
-1064.0569398439327
 31
0.0
  0
LINE
  8
0
  6
CONTINUOUS
 62
               7
  5
49D
 10
24.12189123539514
 20
-1153.0569398439327
 30
0.0
 11
-57.478108764604883
 21
-1153.0569398439327
 31
0.0
  0
LINE
  8
0
  6
CONTINUOUS
 62
               7
  5
49E
 10
24.12189123539514
 20
-1093.0569398439327
 30
0.0
 11
-0.4781087646048832
 21
-1093.0569398439327
 31
0.0
  0
LINE
  8
0
  6
CONTINUOUS
 62
               7
  5
49F
 10
24.12189123539514
 20
-1093.0569398439327
 30
0.0
 11
25.12189123539514
 21
-1094.0569398439327
 31
0.0
  0
LINE
  8
0
  6
CONTINUOUS
 62
               7
  5
4A0
 10
-57.478108764604883
 20
-1064.0569398439327
 30
0.0
 11
-58.478108764604883
 21
-1065.0569398439327
 31
0.0
  0
LINE
  8
0
  6
CONTINUOUS
 62
               7
  5
4A1
 10
25.12189123539514
 20
-1152.0569398439327
 30
0.0
 11
24.12189123539514
 21
-1153.0569398439327
 31
0.0
  0
LINE
  8
0
  6
CONTINUOUS
 62
               7
  5
4A2
 10
-58.478108764604883
 20
-1152.0569398439327
 30
0.0
 11
-57.478108764604883
 21
-1153.0569398439327
 31
0.0
  0
LINE
  8
0
  6
CONTINUOUS
 62
               7
  5
4A3
 10
91.877907460638141
 20
-1002.3009236186899
 30
0.0
 11
149.87790746063814
 21
-1002.3009236186899
 31
0.0
  0
LINE
  8
0
  6
CONTINUOUS
 62
               7
  5
4A4
 10
165.37790746063814
 20
-976.70092361868979
 30
0.0
 11
76.377907460638141
 21
-976.70092361868979
 31
0.0
  0
LINE
  8
0
  6
CONTINUOUS
 62
               7
  5
4A5
 10
165.37790746063814
 20
-976.10092361868988
 30
0.0
 11
165.37790746063814
 21
-976.70092361868979
 31
0.0
  0
LINE
  8
0
  6
CONTINUOUS
 62
               7
  5
4A6
 10
77.377907460638141
 20
-918.70092361868979
 30
0.0
 11
164.37790746063814
 21
-918.70092361868979
 31
0.0
  0
LINE
  8
0
  6
CONTINUOUS
 62
               7
  5
4A7
 10
165.37790746063814
 20
-976.56647187320959
 30
0.0
 11
165.37790746063814
 21
-919.70092361868979
 31
0.0
  0
LINE
  8
0
  6
CONTINUOUS
 62
               7
  5
4A8
 10
90.877907460638141
 20
-1001.3009236186899
 30
0.0
 11
90.877907460638141
 21
-976.70092361868979
 31
0.0
  0
LINE
  8
0
  6
CONTINUOUS
 62
               7
  5
4A9
 10
150.87790746063814
 20
-1001.3009236186899
 30
0.0
 11
150.87790746063814
 21
-976.70092361868979
 31
0.0
  0
LINE
  8
0
  6
CONTINUOUS
 62
               7
  5
4AA
 10
150.87790746063814
 20
-1001.3009236186899
 30
0.0
 11
149.87790746063814
 21
-1002.3009236186899
 31
0.0
  0
LINE
  8
0
  6
CONTINUOUS
 62
               7
  5
4AB
 10
165.37790746063814
 20
-919.70092361868979
 30
0.0
 11
164.37790746063814
 21
-918.70092361868979
 31
0.0
  0
LINE
  8
0
  6
CONTINUOUS
 62
               7
  5
4AC
 10
91.877907460638141
 20
-1002.3009236186899
 30
0.0
 11
90.877907460638141
 21
-1001.3009236186899
 31
0.0
  0
LINE
  8
0
  6
CONTINUOUS
 62
               7
  5
4AD
 10
77.377907460638141
 20
-918.70092361868979
 30
0.0
 11
76.377907460638141
 21
-919.70092361868979
 31
0.0
  0
LINE
  8
0
  6
CONTINUOUS
 62
               7
  5
4AE
 10
76.377907460638141
 20
-976.56647187320937
 30
0.0
 11
76.377907460638141
 21
-919.70092361868979
 31
0.0
  0
CIRCLE
  8
0
  6
CONTINUOUS
 62
               7
  5
4AF
 10
609.28652321630784
 20
-1539.8719380207262
 30
0.0
 40
25.5
  0
CIRCLE
  8
0
  6
CONTINUOUS
 62
               7
  5
4B0
 10
609.28652321630784
 20
-1525.3719380207262
 30
0.0
 40
44.5
  0
CIRCLE
  8
0
  6
CONTINUOUS
 62
               7
  5
4B1
 10
609.28652321630784
 20
-1539.8719380207262
 30
0.0
 40
30.0
  0
LINE
  8
0
  6
CONTINUOUS
 62
               7
  5
4B2
 10
580.28652321630784
 20
-1221.4725042721416
 30
0.0
 11
638.28652321630784
 21
-1221.4725042721416
 31
0.0
  0
LINE
  8
0
  6
CONTINUOUS
 62
               7
  5
4B3
 10
653.78652321630784
 20
-1195.8725042721417
 30
0.0
 11
564.78652321630784
 21
-1195.8725042721417
 31
0.0
  0
LINE
  8
0
  6
CONTINUOUS
 62
               7
  5
4B4
 10
653.78652321630784
 20
-1195.2725042721418
 30
0.0
 11
653.78652321630784
 21
-1195.8725042721417
 31
0.0
  0
LINE
  8
0
  6
CONTINUOUS
 62
               7
  5
4B5
 10
565.78652321630784
 20
-1137.8725042721417
 30
0.0
 11
652.78652321630784
 21
-1137.8725042721417
 31
0.0
  0
LINE
  8
0
  6
CONTINUOUS
 62
               7
  5
4B6
 10
653.78652321630784
 20
-1195.7380525266612
 30
0.0
 11
653.78652321630784
 21
-1138.8725042721417
 31
0.0
  0
LINE
  8
0
  6
CONTINUOUS
 62
               7
  5
4B7
 10
579.28652321630784
 20
-1220.4725042721416
 30
0.0
 11
579.28652321630784
 21
-1195.8725042721417
 31
0.0
  0
LINE
  8
0
  6
CONTINUOUS
 62
               7
  5
4B8
 10
639.28652321630784
 20
-1220.4725042721416
 30
0.0
 11
639.28652321630784
 21
-1195.8725042721417
 31
0.0
  0
LINE
  8
0
  6
CONTINUOUS
 62
               7
  5
4B9
 10
639.28652321630784
 20
-1220.4725042721416
 30
0.0
 11
638.28652321630784
 21
-1221.4725042721416
 31
0.0
  0
LINE
  8
0
  6
CONTINUOUS
 62
               7
  5
4BA
 10
653.78652321630784
 20
-1138.8725042721417
 30
0.0
 11
652.78652321630784
 21
-1137.8725042721417
 31
0.0
  0
LINE
  8
0
  6
CONTINUOUS
 62
               7
  5
4BB
 10
580.28652321630784
 20
-1221.4725042721416
 30
0.0
 11
579.28652321630784
 21
-1220.4725042721416
 31
0.0
  0
LINE
  8
0
  6
CONTINUOUS
 62
               7
  5
4BC
 10
565.78652321630784
 20
-1137.8725042721417
 30
0.0
 11
564.78652321630784
 21
-1138.8725042721417
 31
0.0
  0
LINE
  8
0
  6
CONTINUOUS
 62
               7
  5
4BD
 10
564.78652321630784
 20
-1195.7380525266612
 30
0.0
 11
564.78652321630784
 21
-1138.8725042721417
 31
0.0
  0
LINE
  8
0
  6
CONTINUOUS
 62
               7
  5
4BE
 10
464.28652321630778
 20
-1480.8719380207262
 30
0.0
 11
464.28652321630778
 21
-1569.8667019000518
 31
0.0
  0
LINE
  8
0
  6
CONTINUOUS
 62
               7
  5
4BF
 10
464.88652321630781
 20
-1480.8719380207262
 30
0.0
 11
464.28652321630778
 21
-1480.8719380207262
 31
0.0
  0
LINE
  8
0
  6
CONTINUOUS
 62
               7
  5
4C0
 10
429.28652321630778
 20
-1568.8719380207262
 30
0.0
 11
429.28652321630778
 21
-1494.8719380207262
 31
0.0
  0
LINE
  8
0
  6
CONTINUOUS
 62
               7
  5
4C1
 10
522.28652321630784
 20
-1568.8719380207262
 30
0.0
 11
522.28652321630784
 21
-1481.8719380207262
 31
0.0
  0
LINE
  8
0
  6
CONTINUOUS
 62
               7
  5
4C2
 10
464.28652321630778
 20
-1480.8719380207262
 30
0.0
 11
521.28652321630784
 21
-1480.8719380207262
 31
0.0
  0
LINE
  8
0
  6
CONTINUOUS
 62
               7
  5
4C3
 10
430.28652321630778
 20
-1569.8719380207262
 30
0.0
 11
521.28652321630784
 21
-1569.8719380207262
 31
0.0
  0
LINE
  8
0
  6
CONTINUOUS
 62
               7
  5
4C4
 10
521.28652321630784
 20
-1480.8719380207262
 30
0.0
 11
522.28652321630784
 21
-1481.8719380207262
 31
0.0
  0
LINE
  8
0
  6
CONTINUOUS
 62
               7
  5
4C5
 10
522.28652321630784
 20
-1568.8719380207262
 30
0.0
 11
521.28652321630784
 21
-1569.8719380207262
 31
0.0
  0
LINE
  8
0
  6
CONTINUOUS
 62
               7
  5
4C6
 10
430.28652321630778
 20
-1493.8719380207262
 30
0.0
 11
464.28652321630778
 21
-1493.8719380207262
 31
0.0
  0
LINE
  8
0
  6
CONTINUOUS
 62
               7
  5
4C7
 10
430.28652321630778
 20
-1493.8719380207262
 30
0.0
 11
429.28652321630778
 21
-1494.8719380207262
 31
0.0
  0
LINE
  8
0
  6
CONTINUOUS
 62
               7
  5
4C8
 10
429.28652321630778
 20
-1568.8719380207262
 30
0.0
 11
430.28652321630778
 21
-1569.8719380207262
 31
0.0
  0
LINE
  8
0
  6
CONTINUOUS
 62
               7
  5
4C9
 10
464.28652321630778
 20
-1095.3725042721414
 30
0.0
 11
464.28652321630801
 21
-1006.3777403928159
 31
0.0
  0
LINE
  8
0
  6
CONTINUOUS
 62
               7
  5
4CA
 10
464.88652321630792
 20
-1095.3725042721414
 30
0.0
 11
464.28652321630778
 21
-1095.3725042721414
 31
0.0
  0
LINE
  8
0
  6
CONTINUOUS
 62
               7
  5
4CB
 10
429.28652321630801
 20
-1013.8725042721414
 30
0.0
 11
429.28652321630778
 21
-1087.8725042721414
 31
0.0
  0
LINE
  8
0
  6
CONTINUOUS
 62
               7
  5
4CC
 10
522.28652321630807
 20
-1007.3725042721417
 30
0.0
 11
522.28652321630784
 21
-1094.3725042721414
 31
0.0
  0
LINE
  8
0
  6
CONTINUOUS
 62
               7
  5
4CD
 10
464.28652321630778
 20
-1095.3725042721414
 30
0.0
 11
521.28652321630784
 21
-1095.3725042721414
 31
0.0
  0
LINE
  8
0
  6
CONTINUOUS
 62
               7
  5
4CE
 10
430.28652321630801
 20
-1012.8725042721414
 30
0.0
 11
464.28652321630801
 21
-1012.8725042721414
 31
0.0
  0
LINE
  8
0
  6
CONTINUOUS
 62
               7
  5
4CF
 10
521.28652321630784
 20
-1095.3725042721414
 30
0.0
 11
522.28652321630784
 21
-1094.3725042721414
 31
0.0
  0
LINE
  8
0
  6
CONTINUOUS
 62
               7
  5
4D0
 10
522.28652321630807
 20
-1007.3725042721417
 30
0.0
 11
521.28652321630807
 21
-1006.3725042721417
 31
0.0
  0
LINE
  8
0
  6
CONTINUOUS
 62
               7
  5
4D1
 10
430.28652321630778
 20
-1088.8725042721414
 30
0.0
 11
464.28652321630801
 21
-1088.8725042721414
 31
0.0
  0
LINE
  8
0
  6
CONTINUOUS
 62
               7
  5
4D2
 10
430.28652321630778
 20
-1088.8725042721414
 30
0.0
 11
429.28652321630778
 21
-1087.8725042721414
 31
0.0
  0
LINE
  8
0
  6
CONTINUOUS
 62
               7
  5
4D3
 10
429.28652321630801
 20
-1013.8725042721414
 30
0.0
 11
430.28652321630801
 21
-1012.8725042721414
 31
0.0
  0
LINE
  8
0
  6
CONTINUOUS
 62
               7
  5
4D4
 10
464.28652321630801
 20
-1006.3725042721414
 30
0.0
 11
521.28652321630807
 21
-1006.3725042721414
 31
0.0
  0
CIRCLE
  8
0
  6
DASHED
 62
               7
  5
4D5
 10
-392.13776905046876
 20
-1108.5569398439327
 30
0.0
 40
40.0
  0
CIRCLE
  8
0
  6
DASHED
 62
               7
  5
4D6
 10
120.87790746063791
 20
-1108.5569398439327
 30
0.0
 40
40.0
  0
CIRCLE
  8
0
  6
DASHED
 62
               7
  5
4D7
 10
609.28652321630784
 20
-1525.3719380207262
 30
0.0
 40
40.0
  0
TEXT
  8
0
 62
               3
  5
4D8
 10
-392.13776905046876
 20
-1193.0569398439325
 30
0.0
 40
40.0
  1
EMB_80×65
 41
0.8
 72
               1
 11
-392.13776905046876
 21
-1193.0569398439325
 31
0.0
 73
               3
  0
TEXT
  8
0
 62
               3
  5
4D9
 10
120.87790746063791
 20
-1193.0569398439329
 30
0.0
 40
40.0
  1
EMB_80×50
 41
0.8
 72
               1
 11
120.87790746063791
 21
-1193.0569398439329
 31
0.0
 73
               3
  0
TEXT
  8
0
 62
               3
  5
4DA
 10
605.58911923866754
 20
-871.42613576692236
 30
0.0
 40
40.0
  1
EMB使用例
 41
0.8
 72
               1
 11
605.58911923866754
 21
-871.42613576692236
 31
0.0
 73
               3
  0
TEXT
  8
0
 62
               3
  5
4DB
 10
-123.74270409089095
 20
-817.06599986658284
 30
0.0
 40
35.0
  1
横枝管に呼び６５、５０の管を接続するときは、EMBをご使用ください。
 41
0.8
 72
               1
 11
-123.74270409089095
 21
-817.06599986658284
 31
0.0
 73
               3
  0
ENDSEC
  0
EOF
