  0
SECTION
  2
HEADER
  9
$ACADVER
  1
AC1009
  9
$INSBASE
 10
0.0
 20
0.0
 30
0.0
  9
$EXTMIN
 10
-821.60000000000025
 20
-1664.5737029143495
 30
0.0
  9
$EXTMAX
 10
821.60000000000025
 20
760.40796087983369
 30
0.0
  9
$LIMMIN
 10
-872.95000000000027
 20
-1740.3543799079177
  9
$LIMMAX
 10
872.95000000000027
 20
836.18863787340194
  9
$ORTHOMODE
 70
               0
  9
$REGENMODE
 70
               1
  9
$FILLMODE
 70
               1
  9
$QTEXTMODE
 70
               0
  9
$MIRRTEXT
 70
               1
  9
$DRAGMODE
 70
               2
  9
$LTSCALE
 40
1.0
  9
$OSMODE
 70
               0
  9
$ATTMODE
 70
               1
  9
$TEXTSIZE
 40
0.2
  9
$TRACEWID
 40
0.05
  9
$TEXTSTYLE
  7
STANDARD
  9
$CLAYER
  8
0
  9
$CELTYPE
  6
CONTINUOUS
  9
$CECOLOR
 62
             256
  9
$DIMSCALE
 40
1.0
  9
$DIMASZ
 40
0.18
  9
$DIMEXO
 40
0.0625
  9
$DIMDLI
 40
0.38
  9
$DIMRND
 40
0.0
  9
$DIMDLE
 40
0.0
  9
$DIMEXE
 40
0.18
  9
$DIMTP
 40
0.0
  9
$DIMTM
 40
0.0
  9
$DIMTXT
 40
0.18
  9
$DIMCEN
 40
0.09
  9
$DIMTSZ
 40
0.0
  9
$DIMTOL
 70
               0
  9
$DIMLIM
 70
               0
  9
$DIMTIH
 70
               1
  9
$DIMTOH
 70
               1
  9
$DIMSE1
 70
               0
  9
$DIMSE2
 70
               0
  9
$DIMTAD
 70
               0
  9
$DIMZIN
 70
               0
  9
$DIMBLK
  1

  9
$DIMASO
 70
               1
  9
$DIMSHO
 70
               1
  9
$DIMPOST
  1

  9
$DIMAPOST
  1

  9
$DIMALT
 70
               0
  9
$DIMALTD
 70
               2
  9
$DIMALTF
 40
25.399999999999999
  9
$DIMLFAC
 40
1.0
  9
$DIMTOFL
 70
               0
  9
$DIMTVP
 40
0.0
  9
$DIMTIX
 70
               0
  9
$DIMSOXD
 70
               0
  9
$DIMSAH
 70
               0
  9
$DIMBLK1
  1

  9
$DIMBLK2
  1

  9
$DIMSTYLE
  2
STANDARD
  9
$DIMCLRD
 70
               0
  9
$DIMCLRE
 70
               0
  9
$DIMCLRT
 70
               0
  9
$DIMTFAC
 40
1.0
  9
$DIMGAP
 40
0.09
  9
$LUNITS
 70
               2
  9
$LUPREC
 70
               4
  9
$AXISMODE
 70
               0
  9
$AXISUNIT
 10
0.0
 20
0.0
  9
$SKETCHINC
 40
0.1
  9
$FILLETRAD
 40
0.0
  9
$AUNITS
 70
               0
  9
$AUPREC
 70
               0
  9
$MENU
  1
acad
  9
$ELEVATION
 40
0.0
  9
$PELEVATION
 40
0.0
  9
$THICKNESS
 40
0.0
  9
$LIMCHECK
 70
               0
  9
$BLIPMODE
 70
               1
  9
$CHAMFERA
 40
0.0
  9
$CHAMFERB
 40
0.0
  9
$SKPOLY
 70
               0
  9
$TDCREATE
 40
0.000000000
  9
$TDUPDATE
 40
0.000000000
  9
$TDINDWG
 40
0.0000000000
  9
$TDUSRTIMER
 40
0.0000000000
  9
$USRTIMER
 70
               1
  9
$ANGBASE
 50
0.0
  9
$ANGDIR
 70
               0
  9
$PDMODE
 70
               0
  9
$PDSIZE
 40
1.0
  9
$PLINEWID
 40
0.0
  9
$COORDS
 70
               1
  9
$SPLFRAME
 70
               0
  9
$SPLINETYPE
 70
               6
  9
$SPLINESEGS
 70
               8
  9
$ATTDIA
 70
               0
  9
$ATTREQ
 70
               1
  9
$HANDLING
 70
               1
  9
$HANDSEED
  5
4A1
  9
$SURFTAB1
 70
               6
  9
$SURFTAB2
 70
               6
  9
$SURFTYPE
 70
               6
  9
$SURFU
 70
               6
  9
$SURFV
 70
               6
  9
$UCSNAME
  2

  9
$UCSORG
 10
0.0
 20
0.0
 30
0.0
  9
$UCSXDIR
 10
1.0
 20
0.0
 30
0.0
  9
$UCSYDIR
 10
0.0
 20
1.0
 30
0.0
  9
$PUCSNAME
  2

  9
$PUCSORG
 10
0.0
 20
0.0
 30
0.0
  9
$PUCSXDIR
 10
1.0
 20
0.0
 30
0.0
  9
$PUCSYDIR
 10
0.0
 20
1.0
 30
0.0
  9
$USERI1
 70
               0
  9
$USERI2
 70
               0
  9
$USERI3
 70
               0
  9
$USERI4
 70
               0
  9
$USERI5
 70
               0
  9
$USERR1
 40
0.0
  9
$USERR2
 40
0.0
  9
$USERR3
 40
0.0
  9
$USERR4
 40
0.0
  9
$USERR5
 40
0.0
  9
$WORLDVIEW
 70
               1
  9
$SHADEDGE
 70
               3
  9
$SHADEDIF
 70
              70
  9
$TILEMODE
 70
               1
  9
$MAXACTVP
 70
              16
  9
$PINSBASE
 10
0.0
 20
0.0
 30
0.0
  9
$PLIMCHECK
 70
               0
  9
$PEXTMIN
 10
1.0000000000000000E+20
 20
1.0000000000000000E+20
 30
1.0000000000000000E+20
  9
$PEXTMAX
 10
-1.0000000000000000E+20
 20
-1.0000000000000000E+20
 30
-1.0000000000000000E+20
  9
$PLIMMIN
 10
0.0
 20
0.0
  9
$PLIMMAX
 10
12.0
 20
9.0
  9
$UNITMODE
 70
               0
  9
$VISRETAIN
 70
               0
  9
$PLINEGEN
 70
               1
  9
$PSLTSCALE
 70
               0
  9
$TREEDEPTH
 70
            3020
  9
$DWGCODEPAGE
  3
dos932
  0
ENDSEC
  0
SECTION
  2
TABLES
  0
TABLE
  2
VPORT
 70
               1
  0
VPORT
  2
*ACTIVE
 70
               0
 10
0.0
 20
0.0
 11
1.0
 21
1.0
 12
0.0
 22
-452.0828710172579
 13
0.0
 23
0.0
 14
1.0
 24
1.0
 15
0.0
 25
0.0
 16
0.0
 26
0.0
 36
1.0
 17
0.0
 27
0.0
 37
0.0
 40
2576.5430177813196
 41
0.6776133710755615
 42
50.0
 43
0.0
 44
0.0
 50
0.0
 51
0.0
 71
               0
 72
             100
 73
               1
 74
               1
 75
               0
 76
               0
 77
               0
 78
               0
  0
ENDTAB
  0
TABLE
  2
LTYPE
 70
              26
  0
LTYPE
  2
CONTINUOUS
 70
               0
  3
Solid line
 72
              65
 73
               0
 40
0.0
  0
LTYPE
  2
HIDDENX2
 70
               0
  3
CADPAC FUSION LINETYPE
 72
              65
 73
               2
 40
47.560000000000002
 49
35.670000000000002
 49
-11.890000000000001
  0
LTYPE
  2
HIDDEN
 70
               0
  3
CADPAC FUSION LINETYPE
 72
              65
 73
               2
 40
35.670000000000002
 49
23.780000000000001
 49
-11.890000000000001
  0
LTYPE
  2
HIDDEN2
 70
               0
  3
CADPAC FUSION LINETYPE
 72
              65
 73
               2
 40
29.725000000000001
 49
17.835000000000001
 49
-11.890000000000001
  0
LTYPE
  2
DASHED
 70
               0
  3
CADPAC FUSION LINETYPE
 72
              65
 73
               2
 40
35.670000000000002
 49
23.780000000000001
 49
-11.890000000000001
  0
LTYPE
  2
DASHED2
 70
               0
  3
CADPAC FUSION LINETYPE
 72
              65
 73
               2
 40
26.752500000000001
 49
17.835000000000001
 49
-8.9175000000000004
  0
LTYPE
  2
DASHEDX2
 70
               0
  3
CADPAC FUSION LINETYPE
 72
              65
 73
               2
 40
53.505000000000003
 49
35.670000000000002
 49
-17.835000000000001
  0
LTYPE
  2
DOTX2
 70
               0
  3
CADPAC FUSION LINETYPE
 72
              65
 73
               2
 40
14.862500000000001
 49
0.0
 49
-14.862500000000001
  0
LTYPE
  2
DOT
 70
               0
  3
CADPAC FUSION LINETYPE
 72
              65
 73
               2
 40
11.890000000000001
 49
0.0
 49
-11.890000000000001
  0
LTYPE
  2
DOTS
 70
               0
  3
CADPAC FUSION LINETYPE
 72
              65
 73
               2
 40
11.890000000000001
 49
0.0
 49
-11.890000000000001
  0
LTYPE
  2
DOT2
 70
               0
  3
CADPAC FUSION LINETYPE
 72
              65
 73
               2
 40
8.9175000000000004
 49
0.0
 49
-8.9175000000000004
  0
LTYPE
  2
CENTERX2
 70
               0
  3
CADPAC FUSION LINETYPE
 72
              65
 73
               4
 40
71.340000000000003
 49
29.725000000000001
 49
-14.862500000000001
 49
11.890000000000001
 49
-14.862500000000001
  0
LTYPE
  2
CENTER
 70
               0
  3
CADPAC FUSION LINETYPE
 72
              65
 73
               4
 40
54.694000000000003
 49
23.780000000000001
 49
-11.890000000000001
 49
7.1340000000000003
 49
-11.890000000000001
  0
LTYPE
  2
CENTER2
 70
               0
  3
CADPAC FUSION LINETYPE
 72
              65
 73
               4
 40
38.048000000000002
 49
17.835000000000001
 49
-8.9175000000000004
 49
2.3780000000000001
 49
-8.9175000000000004
  0
LTYPE
  2
DASHDOTX2
 70
               0
  3
CADPAC FUSION LINETYPE
 72
              65
 73
               4
 40
59.450000000000003
 49
29.725000000000001
 49
-14.862500000000001
 49
0.0
 49
-14.862500000000001
  0
LTYPE
  2
DASHDOT
 70
               0
  3
CADPAC FUSION LINETYPE
 72
              65
 73
               4
 40
47.560000000000002
 49
23.780000000000001
 49
-11.890000000000001
 49
0.0
 49
-11.890000000000001
  0
LTYPE
  2
DASHDOT2
 70
               0
  3
CADPAC FUSION LINETYPE
 72
              65
 73
               4
 40
35.670000000000002
 49
17.835000000000001
 49
-8.9175000000000004
 49
0.0
 49
-8.9175000000000004
  0
LTYPE
  2
DIVIDEX2
 70
               0
  3
CADPAC FUSION LINETYPE
 72
              65
 73
               6
 40
74.3125
 49
29.725000000000001
 49
-14.862500000000001
 49
0.0
 49
-14.862500000000001
 49
0.0
 49
-14.862500000000001
  0
LTYPE
  2
DIVIDE
 70
               0
  3
CADPAC FUSION LINETYPE
 72
              65
 73
               6
 40
59.450000000000003
 49
23.780000000000001
 49
-11.890000000000001
 49
0.0
 49
-11.890000000000001
 49
0.0
 49
-11.890000000000001
  0
LTYPE
  2
DIVIDE2
 70
               0
  3
CADPAC FUSION LINETYPE
 72
              65
 73
               6
 40
44.587500000000006
 49
17.835000000000001
 49
-8.9175000000000004
 49
0.0
 49
-8.9175000000000004
 49
0.0
 49
-8.9175000000000004
  0
LTYPE
  2
BORDERX2
 70
               0
  3
CADPAC FUSION LINETYPE
 72
              65
 73
               6
 40
104.03750000000001
 49
29.725000000000001
 49
-14.862500000000001
 49
29.725000000000001
 49
-14.862500000000001
 49
0.0
 49
-14.862500000000001
  0
LTYPE
  2
BORDER
 70
               0
  3
CADPAC FUSION LINETYPE
 72
              65
 73
               6
 40
83.230000000000004
 49
23.780000000000001
 49
-11.890000000000001
 49
23.780000000000001
 49
-11.890000000000001
 49
0.0
 49
-11.890000000000001
  0
LTYPE
  2
BORDER2
 70
               0
  3
CADPAC FUSION LINETYPE
 72
              65
 73
               6
 40
62.422499999999999
 49
17.835000000000001
 49
-8.9175000000000004
 49
17.835000000000001
 49
-8.9175000000000004
 49
0.0
 49
-8.9175000000000004
  0
LTYPE
  2
PHANTOMX2
 70
               0
  3
CADPAC FUSION LINETYPE
 72
              65
 73
               6
 40
89.175000000000011
 49
29.725000000000001
 49
-11.890000000000001
 49
11.890000000000001
 49
-11.890000000000001
 49
11.890000000000001
 49
-11.890000000000001
  0
LTYPE
  2
PHANTOM
 70
               0
  3
CADPAC FUSION LINETYPE
 72
              65
 73
               6
 40
73.718000000000004
 49
23.780000000000001
 49
-11.890000000000001
 49
7.1340000000000003
 49
-11.890000000000001
 49
7.1340000000000003
 49
-11.890000000000001
  0
LTYPE
  2
PHANTOM2
 70
               0
  3
CADPAC FUSION LINETYPE
 72
              65
 73
               6
 40
63.017000000000003
 49
17.835000000000001
 49
-11.890000000000001
 49
4.7560000000000002
 49
-11.890000000000001
 49
4.7560000000000002
 49
-11.890000000000001
  0
ENDTAB
  0
TABLE
  2
LAYER
 70
             256
  0
LAYER
  2
0
 70
               0
 62
               7
  6
CONTINUOUS
  0
LAYER
  2
LAYER001
 70
               0
 62
               7
  6
CONTINUOUS
  0
LAYER
  2
LAYER002
 70
               0
 62
               7
  6
CONTINUOUS
  0
LAYER
  2
LAYER003
 70
               0
 62
               7
  6
CONTINUOUS
  0
LAYER
  2
LAYER004
 70
               0
 62
               7
  6
CONTINUOUS
  0
LAYER
  2
LAYER005
 70
               0
 62
               7
  6
CONTINUOUS
  0
LAYER
  2
LAYER006
 70
               0
 62
               7
  6
CONTINUOUS
  0
LAYER
  2
LAYER007
 70
               0
 62
               7
  6
CONTINUOUS
  0
LAYER
  2
LAYER008
 70
               0
 62
               7
  6
CONTINUOUS
  0
LAYER
  2
LAYER009
 70
               0
 62
               7
  6
CONTINUOUS
  0
LAYER
  2
LAYER010
 70
               0
 62
               7
  6
CONTINUOUS
  0
LAYER
  2
LAYER011
 70
               0
 62
               7
  6
CONTINUOUS
  0
LAYER
  2
LAYER012
 70
               0
 62
               7
  6
CONTINUOUS
  0
LAYER
  2
LAYER013
 70
               0
 62
               7
  6
CONTINUOUS
  0
LAYER
  2
LAYER014
 70
               0
 62
               7
  6
CONTINUOUS
  0
LAYER
  2
LAYER015
 70
               0
 62
               7
  6
CONTINUOUS
  0
LAYER
  2
LAYER016
 70
               0
 62
               7
  6
CONTINUOUS
  0
LAYER
  2
LAYER017
 70
               0
 62
               7
  6
CONTINUOUS
  0
LAYER
  2
LAYER018
 70
               0
 62
               7
  6
CONTINUOUS
  0
LAYER
  2
LAYER019
 70
               0
 62
               7
  6
CONTINUOUS
  0
LAYER
  2
LAYER020
 70
               0
 62
               7
  6
CONTINUOUS
  0
LAYER
  2
LAYER021
 70
               0
 62
               7
  6
CONTINUOUS
  0
LAYER
  2
LAYER022
 70
               0
 62
               7
  6
CONTINUOUS
  0
LAYER
  2
LAYER023
 70
               0
 62
               7
  6
CONTINUOUS
  0
LAYER
  2
LAYER024
 70
               0
 62
               7
  6
CONTINUOUS
  0
LAYER
  2
LAYER025
 70
               0
 62
               7
  6
CONTINUOUS
  0
LAYER
  2
LAYER026
 70
               0
 62
               7
  6
CONTINUOUS
  0
LAYER
  2
LAYER027
 70
               0
 62
               7
  6
CONTINUOUS
  0
LAYER
  2
LAYER028
 70
               0
 62
               7
  6
CONTINUOUS
  0
LAYER
  2
LAYER029
 70
               0
 62
               7
  6
CONTINUOUS
  0
LAYER
  2
LAYER030
 70
               0
 62
               7
  6
CONTINUOUS
  0
LAYER
  2
LAYER031
 70
               0
 62
               7
  6
CONTINUOUS
  0
LAYER
  2
LAYER032
 70
               0
 62
               7
  6
CONTINUOUS
  0
LAYER
  2
LAYER033
 70
               0
 62
               7
  6
CONTINUOUS
  0
LAYER
  2
LAYER034
 70
               0
 62
               7
  6
CONTINUOUS
  0
LAYER
  2
LAYER035
 70
               0
 62
               7
  6
CONTINUOUS
  0
LAYER
  2
LAYER036
 70
               0
 62
               7
  6
CONTINUOUS
  0
LAYER
  2
LAYER037
 70
               0
 62
               7
  6
CONTINUOUS
  0
LAYER
  2
LAYER038
 70
               0
 62
               7
  6
CONTINUOUS
  0
LAYER
  2
LAYER039
 70
               0
 62
               7
  6
CONTINUOUS
  0
LAYER
  2
LAYER040
 70
               0
 62
               7
  6
CONTINUOUS
  0
LAYER
  2
LAYER041
 70
               0
 62
               7
  6
CONTINUOUS
  0
LAYER
  2
LAYER042
 70
               0
 62
               7
  6
CONTINUOUS
  0
LAYER
  2
LAYER043
 70
               0
 62
               7
  6
CONTINUOUS
  0
LAYER
  2
LAYER044
 70
               0
 62
               7
  6
CONTINUOUS
  0
LAYER
  2
LAYER045
 70
               0
 62
               7
  6
CONTINUOUS
  0
LAYER
  2
LAYER046
 70
               0
 62
               7
  6
CONTINUOUS
  0
LAYER
  2
LAYER047
 70
               0
 62
               7
  6
CONTINUOUS
  0
LAYER
  2
LAYER048
 70
               0
 62
               7
  6
CONTINUOUS
  0
LAYER
  2
LAYER049
 70
               0
 62
               7
  6
CONTINUOUS
  0
LAYER
  2
LAYER050
 70
               0
 62
               7
  6
CONTINUOUS
  0
LAYER
  2
LAYER051
 70
               0
 62
               7
  6
CONTINUOUS
  0
LAYER
  2
LAYER052
 70
               0
 62
               7
  6
CONTINUOUS
  0
LAYER
  2
LAYER053
 70
               0
 62
               7
  6
CONTINUOUS
  0
LAYER
  2
LAYER054
 70
               0
 62
               7
  6
CONTINUOUS
  0
LAYER
  2
LAYER055
 70
               0
 62
               7
  6
CONTINUOUS
  0
LAYER
  2
LAYER056
 70
               0
 62
               7
  6
CONTINUOUS
  0
LAYER
  2
LAYER057
 70
               0
 62
               7
  6
CONTINUOUS
  0
LAYER
  2
LAYER058
 70
               0
 62
               7
  6
CONTINUOUS
  0
LAYER
  2
LAYER059
 70
               0
 62
               7
  6
CONTINUOUS
  0
LAYER
  2
LAYER060
 70
               0
 62
               7
  6
CONTINUOUS
  0
LAYER
  2
LAYER061
 70
               0
 62
               7
  6
CONTINUOUS
  0
LAYER
  2
LAYER062
 70
               0
 62
               7
  6
CONTINUOUS
  0
LAYER
  2
LAYER063
 70
               0
 62
               7
  6
CONTINUOUS
  0
LAYER
  2
LAYER064
 70
               0
 62
               7
  6
CONTINUOUS
  0
LAYER
  2
LAYER065
 70
               0
 62
               7
  6
CONTINUOUS
  0
LAYER
  2
LAYER066
 70
               0
 62
               7
  6
CONTINUOUS
  0
LAYER
  2
LAYER067
 70
               0
 62
               7
  6
CONTINUOUS
  0
LAYER
  2
LAYER068
 70
               0
 62
               7
  6
CONTINUOUS
  0
LAYER
  2
LAYER069
 70
               0
 62
               7
  6
CONTINUOUS
  0
LAYER
  2
LAYER070
 70
               0
 62
               7
  6
CONTINUOUS
  0
LAYER
  2
LAYER071
 70
               0
 62
               7
  6
CONTINUOUS
  0
LAYER
  2
LAYER072
 70
               0
 62
               7
  6
CONTINUOUS
  0
LAYER
  2
LAYER073
 70
               0
 62
               7
  6
CONTINUOUS
  0
LAYER
  2
LAYER074
 70
               0
 62
               7
  6
CONTINUOUS
  0
LAYER
  2
LAYER075
 70
               0
 62
               7
  6
CONTINUOUS
  0
LAYER
  2
LAYER076
 70
               0
 62
               7
  6
CONTINUOUS
  0
LAYER
  2
LAYER077
 70
               0
 62
               7
  6
CONTINUOUS
  0
LAYER
  2
LAYER078
 70
               0
 62
               7
  6
CONTINUOUS
  0
LAYER
  2
LAYER079
 70
               0
 62
               7
  6
CONTINUOUS
  0
LAYER
  2
LAYER080
 70
               0
 62
               7
  6
CONTINUOUS
  0
LAYER
  2
LAYER081
 70
               0
 62
               7
  6
CONTINUOUS
  0
LAYER
  2
LAYER082
 70
               0
 62
               7
  6
CONTINUOUS
  0
LAYER
  2
LAYER083
 70
               0
 62
               7
  6
CONTINUOUS
  0
LAYER
  2
LAYER084
 70
               0
 62
               7
  6
CONTINUOUS
  0
LAYER
  2
LAYER085
 70
               0
 62
               7
  6
CONTINUOUS
  0
LAYER
  2
LAYER086
 70
               0
 62
               7
  6
CONTINUOUS
  0
LAYER
  2
LAYER087
 70
               0
 62
               7
  6
CONTINUOUS
  0
LAYER
  2
LAYER088
 70
               0
 62
               7
  6
CONTINUOUS
  0
LAYER
  2
LAYER089
 70
               0
 62
               7
  6
CONTINUOUS
  0
LAYER
  2
LAYER090
 70
               0
 62
               7
  6
CONTINUOUS
  0
LAYER
  2
LAYER091
 70
               0
 62
               7
  6
CONTINUOUS
  0
LAYER
  2
LAYER092
 70
               0
 62
               7
  6
CONTINUOUS
  0
LAYER
  2
LAYER093
 70
               0
 62
               7
  6
CONTINUOUS
  0
LAYER
  2
LAYER094
 70
               0
 62
               7
  6
CONTINUOUS
  0
LAYER
  2
LAYER095
 70
               0
 62
               7
  6
CONTINUOUS
  0
LAYER
  2
LAYER096
 70
               0
 62
               7
  6
CONTINUOUS
  0
LAYER
  2
LAYER097
 70
               0
 62
               7
  6
CONTINUOUS
  0
LAYER
  2
LAYER098
 70
               0
 62
               7
  6
CONTINUOUS
  0
LAYER
  2
LAYER099
 70
               0
 62
               7
  6
CONTINUOUS
  0
LAYER
  2
LAYER100
 70
               0
 62
               7
  6
CONTINUOUS
  0
LAYER
  2
LAYER101
 70
               0
 62
               7
  6
CONTINUOUS
  0
LAYER
  2
LAYER102
 70
               0
 62
               7
  6
CONTINUOUS
  0
LAYER
  2
LAYER103
 70
               0
 62
               7
  6
CONTINUOUS
  0
LAYER
  2
LAYER104
 70
               0
 62
               7
  6
CONTINUOUS
  0
LAYER
  2
LAYER105
 70
               0
 62
               7
  6
CONTINUOUS
  0
LAYER
  2
LAYER106
 70
               0
 62
               7
  6
CONTINUOUS
  0
LAYER
  2
LAYER107
 70
               0
 62
               7
  6
CONTINUOUS
  0
LAYER
  2
LAYER108
 70
               0
 62
               7
  6
CONTINUOUS
  0
LAYER
  2
LAYER109
 70
               0
 62
               7
  6
CONTINUOUS
  0
LAYER
  2
LAYER110
 70
               0
 62
               7
  6
CONTINUOUS
  0
LAYER
  2
LAYER111
 70
               0
 62
               7
  6
CONTINUOUS
  0
LAYER
  2
LAYER112
 70
               0
 62
               7
  6
CONTINUOUS
  0
LAYER
  2
LAYER113
 70
               0
 62
               7
  6
CONTINUOUS
  0
LAYER
  2
LAYER114
 70
               0
 62
               7
  6
CONTINUOUS
  0
LAYER
  2
LAYER115
 70
               0
 62
               7
  6
CONTINUOUS
  0
LAYER
  2
LAYER116
 70
               0
 62
               7
  6
CONTINUOUS
  0
LAYER
  2
LAYER117
 70
               0
 62
               7
  6
CONTINUOUS
  0
LAYER
  2
LAYER118
 70
               0
 62
               7
  6
CONTINUOUS
  0
LAYER
  2
LAYER119
 70
               0
 62
               7
  6
CONTINUOUS
  0
LAYER
  2
LAYER120
 70
               0
 62
               7
  6
CONTINUOUS
  0
LAYER
  2
LAYER121
 70
               0
 62
               7
  6
CONTINUOUS
  0
LAYER
  2
LAYER122
 70
               0
 62
               7
  6
CONTINUOUS
  0
LAYER
  2
LAYER123
 70
               0
 62
               7
  6
CONTINUOUS
  0
LAYER
  2
LAYER124
 70
               0
 62
               7
  6
CONTINUOUS
  0
LAYER
  2
LAYER125
 70
               0
 62
               7
  6
CONTINUOUS
  0
LAYER
  2
LAYER126
 70
               0
 62
               7
  6
CONTINUOUS
  0
LAYER
  2
LAYER127
 70
               0
 62
               7
  6
CONTINUOUS
  0
LAYER
  2
LAYER128
 70
               0
 62
               7
  6
CONTINUOUS
  0
LAYER
  2
LAYER129
 70
               0
 62
               7
  6
CONTINUOUS
  0
LAYER
  2
LAYER130
 70
               0
 62
               7
  6
CONTINUOUS
  0
LAYER
  2
LAYER131
 70
               0
 62
               7
  6
CONTINUOUS
  0
LAYER
  2
LAYER132
 70
               0
 62
               7
  6
CONTINUOUS
  0
LAYER
  2
LAYER133
 70
               0
 62
               7
  6
CONTINUOUS
  0
LAYER
  2
LAYER134
 70
               0
 62
               7
  6
CONTINUOUS
  0
LAYER
  2
LAYER135
 70
               0
 62
               7
  6
CONTINUOUS
  0
LAYER
  2
LAYER136
 70
               0
 62
               7
  6
CONTINUOUS
  0
LAYER
  2
LAYER137
 70
               0
 62
               7
  6
CONTINUOUS
  0
LAYER
  2
LAYER138
 70
               0
 62
               7
  6
CONTINUOUS
  0
LAYER
  2
LAYER139
 70
               0
 62
               7
  6
CONTINUOUS
  0
LAYER
  2
LAYER140
 70
               0
 62
               7
  6
CONTINUOUS
  0
LAYER
  2
LAYER141
 70
               0
 62
               7
  6
CONTINUOUS
  0
LAYER
  2
LAYER142
 70
               0
 62
               7
  6
CONTINUOUS
  0
LAYER
  2
LAYER143
 70
               0
 62
               7
  6
CONTINUOUS
  0
LAYER
  2
LAYER144
 70
               0
 62
               7
  6
CONTINUOUS
  0
LAYER
  2
LAYER145
 70
               0
 62
               7
  6
CONTINUOUS
  0
LAYER
  2
LAYER146
 70
               0
 62
               7
  6
CONTINUOUS
  0
LAYER
  2
LAYER147
 70
               0
 62
               7
  6
CONTINUOUS
  0
LAYER
  2
LAYER148
 70
               0
 62
               7
  6
CONTINUOUS
  0
LAYER
  2
LAYER149
 70
               0
 62
               7
  6
CONTINUOUS
  0
LAYER
  2
LAYER150
 70
               0
 62
               7
  6
CONTINUOUS
  0
LAYER
  2
LAYER151
 70
               0
 62
               7
  6
CONTINUOUS
  0
LAYER
  2
LAYER152
 70
               0
 62
               7
  6
CONTINUOUS
  0
LAYER
  2
LAYER153
 70
               0
 62
               7
  6
CONTINUOUS
  0
LAYER
  2
LAYER154
 70
               0
 62
               7
  6
CONTINUOUS
  0
LAYER
  2
LAYER155
 70
               0
 62
               7
  6
CONTINUOUS
  0
LAYER
  2
LAYER156
 70
               0
 62
               7
  6
CONTINUOUS
  0
LAYER
  2
LAYER157
 70
               0
 62
               7
  6
CONTINUOUS
  0
LAYER
  2
LAYER158
 70
               0
 62
               7
  6
CONTINUOUS
  0
LAYER
  2
LAYER159
 70
               0
 62
               7
  6
CONTINUOUS
  0
LAYER
  2
LAYER160
 70
               0
 62
               7
  6
CONTINUOUS
  0
LAYER
  2
LAYER161
 70
               0
 62
               7
  6
CONTINUOUS
  0
LAYER
  2
LAYER162
 70
               0
 62
               7
  6
CONTINUOUS
  0
LAYER
  2
LAYER163
 70
               0
 62
               7
  6
CONTINUOUS
  0
LAYER
  2
LAYER164
 70
               0
 62
               7
  6
CONTINUOUS
  0
LAYER
  2
LAYER165
 70
               0
 62
               7
  6
CONTINUOUS
  0
LAYER
  2
LAYER166
 70
               0
 62
               7
  6
CONTINUOUS
  0
LAYER
  2
LAYER167
 70
               0
 62
               7
  6
CONTINUOUS
  0
LAYER
  2
LAYER168
 70
               0
 62
               7
  6
CONTINUOUS
  0
LAYER
  2
LAYER169
 70
               0
 62
               7
  6
CONTINUOUS
  0
LAYER
  2
LAYER170
 70
               0
 62
               7
  6
CONTINUOUS
  0
LAYER
  2
LAYER171
 70
               0
 62
               7
  6
CONTINUOUS
  0
LAYER
  2
LAYER172
 70
               0
 62
               7
  6
CONTINUOUS
  0
LAYER
  2
LAYER173
 70
               0
 62
               7
  6
CONTINUOUS
  0
LAYER
  2
LAYER174
 70
               0
 62
               7
  6
CONTINUOUS
  0
LAYER
  2
LAYER175
 70
               0
 62
               7
  6
CONTINUOUS
  0
LAYER
  2
LAYER176
 70
               0
 62
               7
  6
CONTINUOUS
  0
LAYER
  2
LAYER177
 70
               0
 62
               7
  6
CONTINUOUS
  0
LAYER
  2
LAYER178
 70
               0
 62
               7
  6
CONTINUOUS
  0
LAYER
  2
LAYER179
 70
               0
 62
               7
  6
CONTINUOUS
  0
LAYER
  2
LAYER180
 70
               0
 62
               7
  6
CONTINUOUS
  0
LAYER
  2
LAYER181
 70
               0
 62
               7
  6
CONTINUOUS
  0
LAYER
  2
LAYER182
 70
               0
 62
               7
  6
CONTINUOUS
  0
LAYER
  2
LAYER183
 70
               0
 62
               7
  6
CONTINUOUS
  0
LAYER
  2
LAYER184
 70
               0
 62
               7
  6
CONTINUOUS
  0
LAYER
  2
LAYER185
 70
               0
 62
               7
  6
CONTINUOUS
  0
LAYER
  2
LAYER186
 70
               0
 62
               7
  6
CONTINUOUS
  0
LAYER
  2
LAYER187
 70
               0
 62
               7
  6
CONTINUOUS
  0
LAYER
  2
LAYER188
 70
               0
 62
               7
  6
CONTINUOUS
  0
LAYER
  2
LAYER189
 70
               0
 62
               7
  6
CONTINUOUS
  0
LAYER
  2
LAYER190
 70
               0
 62
               7
  6
CONTINUOUS
  0
LAYER
  2
LAYER191
 70
               0
 62
               7
  6
CONTINUOUS
  0
LAYER
  2
LAYER192
 70
               0
 62
               7
  6
CONTINUOUS
  0
LAYER
  2
LAYER193
 70
               0
 62
               7
  6
CONTINUOUS
  0
LAYER
  2
LAYER194
 70
               0
 62
               7
  6
CONTINUOUS
  0
LAYER
  2
LAYER195
 70
               0
 62
               7
  6
CONTINUOUS
  0
LAYER
  2
LAYER196
 70
               0
 62
               7
  6
CONTINUOUS
  0
LAYER
  2
LAYER197
 70
               0
 62
               7
  6
CONTINUOUS
  0
LAYER
  2
LAYER198
 70
               0
 62
               7
  6
CONTINUOUS
  0
LAYER
  2
LAYER199
 70
               0
 62
               7
  6
CONTINUOUS
  0
LAYER
  2
LAYER200
 70
               0
 62
               7
  6
CONTINUOUS
  0
LAYER
  2
LAYER201
 70
               0
 62
               7
  6
CONTINUOUS
  0
LAYER
  2
LAYER202
 70
               0
 62
               7
  6
CONTINUOUS
  0
LAYER
  2
LAYER203
 70
               0
 62
               7
  6
CONTINUOUS
  0
LAYER
  2
LAYER204
 70
               0
 62
               7
  6
CONTINUOUS
  0
LAYER
  2
LAYER205
 70
               0
 62
               7
  6
CONTINUOUS
  0
LAYER
  2
LAYER206
 70
               0
 62
               7
  6
CONTINUOUS
  0
LAYER
  2
LAYER207
 70
               0
 62
               7
  6
CONTINUOUS
  0
LAYER
  2
LAYER208
 70
               0
 62
               7
  6
CONTINUOUS
  0
LAYER
  2
LAYER209
 70
               0
 62
               7
  6
CONTINUOUS
  0
LAYER
  2
LAYER210
 70
               0
 62
               7
  6
CONTINUOUS
  0
LAYER
  2
LAYER211
 70
               0
 62
               7
  6
CONTINUOUS
  0
LAYER
  2
LAYER212
 70
               0
 62
               7
  6
CONTINUOUS
  0
LAYER
  2
LAYER213
 70
               0
 62
               7
  6
CONTINUOUS
  0
LAYER
  2
LAYER214
 70
               0
 62
               7
  6
CONTINUOUS
  0
LAYER
  2
LAYER215
 70
               0
 62
               7
  6
CONTINUOUS
  0
LAYER
  2
LAYER216
 70
               0
 62
               7
  6
CONTINUOUS
  0
LAYER
  2
LAYER217
 70
               0
 62
               7
  6
CONTINUOUS
  0
LAYER
  2
LAYER218
 70
               0
 62
               7
  6
CONTINUOUS
  0
LAYER
  2
LAYER219
 70
               0
 62
               7
  6
CONTINUOUS
  0
LAYER
  2
LAYER220
 70
               0
 62
               7
  6
CONTINUOUS
  0
LAYER
  2
LAYER221
 70
               0
 62
               7
  6
CONTINUOUS
  0
LAYER
  2
LAYER222
 70
               0
 62
               7
  6
CONTINUOUS
  0
LAYER
  2
LAYER223
 70
               0
 62
               7
  6
CONTINUOUS
  0
LAYER
  2
LAYER224
 70
               0
 62
               7
  6
CONTINUOUS
  0
LAYER
  2
LAYER225
 70
               0
 62
               7
  6
CONTINUOUS
  0
LAYER
  2
LAYER226
 70
               0
 62
               7
  6
CONTINUOUS
  0
LAYER
  2
LAYER227
 70
               0
 62
               7
  6
CONTINUOUS
  0
LAYER
  2
LAYER228
 70
               0
 62
               7
  6
CONTINUOUS
  0
LAYER
  2
LAYER229
 70
               0
 62
               7
  6
CONTINUOUS
  0
LAYER
  2
LAYER230
 70
               0
 62
               7
  6
CONTINUOUS
  0
LAYER
  2
LAYER231
 70
               0
 62
               7
  6
CONTINUOUS
  0
LAYER
  2
LAYER232
 70
               0
 62
               7
  6
CONTINUOUS
  0
LAYER
  2
LAYER233
 70
               0
 62
               7
  6
CONTINUOUS
  0
LAYER
  2
LAYER234
 70
               0
 62
               7
  6
CONTINUOUS
  0
LAYER
  2
LAYER235
 70
               0
 62
               7
  6
CONTINUOUS
  0
LAYER
  2
LAYER236
 70
               0
 62
               7
  6
CONTINUOUS
  0
LAYER
  2
LAYER237
 70
               0
 62
               7
  6
CONTINUOUS
  0
LAYER
  2
LAYER238
 70
               0
 62
               7
  6
CONTINUOUS
  0
LAYER
  2
LAYER239
 70
               0
 62
               7
  6
CONTINUOUS
  0
LAYER
  2
LAYER240
 70
               0
 62
               7
  6
CONTINUOUS
  0
LAYER
  2
LAYER241
 70
               0
 62
               7
  6
CONTINUOUS
  0
LAYER
  2
LAYER242
 70
               0
 62
               7
  6
CONTINUOUS
  0
LAYER
  2
LAYER243
 70
               0
 62
               7
  6
CONTINUOUS
  0
LAYER
  2
LAYER244
 70
               0
 62
               7
  6
CONTINUOUS
  0
LAYER
  2
LAYER245
 70
               0
 62
               7
  6
CONTINUOUS
  0
LAYER
  2
LAYER246
 70
               0
 62
               7
  6
CONTINUOUS
  0
LAYER
  2
LAYER247
 70
               0
 62
               7
  6
CONTINUOUS
  0
LAYER
  2
LAYER248
 70
               0
 62
               7
  6
CONTINUOUS
  0
LAYER
  2
LAYER249
 70
               0
 62
               7
  6
CONTINUOUS
  0
LAYER
  2
LAYER250
 70
               0
 62
               7
  6
CONTINUOUS
  0
LAYER
  2
LAYER251
 70
               0
 62
               7
  6
CONTINUOUS
  0
LAYER
  2
LAYER252
 70
               0
 62
               7
  6
CONTINUOUS
  0
LAYER
  2
LAYER253
 70
               0
 62
               7
  6
CONTINUOUS
  0
LAYER
  2
LAYER254
 70
               0
 62
               7
  6
CONTINUOUS
  0
LAYER
  2
LAYER255
 70
               0
 62
               7
  6
CONTINUOUS
  0
ENDTAB
  0
TABLE
  2
STYLE
 70
               1
  0
STYLE
  2
STANDARD
 70
               0
 40
0.0
 41
0.8
 50
0.0
 71
               0
 42
40.0
  3
MS PGothic.ttf
  4

  0
ENDTAB
  0
TABLE
  2
VIEW
 70
               0
  0
VIEW
  2
QQQQ
 70
               0
 40
2576.5430177813196
 10
0.0
 20
-452.0828710172579
 41
1745.9000000000005
 11
0.0
 21
0.0
 31
1.0
 12
100.0
 22
100.0
 32
0.0
 42
50.0
 43
0.0
 44
0.0
 50
0.0
 71
               0
  0
ENDTAB
  0
TABLE
  2
UCS
 70
               0
  0
ENDTAB
  0
TABLE
  2
APPID
 70
               1
  0
APPID
  2
ACAD
 70
               0
  0
ENDTAB
  0
TABLE
  2
DIMSTYLE
 70
               1
  0
DIMSTYLE
  2
STANDARD
 70
               0
  3

  4

  5

  6

  7

 40
1.0
 41
0.18
 42
0.0625
 43
0.38
 44
0.18
 45
0.0
 46
0.0
 47
0.0
 48
0.0
140
0.18
141
0.09
142
0.0
143
25.399999999999999
144
1.0
145
0.0
146
1.0
147
0.09
 71
               0
 72
               0
 73
               1
 74
               1
 75
               0
 76
               0
 77
               0
 78
               0
170
               0
171
               2
172
               0
173
               0
174
               0
175
               0
176
               0
177
               0
178
               0
  0
ENDTAB
  0
ENDSEC
  0
SECTION
  2
BLOCKS
  0
BLOCK
  8
0
  5
140
  2
GROUP_1
 70
               0
 10
0.0
 20
0.0
 30
0.0
  3
GROUP_1
  0
CIRCLE
  8
0
  6
CONTINUOUS
 62
               4
  5
141
 10
64.204636350973828
 20
647.49518265458744
 30
0.0
 40
9.5
  0
LINE
  8
0
  6
CONTINUOUS
 62
               4
  5
142
 10
64.204636350973828
 20
658.46483776919047
 30
0.0
 11
73.704636350973573
 21
652.9800102118885
 31
0.0
  0
LINE
  8
0
  6
CONTINUOUS
 62
               4
  5
143
 10
73.704636350973573
 20
652.9800102118885
 30
0.0
 11
73.704636350973573
 21
642.0103550972857
 31
0.0
  0
LINE
  8
0
  6
CONTINUOUS
 62
               4
  5
144
 10
73.704636350973573
 20
642.0103550972857
 30
0.0
 11
64.204636350973828
 21
636.52552753998418
 31
0.0
  0
LINE
  8
0
  6
CONTINUOUS
 62
               4
  5
145
 10
64.204636350973828
 20
636.52552753998418
 30
0.0
 11
54.7046363509738
 21
642.0103550972857
 31
0.0
  0
LINE
  8
0
  6
CONTINUOUS
 62
               4
  5
146
 10
54.7046363509738
 20
642.0103550972857
 30
0.0
 11
54.7046363509738
 21
652.9800102118885
 31
0.0
  0
LINE
  8
0
  6
CONTINUOUS
 62
               4
  5
147
 10
54.7046363509738
 20
652.9800102118885
 30
0.0
 11
64.204636350973828
 21
658.46483776919047
 31
0.0
  0
CIRCLE
  8
0
  6
CONTINUOUS
 62
               4
  5
148
 10
64.204636350973828
 20
647.49518265458744
 30
0.0
 40
5.1250000000000009
  0
CIRCLE
  8
0
  6
CONTINUOUS
 62
               4
  5
149
 10
64.204636350973828
 20
647.49518265458744
 30
0.0
 40
6.0000000000000009
  0
ENDBLK
  8
0
  5
14A
  0
BLOCK
  8
0
  5
14B
  2
GROUP_2
 70
               0
 10
0.0
 20
0.0
 30
0.0
  3
GROUP_2
  0
CIRCLE
  8
0
  6
CONTINUOUS
 62
               4
  5
14C
 10
64.204636350973828
 20
518.80174847863566
 30
0.0
 40
9.5
  0
LINE
  8
0
  6
CONTINUOUS
 62
               4
  5
14D
 10
64.204636350973828
 20
529.77140359323869
 30
0.0
 11
73.704636350973573
 21
524.28657603593695
 31
0.0
  0
LINE
  8
0
  6
CONTINUOUS
 62
               4
  5
14E
 10
73.704636350973573
 20
524.28657603593695
 30
0.0
 11
73.704636350973573
 21
513.31692092133392
 31
0.0
  0
LINE
  8
0
  6
CONTINUOUS
 62
               4
  5
14F
 10
73.704636350973573
 20
513.31692092133392
 30
0.0
 11
64.204636350973828
 21
507.83209336403263
 31
0.0
  0
LINE
  8
0
  6
CONTINUOUS
 62
               4
  5
150
 10
64.204636350973828
 20
507.83209336403263
 30
0.0
 11
54.704636350973587
 21
513.31692092133392
 31
0.0
  0
LINE
  8
0
  6
CONTINUOUS
 62
               4
  5
151
 10
54.704636350973587
 20
513.31692092133392
 30
0.0
 11
54.704636350973587
 21
524.28657603593695
 31
0.0
  0
LINE
  8
0
  6
CONTINUOUS
 62
               4
  5
152
 10
54.704636350973587
 20
524.28657603593695
 30
0.0
 11
64.204636350973828
 21
529.77140359323869
 31
0.0
  0
CIRCLE
  8
0
  6
CONTINUOUS
 62
               4
  5
153
 10
64.204636350973828
 20
518.80174847863566
 30
0.0
 40
5.1250000000000009
  0
CIRCLE
  8
0
  6
CONTINUOUS
 62
               4
  5
154
 10
64.204636350973828
 20
518.80174847863566
 30
0.0
 40
6.0000000000000009
  0
ENDBLK
  8
0
  5
155
  0
BLOCK
  8
0
  5
156
  2
GROUP_3
 70
               0
 10
0.0
 20
0.0
 30
0.0
  3
GROUP_3
  0
LINE
  8
0
  6
CONTINUOUS
 62
               4
  5
157
 10
-775.29999999999995
 20
-130.36902315887357
 30
0.0
 11
-775.29999999999995
 21
-121.49485618379327
 31
0.0
  0
LINE
  8
0
  6
CONTINUOUS
 62
               4
  5
158
 10
-769.81517244269867
 20
-130.36902315887357
 30
0.0
 11
-769.81517244269867
 21
-121.49485618379327
 31
0.0
  0
LINE
  8
0
  6
CONTINUOUS
 62
               4
  5
159
 10
-775.29999999999995
 20
-130.36902315887357
 30
0.0
 11
-753.40000000000032
 21
-130.36902315887357
 31
0.0
  0
LINE
  8
0
  6
CONTINUOUS
 62
               4
  5
15A
 10
-772.55758622134931
 20
-120.36902315887357
 30
0.0
 11
-756.14241377865096
 21
-120.36902315887357
 31
0.0
  0
LINE
  8
0
  6
CONTINUOUS
 62
               4
  5
15B
 10
-753.40000000000032
 20
-130.36902315887357
 30
0.0
 11
-753.40000000000032
 21
-121.49485618379327
 31
0.0
  0
LINE
  8
0
  6
CONTINUOUS
 62
               4
  5
15C
 10
-758.88482755730161
 20
-130.36902315887357
 30
0.0
 11
-758.88482755730161
 21
-121.49485618379327
 31
0.0
  0
ARC
  8
0
  6
CONTINUOUS
 62
               4
  5
15D
 10
-772.55758622134931
 20
-124.27205901712597
 30
0.0
 40
3.9030358582523994
 50
45.361119214041857
 51
134.63888078592529
  0
ARC
  8
0
  6
CONTINUOUS
 62
               4
  5
15E
 10
-756.14241377865096
 20
-124.27205901712597
 30
0.0
 40
3.9030358582525593
 50
45.361119214039483
 51
134.63888078592294
  0
ARC
  8
0
  6
CONTINUOUS
 62
               4
  5
15F
 10
-764.35000000000014
 20
-134.19683294027959
 30
0.0
 40
13.827809781406303
 50
66.719648257516468
 51
113.28035174244877
  0
ENDBLK
  8
0
  5
160
  0
BLOCK
  8
0
  5
161
  2
GROUP_4
 70
               0
 10
0.0
 20
0.0
 30
0.0
  3
GROUP_4
  0
LINE
  8
0
  6
CONTINUOUS
 62
               4
  5
162
 10
-624.7000000000005
 20
-130.36902315887357
 30
0.0
 11
-624.7000000000005
 21
-121.49485618379327
 31
0.0
  0
LINE
  8
0
  6
CONTINUOUS
 62
               4
  5
163
 10
-630.18482755730201
 20
-130.36902315887357
 30
0.0
 11
-630.18482755730201
 21
-121.49485618379327
 31
0.0
  0
LINE
  8
0
  6
CONTINUOUS
 62
               4
  5
164
 10
-624.7000000000005
 20
-130.36902315887357
 30
0.0
 11
-646.60000000000036
 21
-130.36902315887357
 31
0.0
  0
LINE
  8
0
  6
CONTINUOUS
 62
               4
  5
165
 10
-627.44241377865114
 20
-120.36902315887357
 30
0.0
 11
-643.85758622134949
 21
-120.36902315887357
 31
0.0
  0
LINE
  8
0
  6
CONTINUOUS
 62
               4
  5
166
 10
-646.60000000000036
 20
-130.36902315887357
 30
0.0
 11
-646.60000000000036
 21
-121.49485618379327
 31
0.0
  0
LINE
  8
0
  6
CONTINUOUS
 62
               4
  5
167
 10
-641.11517244269885
 20
-130.36902315887357
 30
0.0
 11
-641.11517244269885
 21
-121.49485618379327
 31
0.0
  0
ARC
  8
0
  6
CONTINUOUS
 62
               4
  5
168
 10
-627.44241377865114
 20
-124.27205901712597
 30
0.0
 40
3.9030358582523994
 50
45.361119214039498
 51
134.63888078592294
  0
ARC
  8
0
  6
CONTINUOUS
 62
               4
  5
169
 10
-643.85758622134949
 20
-124.27205901712597
 30
0.0
 40
3.9030358582525593
 50
45.36111921404185
 51
134.63888078592535
  0
ARC
  8
0
  6
CONTINUOUS
 62
               4
  5
16A
 10
-635.65000000000032
 20
-134.19683294027959
 30
0.0
 40
13.827809781406303
 50
66.719648257516468
 51
113.28035174244877
  0
ENDBLK
  8
0
  5
16B
  0
BLOCK
  8
0
  5
16C
  2
GROUP_5
 70
               0
 10
0.0
 20
0.0
 30
0.0
  3
GROUP_5
  0
LINE
  8
0
  6
CONTINUOUS
 62
               4
  5
16D
 10
645.14999999999986
 20
-120.36902315887244
 30
0.0
 11
626.14999999999986
 21
-120.36902315887244
 31
0.0
  0
LINE
  8
0
  6
CONTINUOUS
 62
               4
  5
16E
 10
626.14999999999986
 20
-120.36902315887244
 30
0.0
 11
626.14999999999986
 21
-130.36902315887244
 31
0.0
  0
LINE
  8
0
  6
CONTINUOUS
 62
               4
  5
16F
 10
626.14999999999986
 20
-130.36902315887244
 30
0.0
 11
645.14999999999986
 21
-130.36902315887244
 31
0.0
  0
LINE
  8
0
  6
CONTINUOUS
 62
               4
  5
170
 10
645.14999999999986
 20
-130.36902315887244
 30
0.0
 11
645.14999999999986
 21
-120.36902315887244
 31
0.0
  0
LINE
  8
0
  6
CONTINUOUS
 62
               4
  5
171
 10
635.64999999999964
 20
-130.36902315887244
 30
0.0
 11
635.64999999999964
 21
-121.49485618379225
 31
0.0
  0
ARC
  8
0
  6
CONTINUOUS
 62
               4
  5
172
 10
630.89999999999964
 20
-130.84592576481225
 30
0.0
 40
10.488326954718639
 50
63.071102706939868
 51
116.92889729302553
  0
ARC
  8
0
  6
CONTINUOUS
 62
               4
  5
173
 10
640.39999999999986
 20
-130.84592576481225
 30
0.0
 40
10.488326954718639
 50
63.071102706939868
 51
116.92889729302553
  0
ARC
  8
0
  6
CONTINUOUS
 62
               4
  5
174
 10
640.39999999999986
 20
-130.84592576481225
 30
0.0
 40
10.488326954718639
 50
63.071102706939868
 51
116.92889729302553
  0
ARC
  8
0
  6
CONTINUOUS
 62
               4
  5
175
 10
640.39999999999986
 20
-130.84592576481225
 30
0.0
 40
10.488326954718639
 50
63.071102706939868
 51
116.92889729302553
  0
ENDBLK
  8
0
  5
176
  0
BLOCK
  8
0
  5
177
  2
GROUP_6
 70
               0
 10
0.0
 20
0.0
 30
0.0
  3
GROUP_6
  0
LINE
  8
0
  6
CONTINUOUS
 62
               4
  5
178
 10
773.85000000000014
 20
-120.36902315887329
 30
0.0
 11
754.85000000000014
 21
-120.36902315887329
 31
0.0
  0
LINE
  8
0
  6
CONTINUOUS
 62
               4
  5
179
 10
754.85000000000014
 20
-120.36902315887329
 30
0.0
 11
754.85000000000014
 21
-130.36902315887329
 31
0.0
  0
LINE
  8
0
  6
CONTINUOUS
 62
               4
  5
17A
 10
754.85000000000014
 20
-130.36902315887329
 30
0.0
 11
773.85000000000014
 21
-130.36902315887329
 31
0.0
  0
LINE
  8
0
  6
CONTINUOUS
 62
               4
  5
17B
 10
773.85000000000014
 20
-130.36902315887329
 30
0.0
 11
773.85000000000014
 21
-120.36902315887329
 31
0.0
  0
LINE
  8
0
  6
CONTINUOUS
 62
               4
  5
17C
 10
764.34999999999991
 20
-130.36902315887329
 30
0.0
 11
764.34999999999991
 21
-121.49485618379299
 31
0.0
  0
ARC
  8
0
  6
CONTINUOUS
 62
               4
  5
17D
 10
759.60000000000014
 20
-130.8459257648131
 30
0.0
 40
10.488326954718639
 50
63.071102706939868
 51
116.92889729302553
  0
ARC
  8
0
  6
CONTINUOUS
 62
               4
  5
17E
 10
769.09999999999991
 20
-130.8459257648131
 30
0.0
 40
10.488326954718639
 50
63.071102706939868
 51
116.92889729302553
  0
ARC
  8
0
  6
CONTINUOUS
 62
               4
  5
17F
 10
769.09999999999991
 20
-130.8459257648131
 30
0.0
 40
10.488326954718639
 50
63.071102706939868
 51
116.92889729302553
  0
ARC
  8
0
  6
CONTINUOUS
 62
               4
  5
180
 10
769.09999999999991
 20
-130.8459257648131
 30
0.0
 40
10.488326954718639
 50
63.071102706939868
 51
116.92889729302553
  0
ENDBLK
  8
0
  5
181
  0
BLOCK
  8
0
  5
182
  2
GROUP_7
 70
               0
 10
0.0
 20
0.0
 30
0.0
  3
GROUP_7
  0
LINE
  8
0
  6
CONTINUOUS
 62
               4
  5
183
 10
54.849999999999625
 20
-120.36902315887272
 30
0.0
 11
73.849999999999682
 21
-120.36902315887272
 31
0.0
  0
LINE
  8
0
  6
CONTINUOUS
 62
               4
  5
184
 10
73.849999999999682
 20
-120.36902315887272
 30
0.0
 11
73.849999999999682
 21
-130.36902315887272
 31
0.0
  0
LINE
  8
0
  6
CONTINUOUS
 62
               4
  5
185
 10
73.849999999999682
 20
-130.36902315887272
 30
0.0
 11
54.849999999999625
 21
-130.36902315887272
 31
0.0
  0
LINE
  8
0
  6
CONTINUOUS
 62
               4
  5
186
 10
54.849999999999625
 20
-130.36902315887272
 30
0.0
 11
54.849999999999625
 21
-120.36902315887272
 31
0.0
  0
LINE
  8
0
  6
CONTINUOUS
 62
               4
  5
187
 10
64.349999999999795
 20
-130.36902315887272
 30
0.0
 11
64.349999999999795
 21
-121.49485618379259
 31
0.0
  0
ARC
  8
0
  6
CONTINUOUS
 62
               4
  5
188
 10
69.099999999999739
 20
-130.84592576481253
 30
0.0
 40
10.488326954718639
 50
63.071102706939726
 51
116.92889729302549
  0
ARC
  8
0
  6
CONTINUOUS
 62
               4
  5
189
 10
59.599999999999852
 20
-130.84592576481253
 30
0.0
 40
10.488326954718639
 50
63.071102706939726
 51
116.92889729302549
  0
ARC
  8
0
  6
CONTINUOUS
 62
               4
  5
18A
 10
59.599999999999852
 20
-130.84592576481253
 30
0.0
 40
10.488326954718639
 50
63.071102706939726
 51
116.92889729302549
  0
ARC
  8
0
  6
CONTINUOUS
 62
               4
  5
18B
 10
59.599999999999852
 20
-130.84592576481253
 30
0.0
 40
10.488326954718639
 50
63.071102706939726
 51
116.92889729302549
  0
ENDBLK
  8
0
  5
18C
  0
BLOCK
  8
0
  5
18D
  2
GROUP_8
 70
               0
 10
0.0
 20
0.0
 30
0.0
  3
GROUP_8
  0
LINE
  8
0
  6
CONTINUOUS
 62
               4
  5
18E
 10
-73.850000000000563
 20
-120.36902315887357
 30
0.0
 11
-54.850000000000506
 21
-120.36902315887357
 31
0.0
  0
LINE
  8
0
  6
CONTINUOUS
 62
               4
  5
18F
 10
-54.850000000000506
 20
-120.36902315887357
 30
0.0
 11
-54.850000000000506
 21
-130.36902315887357
 31
0.0
  0
LINE
  8
0
  6
CONTINUOUS
 62
               4
  5
190
 10
-54.850000000000506
 20
-130.36902315887357
 30
0.0
 11
-73.850000000000563
 21
-130.36902315887357
 31
0.0
  0
LINE
  8
0
  6
CONTINUOUS
 62
               4
  5
191
 10
-73.850000000000563
 20
-130.36902315887357
 30
0.0
 11
-73.850000000000563
 21
-120.36902315887357
 31
0.0
  0
LINE
  8
0
  6
CONTINUOUS
 62
               4
  5
192
 10
-64.350000000000534
 20
-130.36902315887357
 30
0.0
 11
-64.350000000000534
 21
-121.49485618379327
 31
0.0
  0
ARC
  8
0
  6
CONTINUOUS
 62
               4
  5
193
 10
-59.600000000000591
 20
-130.84592576481339
 30
0.0
 40
10.488326954718639
 50
63.071102706939705
 51
116.92889729302551
  0
ARC
  8
0
  6
CONTINUOUS
 62
               4
  5
194
 10
-69.10000000000062
 20
-130.84592576481339
 30
0.0
 40
10.488326954718639
 50
63.071102706939705
 51
116.92889729302551
  0
ARC
  8
0
  6
CONTINUOUS
 62
               4
  5
195
 10
-69.10000000000062
 20
-130.84592576481339
 30
0.0
 40
10.488326954718639
 50
63.071102706939705
 51
116.92889729302551
  0
ARC
  8
0
  6
CONTINUOUS
 62
               4
  5
196
 10
-69.10000000000062
 20
-130.84592576481339
 30
0.0
 40
10.488326954718639
 50
63.071102706939705
 51
116.92889729302551
  0
ENDBLK
  8
0
  5
197
  0
BLOCK
  8
0
  5
198
  2
GROUP_9
 70
               0
 10
0.0
 20
0.0
 30
0.0
  3
GROUP_9
  0
CIRCLE
  8
0
  6
CONTINUOUS
 62
               4
  5
199
 10
-64.48879782497778
 20
518.80174847863566
 30
0.0
 40
9.5
  0
LINE
  8
0
  6
CONTINUOUS
 62
               4
  5
19A
 10
-64.48879782497778
 20
529.77140359323869
 30
0.0
 11
-73.988797824977524
 21
524.28657603593695
 31
0.0
  0
LINE
  8
0
  6
CONTINUOUS
 62
               4
  5
19B
 10
-73.988797824977524
 20
524.28657603593695
 30
0.0
 11
-73.988797824977524
 21
513.31692092133392
 31
0.0
  0
LINE
  8
0
  6
CONTINUOUS
 62
               4
  5
19C
 10
-73.988797824977524
 20
513.31692092133392
 30
0.0
 11
-64.48879782497778
 21
507.83209336403263
 31
0.0
  0
LINE
  8
0
  6
CONTINUOUS
 62
               4
  5
19D
 10
-64.48879782497778
 20
507.83209336403263
 30
0.0
 11
-54.988797824977524
 21
513.31692092133392
 31
0.0
  0
LINE
  8
0
  6
CONTINUOUS
 62
               4
  5
19E
 10
-54.988797824977524
 20
513.31692092133392
 30
0.0
 11
-54.988797824977524
 21
524.28657603593695
 31
0.0
  0
LINE
  8
0
  6
CONTINUOUS
 62
               4
  5
19F
 10
-54.988797824977524
 20
524.28657603593695
 30
0.0
 11
-64.48879782497778
 21
529.77140359323869
 31
0.0
  0
CIRCLE
  8
0
  6
CONTINUOUS
 62
               4
  5
1A0
 10
-64.48879782497778
 20
518.80174847863566
 30
0.0
 40
5.1250000000000009
  0
CIRCLE
  8
0
  6
CONTINUOUS
 62
               4
  5
1A1
 10
-64.48879782497778
 20
518.80174847863566
 30
0.0
 40
6.0000000000000009
  0
ENDBLK
  8
0
  5
1A2
  0
BLOCK
  8
0
  5
1A3
  2
GROUP_10
 70
               0
 10
0.0
 20
0.0
 30
0.0
  3
GROUP_10
  0
CIRCLE
  8
0
  6
CONTINUOUS
 62
               4
  5
1A4
 10
-64.48879782497778
 20
647.49518265458744
 30
0.0
 40
9.5
  0
LINE
  8
0
  6
CONTINUOUS
 62
               4
  5
1A5
 10
-64.48879782497778
 20
658.46483776919047
 30
0.0
 11
-73.988797824977524
 21
652.9800102118885
 31
0.0
  0
LINE
  8
0
  6
CONTINUOUS
 62
               4
  5
1A6
 10
-73.988797824977524
 20
652.9800102118885
 30
0.0
 11
-73.988797824977524
 21
642.0103550972857
 31
0.0
  0
LINE
  8
0
  6
CONTINUOUS
 62
               4
  5
1A7
 10
-73.988797824977524
 20
642.0103550972857
 30
0.0
 11
-64.48879782497778
 21
636.52552753998418
 31
0.0
  0
LINE
  8
0
  6
CONTINUOUS
 62
               4
  5
1A8
 10
-64.48879782497778
 20
636.52552753998418
 30
0.0
 11
-54.988797824977752
 21
642.0103550972857
 31
0.0
  0
LINE
  8
0
  6
CONTINUOUS
 62
               4
  5
1A9
 10
-54.988797824977752
 20
642.0103550972857
 30
0.0
 11
-54.988797824977752
 21
652.9800102118885
 31
0.0
  0
LINE
  8
0
  6
CONTINUOUS
 62
               4
  5
1AA
 10
-54.988797824977752
 20
652.9800102118885
 30
0.0
 11
-64.48879782497778
 21
658.46483776919047
 31
0.0
  0
CIRCLE
  8
0
  6
CONTINUOUS
 62
               4
  5
1AB
 10
-64.48879782497778
 20
647.49518265458744
 30
0.0
 40
5.1250000000000009
  0
CIRCLE
  8
0
  6
CONTINUOUS
 62
               4
  5
1AC
 10
-64.48879782497778
 20
647.49518265458744
 30
0.0
 40
6.0000000000000009
  0
ENDBLK
  8
0
  5
1AD
  0
ENDSEC
  0
SECTION
  2
ENTITIES
  0
LINE
  8
0
  6
DASHDOT
 62
               4
  5
1AE
 10
-0.0000000000002274
 20
-713.77369811456094
 30
0.0
 11
-0.000000000000199
 21
112.65419697555808
 31
0.0
  0
LINE
  8
0
  6
DASHDOT
 62
               4
  5
1AF
 10
97.635435388781445
 20
583.14846556661098
 30
0.0
 11
-169.30353857241977
 21
583.14846556661098
 31
0.0
  0
LINE
  8
0
  6
DASHDOT
 62
               4
  5
1B0
 10
-0.1420807370019759
 20
393.14846556661132
 30
0.0
 11
-0.1420807370019759
 21
713.77369811456094
 31
0.0
  0
LINE
  8
0
  6
DASHDOT
 62
               4
  5
1B1
 10
699.99999999999977
 20
-713.77369811456094
 30
0.0
 11
699.99999999999977
 21
120.34293984549913
 31
0.0
  0
LINE
  8
0
  6
DASHDOT
 62
               4
  5
1B2
 10
-700.00000000000023
 20
-713.77369811456094
 30
0.0
 11
-700.00000000000023
 21
120.34293984549936
 31
0.0
  0
LINE
  8
0
  6
DASHDOT
 62
               4
  5
1B3
 10
-632.50000000000045
 20
-230.66902315887353
 30
0.0
 11
-767.50000000000045
 21
-230.66902315887353
 31
0.0
  0
LINE
  8
0
  6
DASHDOT
 62
               4
  5
1B4
 10
-169.30353857241988
 20
-230.66902315887327
 30
0.0
 11
-72.48242028232886
 21
-230.66902315887327
 31
0.0
  0
LINE
  8
0
  6
DASHDOT
 62
               4
  5
1B5
 10
-67.500000000000227
 20
-230.66902315887359
 30
0.0
 11
67.499999999999773
 21
-230.66902315887359
 31
0.0
  0
LINE
  8
0
  6
DASHDOT
 62
               4
  5
1B6
 10
-530.69646142758074
 20
-230.66902315887324
 30
0.0
 11
-627.51757971767165
 21
-230.66902315887324
 31
0.0
  0
LINE
  8
0
  6
DASHDOT
 62
               4
  5
1B7
 10
530.69646142758074
 20
-230.66902315887313
 30
0.0
 11
648.45819427956621
 21
-230.66902315887313
 31
0.0
  0
LINE
  8
0
  6
DASHDOT
 62
               4
  5
1B8
 10
-392.13776905046893
 20
-1186.8172186400643
 30
0.0
 11
-392.13776905046882
 21
-1057.8172186400639
 31
0.0
  0
LINE
  8
0
  6
DASHDOT
 62
               4
  5
1B9
 10
-450.13776905046893
 20
-1128.8172186400639
 30
0.0
 11
-334.13776905046893
 21
-1128.8172186400639
 31
0.0
  0
LINE
  8
0
  6
DASHDOT
 62
               4
  5
1BA
 10
-461.94094753457637
 20
-1122.3172186400639
 30
0.0
 11
-327.63776905046893
 21
-1122.3172186400639
 31
0.0
  0
LINE
  8
0
  6
DASHDOT
 62
               4
  5
1BB
 10
-268.23776905046884
 20
-1122.3172186400639
 30
0.0
 11
-169.63776905046893
 21
-1122.3172186400639
 31
0.0
  0
LINE
  8
0
  6
DASHDOT
 62
               4
  5
1BC
 10
-302.63776905046893
 20
-1128.8172186400639
 30
0.0
 11
-228.23776905046896
 21
-1128.8172186400639
 31
0.0
  0
LINE
  8
0
  6
DASHDOT
 62
               4
  5
1BD
 10
-516.0377690504688
 20
-1122.3172186400639
 30
0.0
 11
-614.63776905046893
 21
-1122.3172186400634
 31
0.0
  0
LINE
  8
0
  6
DASHDOT
 62
               4
  5
1BE
 10
-481.63776905046893
 20
-1128.8172186400639
 30
0.0
 11
-556.0377690504688
 21
-1128.8172186400639
 31
0.0
  0
LINE
  8
0
  6
DASHDOT
 62
               4
  5
1BF
 10
-394.08372644623546
 20
-1025.349334571029
 30
0.0
 11
-394.08372644623546
 21
-892.34933457102886
 31
0.0
  0
LINE
  8
0
  6
DASHDOT
 62
               4
  5
1C0
 10
221.63392368588075
 20
-1122.3172186400639
 30
0.0
 11
320.23392368588088
 21
-1122.3172186400639
 31
0.0
  0
LINE
  8
0
  6
DASHDOT
 62
               4
  5
1C1
 10
196.63392368588075
 20
-1136.8172186400639
 30
0.0
 11
261.63392368588075
 21
-1136.8172186400639
 31
0.0
  0
LINE
  8
0
  6
DASHDOT
 62
               4
  5
1C2
 10
70.877907460637743
 20
-1136.8172186400639
 30
0.0
 11
170.87790746063797
 21
-1136.8172186400639
 31
0.0
  0
LINE
  8
0
  6
DASHDOT
 62
               4
  5
1C3
 10
120.87790746063774
 20
-1186.8172186400643
 30
0.0
 11
120.87790746063797
 21
-1057.8172186400639
 31
0.0
  0
LINE
  8
0
  6
DASHDOT
 62
               4
  5
1C4
 10
56.377907460637743
 20
-1122.3172186400639
 30
0.0
 11
190.92191724058898
 21
-1122.3172186400639
 31
0.0
  0
LINE
  8
0
  6
DASHDOT
 62
               4
  5
1C5
 10
20.121891235394969
 20
-1122.3172186400639
 30
0.0
 11
-78.478108764605054
 21
-1122.3172186400639
 31
0.0
  0
LINE
  8
0
  6
DASHDOT
 62
               4
  5
1C6
 10
45.121891235394969
 20
-1136.8172186400639
 30
0.0
 11
-19.878108764605031
 21
-1136.8172186400639
 31
0.0
  0
LINE
  8
0
  6
DASHDOT
 62
               4
  5
1C7
 10
120.87790746063797
 20
-1036.0612024148213
 30
0.0
 11
120.87790746063797
 21
-912.46120241482106
 31
0.0
  0
LINE
  8
0
  6
DASHDOT
 62
               4
  5
1C8
 10
609.28652321630761
 20
-956.13278306827294
 30
0.0
 11
609.28652321630761
 21
-1226.6795698680994
 31
0.0
  0
LINE
  8
0
  6
DASHDOT
 62
               4
  5
1C9
 10
447.28652321630773
 20
-1064.6327830682731
 30
0.0
 11
717.78652321630784
 21
-1064.6327830682731
 31
0.0
  0
LINE
  8
0
  6
DASHDOT
 62
               4
  5
1CA
 10
677.81174799153246
 20
-1539.1322168168576
 30
0.0
 11
447.55790992287939
 21
-1539.1322168168576
 31
0.0
  0
LINE
  8
0
  6
DASHDOT
 62
               4
  5
1CB
 10
609.28652321630761
 20
-1353.1322168168576
 30
0.0
 11
609.28652321630761
 21
-1604.1322168168576
 31
0.0
  0
LINE
  8
0
  6
DASHDOT
 62
               4
  5
1CC
 10
559.28652321630761
 20
-1553.6322168168576
 30
0.0
 11
659.28652321630784
 21
-1553.6322168168576
 31
0.0
  0
LINE
  8
0
  6
DASHDOT
 62
               4
  5
1CD
 10
609.28652321630761
 20
-1255.2327830682734
 30
0.0
 11
609.28652321630761
 21
-1131.6327830682731
 31
0.0
  0
LINE
  8
0
  6
DASHDOT
 62
               4
  5
1CE
 10
409.28652321630761
 20
-1545.6322168168576
 30
0.0
 11
483.68652321630759
 21
-1545.6322168168576
 31
0.0
  0
LINE
  8
0
  6
DASHDOT
 62
               4
  5
1CF
 10
409.28652321630784
 20
-1064.6327830682726
 30
0.0
 11
542.28652321630784
 21
-1064.6327830682726
 31
0.0
  0
CIRCLE
  8
0
  6
CONTINUOUS
 62
               4
  5
1D0
 10
64.204636350973828
 20
647.49518265458744
 30
0.0
 40
13.0
  0
CIRCLE
  8
0
  6
CONTINUOUS
 62
               4
  5
1D1
 10
64.204636350973828
 20
518.80174847863566
 30
0.0
 40
13.0
  0
LINE
  8
0
  6
CONTINUOUS
 62
               4
  5
1D2
 10
-78.226474001362419
 20
-180.26902315887349
 30
0.0
 11
-72.350000000000648
 21
-183.66902315887359
 31
0.0
  0
LINE
  8
0
  6
CONTINUOUS
 62
               4
  5
1D3
 10
-55.850000000000591
 20
-183.66902315887359
 30
0.0
 11
-55.850000000000591
 21
-176.66902315887353
 31
0.0
  0
LINE
  8
0
  6
CONTINUOUS
 62
               4
  5
1D4
 10
-55.850000000000591
 20
-183.66902315887359
 30
0.0
 11
-72.350000000000648
 21
-183.66902315887359
 31
0.0
  0
LINE
  8
0
  6
CONTINUOUS
 62
               4
  5
1D5
 10
-81.177061466478278
 20
-180.26902315887349
 30
0.0
 11
-78.226474001362419
 21
-180.26902315887349
 31
0.0
  0
LINE
  8
0
  6
CONTINUOUS
 62
               4
  5
1D6
 10
-81.177061466478278
 20
-176.66902315887353
 30
0.0
 11
-81.177061466478278
 21
-180.26902315887349
 31
0.0
  0
LINE
  8
0
  6
CONTINUOUS
 62
               4
  5
1D7
 10
-55.850000000000591
 20
-176.66902315887353
 30
0.0
 11
-81.177061466478278
 21
-176.66902315887353
 31
0.0
  0
LINE
  8
0
  6
CONTINUOUS
 62
               4
  5
1D8
 10
47.522938533522137
 20
-180.26902315887349
 30
0.0
 11
62.494341278809316
 21
-180.26902315887349
 31
0.0
  0
LINE
  8
0
  6
CONTINUOUS
 62
               4
  5
1D9
 10
50.473525998637996
 20
-180.26902315887349
 30
0.0
 11
56.349999999999767
 21
-183.66902315887359
 31
0.0
  0
LINE
  8
0
  6
CONTINUOUS
 62
               4
  5
1DA
 10
59.543753813693456
 20
-176.66902315887353
 30
0.0
 11
59.543753813693456
 21
-180.26902315887349
 31
0.0
  0
LINE
  8
0
  6
CONTINUOUS
 62
               4
  5
1DB
 10
70.006854249492108
 20
-183.66902315887359
 30
0.0
 11
62.494341278809316
 21
-180.26902315887349
 31
0.0
  0
LINE
  8
0
  6
CONTINUOUS
 62
               4
  5
1DC
 10
72.849999999999767
 20
-183.66902315887359
 30
0.0
 11
56.349999999999767
 21
-183.66902315887359
 31
0.0
  0
LINE
  8
0
  6
CONTINUOUS
 62
               4
  5
1DD
 10
72.849999999999767
 20
-183.66902315887359
 30
0.0
 11
72.849999999999767
 21
-176.66902315887353
 31
0.0
  0
LINE
  8
0
  6
CONTINUOUS
 62
               4
  5
1DE
 10
72.849999999999767
 20
-176.66902315887353
 30
0.0
 11
47.522938533522137
 21
-176.66902315887353
 31
0.0
  0
LINE
  8
0
  6
CONTINUOUS
 62
               4
  5
1DF
 10
-652.47706146647783
 20
-176.66902315887353
 30
0.0
 11
-652.47706146647783
 21
-180.26902315887349
 31
0.0
  0
LINE
  8
0
  6
CONTINUOUS
 62
               4
  5
1E0
 10
-652.47706146647783
 20
-180.26902315887349
 30
0.0
 11
-637.50565872119068
 21
-180.26902315887349
 31
0.0
  0
LINE
  8
0
  6
CONTINUOUS
 62
               4
  5
1E1
 10
-649.52647400136198
 20
-180.26902315887349
 30
0.0
 11
-643.65000000000032
 21
-183.66902315887359
 31
0.0
  0
LINE
  8
0
  6
CONTINUOUS
 62
               4
  5
1E2
 10
-640.45624618630654
 20
-176.66902315887353
 30
0.0
 11
-640.45624618630654
 21
-180.26902315887349
 31
0.0
  0
LINE
  8
0
  6
CONTINUOUS
 62
               4
  5
1E3
 10
-629.99314575050789
 20
-183.66902315887359
 30
0.0
 11
-637.50565872119068
 21
-180.26902315887349
 31
0.0
  0
LINE
  8
0
  6
CONTINUOUS
 62
               4
  5
1E4
 10
-627.15000000000032
 20
-183.66902315887359
 30
0.0
 11
-643.65000000000032
 21
-183.66902315887359
 31
0.0
  0
LINE
  8
0
  6
CONTINUOUS
 62
               4
  5
1E5
 10
-627.15000000000032
 20
-183.66902315887359
 30
0.0
 11
-627.15000000000032
 21
-176.66902315887353
 31
0.0
  0
LINE
  8
0
  6
CONTINUOUS
 62
               4
  5
1E6
 10
-627.15000000000032
 20
-176.66902315887353
 30
0.0
 11
-652.47706146647783
 21
-176.66902315887353
 31
0.0
  0
LINE
  8
0
  6
CONTINUOUS
 62
               4
  5
1E7
 10
-778.22647400136248
 20
-180.26902315887349
 30
0.0
 11
-772.35000000000082
 21
-183.66902315887359
 31
0.0
  0
LINE
  8
0
  6
CONTINUOUS
 62
               4
  5
1E8
 10
-755.85000000000059
 20
-183.66902315887359
 30
0.0
 11
-755.85000000000059
 21
-176.66902315887353
 31
0.0
  0
LINE
  8
0
  6
CONTINUOUS
 62
               4
  5
1E9
 10
-755.85000000000059
 20
-183.66902315887359
 30
0.0
 11
-772.35000000000082
 21
-183.66902315887359
 31
0.0
  0
LINE
  8
0
  6
CONTINUOUS
 62
               4
  5
1EA
 10
-781.17706146647834
 20
-180.26902315887349
 30
0.0
 11
-778.22647400136248
 21
-180.26902315887349
 31
0.0
  0
LINE
  8
0
  6
CONTINUOUS
 62
               4
  5
1EB
 10
-781.17706146647834
 20
-176.66902315887353
 30
0.0
 11
-781.17706146647834
 21
-180.26902315887349
 31
0.0
  0
LINE
  8
0
  6
CONTINUOUS
 62
               4
  5
1EC
 10
-755.85000000000059
 20
-176.66902315887353
 30
0.0
 11
-781.17706146647834
 21
-176.66902315887353
 31
0.0
  0
LINE
  8
0
  6
CONTINUOUS
 62
               4
  5
1ED
 10
-751.35000000000014
 20
-130.36902315887357
 30
0.0
 11
-751.35000000000014
 21
-132.66902315887347
 31
0.0
  0
LINE
  8
0
  6
CONTINUOUS
 62
               4
  5
1EE
 10
-751.35000000000014
 20
-132.66902315887347
 30
0.0
 11
-777.35000000000014
 21
-132.66902315887347
 31
0.0
  0
LINE
  8
0
  6
CONTINUOUS
 62
               4
  5
1EF
 10
-777.35000000000014
 20
-132.66902315887347
 30
0.0
 11
-777.35000000000014
 21
-130.36902315887357
 31
0.0
  0
LINE
  8
0
  6
CONTINUOUS
 62
               4
  5
1F0
 10
-777.35000000000014
 20
-130.36902315887357
 30
0.0
 11
-751.35000000000014
 21
-130.36902315887357
 31
0.0
  0
LINE
  8
0
  6
CONTINUOUS
 62
               4
  5
1F1
 10
-758.35000000000036
 20
-120.36902315887357
 30
0.0
 11
-758.35000000000036
 21
-111.66902315887336
 31
0.0
  0
LINE
  8
0
  6
CONTINUOUS
 62
               4
  5
1F2
 10
-770.35000000000036
 20
-111.66902315887336
 30
0.0
 11
-770.35000000000036
 21
-120.36902315887357
 31
0.0
  0
LINE
  8
0
  6
CONTINUOUS
 62
               4
  5
1F3
 10
-770.35000000000036
 20
-111.66902315887336
 30
0.0
 11
-758.35000000000036
 21
-111.66902315887336
 31
0.0
  0
LINE
  8
0
  6
CONTINUOUS
 62
               4
  5
1F4
 10
-648.65000000000032
 20
-130.36902315887357
 30
0.0
 11
-648.65000000000032
 21
-132.66902315887347
 31
0.0
  0
LINE
  8
0
  6
CONTINUOUS
 62
               4
  5
1F5
 10
-648.65000000000032
 20
-132.66902315887347
 30
0.0
 11
-622.65000000000055
 21
-132.66902315887347
 31
0.0
  0
LINE
  8
0
  6
CONTINUOUS
 62
               4
  5
1F6
 10
-622.65000000000055
 20
-132.66902315887347
 30
0.0
 11
-622.65000000000055
 21
-130.36902315887357
 31
0.0
  0
LINE
  8
0
  6
CONTINUOUS
 62
               4
  5
1F7
 10
-622.65000000000055
 20
-130.36902315887357
 30
0.0
 11
-648.65000000000032
 21
-130.36902315887357
 31
0.0
  0
LINE
  8
0
  6
CONTINUOUS
 62
               4
  5
1F8
 10
-641.65000000000032
 20
-120.36902315887357
 30
0.0
 11
-641.65000000000032
 21
-111.66902315887336
 31
0.0
  0
LINE
  8
0
  6
CONTINUOUS
 62
               4
  5
1F9
 10
-629.65000000000009
 20
-111.66902315887336
 30
0.0
 11
-629.65000000000009
 21
-120.36902315887357
 31
0.0
  0
LINE
  8
0
  6
CONTINUOUS
 62
               4
  5
1FA
 10
-629.65000000000009
 20
-111.66902315887336
 30
0.0
 11
-641.65000000000032
 21
-111.66902315887336
 31
0.0
  0
LINE
  8
0
  6
CONTINUOUS
 62
               4
  5
1FB
 10
747.52293853352194
 20
-176.66902315887347
 30
0.0
 11
747.52293853352194
 21
-180.26902315887344
 31
0.0
  0
LINE
  8
0
  6
CONTINUOUS
 62
               4
  5
1FC
 10
747.52293853352194
 20
-180.26902315887344
 30
0.0
 11
762.49434127880932
 21
-180.26902315887344
 31
0.0
  0
LINE
  8
0
  6
CONTINUOUS
 62
               4
  5
1FD
 10
750.4735259986378
 20
-180.26902315887344
 30
0.0
 11
756.34999999999968
 21
-183.66902315887347
 31
0.0
  0
LINE
  8
0
  6
CONTINUOUS
 62
               4
  5
1FE
 10
759.54375381369346
 20
-176.66902315887347
 30
0.0
 11
759.54375381369346
 21
-180.26902315887344
 31
0.0
  0
LINE
  8
0
  6
CONTINUOUS
 62
               4
  5
1FF
 10
770.00685424949211
 20
-183.66902315887347
 30
0.0
 11
762.49434127880932
 21
-180.26902315887344
 31
0.0
  0
LINE
  8
0
  6
CONTINUOUS
 62
               4
  5
200
 10
772.84999999999968
 20
-183.66902315887347
 30
0.0
 11
756.34999999999968
 21
-183.66902315887347
 31
0.0
  0
LINE
  8
0
  6
CONTINUOUS
 62
               4
  5
201
 10
772.84999999999968
 20
-183.66902315887347
 30
0.0
 11
772.84999999999968
 21
-176.66902315887347
 31
0.0
  0
LINE
  8
0
  6
CONTINUOUS
 62
               4
  5
202
 10
772.84999999999968
 20
-176.66902315887347
 30
0.0
 11
747.52293853352194
 21
-176.66902315887347
 31
0.0
  0
LINE
  8
0
  6
CONTINUOUS
 62
               4
  5
203
 10
648.64999999999986
 20
-132.66902315887233
 30
0.0
 11
648.64999999999986
 21
-130.36902315887244
 31
0.0
  0
LINE
  8
0
  6
CONTINUOUS
 62
               4
  5
204
 10
648.64999999999986
 20
-130.36902315887244
 30
0.0
 11
622.64999999999986
 21
-130.36902315887244
 31
0.0
  0
LINE
  8
0
  6
CONTINUOUS
 62
               4
  5
205
 10
622.64999999999986
 20
-130.36902315887244
 30
0.0
 11
622.64999999999986
 21
-132.66902315887233
 31
0.0
  0
LINE
  8
0
  6
CONTINUOUS
 62
               4
  5
206
 10
622.64999999999986
 20
-132.66902315887233
 30
0.0
 11
648.64999999999986
 21
-132.66902315887233
 31
0.0
  0
LINE
  8
0
  6
CONTINUOUS
 62
               4
  5
207
 10
751.35000000000014
 20
-130.36902315887329
 30
0.0
 11
751.35000000000014
 21
-132.66902315887319
 31
0.0
  0
LINE
  8
0
  6
CONTINUOUS
 62
               4
  5
208
 10
751.35000000000014
 20
-132.66902315887319
 30
0.0
 11
777.35000000000014
 21
-132.66902315887319
 31
0.0
  0
LINE
  8
0
  6
CONTINUOUS
 62
               4
  5
209
 10
777.35000000000014
 20
-132.66902315887319
 30
0.0
 11
777.35000000000014
 21
-130.36902315887329
 31
0.0
  0
LINE
  8
0
  6
CONTINUOUS
 62
               4
  5
20A
 10
777.35000000000014
 20
-130.36902315887329
 30
0.0
 11
751.35000000000014
 21
-130.36902315887329
 31
0.0
  0
LINE
  8
0
  6
CONTINUOUS
 62
               4
  5
20B
 10
629.64999999999964
 20
-120.36902315887244
 30
0.0
 11
629.64999999999964
 21
-111.66902315887268
 31
0.0
  0
LINE
  8
0
  6
CONTINUOUS
 62
               4
  5
20C
 10
641.64999999999986
 20
-111.66902315887268
 30
0.0
 11
641.64999999999986
 21
-120.36902315887244
 31
0.0
  0
LINE
  8
0
  6
CONTINUOUS
 62
               4
  5
20D
 10
641.64999999999986
 20
-111.66902315887268
 30
0.0
 11
629.64999999999964
 21
-111.66902315887268
 31
0.0
  0
LINE
  8
0
  6
CONTINUOUS
 62
               4
  5
20E
 10
758.35000000000014
 20
-120.36902315887329
 30
0.0
 11
758.35000000000014
 21
-111.66902315887324
 31
0.0
  0
LINE
  8
0
  6
CONTINUOUS
 62
               4
  5
20F
 10
770.34999999999991
 20
-111.66902315887324
 30
0.0
 11
770.34999999999991
 21
-120.36902315887329
 31
0.0
  0
LINE
  8
0
  6
CONTINUOUS
 62
               4
  5
210
 10
770.34999999999991
 20
-111.66902315887324
 30
0.0
 11
758.35000000000014
 21
-111.66902315887324
 31
0.0
  0
ARC
  8
0
  6
CONTINUOUS
 62
               4
  5
211
 10
674.21603418803352
 20
-12.669023158873529
 30
0.0
 40
17.566965811965957
 50
0.0
 51
36.851448659223706
  0
LINE
  8
0
  6
CONTINUOUS
 62
               4
  5
212
 10
711.72699999999986
 20
2.8666305939791528
 30
0.0
 11
688.27299999999946
 21
2.8666305939791528
 31
0.0
  0
ARC
  8
0
  6
CONTINUOUS
 62
               4
  5
213
 10
725.78396581196534
 20
-12.669023158873529
 30
0.0
 40
17.566965811965957
 50
143.14855134074139
 51
179.99999999996521
  0
LINE
  8
0
  6
CONTINUOUS
 62
               4
  5
214
 10
688.27299999999946
 20
-2.1333694060208472
 30
0.0
 11
688.27299999999946
 21
2.8666305939791528
 31
0.0
  0
LINE
  8
0
  6
CONTINUOUS
 62
               4
  5
215
 10
711.72699999999986
 20
-2.1333694060208472
 30
0.0
 11
711.72699999999986
 21
2.8666305939791528
 31
0.0
  0
LINE
  8
0
  6
CONTINUOUS
 62
               4
  5
216
 10
688.27299999999946
 20
2.8666305939791528
 30
0.0
 11
693.99999999999955
 21
-2.1333694060208472
 31
0.0
  0
LINE
  8
0
  6
CONTINUOUS
 62
               4
  5
217
 10
705.99999999999932
 20
-2.1333694060208472
 30
0.0
 11
711.72699999999986
 21
2.8666305939791528
 31
0.0
  0
LINE
  8
0
  6
CONTINUOUS
 62
               4
  5
218
 10
693.99999999999955
 20
-2.1333694060208472
 30
0.0
 11
705.99999999999932
 21
-2.1333694060208472
 31
0.0
  0
LINE
  8
0
  6
CONTINUOUS
 62
               4
  5
219
 10
705.99999999999932
 20
-127.66902315887302
 30
0.0
 11
705.99999999999932
 21
-2.1333694060208472
 31
0.0
  0
LINE
  8
0
  6
CONTINUOUS
 62
               4
  5
21A
 10
693.99999999999955
 20
-2.1333694060208472
 30
0.0
 11
693.99999999999955
 21
-127.66902315887302
 31
0.0
  0
ARC
  8
0
  6
CONTINUOUS
 62
               4
  5
21B
 10
686.78299999999945
 20
-127.66902315887262
 30
0.0
 40
5.0
 50
269.99999999994731
 51
359.99999999993042
  0
ARC
  8
0
  6
CONTINUOUS
 62
               4
  5
21C
 10
713.21699999999942
 20
-127.66902315887262
 30
0.0
 40
5.0
 50
179.99999999996518
 51
269.99999999994731
  0
LINE
  8
0
  6
CONTINUOUS
 62
               4
  5
21D
 10
691.78299999999945
 20
-12.669023158873529
 30
0.0
 11
691.78299999999945
 21
-127.66902315887262
 31
0.0
  0
LINE
  8
0
  6
CONTINUOUS
 62
               4
  5
21E
 10
708.21699999999942
 20
-12.669023158873529
 30
0.0
 11
708.21699999999942
 21
-127.66902315887262
 31
0.0
  0
ARC
  8
0
  6
CONTINUOUS
 62
               4
  5
21F
 10
688.99999999999977
 20
-127.66902315887279
 30
0.0
 40
5.0
 50
269.99999999994731
 51
359.99999999993042
  0
ARC
  8
0
  6
CONTINUOUS
 62
               4
  5
220
 10
710.99999999999955
 20
-127.66902315887302
 30
0.0
 40
5.0
 50
179.99999999996518
 51
269.99999999994731
  0
LINE
  8
0
  6
CONTINUOUS
 62
               4
  5
221
 10
621.77352599863752
 20
-180.26902315887327
 30
0.0
 11
627.64999999999918
 21
-183.66902315887324
 31
0.0
  0
LINE
  8
0
  6
CONTINUOUS
 62
               4
  5
222
 10
618.82293853352166
 20
-180.26902315887327
 30
0.0
 11
621.77352599863752
 21
-180.26902315887327
 31
0.0
  0
LINE
  8
0
  6
CONTINUOUS
 62
               4
  5
223
 10
618.82293853352166
 20
-176.66902315887324
 30
0.0
 11
618.82293853352166
 21
-180.26902315887327
 31
0.0
  0
LINE
  8
0
  6
CONTINUOUS
 62
               4
  5
224
 10
644.14999999999941
 20
-183.66902315887324
 30
0.0
 11
644.14999999999941
 21
-176.66902315887324
 31
0.0
  0
LINE
  8
0
  6
CONTINUOUS
 62
               4
  5
225
 10
644.14999999999941
 20
-183.66902315887324
 30
0.0
 11
627.64999999999918
 21
-183.66902315887324
 31
0.0
  0
LINE
  8
0
  6
CONTINUOUS
 62
               4
  5
226
 10
644.14999999999941
 20
-176.66902315887324
 30
0.0
 11
618.82293853352166
 21
-176.66902315887324
 31
0.0
  0
LINE
  8
0
  6
CONTINUOUS
 62
               4
  5
227
 10
76.999999999999943
 20
-2.1333694060208472
 30
0.0
 11
71.999999999999943
 21
2.8666305939791528
 31
0.0
  0
ARC
  8
0
  6
CONTINUOUS
 62
               4
  5
228
 10
54.499999999999943
 20
-12.669023158873586
 30
0.0
 40
19.999999999999996
 50
359.99999999993042
 51
391.788330616976
  0
LINE
  8
0
  6
CONTINUOUS
 62
               4
  5
229
 10
71.500000000000398
 20
-2.1333694060208472
 30
0.0
 11
71.500000000000398
 21
2.8666305939798349
 31
0.0
  0
LINE
  8
0
  6
CONTINUOUS
 62
               4
  5
22A
 10
71.999999999999943
 20
2.8666305939791528
 30
0.0
 11
71.500000000000398
 21
2.8666305939791528
 31
0.0
  0
LINE
  8
0
  6
CONTINUOUS
 62
               4
  5
22B
 10
76.749999999999886
 20
-2.3833694060207335
 30
0.0
 11
71.500000000000398
 21
2.8666305939791528
 31
0.0
  0
LINE
  8
0
  6
CONTINUOUS
 62
               4
  5
22C
 10
76.749999999999886
 20
-2.3833694060207335
 30
0.0
 11
76.999999999999943
 21
-2.1333694060208472
 31
0.0
  0
LINE
  8
0
  6
CONTINUOUS
 62
               4
  5
22D
 10
74.499999999999943
 20
-12.669023158873586
 30
0.0
 11
74.499999999999943
 21
-120.88669085054323
 31
0.0
  0
LINE
  8
0
  6
CONTINUOUS
 62
               4
  5
22E
 10
76.749999999999886
 20
-2.3833694060207335
 30
0.0
 11
76.749999999999886
 21
-127.66902315887262
 31
0.0
  0
LINE
  8
0
  6
CONTINUOUS
 62
               4
  5
22F
 10
76.999999999999943
 20
-2.1333694060208472
 30
0.0
 11
76.999999999999943
 21
-127.66902315887359
 31
0.0
  0
LINE
  8
0
  6
CONTINUOUS
 62
               4
  5
230
 10
51.349999999999682
 20
-132.66902315887262
 30
0.0
 11
51.349999999999682
 21
-130.36902315887272
 31
0.0
  0
LINE
  8
0
  6
CONTINUOUS
 62
               4
  5
231
 10
51.349999999999682
 20
-130.36902315887272
 30
0.0
 11
77.349999999999625
 21
-130.36902315887272
 31
0.0
  0
LINE
  8
0
  6
CONTINUOUS
 62
               4
  5
232
 10
77.349999999999625
 20
-130.36902315887272
 30
0.0
 11
77.349999999999625
 21
-132.66902315887262
 31
0.0
  0
LINE
  8
0
  6
CONTINUOUS
 62
               4
  5
233
 10
77.349999999999625
 20
-132.66902315887262
 30
0.0
 11
51.349999999999682
 21
-132.66902315887262
 31
0.0
  0
LINE
  8
0
  6
CONTINUOUS
 62
               4
  5
234
 10
-51.350000000000563
 20
-130.36902315887357
 30
0.0
 11
-51.350000000000563
 21
-132.66902315887347
 31
0.0
  0
LINE
  8
0
  6
CONTINUOUS
 62
               4
  5
235
 10
-51.350000000000563
 20
-132.66902315887347
 30
0.0
 11
-77.350000000000648
 21
-132.66902315887347
 31
0.0
  0
LINE
  8
0
  6
CONTINUOUS
 62
               4
  5
236
 10
-77.350000000000648
 20
-132.66902315887347
 30
0.0
 11
-77.350000000000648
 21
-130.36902315887357
 31
0.0
  0
LINE
  8
0
  6
CONTINUOUS
 62
               4
  5
237
 10
-77.350000000000648
 20
-130.36902315887357
 30
0.0
 11
-51.350000000000563
 21
-130.36902315887357
 31
0.0
  0
LINE
  8
0
  6
CONTINUOUS
 62
               4
  5
238
 10
70.349999999999739
 20
-120.36902315887272
 30
0.0
 11
70.349999999999739
 21
-111.66902315887296
 31
0.0
  0
LINE
  8
0
  6
CONTINUOUS
 62
               4
  5
239
 10
58.349999999999852
 20
-111.66902315887296
 30
0.0
 11
58.349999999999852
 21
-120.36902315887272
 31
0.0
  0
LINE
  8
0
  6
CONTINUOUS
 62
               4
  5
23A
 10
58.349999999999852
 20
-111.66902315887296
 30
0.0
 11
70.349999999999739
 21
-111.66902315887296
 31
0.0
  0
LINE
  8
0
  6
CONTINUOUS
 62
               4
  5
23B
 10
-58.350000000000591
 20
-120.36902315887357
 30
0.0
 11
-58.350000000000591
 21
-111.66902315887353
 31
0.0
  0
LINE
  8
0
  6
CONTINUOUS
 62
               4
  5
23C
 10
-70.350000000000477
 20
-111.66902315887353
 30
0.0
 11
-70.350000000000477
 21
-120.36902315887357
 31
0.0
  0
LINE
  8
0
  6
CONTINUOUS
 62
               4
  5
23D
 10
-70.350000000000477
 20
-111.66902315887353
 30
0.0
 11
-58.350000000000591
 21
-111.66902315887353
 31
0.0
  0
ARC
  8
0
  6
CONTINUOUS
 62
               4
  5
23E
 10
81.999999999999091
 20
-127.66902315887245
 30
0.0
 40
5.0
 50
179.99999999996518
 51
269.99999999994782
  0
ARC
  8
0
  6
CONTINUOUS
 62
               4
  5
23F
 10
81.749999999999034
 20
-127.66902315887148
 30
0.0
 40
5.0
 50
179.99999999996518
 51
269.99999999994782
  0
ARC
  8
0
  6
CONTINUOUS
 62
               4
  5
240
 10
79.499999999999091
 20
-127.66902315887148
 30
0.0
 40
5.0
 50
179.99999999996518
 51
212.68363884623361
  0
ARC
  8
0
  6
CONTINUOUS
 62
               4
  5
241
 10
79.499999999999091
 20
-127.66902315887148
 30
0.0
 40
5.0
 50
244.5324398574889
 51
269.99999999994782
  0
CIRCLE
  8
0
  6
CONTINUOUS
 62
               4
  5
242
 10
-64.48879782497778
 20
518.80174847863566
 30
0.0
 40
13.0
  0
CIRCLE
  8
0
  6
CONTINUOUS
 62
               4
  5
243
 10
-64.48879782497778
 20
647.49518265458744
 30
0.0
 40
13.0
  0
LINE
  8
0
  6
CONTINUOUS
 62
               4
  5
244
 10
47.522938533522137
 20
-176.66902315887353
 30
0.0
 11
47.522938533522137
 21
-180.26902315887349
 31
0.0
  0
POINT
  8
0
  6
CONTINUOUS
 62
               4
  5
245
 10
-247.03776905046891
 20
-1077.8172186400639
 30
0.0
  0
POINT
  8
0
  6
CONTINUOUS
 62
               4
  5
246
 10
-537.23776905046884
 20
-1077.8172186400639
 30
0.0
  0
POINT
  8
0
  6
CONTINUOUS
 62
               4
  5
247
 10
-349.58372644623546
 20
-969.74933457102895
 30
0.0
  0
POINT
  8
0
  6
CONTINUOUS
 62
               4
  5
248
 10
242.83392368588079
 20
-1077.8172186400639
 30
0.0
  0
POINT
  8
0
  6
CONTINUOUS
 62
               4
  5
249
 10
-1.0781087646050764
 20
-1077.8172186400639
 30
0.0
  0
POINT
  8
0
  6
CONTINUOUS
 62
               4
  5
24A
 10
165.37790746063797
 20
-989.86120241482115
 30
0.0
  0
LINE
  8
0
  6
CONTINUOUS
 62
               4
  5
24B
 10
686.28652321630761
 20
-1469.5965630640048
 30
0.0
 11
681.28652321630761
 21
-1464.5965630640048
 31
0.0
  0
ARC
  8
0
  6
CONTINUOUS
 62
               4
  5
24C
 10
663.78652321630761
 20
-1480.1322168168576
 30
0.0
 40
19.999999999999996
 50
0.0
 51
31.78833061703342
  0
LINE
  8
0
  6
CONTINUOUS
 62
               4
  5
24D
 10
680.78652321630807
 20
-1469.5965630640048
 30
0.0
 11
680.78652321630807
 21
-1464.5965630640044
 31
0.0
  0
LINE
  8
0
  6
CONTINUOUS
 62
               4
  5
24E
 10
681.28652321630761
 20
-1464.5965630640048
 30
0.0
 11
680.78652321630807
 21
-1464.5965630640048
 31
0.0
  0
LINE
  8
0
  6
CONTINUOUS
 62
               4
  5
24F
 10
686.03652321630784
 20
-1469.8465630640048
 30
0.0
 11
680.78652321630807
 21
-1464.5965630640048
 31
0.0
  0
LINE
  8
0
  6
CONTINUOUS
 62
               4
  5
250
 10
686.03652321630784
 20
-1469.8465630640048
 30
0.0
 11
686.28652321630761
 21
-1469.5965630640048
 31
0.0
  0
LINE
  8
0
  6
CONTINUOUS
 62
               4
  5
251
 10
686.28652321630761
 20
-1469.5965630640048
 30
0.0
 11
686.28652321630761
 21
-1600.2852404139744
 31
0.0
  0
LINE
  8
0
  6
CONTINUOUS
 62
               4
  5
252
 10
686.03652321630784
 20
-1469.8465630640048
 30
0.0
 11
686.03652321630784
 21
-1599.9998833068389
 31
0.0
  0
LINE
  8
0
  6
CONTINUOUS
 62
               4
  5
253
 10
683.78652321630761
 20
-1479.9791932197404
 30
0.0
 11
683.78652321630761
 21
-1599.1322168168576
 31
0.0
  0
POINT
  8
0
  6
CONTINUOUS
 62
               4
  5
254
 10
653.78652321630761
 20
-1209.0327830682731
 30
0.0
  0
POINT
  8
0
  6
CONTINUOUS
 62
               4
  5
255
 10
464.88652321630764
 20
-1494.6322168168576
 30
0.0
  0
POINT
  8
0
  6
CONTINUOUS
 62
               4
  5
256
 10
464.88652321630775
 20
-1109.1327830682726
 30
0.0
  0
LINE
  8
0
  6
DASHED2
 62
               4
  5
257
 10
-758.69610870481006
 20
29.330976841126471
 30
0.0
 11
-643.44728365463197
 21
29.330976841126471
 31
0.0
  0
ARC
  8
0
  6
DASHED2
 62
               4
  5
258
 10
57.434899773614006
 20
563.36049246028335
 30
0.0
 40
20.0
 50
208.65202615923437
 51
217.35556117860057
  0
LINE
  8
0
  6
DASHED2
 62
               4
  5
259
 10
-648.50000000000023
 20
-700.66902375016855
 30
0.0
 11
-648.50000000000023
 21
-307.75506441103914
 31
0.0
  0
LINE
  8
0
  6
DASHED2
 62
               4
  5
25A
 10
-751.50000000000045
 20
-700.66902375016855
 30
0.0
 11
-751.50000000000045
 21
-307.75506441103914
 31
0.0
  0
LINE
  8
0
  6
DASHED2
 62
               4
  5
25B
 10
-51.500000000000227
 20
-700.66902375016855
 30
0.0
 11
-51.500000000000227
 21
-307.75506441103914
 31
0.0
  0
LINE
  8
0
  6
DASHED2
 62
               4
  5
25C
 10
51.499999999999886
 20
-700.66902375016855
 30
0.0
 11
51.499999999999886
 21
-307.75506441103914
 31
0.0
  0
LINE
  8
0
  6
DASHED2
 62
               4
  5
25D
 10
751.49999999999977
 20
-700.66902375016821
 30
0.0
 11
751.49999999999977
 21
-307.7550644110388
 31
0.0
  0
LINE
  8
0
  6
DASHED2
 62
               4
  5
25E
 10
648.49999999999955
 20
-700.66902375016821
 30
0.0
 11
648.49999999999955
 21
-307.7550644110388
 31
0.0
  0
LINE
  8
0
  6
DASHED2
 62
               4
  5
25F
 10
39.857919262998053
 20
561.14846556661143
 30
0.0
 11
39.857919262998053
 21
553.81833854768877
 31
0.0
  0
LINE
  8
0
  6
DASHED2
 62
               4
  5
260
 10
-57.000000000000114
 20
29.330976841126471
 30
0.0
 11
56.999999999999943
 21
29.330976841126471
 31
0.0
  0
LINE
  8
0
  6
DASHED2
 62
               4
  5
261
 10
642.99999999999977
 20
29.330976841126471
 30
0.0
 11
757.0
 21
29.330976841126471
 31
0.0
  0
LINE
  8
0
  6
DASHED2
 62
               4
  5
262
 10
552.28652321630784
 20
-1438.1322168168576
 30
0.0
 11
666.28652321630761
 21
-1438.1322168168576
 31
0.0
  0
CIRCLE
  8
0
  6
CONTINUOUS
 62
               3
  5
263
 10
-0.1420807370019759
 20
583.14846556661098
 30
0.0
 40
75.0
  0
CIRCLE
  8
0
  6
CONTINUOUS
 62
               3
  5
264
 10
-0.1420807370019759
 20
583.14846556661098
 30
0.0
 40
64.0
  0
CIRCLE
  8
0
  6
CONTINUOUS
 62
               3
  5
265
 10
-0.1420807370019759
 20
583.14846556661098
 30
0.0
 40
52.5
  0
LINE
  8
0
  6
CONTINUOUS
 62
               3
  5
266
 10
19.857919262998024
 20
496.93796736598586
 30
0.0
 11
19.857919262998024
 21
510.86430409260549
 31
0.0
  0
LINE
  8
0
  6
CONTINUOUS
 62
               3
  5
267
 10
-20.142080737001976
 20
510.86430409260549
 30
0.0
 11
-20.142080737001976
 21
496.93796736598586
 31
0.0
  0
ARC
  8
0
  6
CONTINUOUS
 62
               3
  5
268
 10
-0.1420807370019759
 20
583.14846556661098
 30
0.0
 40
88.5
 50
256.93897588514983
 51
283.06102411474581
  0
LINE
  8
0
  6
CONTINUOUS
 62
               3
  5
269
 10
-86.352578937626873
 20
563.14846556661098
 30
0.0
 11
-72.426242211007008
 21
563.14846556661098
 31
0.0
  0
LINE
  8
0
  6
CONTINUOUS
 62
               3
  5
26A
 10
-72.426242211007008
 20
603.14846556661098
 30
0.0
 11
-86.352578937626873
 21
603.14846556661098
 31
0.0
  0
ARC
  8
0
  6
CONTINUOUS
 62
               3
  5
26B
 10
-0.1420807370019759
 20
583.14846556661098
 30
0.0
 40
88.5
 50
166.9389758851672
 51
193.06102411476326
  0
LINE
  8
0
  6
CONTINUOUS
 62
               3
  5
26C
 10
-20.142080737001976
 20
669.35896376723565
 30
0.0
 11
-20.142080737001976
 21
655.43262704061533
 31
0.0
  0
LINE
  8
0
  6
CONTINUOUS
 62
               3
  5
26D
 10
19.857919262998024
 20
655.43262704061533
 30
0.0
 11
19.857919262998024
 21
669.35896376723565
 31
0.0
  0
ARC
  8
0
  6
CONTINUOUS
 62
               3
  5
26E
 10
-0.1420807370019759
 20
583.14846556661098
 30
0.0
 40
88.5
 50
76.938975885184604
 51
103.06102411478065
  0
LINE
  8
0
  6
CONTINUOUS
 62
               3
  5
26F
 10
86.068417463623632
 20
603.14846556661098
 30
0.0
 11
72.142080737002829
 21
603.14846556661098
 31
0.0
  0
LINE
  8
0
  6
CONTINUOUS
 62
               3
  5
270
 10
72.142080737002829
 20
563.14846556661098
 30
0.0
 11
86.068417463623632
 21
563.14846556661098
 31
0.0
  0
ARC
  8
0
  6
CONTINUOUS
 62
               3
  5
271
 10
-0.1420807370019759
 20
583.14846556661098
 30
0.0
 40
88.5
 50
346.93897588513232
 51
373.06102411472841
  0
ARC
  8
0
  6
CONTINUOUS
 62
               3
  5
272
 10
-0.1420807370019759
 20
583.14846556661098
 30
0.0
 40
77.5
 50
284.95524831658821
 51
345.04475168328997
  0
ARC
  8
0
  6
CONTINUOUS
 62
               3
  5
273
 10
-0.1420807370019759
 20
583.14846556661098
 30
0.0
 40
77.5
 50
14.955248316640434
 51
75.04475168334217
  0
ARC
  8
0
  6
CONTINUOUS
 62
               3
  5
274
 10
64.204636350973828
 20
518.80174847863566
 30
0.0
 40
17.5
 50
277.81643360641743
 51
352.18356639346098
  0
ARC
  8
0
  6
CONTINUOUS
 62
               3
  5
275
 10
64.204636350973828
 20
647.49518265458744
 30
0.0
 40
17.5
 50
7.8164336064694728
 51
82.183566393512976
  0
ARC
  8
0
  6
CONTINUOUS
 62
               3
  5
276
 10
-64.488797824977496
 20
647.49518265458744
 30
0.0
 40
17.5
 50
97.816433606452208
 51
172.1835663934956
  0
ARC
  8
0
  6
CONTINUOUS
 62
               3
  5
277
 10
-64.488797824977496
 20
518.80174847863566
 30
0.0
 40
17.5
 50
187.81643360643486
 51
262.1835663934782
  0
LINE
  8
0
  6
CONTINUOUS
 62
               3
  5
278
 10
-66.868793164369094
 20
664.83258794443589
 30
0.0
 11
-12.382056768158606
 21
672.31226420011933
 31
0.0
  0
ARC
  8
0
  6
CONTINUOUS
 62
               3
  5
279
 10
-0.1420807370019759
 20
583.14846556661098
 30
0.0
 40
90.0
 50
82.183566393512947
 51
97.816433606452236
  0
LINE
  8
0
  6
CONTINUOUS
 62
               3
  5
27A
 10
66.584631690365427
 20
664.83258794443589
 30
0.0
 11
12.097895294154426
 21
672.31226420011933
 31
0.0
  0
LINE
  8
0
  6
CONTINUOUS
 62
               3
  5
27B
 10
81.542041640822731
 20
649.87517799397881
 30
0.0
 11
89.02171789650572
 21
595.38844159776784
 31
0.0
  0
ARC
  8
0
  6
CONTINUOUS
 62
               3
  5
27C
 10
-0.1420807370019759
 20
583.14846556661098
 30
0.0
 40
90.0
 50
352.18356639346075
 51
367.81643360639998
  0
LINE
  8
0
  6
CONTINUOUS
 62
               3
  5
27D
 10
81.542041640822731
 20
516.42175313924383
 30
0.0
 11
89.02171789650572
 21
570.90848953545458
 31
0.0
  0
LINE
  8
0
  6
CONTINUOUS
 62
               3
  5
27E
 10
-140.14208073700198
 20
638.14846556661098
 30
0.0
 11
-139.47052461103758
 21
638.14846556661098
 31
0.0
  0
LINE
  8
0
  6
CONTINUOUS
 62
               3
  5
27F
 10
-137.14208073700169
 20
640.47690944064641
 30
0.0
 11
-139.47052461103758
 21
638.14846556661098
 31
0.0
  0
LINE
  8
0
  6
CONTINUOUS
 62
               3
  5
280
 10
-140.14208073700198
 20
528.14846556661098
 30
0.0
 11
-139.47052461103758
 21
528.14846556661098
 31
0.0
  0
LINE
  8
0
  6
CONTINUOUS
 62
               3
  5
281
 10
-137.14208073700169
 20
525.8200216925751
 30
0.0
 11
-139.47052461103758
 21
528.14846556661098
 31
0.0
  0
LINE
  8
0
  6
CONTINUOUS
 62
               3
  5
282
 10
-139.47052461103758
 20
528.14846556661098
 30
0.0
 11
-139.47052461103758
 21
638.14846556661098
 31
0.0
  0
LINE
  8
0
  6
CONTINUOUS
 62
               3
  5
283
 10
-137.14208073700169
 20
640.47690944064641
 30
0.0
 11
-137.14208073700169
 21
525.8200216925751
 31
0.0
  0
LINE
  8
0
  6
CONTINUOUS
 62
               3
  5
284
 10
-145.14208073700198
 20
528.3200216925751
 30
0.0
 11
-145.14208073700198
 21
637.97690944064641
 31
0.0
  0
LINE
  8
0
  6
CONTINUOUS
 62
               3
  5
285
 10
-140.14208073700198
 20
640.47690944064641
 30
0.0
 11
-140.14208073700198
 21
525.8200216925751
 31
0.0
  0
LINE
  8
0
  6
CONTINUOUS
 62
               3
  5
286
 10
-140.14208073700198
 20
525.8200216925751
 30
0.0
 11
-142.64208073700198
 21
525.8200216925751
 31
0.0
  0
LINE
  8
0
  6
CONTINUOUS
 62
               3
  5
287
 10
-140.14208073700198
 20
640.47690944064641
 30
0.0
 11
-142.64208073700198
 21
640.47690944064641
 31
0.0
  0
ARC
  8
0
  6
CONTINUOUS
 62
               3
  5
288
 10
-142.64208073700198
 20
637.97690944064641
 30
0.0
 40
2.5
 50
89.999999999982535
 51
179.99999999996572
  0
ARC
  8
0
  6
CONTINUOUS
 62
               3
  5
289
 10
-142.64208073700198
 20
528.3200216925751
 30
0.0
 40
2.5
 50
179.99999999996572
 51
269.99999999994793
  0
ARC
  8
0
  6
CONTINUOUS
 62
               3
  5
28A
 10
-0.1420807370019759
 20
583.14846556661098
 30
0.0
 40
77.5
 50
194.95524831660566
 51
255.04475168330734
  0
ARC
  8
0
  6
CONTINUOUS
 62
               3
  5
28B
 10
-0.1420807370019759
 20
583.14846556661098
 30
0.0
 40
77.5
 50
104.95524831662307
 51
165.04475168332479
  0
LINE
  8
0
  6
CONTINUOUS
 62
               3
  5
28C
 10
-0.1420807370019759
 20
561.14846556661143
 30
0.0
 11
47.526042783858799
 21
561.14846556661143
 31
0.0
  0
LINE
  8
0
  6
CONTINUOUS
 62
               3
  5
28D
 10
-27.39807098740593
 20
538.27797420012564
 30
0.0
 11
-0.1420807370019759
 21
561.14846556661143
 31
0.0
  0
LINE
  8
0
  6
CONTINUOUS
 62
               3
  5
28E
 10
-66.868793164369094
 20
501.4643431887863
 30
0.0
 11
-12.382056768158606
 21
493.98466693310263
 31
0.0
  0
LINE
  8
0
  6
CONTINUOUS
 62
               3
  5
28F
 10
66.584631690365427
 20
501.4643431887863
 30
0.0
 11
12.097895294154483
 21
493.98466693310309
 31
0.0
  0
ARC
  8
0
  6
CONTINUOUS
 62
               3
  5
290
 10
-0.1420807370019759
 20
583.14846556661098
 30
0.0
 40
90.0
 50
262.1835663934782
 51
277.81643360641743
  0
LINE
  8
0
  6
CONTINUOUS
 62
               3
  5
291
 10
-82.856118483627881
 20
523.92431411808741
 30
0.0
 11
-137.14208073700169
 21
525.8200216925751
 31
0.0
  0
LINE
  8
0
  6
CONTINUOUS
 62
               3
  5
292
 10
-82.856118483627995
 20
642.3726170151341
 30
0.0
 11
-137.14208073700169
 21
640.47690944064641
 31
0.0
  0
LINE
  8
0
  6
CONTINUOUS
 62
               3
  5
293
 10
74.999999999999829
 20
-176.66902315887336
 30
0.0
 11
74.999999999999801
 21
-277.06596503916433
 31
0.0
  0
LINE
  8
0
  6
CONTINUOUS
 62
               3
  5
294
 10
56.499999999999829
 20
-700.66902315887353
 30
0.0
 11
-56.500000000000199
 21
-700.66902315887353
 31
0.0
  0
LINE
  8
0
  6
CONTINUOUS
 62
               3
  5
295
 10
56.499999999999829
 20
-399.16902315887376
 30
0.0
 11
-56.500000000000199
 21
-399.16902315887342
 31
0.0
  0
LINE
  8
0
  6
CONTINUOUS
 62
               3
  5
296
 10
89.999999999999829
 20
-157.16902315887359
 30
0.0
 11
90.000000000000398
 21
-176.66902315887336
 31
0.0
  0
LINE
  8
0
  6
CONTINUOUS
 62
               3
  5
297
 10
-90.000000000000085
 20
-157.16902315887359
 30
0.0
 11
-90.000000000000199
 21
-173.66902315887359
 31
0.0
  0
LINE
  8
0
  6
CONTINUOUS
 62
               3
  5
298
 10
-55.000000000000171
 20
-158.66902315887359
 30
0.0
 11
54.999999999999844
 21
-158.66902315887359
 31
0.0
  0
LINE
  8
0
  6
CONTINUOUS
 62
               3
  5
299
 10
56.499999999999829
 20
-399.16902315887376
 30
0.0
 11
56.499999999999829
 21
-700.66902315887353
 31
0.0
  0
LINE
  8
0
  6
CONTINUOUS
 62
               3
  5
29A
 10
-56.500000000000199
 20
-399.16902315887342
 30
0.0
 11
-56.500000000000199
 21
-700.66902315887353
 31
0.0
  0
LINE
  8
0
  6
CONTINUOUS
 62
               3
  5
29B
 10
-56.500000000000028
 20
-157.16902315887359
 30
0.0
 11
-90.000000000000085
 21
-157.16902315887359
 31
0.0
  0
LINE
  8
0
  6
CONTINUOUS
 62
               3
  5
29C
 10
-56.500000000000028
 20
-157.16902315887359
 30
0.0
 11
-55.000000000000114
 21
-158.66902315887359
 31
0.0
  0
LINE
  8
0
  6
CONTINUOUS
 62
               3
  5
29D
 10
56.499999999999616
 20
-157.16902315887359
 30
0.0
 11
89.999999999999829
 21
-157.16902315887359
 31
0.0
  0
LINE
  8
0
  6
CONTINUOUS
 62
               3
  5
29E
 10
56.499999999999616
 20
-157.16902315887359
 30
0.0
 11
54.999999999999702
 21
-158.66902315887359
 31
0.0
  0
LINE
  8
0
  6
CONTINUOUS
 62
               3
  5
29F
 10
-86.00000000000054
 20
-150.66902315887359
 30
0.0
 11
-86.00000000000054
 21
-157.16902315887359
 31
0.0
  0
LINE
  8
0
  6
CONTINUOUS
 62
               3
  5
2A0
 10
86.000000000000341
 20
-150.66902315887359
 30
0.0
 11
86.000000000000341
 21
-157.16902315887359
 31
0.0
  0
LINE
  8
0
  6
CONTINUOUS
 62
               3
  5
2A1
 10
-90.000000000000227
 20
-150.66902315887359
 30
0.0
 11
-90.000000000000227
 21
-132.66902315887359
 31
0.0
  0
LINE
  8
0
  6
CONTINUOUS
 62
               3
  5
2A2
 10
89.999999999999773
 20
-150.66902315887359
 30
0.0
 11
89.999999999999773
 21
-132.66902315887359
 31
0.0
  0
LINE
  8
0
  6
CONTINUOUS
 62
               3
  5
2A3
 10
90.000000000000341
 20
-150.66902315887359
 30
0.0
 11
-89.999999999999801
 21
-150.66902315887359
 31
0.0
  0
LINE
  8
0
  6
CONTINUOUS
 62
               3
  5
2A4
 10
-755.00000000000023
 20
-158.66902315887359
 30
0.0
 11
-645.00000000000045
 21
-158.66902315887359
 31
0.0
  0
LINE
  8
0
  6
CONTINUOUS
 62
               3
  5
2A5
 10
-790.00000000000023
 20
-173.66902315887359
 30
0.0
 11
-790.00000000000023
 21
-157.16902315887359
 31
0.0
  0
LINE
  8
0
  6
CONTINUOUS
 62
               3
  5
2A6
 10
-756.5
 20
-157.16902315887359
 30
0.0
 11
-790.00000000000023
 21
-157.16902315887359
 31
0.0
  0
ARC
  8
0
  6
CONTINUOUS
 62
               3
  5
2A7
 10
-787.00000000000023
 20
-173.66902315887359
 30
0.0
 40
3.0000000000000004
 50
179.99999999996515
 51
269.99999999994731
  0
ARC
  8
0
  6
CONTINUOUS
 62
               3
  5
2A8
 10
-765.00000000000023
 20
-277.06596503916433
 30
0.0
 40
10.0
 50
179.99999999996524
 51
224.99999999995654
  0
LINE
  8
0
  6
CONTINUOUS
 62
               3
  5
2A9
 10
-759.4644660940678
 20
-296.74363456882816
 30
0.0
 11
-772.07106781186576
 21
-284.13703285102986
 31
0.0
  0
LINE
  8
0
  6
CONTINUOUS
 62
               3
  5
2AA
 10
-610.00000000000045
 20
-173.66902315887359
 30
0.0
 11
-610.00000000000045
 21
-157.16902315887359
 31
0.0
  0
ARC
  8
0
  6
CONTINUOUS
 62
               3
  5
2AB
 10
-613.00000000000023
 20
-173.66902315887359
 30
0.0
 40
3.0000000000000004
 50
269.99999999994731
 51
359.99999999993054
  0
LINE
  8
0
  6
CONTINUOUS
 62
               3
  5
2AC
 10
-756.5
 20
-157.16902315887359
 30
0.0
 11
-755.00000000000023
 21
-158.66902315887359
 31
0.0
  0
LINE
  8
0
  6
CONTINUOUS
 62
               3
  5
2AD
 10
-643.50000000000045
 20
-157.16902315887359
 30
0.0
 11
-610.00000000000045
 21
-157.16902315887359
 31
0.0
  0
LINE
  8
0
  6
CONTINUOUS
 62
               3
  5
2AE
 10
-643.50000000000045
 20
-157.16902315887359
 30
0.0
 11
-645.00000000000045
 21
-158.66902315887359
 31
0.0
  0
LINE
  8
0
  6
CONTINUOUS
 62
               3
  5
2AF
 10
-613.00000000000023
 20
-176.66902315887353
 30
0.0
 11
-620.2510731041707
 21
-176.66902315887353
 31
0.0
  0
LINE
  8
0
  6
CONTINUOUS
 62
               3
  5
2B0
 10
-613.99999999999977
 20
-150.66902315887359
 30
0.0
 11
-613.99999999999977
 21
-157.16902315887359
 31
0.0
  0
LINE
  8
0
  6
CONTINUOUS
 62
               3
  5
2B1
 10
-786.00000000000091
 20
-150.66902315887359
 30
0.0
 11
-786.00000000000091
 21
-157.16902315887359
 31
0.0
  0
LINE
  8
0
  6
CONTINUOUS
 62
               3
  5
2B2
 10
-775.00000000000023
 20
-182.13579081616075
 30
0.0
 11
-775.00000000000023
 21
-277.06596503916433
 31
0.0
  0
LINE
  8
0
  6
CONTINUOUS
 62
               3
  5
2B3
 10
-774.99999999999977
 20
94.330976841126471
 30
0.0
 11
-625.00000000000023
 21
94.330976841126471
 31
0.0
  0
LINE
  8
0
  6
CONTINUOUS
 62
               3
  5
2B4
 10
-788.5
 20
84.330976841126471
 30
0.0
 11
-788.5
 21
77.330976841126812
 31
0.0
  0
LINE
  8
0
  6
CONTINUOUS
 62
               3
  5
2B5
 10
-788.5
 20
84.330976841126471
 30
0.0
 11
-774.99999999999977
 21
94.330976841126471
 31
0.0
  0
LINE
  8
0
  6
CONTINUOUS
 62
               3
  5
2B6
 10
-788.5
 20
77.330976841126812
 30
0.0
 11
-611.5
 21
77.330976841126812
 31
0.0
  0
ARC
  8
0
  6
CONTINUOUS
 62
               3
  5
2B7
 10
-754.99999999999977
 20
-12.669023158873586
 30
0.0
 40
19.999999999999996
 50
148.21166938291961
 51
179.99999999996518
  0
LINE
  8
0
  6
CONTINUOUS
 62
               3
  5
2B8
 10
-772.0
 20
72.748401146171091
 30
0.0
 11
-772.0
 21
-2.1333694060207335
 31
0.0
  0
ARC
  8
0
  6
CONTINUOUS
 62
               3
  5
2B9
 10
-645.00000000000023
 20
-12.669023158873586
 30
0.0
 40
19.999999999999996
 50
0.0
 51
31.788330617045577
  0
LINE
  8
0
  6
CONTINUOUS
 62
               3
  5
2BA
 10
-627.99999999999977
 20
-2.1333694060207335
 30
0.0
 11
-627.99999999999977
 21
72.748401146171091
 31
0.0
  0
LINE
  8
0
  6
CONTINUOUS
 62
               3
  5
2BB
 10
-772.0
 20
-2.1333694060207335
 30
0.0
 11
-627.99999999999977
 21
-2.1333694060207335
 31
0.0
  0
LINE
  8
0
  6
CONTINUOUS
 62
               3
  5
2BC
 10
-719.99999999999977
 20
77.330976841126812
 30
0.0
 11
-719.99999999999977
 21
94.330976841126471
 31
0.0
  0
LINE
  8
0
  6
CONTINUOUS
 62
               3
  5
2BD
 10
-680.00000000000023
 20
94.330976841126471
 30
0.0
 11
-680.00000000000023
 21
77.330976841126812
 31
0.0
  0
LINE
  8
0
  6
CONTINUOUS
 62
               3
  5
2BE
 10
-719.99999999999977
 20
84.330976841126471
 30
0.0
 11
-680.00000000000023
 21
84.330976841126471
 31
0.0
  0
LINE
  8
0
  6
CONTINUOUS
 62
               3
  5
2BF
 10
-772.28416147400389
 20
94.330976841126471
 30
0.0
 11
-772.28416147400389
 21
77.330976841126812
 31
0.0
  0
LINE
  8
0
  6
CONTINUOUS
 62
               3
  5
2C0
 10
-611.5
 20
84.330976841126471
 30
0.0
 11
-611.5
 21
77.330976841126812
 31
0.0
  0
LINE
  8
0
  6
CONTINUOUS
 62
               3
  5
2C1
 10
-611.5
 20
84.330976841126471
 30
0.0
 11
-625.00000000000023
 21
94.330976841126471
 31
0.0
  0
LINE
  8
0
  6
CONTINUOUS
 62
               3
  5
2C2
 10
-627.71583852599497
 20
94.330976841126471
 30
0.0
 11
-627.71583852599497
 21
77.330976841126812
 31
0.0
  0
LINE
  8
0
  6
CONTINUOUS
 62
               3
  5
2C3
 10
-609.99999999999977
 20
-150.66902315887359
 30
0.0
 11
-609.99999999999977
 21
-132.66902315887347
 31
0.0
  0
LINE
  8
0
  6
CONTINUOUS
 62
               3
  5
2C4
 10
-789.99999999999977
 20
-150.66902315887359
 30
0.0
 11
-789.99999999999977
 21
-132.66902315887347
 31
0.0
  0
LINE
  8
0
  6
CONTINUOUS
 62
               3
  5
2C5
 10
-609.99999999999977
 20
-150.66902315887359
 30
0.0
 11
-789.99999999999977
 21
-150.66902315887359
 31
0.0
  0
LINE
  8
0
  6
CONTINUOUS
 62
               3
  5
2C6
 10
-790.00000000000023
 20
-132.66902315887233
 30
0.0
 11
-610.00000000000023
 21
-132.66902315887347
 31
0.0
  0
ARC
  8
0
  6
CONTINUOUS
 62
               3
  5
2C7
 10
-780.00000000000023
 20
-127.66902315887359
 30
0.0
 40
5.0
 50
327.31636115368002
 51
340.05155641114044
  0
ARC
  8
0
  6
CONTINUOUS
 62
               3
  5
2C8
 10
-620.00000000000023
 20
-127.66902315887359
 30
0.0
 40
5.0
 50
199.94844358875517
 51
212.68363884621607
  0
LINE
  8
0
  6
CONTINUOUS
 62
               3
  5
2C9
 10
-774.99999999999977
 20
-12.669023158873586
 30
0.0
 11
-774.99999999999977
 21
-121.2276701055934
 31
0.0
  0
LINE
  8
0
  6
CONTINUOUS
 62
               3
  5
2CA
 10
-625.00000000000023
 20
-121.22767010559369
 30
0.0
 11
-625.00000000000023
 21
-12.669023158873586
 31
0.0
  0
ARC
  8
0
  6
CONTINUOUS
 62
               3
  5
2CB
 10
-620.00000000000023
 20
-127.66902315887359
 30
0.0
 40
5.0
 50
237.99454517218808
 51
269.99999999994731
  0
ARC
  8
0
  6
CONTINUOUS
 62
               3
  5
2CC
 10
-780.00000000000023
 20
-127.66902315887359
 30
0.0
 40
5.0
 50
269.99999999994731
 51
302.00545482770661
  0
LINE
  8
0
  6
CONTINUOUS
 62
               3
  5
2CD
 10
789.99999999999977
 20
-173.66902315887324
 30
0.0
 11
789.99999999999977
 21
-157.1690231588733
 31
0.0
  0
LINE
  8
0
  6
CONTINUOUS
 62
               3
  5
2CE
 10
609.99999999999977
 20
-173.66902315887324
 30
0.0
 11
609.99999999999977
 21
-157.1690231588733
 31
0.0
  0
LINE
  8
0
  6
CONTINUOUS
 62
               3
  5
2CF
 10
779.7489268958293
 20
-176.6690231588733
 30
0.0
 11
612.99999999999977
 21
-176.6690231588733
 31
0.0
  0
ARC
  8
0
  6
CONTINUOUS
 62
               3
  5
2D0
 10
786.99999999999977
 20
-173.66902315887324
 30
0.0
 40
3.0000000000000004
 50
269.99999999994731
 51
359.99999999993054
  0
ARC
  8
0
  6
CONTINUOUS
 62
               3
  5
2D1
 10
779.99999999999977
 20
-181.6690231588733
 30
0.0
 40
5.0
 50
89.999999999982862
 51
179.99999999996524
  0
LINE
  8
0
  6
CONTINUOUS
 62
               3
  5
2D2
 10
786.99999999999977
 20
-176.6690231588733
 30
0.0
 11
779.7489268958293
 21
-176.6690231588733
 31
0.0
  0
ARC
  8
0
  6
CONTINUOUS
 62
               3
  5
2D3
 10
764.99999999999977
 20
-277.0659650391641
 30
0.0
 40
10.0
 50
314.99999999993912
 51
359.99999999993048
  0
LINE
  8
0
  6
CONTINUOUS
 62
               3
  5
2D4
 10
759.46446609406712
 20
-296.74363456882804
 30
0.0
 11
772.0710678118653
 21
-284.13703285102957
 31
0.0
  0
LINE
  8
0
  6
CONTINUOUS
 62
               3
  5
2D5
 10
774.99999999999977
 20
-181.6690231588733
 30
0.0
 11
774.99999999999977
 21
-277.0659650391641
 31
0.0
  0
LINE
  8
0
  6
CONTINUOUS
 62
               3
  5
2D6
 10
609.99999999999977
 20
-157.1690231588733
 30
0.0
 11
643.49999999999955
 21
-157.1690231588733
 31
0.0
  0
LINE
  8
0
  6
CONTINUOUS
 62
               3
  5
2D7
 10
643.49999999999955
 20
-157.1690231588733
 30
0.0
 11
644.99999999999977
 21
-158.66902315887324
 31
0.0
  0
LINE
  8
0
  6
CONTINUOUS
 62
               3
  5
2D8
 10
789.99999999999977
 20
-157.1690231588733
 30
0.0
 11
756.49999999999977
 21
-157.1690231588733
 31
0.0
  0
LINE
  8
0
  6
CONTINUOUS
 62
               3
  5
2D9
 10
756.49999999999977
 20
-157.1690231588733
 30
0.0
 11
754.99999999999977
 21
-158.66902315887324
 31
0.0
  0
LINE
  8
0
  6
CONTINUOUS
 62
               3
  5
2DA
 10
754.99999999999977
 20
-158.66902315887324
 30
0.0
 11
644.99999999999977
 21
-158.66902315887324
 31
0.0
  0
LINE
  8
0
  6
CONTINUOUS
 62
               3
  5
2DB
 10
613.71583852599565
 20
-150.6690231588733
 30
0.0
 11
613.71583852599565
 21
-156.66902315887336
 31
0.0
  0
LINE
  8
0
  6
CONTINUOUS
 62
               3
  5
2DC
 10
785.71583852599679
 20
-150.6690231588733
 30
0.0
 11
785.71583852599679
 21
-156.66902315887336
 31
0.0
  0
LINE
  8
0
  6
CONTINUOUS
 62
               3
  5
2DD
 10
625.00000000000023
 20
94.330976841126471
 30
0.0
 11
774.99999999999977
 21
94.330976841126471
 31
0.0
  0
LINE
  8
0
  6
CONTINUOUS
 62
               3
  5
2DE
 10
611.5
 20
84.330976841126471
 30
0.0
 11
611.5
 21
77.330976841126699
 31
0.0
  0
LINE
  8
0
  6
CONTINUOUS
 62
               3
  5
2DF
 10
611.5
 20
84.330976841126471
 30
0.0
 11
625.00000000000023
 21
94.330976841126471
 31
0.0
  0
ARC
  8
0
  6
CONTINUOUS
 62
               3
  5
2E0
 10
623.0
 20
72.748401146170977
 30
0.0
 40
4.9999999999999991
 50
0.0
 51
66.421821521785304
  0
LINE
  8
0
  6
CONTINUOUS
 62
               3
  5
2E1
 10
611.5
 20
77.330976841126699
 30
0.0
 11
788.50000000000023
 21
77.330976841126699
 31
0.0
  0
ARC
  8
0
  6
CONTINUOUS
 62
               3
  5
2E2
 10
645.00000000000023
 20
-12.669023158873529
 30
0.0
 40
19.999999999999996
 50
148.21166938291961
 51
179.99999999996518
  0
LINE
  8
0
  6
CONTINUOUS
 62
               3
  5
2E3
 10
628.0
 20
72.748401146170977
 30
0.0
 11
628.0
 21
-2.1333694060208472
 31
0.0
  0
ARC
  8
0
  6
CONTINUOUS
 62
               3
  5
2E4
 10
754.99999999999977
 20
-12.669023158873529
 30
0.0
 40
19.999999999999996
 50
0.0
 51
31.788330617045577
  0
LINE
  8
0
  6
CONTINUOUS
 62
               3
  5
2E5
 10
772.00000000000023
 20
-2.1333694060208472
 30
0.0
 11
772.00000000000023
 21
72.748401146170977
 31
0.0
  0
LINE
  8
0
  6
CONTINUOUS
 62
               3
  5
2E6
 10
680.00000000000023
 20
77.330976841126699
 30
0.0
 11
680.00000000000023
 21
94.330976841126471
 31
0.0
  0
LINE
  8
0
  6
CONTINUOUS
 62
               3
  5
2E7
 10
719.99999999999977
 20
94.330976841126471
 30
0.0
 11
719.99999999999977
 21
77.330976841126699
 31
0.0
  0
LINE
  8
0
  6
CONTINUOUS
 62
               3
  5
2E8
 10
680.00000000000023
 20
84.330976841126471
 30
0.0
 11
719.99999999999977
 21
84.330976841126471
 31
0.0
  0
LINE
  8
0
  6
CONTINUOUS
 62
               3
  5
2E9
 10
627.71583852599611
 20
94.330976841126471
 30
0.0
 11
627.71583852599611
 21
77.330976841126699
 31
0.0
  0
LINE
  8
0
  6
CONTINUOUS
 62
               3
  5
2EA
 10
613.78950179937533
 20
84.330976841126471
 30
0.0
 11
613.78950179937533
 21
77.330976841126699
 31
0.0
  0
LINE
  8
0
  6
CONTINUOUS
 62
               3
  5
2EB
 10
611.5
 20
84.330976841126471
 30
0.0
 11
613.78950179937533
 21
84.330976841126471
 31
0.0
  0
LINE
  8
0
  6
CONTINUOUS
 62
               3
  5
2EC
 10
613.78950179937533
 20
84.330976841126471
 30
0.0
 11
627.71583852599611
 21
94.330976841126471
 31
0.0
  0
LINE
  8
0
  6
CONTINUOUS
 62
               3
  5
2ED
 10
788.50000000000023
 20
84.330976841126471
 30
0.0
 11
788.50000000000023
 21
77.330976841126699
 31
0.0
  0
LINE
  8
0
  6
CONTINUOUS
 62
               3
  5
2EE
 10
788.50000000000023
 20
84.330976841126471
 30
0.0
 11
774.99999999999977
 21
94.330976841126471
 31
0.0
  0
ARC
  8
0
  6
CONTINUOUS
 62
               3
  5
2EF
 10
777.00000000000023
 20
72.748401146170977
 30
0.0
 40
4.9999999999999991
 50
113.57817847818016
 51
179.99999999996507
  0
LINE
  8
0
  6
CONTINUOUS
 62
               3
  5
2F0
 10
772.28416147400503
 20
94.330976841126471
 30
0.0
 11
772.28416147400503
 21
77.330976841126699
 31
0.0
  0
LINE
  8
0
  6
CONTINUOUS
 62
               3
  5
2F1
 10
786.21049820062558
 20
84.330976841126471
 30
0.0
 11
786.21049820062558
 21
77.330976841126699
 31
0.0
  0
LINE
  8
0
  6
CONTINUOUS
 62
               3
  5
2F2
 10
788.50000000000023
 20
84.330976841126471
 30
0.0
 11
786.21049820062558
 21
84.330976841126471
 31
0.0
  0
LINE
  8
0
  6
CONTINUOUS
 62
               3
  5
2F3
 10
786.21049820062558
 20
84.330976841126471
 30
0.0
 11
772.28416147400503
 21
94.330976841126471
 31
0.0
  0
LINE
  8
0
  6
CONTINUOUS
 62
               3
  5
2F4
 10
610.00000000000023
 20
-132.66902315887222
 30
0.0
 11
790.00000000000023
 21
-132.66902315887336
 31
0.0
  0
LINE
  8
0
  6
CONTINUOUS
 62
               3
  5
2F5
 10
790.00000000000023
 20
-150.6690231588733
 30
0.0
 11
790.00000000000023
 21
-132.66902315887336
 31
0.0
  0
LINE
  8
0
  6
CONTINUOUS
 62
               3
  5
2F6
 10
610.00000000000023
 20
-150.6690231588733
 30
0.0
 11
610.00000000000023
 21
-132.66902315887336
 31
0.0
  0
LINE
  8
0
  6
CONTINUOUS
 62
               3
  5
2F7
 10
790.00000000000023
 20
-150.6690231588733
 30
0.0
 11
610.00000000000023
 21
-150.6690231588733
 31
0.0
  0
LINE
  8
0
  6
CONTINUOUS
 62
               3
  5
2F8
 10
774.99999999999977
 20
-127.66902315887336
 30
0.0
 11
774.99999999999977
 21
-12.669023158873529
 31
0.0
  0
LINE
  8
0
  6
CONTINUOUS
 62
               3
  5
2F9
 10
625.00000000000023
 20
-12.669023158873529
 30
0.0
 11
625.00000000000023
 21
-127.66902315887233
 31
0.0
  0
ARC
  8
0
  6
CONTINUOUS
 62
               3
  5
2FA
 10
620.00000000000023
 20
-127.66902315887233
 30
0.0
 40
5.0
 50
269.99999999994731
 51
302.0054548277019
  0
ARC
  8
0
  6
CONTINUOUS
 62
               3
  5
2FB
 10
620.00000000000023
 20
-127.66902315887233
 30
0.0
 40
5.0
 50
327.31636115367803
 51
359.99999999993042
  0
ARC
  8
0
  6
CONTINUOUS
 62
               3
  5
2FC
 10
780.00000000000023
 20
-127.66902315887336
 30
0.0
 40
5.0
 50
179.99999999996518
 51
212.68363884621539
  0
ARC
  8
0
  6
CONTINUOUS
 62
               3
  5
2FD
 10
780.00000000000023
 20
-127.66902315887336
 30
0.0
 40
5.0
 50
237.99454517218808
 51
269.99999999994731
  0
LINE
  8
0
  6
CONTINUOUS
 62
               3
  5
2FE
 10
628.0
 20
-2.1333694060208472
 30
0.0
 11
688.27299999999946
 21
-2.1333694060206767
 31
0.0
  0
LINE
  8
0
  6
CONTINUOUS
 62
               3
  5
2FF
 10
711.72699999999941
 20
-2.1333694060208472
 30
0.0
 11
772.00000000000023
 21
-2.1333694060208472
 31
0.0
  0
CIRCLE
  8
0
  6
CONTINUOUS
 62
               3
  5
300
 10
-700.00000000000023
 20
-230.66902315887359
 30
0.0
 40
57.5
  0
ARC
  8
0
  6
CONTINUOUS
 62
               3
  5
301
 10
-606.99999999999955
 20
-168.80223679430435
 30
0.0
 40
3.0
 50
179.99999999996527
 51
267.99999999994793
  0
LINE
  8
0
  6
CONTINUOUS
 62
               3
  5
302
 10
-559.99999999999977
 20
-175.66902315887353
 30
0.0
 11
-560.67155612596389
 21
-175.66902315887353
 31
0.0
  0
LINE
  8
0
  6
CONTINUOUS
 62
               3
  5
303
 10
-562.99999999999977
 20
-173.34057928483764
 30
0.0
 11
-560.67155612596389
 21
-175.66902315887353
 31
0.0
  0
LINE
  8
0
  6
CONTINUOUS
 62
               3
  5
304
 10
-559.99999999999977
 20
-173.34057928483776
 30
0.0
 11
-557.49999999999977
 21
-173.34057928483776
 31
0.0
  0
ARC
  8
0
  6
CONTINUOUS
 62
               3
  5
305
 10
-557.49999999999977
 20
-175.84057928483776
 30
0.0
 40
2.5
 50
0.0
 51
89.999999999981569
  0
LINE
  8
0
  6
CONTINUOUS
 62
               3
  5
306
 10
-562.99999999999977
 20
-173.34057928483764
 30
0.0
 11
-607.10469849010656
 21
-171.80040927536157
 31
0.0
  0
LINE
  8
0
  6
CONTINUOUS
 62
               3
  5
307
 10
-559.99999999999977
 20
-285.6690231588733
 30
0.0
 11
-560.67155612596389
 21
-285.6690231588733
 31
0.0
  0
LINE
  8
0
  6
CONTINUOUS
 62
               3
  5
308
 10
-562.99999999999977
 20
-287.99746703290839
 30
0.0
 11
-560.67155612596389
 21
-285.6690231588733
 31
0.0
  0
LINE
  8
0
  6
CONTINUOUS
 62
               3
  5
309
 10
-560.67155612596389
 20
-175.66902315887353
 30
0.0
 11
-560.67155612596389
 21
-285.6690231588733
 31
0.0
  0
LINE
  8
0
  6
CONTINUOUS
 62
               3
  5
30A
 10
-562.99999999999977
 20
-287.99746703290839
 30
0.0
 11
-562.99999999999977
 21
-173.34057928483764
 31
0.0
  0
LINE
  8
0
  6
CONTINUOUS
 62
               3
  5
30B
 10
-559.99999999999977
 20
-287.99746703290884
 30
0.0
 11
-559.99999999999977
 21
-173.34057928483776
 31
0.0
  0
LINE
  8
0
  6
CONTINUOUS
 62
               3
  5
30C
 10
-554.99999999999977
 20
-175.84057928483776
 30
0.0
 11
-554.99999999999977
 21
-285.49746703290884
 31
0.0
  0
LINE
  8
0
  6
CONTINUOUS
 62
               3
  5
30D
 10
-559.99999999999977
 20
-287.99746703290884
 30
0.0
 11
-557.49999999999977
 21
-287.99746703290884
 31
0.0
  0
ARC
  8
0
  6
CONTINUOUS
 62
               3
  5
30E
 10
-557.49999999999977
 20
-285.49746703290884
 30
0.0
 40
2.5
 50
269.99999999994731
 51
359.99999999993014
  0
LINE
  8
0
  6
CONTINUOUS
 62
               3
  5
30F
 10
-562.99999999999977
 20
-287.99746703290839
 30
0.0
 11
-634.2784652238206
 21
-290.48656588671582
 31
0.0
  0
LINE
  8
0
  6
CONTINUOUS
 62
               3
  5
310
 10
-620.00000000000045
 20
-176.66902315887353
 30
0.0
 11
-680.24525373486199
 21
-176.66902315887353
 31
0.0
  0
LINE
  8
0
  6
CONTINUOUS
 62
               3
  5
311
 10
-719.75474626513869
 20
-176.66902315887353
 30
0.0
 11
-787.00000000000023
 21
-176.66902315887353
 31
0.0
  0
LINE
  8
0
  6
CONTINUOUS
 62
               3
  5
312
 10
-641.03553390593288
 20
-297.24363456882844
 30
0.0
 11
-634.27846522382038
 21
-290.48656588671582
 31
0.0
  0
LINE
  8
0
  6
CONTINUOUS
 62
               3
  5
313
 10
-673.21264290752083
 20
-202.6690231588737
 30
0.0
 11
-726.78735709247985
 21
-202.6690231588737
 31
0.0
  0
CIRCLE
  8
0
  6
CONTINUOUS
 62
               3
  5
314
 10
-700.00000000000045
 20
-230.66902315887353
 30
0.0
 40
48.500000000000007
  0
CIRCLE
  8
0
  6
CONTINUOUS
 62
               3
  5
315
 10
-700.00000000000045
 20
-230.66902315887353
 30
0.0
 40
38.75
  0
CIRCLE
  8
0
  6
CONTINUOUS
 62
               3
  5
316
 10
-700.00000000000045
 20
-230.66902315887353
 30
0.0
 40
47.299999999999997
  0
LINE
  8
0
  6
CONTINUOUS
 62
               3
  5
317
 10
-731.81980515339501
 20
-262.48882831226786
 30
0.0
 11
-733.44615075012416
 21
-264.11517390899724
 31
0.0
  0
LINE
  8
0
  6
CONTINUOUS
 62
               3
  5
318
 10
-668.18019484660567
 20
-262.48882831226786
 30
0.0
 11
-666.55384924987675
 21
-264.11517390899724
 31
0.0
  0
ARC
  8
0
  6
CONTINUOUS
 62
               3
  5
319
 10
-700.00000000000045
 20
-230.66902315887353
 30
0.0
 40
45.0
 50
224.99999999995646
 51
314.99999999993912
  0
CIRCLE
  8
0
  6
CONTINUOUS
 62
               3
  5
31A
 10
-700.00000000000045
 20
-230.66902315887353
 30
0.0
 40
43.0
  0
CIRCLE
  8
0
  6
CONTINUOUS
 62
               3
  5
31B
 10
-0.0000000000002274
 20
-230.66902315887359
 30
0.0
 40
57.5
  0
ARC
  8
0
  6
CONTINUOUS
 62
               3
  5
31C
 10
-87.000000000000199
 20
-173.66902315887359
 30
0.0
 40
3.0000000000000004
 50
179.99999999996515
 51
269.99999999994782
  0
ARC
  8
0
  6
CONTINUOUS
 62
               3
  5
31D
 10
-93.000000000000909
 20
-168.80223679430435
 30
0.0
 40
3.0
 50
271.99999999994657
 51
359.99999999993037
  0
LINE
  8
0
  6
CONTINUOUS
 62
               3
  5
31E
 10
-140.00000000000082
 20
-175.66902315887353
 30
0.0
 11
-139.32844387403659
 21
-175.66902315887353
 31
0.0
  0
LINE
  8
0
  6
CONTINUOUS
 62
               3
  5
31F
 10
-137.00000000000071
 20
-173.34057928483764
 30
0.0
 11
-139.32844387403659
 21
-175.66902315887353
 31
0.0
  0
LINE
  8
0
  6
CONTINUOUS
 62
               3
  5
320
 10
-140.00000000000082
 20
-173.34057928483776
 30
0.0
 11
-142.50000000000082
 21
-173.34057928483776
 31
0.0
  0
ARC
  8
0
  6
CONTINUOUS
 62
               3
  5
321
 10
-142.50000000000082
 20
-175.84057928483776
 30
0.0
 40
2.5
 50
89.999999999982535
 51
179.99999999996507
  0
LINE
  8
0
  6
CONTINUOUS
 62
               3
  5
322
 10
-137.00000000000071
 20
-173.34057928483764
 30
0.0
 11
-92.895301509894011
 21
-171.80040927536157
 31
0.0
  0
LINE
  8
0
  6
CONTINUOUS
 62
               3
  5
323
 10
-140.00000000000082
 20
-285.6690231588733
 30
0.0
 11
-139.32844387403659
 21
-285.6690231588733
 31
0.0
  0
LINE
  8
0
  6
CONTINUOUS
 62
               3
  5
324
 10
-137.00000000000071
 20
-287.99746703290839
 30
0.0
 11
-139.32844387403659
 21
-285.6690231588733
 31
0.0
  0
LINE
  8
0
  6
CONTINUOUS
 62
               3
  5
325
 10
-139.32844387403659
 20
-175.66902315887353
 30
0.0
 11
-139.32844387403659
 21
-285.6690231588733
 31
0.0
  0
LINE
  8
0
  6
CONTINUOUS
 62
               3
  5
326
 10
-137.00000000000071
 20
-287.99746703290839
 30
0.0
 11
-137.00000000000071
 21
-173.34057928483764
 31
0.0
  0
LINE
  8
0
  6
CONTINUOUS
 62
               3
  5
327
 10
-140.00000000000082
 20
-287.99746703290884
 30
0.0
 11
-140.00000000000082
 21
-173.34057928483776
 31
0.0
  0
LINE
  8
0
  6
CONTINUOUS
 62
               3
  5
328
 10
-145.00000000000082
 20
-175.84057928483776
 30
0.0
 11
-145.00000000000082
 21
-285.49746703290884
 31
0.0
  0
LINE
  8
0
  6
CONTINUOUS
 62
               3
  5
329
 10
-140.00000000000082
 20
-287.99746703290884
 30
0.0
 11
-142.50000000000082
 21
-287.99746703290884
 31
0.0
  0
ARC
  8
0
  6
CONTINUOUS
 62
               3
  5
32A
 10
-142.50000000000082
 20
-285.49746703290884
 30
0.0
 40
2.5
 50
179.99999999996507
 51
269.99999999994793
  0
LINE
  8
0
  6
CONTINUOUS
 62
               3
  5
32B
 10
-137.00000000000071
 20
-287.99746703290839
 30
0.0
 11
-67.689887356161563
 21
-290.41782949999174
 31
0.0
  0
LINE
  8
0
  6
CONTINUOUS
 62
               3
  5
32C
 10
-59.464466094067546
 20
-296.74363456882838
 30
0.0
 11
-64.328850933741364
 21
-291.87924972915448
 31
0.0
  0
LINE
  8
0
  6
CONTINUOUS
 62
               3
  5
32D
 10
-87.000000000000199
 20
-176.66902315887353
 30
0.0
 11
-19.754746265138095
 21
-176.66902315887336
 31
0.0
  0
LINE
  8
0
  6
CONTINUOUS
 62
               3
  5
32E
 10
19.754746265137641
 20
-176.66902315887336
 30
0.0
 11
90.000000000000398
 21
-176.66902315887336
 31
0.0
  0
ARC
  8
0
  6
CONTINUOUS
 62
               3
  5
32F
 10
64.999999999999773
 20
-277.06596503916433
 30
0.0
 40
10.0
 50
314.99999999993912
 51
359.99999999993048
  0
LINE
  8
0
  6
CONTINUOUS
 62
               3
  5
330
 10
56.0
 20
-311.66902315887165
 30
0.0
 11
56.0
 21
-398.66902315887398
 31
0.0
  0
LINE
  8
0
  6
CONTINUOUS
 62
               3
  5
331
 10
55.999999999999645
 20
-311.66902315887359
 30
0.0
 11
57.999999999999673
 21
-301.66902315887359
 31
0.0
  0
ARC
  8
0
  6
CONTINUOUS
 62
               3
  5
332
 10
62.999999999999531
 20
-300.27916847476075
 30
0.0
 40
5.0
 50
134.99999999997391
 51
179.99999999996507
  0
LINE
  8
0
  6
CONTINUOUS
 62
               3
  5
333
 10
57.999999999999673
 20
-300.27916847476075
 30
0.0
 11
57.999999999999673
 21
-301.66902315887359
 31
0.0
  0
LINE
  8
0
  6
CONTINUOUS
 62
               3
  5
334
 10
59.464466094066907
 20
-296.74363456882793
 30
0.0
 11
72.07106781186495
 21
-284.13703285102986
 31
0.0
  0
LINE
  8
0
  6
CONTINUOUS
 62
               3
  5
335
 10
-58.000000000000625
 20
-300.27916847476075
 30
0.0
 11
-58.000000000000625
 21
-301.66902315887359
 31
0.0
  0
LINE
  8
0
  6
CONTINUOUS
 62
               3
  5
336
 10
-56.000000000000597
 20
-311.66902315887359
 30
0.0
 11
-58.000000000000625
 21
-301.66902315887359
 31
0.0
  0
LINE
  8
0
  6
CONTINUOUS
 62
               3
  5
337
 10
-56.000000000000739
 20
-398.66902315887393
 30
0.0
 11
-56.000000000000597
 21
-311.66902315887359
 31
0.0
  0
ARC
  8
0
  6
CONTINUOUS
 62
               3
  5
338
 10
-62.999999999999943
 20
-300.27916847476075
 30
0.0
 40
5.0
 50
359.99999999993048
 51
404.99999999992167
  0
LINE
  8
0
  6
CONTINUOUS
 62
               3
  5
339
 10
56.0
 20
-398.66902315887398
 30
0.0
 11
-56.000000000000739
 21
-398.66902315887398
 31
0.0
  0
ARC
  8
0
  6
CONTINUOUS
 62
               3
  5
33A
 10
612.99999999999977
 20
-173.66902315887324
 30
0.0
 40
3.0000000000000004
 50
179.99999999996515
 51
269.99999999994731
  0
ARC
  8
0
  6
CONTINUOUS
 62
               3
  5
33B
 10
606.99999999999909
 20
-168.80223679430406
 30
0.0
 40
3.0
 50
271.99999999994657
 51
359.99999999993037
  0
LINE
  8
0
  6
CONTINUOUS
 62
               3
  5
33C
 10
559.99999999999909
 20
-175.66902315887324
 30
0.0
 11
560.67155612596343
 21
-175.66902315887324
 31
0.0
  0
LINE
  8
0
  6
CONTINUOUS
 62
               3
  5
33D
 10
562.99999999999932
 20
-173.34057928483736
 30
0.0
 11
560.67155612596343
 21
-175.66902315887324
 31
0.0
  0
LINE
  8
0
  6
CONTINUOUS
 62
               3
  5
33E
 10
559.99999999999909
 20
-173.34057928483747
 30
0.0
 11
557.49999999999909
 21
-173.34057928483747
 31
0.0
  0
ARC
  8
0
  6
CONTINUOUS
 62
               3
  5
33F
 10
557.49999999999909
 20
-175.84057928483747
 30
0.0
 40
2.5
 50
89.999999999981569
 51
179.99999999996507
  0
LINE
  8
0
  6
CONTINUOUS
 62
               3
  5
340
 10
562.99999999999932
 20
-173.34057928483736
 30
0.0
 11
607.10469849010587
 21
-171.80040927536129
 31
0.0
  0
LINE
  8
0
  6
CONTINUOUS
 62
               3
  5
341
 10
559.99999999999909
 20
-285.66902315887307
 30
0.0
 11
560.67155612596343
 21
-285.66902315887307
 31
0.0
  0
LINE
  8
0
  6
CONTINUOUS
 62
               3
  5
342
 10
562.99999999999932
 20
-287.99746703290805
 30
0.0
 11
560.67155612596343
 21
-285.66902315887307
 31
0.0
  0
LINE
  8
0
  6
CONTINUOUS
 62
               3
  5
343
 10
560.67155612596343
 20
-175.66902315887324
 30
0.0
 11
560.67155612596343
 21
-285.66902315887307
 31
0.0
  0
LINE
  8
0
  6
CONTINUOUS
 62
               3
  5
344
 10
562.99999999999932
 20
-287.99746703290805
 30
0.0
 11
562.99999999999932
 21
-173.34057928483736
 31
0.0
  0
LINE
  8
0
  6
CONTINUOUS
 62
               3
  5
345
 10
559.99999999999909
 20
-287.99746703290862
 30
0.0
 11
559.99999999999909
 21
-173.34057928483747
 31
0.0
  0
LINE
  8
0
  6
CONTINUOUS
 62
               3
  5
346
 10
554.99999999999909
 20
-175.84057928483747
 30
0.0
 11
554.99999999999909
 21
-285.49746703290862
 31
0.0
  0
LINE
  8
0
  6
CONTINUOUS
 62
               3
  5
347
 10
559.99999999999909
 20
-287.99746703290862
 30
0.0
 11
557.49999999999909
 21
-287.99746703290862
 31
0.0
  0
ARC
  8
0
  6
CONTINUOUS
 62
               3
  5
348
 10
557.49999999999909
 20
-285.49746703290862
 30
0.0
 40
2.5
 50
179.99999999996507
 51
269.99999999994731
  0
LINE
  8
0
  6
CONTINUOUS
 62
               3
  5
349
 10
562.99999999999932
 20
-287.99746703290805
 30
0.0
 11
634.27846522381992
 21
-290.48656588671554
 31
0.0
  0
LINE
  8
0
  6
CONTINUOUS
 62
               3
  5
34A
 10
640.53553390593243
 20
-296.74363456882816
 30
0.0
 11
634.27846522381992
 21
-290.48656588671554
 31
0.0
  0
LINE
  8
0
  6
CONTINUOUS
 62
               3
  5
34B
 10
641.99999999999932
 20
-300.27916847476047
 30
0.0
 11
641.99999999999932
 21
-301.6690231588733
 31
0.0
  0
LINE
  8
0
  6
CONTINUOUS
 62
               3
  5
34C
 10
643.99999999999932
 20
-311.6690231588733
 30
0.0
 11
641.99999999999932
 21
-301.6690231588733
 31
0.0
  0
ARC
  8
0
  6
CONTINUOUS
 62
               3
  5
34D
 10
637.0
 20
-300.27916847476047
 30
0.0
 40
5.0
 50
359.99999999993048
 51
404.9999999999215
  0
LINE
  8
0
  6
CONTINUOUS
 62
               3
  5
34E
 10
643.99999999999909
 20
-398.66902315887364
 30
0.0
 11
643.99999999999932
 21
-311.6690231588733
 31
0.0
  0
LINE
  8
0
  6
CONTINUOUS
 62
               3
  5
34F
 10
756.49999999999977
 20
-700.6690231588733
 30
0.0
 11
643.49999999999955
 21
-700.6690231588733
 31
0.0
  0
LINE
  8
0
  6
CONTINUOUS
 62
               3
  5
350
 10
756.49999999999977
 20
-399.16902315887353
 30
0.0
 11
643.49999999999955
 21
-399.16902315887319
 31
0.0
  0
LINE
  8
0
  6
CONTINUOUS
 62
               3
  5
351
 10
756.49999999999977
 20
-399.16902315887353
 30
0.0
 11
756.49999999999977
 21
-700.6690231588733
 31
0.0
  0
LINE
  8
0
  6
CONTINUOUS
 62
               3
  5
352
 10
643.49999999999955
 20
-399.16902315887319
 30
0.0
 11
643.49999999999955
 21
-700.6690231588733
 31
0.0
  0
LINE
  8
0
  6
CONTINUOUS
 62
               3
  5
353
 10
643.49999999999955
 20
-399.16902315887319
 30
0.0
 11
643.99999999999955
 21
-398.66902315887342
 31
0.0
  0
LINE
  8
0
  6
CONTINUOUS
 62
               3
  5
354
 10
756.49999999999977
 20
-399.16902315887353
 30
0.0
 11
756.00000000000023
 21
-398.66902315887393
 31
0.0
  0
LINE
  8
0
  6
CONTINUOUS
 62
               3
  5
355
 10
756.0
 20
-398.6690231588737
 30
0.0
 11
643.99999999999909
 21
-398.6690231588737
 31
0.0
  0
LINE
  8
0
  6
CONTINUOUS
 62
               3
  5
356
 10
755.99999999999955
 20
-311.6690231588733
 30
0.0
 11
757.99999999999955
 21
-301.6690231588733
 31
0.0
  0
ARC
  8
0
  6
CONTINUOUS
 62
               3
  5
357
 10
762.99999999999955
 20
-300.27916847476047
 30
0.0
 40
5.0
 50
134.99999999997416
 51
179.99999999996507
  0
LINE
  8
0
  6
CONTINUOUS
 62
               3
  5
358
 10
757.99999999999955
 20
-300.27916847476047
 30
0.0
 11
757.99999999999955
 21
-301.6690231588733
 31
0.0
  0
LINE
  8
0
  6
CONTINUOUS
 62
               3
  5
359
 10
756.0
 20
-311.66902315887137
 30
0.0
 11
756.0
 21
-398.6690231588737
 31
0.0
  0
LINE
  8
0
  6
CONTINUOUS
 62
               3
  5
35A
 10
-644.0
 20
-311.66902315887165
 30
0.0
 11
-644.0
 21
-398.66902315887398
 31
0.0
  0
LINE
  8
0
  6
CONTINUOUS
 62
               3
  5
35B
 10
-644.00000000000045
 20
-311.66902315887359
 30
0.0
 11
-642.00000000000045
 21
-301.66902315887359
 31
0.0
  0
LINE
  8
0
  6
CONTINUOUS
 62
               3
  5
35C
 10
-642.00000000000045
 20
-300.27916847476075
 30
0.0
 11
-642.00000000000045
 21
-301.66902315887359
 31
0.0
  0
LINE
  8
0
  6
CONTINUOUS
 62
               3
  5
35D
 10
-758.00000000000068
 20
-300.27916847476075
 30
0.0
 11
-758.00000000000068
 21
-301.66902315887359
 31
0.0
  0
LINE
  8
0
  6
CONTINUOUS
 62
               3
  5
35E
 10
-756.00000000000068
 20
-311.66902315887359
 30
0.0
 11
-758.00000000000068
 21
-301.66902315887359
 31
0.0
  0
LINE
  8
0
  6
CONTINUOUS
 62
               3
  5
35F
 10
-756.00000000000091
 20
-398.66902315887393
 30
0.0
 11
-756.00000000000068
 21
-311.66902315887359
 31
0.0
  0
ARC
  8
0
  6
CONTINUOUS
 62
               3
  5
360
 10
-67.86438483967413
 20
-295.41478363508725
 30
0.0
 40
5.0
 50
44.999999999991154
 51
87.999999999982307
  0
ARC
  8
0
  6
CONTINUOUS
 62
               3
  5
361
 10
-10.19176331412919
 20
641.24968325725229
 30
0.0
 40
10.0
 50
233.90124606559939
 51
237.92037922799338
  0
LINE
  8
0
  6
CONTINUOUS
 62
               3
  5
362
 10
-0.1420807370019759
 20
623.14846556661098
 30
0.0
 11
-15.50273569077595
 21
632.776574476262
 31
0.0
  0
LINE
  8
0
  6
CONTINUOUS
 62
               3
  5
363
 10
-0.1420807370019759
 20
623.14846556661098
 30
0.0
 11
29.188046281920236
 21
623.14846556661098
 31
0.0
  0
LINE
  8
0
  6
CONTINUOUS
 62
               3
  5
364
 10
39.857919262998053
 20
583.14846556661075
 30
0.0
 11
49.869319866309269
 21
599.12062289413313
 31
0.0
  0
ARC
  8
0
  6
CONTINUOUS
 62
               3
  5
365
 10
19.645892369325594
 20
640.72544607722705
 30
0.0
 40
20.0
 50
298.65202615921709
 51
307.35556117858317
  0
LINE
  8
0
  6
CONTINUOUS
 62
               3
  5
366
 10
54.857919262998024
 20
443.14846556661121
 30
0.0
 11
54.857919262998024
 21
443.82002169257555
 31
0.0
  0
LINE
  8
0
  6
CONTINUOUS
 62
               3
  5
367
 10
57.186363137033339
 20
446.14846556661143
 30
0.0
 11
54.857919262998024
 21
443.82002169257555
 31
0.0
  0
LINE
  8
0
  6
CONTINUOUS
 62
               3
  5
368
 10
-55.142080737001976
 20
443.14846556661121
 30
0.0
 11
-55.142080737001976
 21
443.82002169257555
 31
0.0
  0
LINE
  8
0
  6
CONTINUOUS
 62
               3
  5
369
 10
-57.47052461103786
 20
446.14846556661143
 30
0.0
 11
-55.142080737001976
 21
443.82002169257555
 31
0.0
  0
LINE
  8
0
  6
CONTINUOUS
 62
               3
  5
36A
 10
-55.142080737001976
 20
443.82002169257555
 30
0.0
 11
54.857919262998024
 21
443.82002169257555
 31
0.0
  0
LINE
  8
0
  6
CONTINUOUS
 62
               3
  5
36B
 10
57.186363137033339
 20
446.14846556661143
 30
0.0
 11
-57.47052461103786
 21
446.14846556661143
 31
0.0
  0
LINE
  8
0
  6
CONTINUOUS
 62
               3
  5
36C
 10
-54.97052461103786
 20
438.14846556661121
 30
0.0
 11
54.686363137033339
 21
438.14846556661121
 31
0.0
  0
LINE
  8
0
  6
CONTINUOUS
 62
               3
  5
36D
 10
57.186363137033339
 20
443.14846556661121
 30
0.0
 11
-57.47052461103786
 21
443.14846556661121
 31
0.0
  0
LINE
  8
0
  6
CONTINUOUS
 62
               3
  5
36E
 10
-57.47052461103786
 20
443.14846556661121
 30
0.0
 11
-57.47052461103786
 21
440.64846556661121
 31
0.0
  0
LINE
  8
0
  6
CONTINUOUS
 62
               3
  5
36F
 10
57.186363137033339
 20
443.14846556661121
 30
0.0
 11
57.186363137033339
 21
440.64846556661121
 31
0.0
  0
ARC
  8
0
  6
CONTINUOUS
 62
               3
  5
370
 10
54.686363137033339
 20
440.64846556661121
 30
0.0
 40
2.5
 50
269.99999999994793
 51
359.99999999993145
  0
ARC
  8
0
  6
CONTINUOUS
 62
               3
  5
371
 10
-54.97052461103786
 20
440.64846556661121
 30
0.0
 40
2.5
 50
179.99999999996572
 51
269.99999999994782
  0
LINE
  8
0
  6
CONTINUOUS
 62
               3
  5
372
 10
-59.366232185525632
 20
500.43442781998522
 30
0.0
 11
-57.47052461103786
 21
446.14846556661143
 31
0.0
  0
LINE
  8
0
  6
CONTINUOUS
 62
               3
  5
373
 10
59.082070711521126
 20
500.43442781998499
 30
0.0
 11
57.186363137033339
 21
446.14846556661143
 31
0.0
  0
LINE
  8
0
  6
CONTINUOUS
 62
               3
  5
374
 10
-643.50000000000023
 20
-399.16902315887376
 30
0.0
 11
-756.50000000000045
 21
-399.16902315887342
 31
0.0
  0
LINE
  8
0
  6
CONTINUOUS
 62
               3
  5
375
 10
-756.50000000000045
 20
-399.16902315887342
 30
0.0
 11
-756.00000000000045
 21
-398.6690231588737
 31
0.0
  0
LINE
  8
0
  6
CONTINUOUS
 62
               3
  5
376
 10
-643.50000000000023
 20
-399.16902315887376
 30
0.0
 11
-643.99999999999977
 21
-398.66902315887421
 31
0.0
  0
LINE
  8
0
  6
CONTINUOUS
 62
               3
  5
377
 10
-644.0
 20
-398.66902315887398
 30
0.0
 11
-756.00000000000091
 21
-398.66902315887398
 31
0.0
  0
LINE
  8
0
  6
CONTINUOUS
 62
               3
  5
378
 10
-643.50000000000023
 20
-399.16902315887376
 30
0.0
 11
-643.50000000000023
 21
-698.73882215227854
 31
0.0
  0
LINE
  8
0
  6
CONTINUOUS
 62
               3
  5
379
 10
-756.50000000000045
 20
-399.16902315887342
 30
0.0
 11
-756.50000000000045
 21
-698.73882215227843
 31
0.0
  0
LINE
  8
0
  6
CONTINUOUS
 62
               3
  5
37A
 10
-645.49878165403697
 20
-700.66902315887353
 30
0.0
 11
-643.50000000000023
 21
-698.73882215227843
 31
0.0
  0
LINE
  8
0
  6
CONTINUOUS
 62
               3
  5
37B
 10
-754.50121834596371
 20
-700.66902315887353
 30
0.0
 11
-756.50000000000045
 21
-698.73882215227843
 31
0.0
  0
LINE
  8
0
  6
CONTINUOUS
 62
               3
  5
37C
 10
-645.49878165403697
 20
-700.66902315887353
 30
0.0
 11
-754.50121834596371
 21
-700.66902315887353
 31
0.0
  0
LINE
  8
0
  6
CONTINUOUS
 62
               3
  5
37D
 10
39.857919262998053
 20
583.14846556661075
 30
0.0
 11
39.857919262998053
 21
561.14846556661143
 31
0.0
  0
LINE
  8
0
  6
CONTINUOUS
 62
               3
  5
37E
 10
-75.000000000000085
 20
94.330976841126471
 30
0.0
 11
74.999999999999773
 21
94.330976841126471
 31
0.0
  0
LINE
  8
0
  6
CONTINUOUS
 62
               3
  5
37F
 10
-88.500000000000597
 20
84.330976841126471
 30
0.0
 11
-88.500000000000597
 21
77.330976841126699
 31
0.0
  0
LINE
  8
0
  6
CONTINUOUS
 62
               3
  5
380
 10
-88.500000000000597
 20
84.330976841126471
 30
0.0
 11
-75.000000000000085
 21
94.330976841126471
 31
0.0
  0
ARC
  8
0
  6
CONTINUOUS
 62
               3
  5
381
 10
-77.000000000000114
 20
72.748401146170977
 30
0.0
 40
4.9999999999999991
 50
359.99999999993048
 51
426.42182152171574
  0
LINE
  8
0
  6
CONTINUOUS
 62
               3
  5
382
 10
-88.500000000000597
 20
77.330976841126699
 30
0.0
 11
88.499999999999432
 21
77.330976841126699
 31
0.0
  0
LINE
  8
0
  6
CONTINUOUS
 62
               3
  5
383
 10
-72.000000000000114
 20
72.748401146170977
 30
0.0
 11
-72.000000000000114
 21
-2.1333694060208472
 31
0.0
  0
LINE
  8
0
  6
CONTINUOUS
 62
               3
  5
384
 10
71.999999999999943
 20
2.8666305939798349
 30
0.0
 11
71.999999999999943
 21
72.748401146170977
 31
0.0
  0
LINE
  8
0
  6
CONTINUOUS
 62
               3
  5
385
 10
-72.000000000000114
 20
-2.1333694060208472
 30
0.0
 11
71.500000000000398
 21
-2.1333694060208472
 31
0.0
  0
LINE
  8
0
  6
CONTINUOUS
 62
               3
  5
386
 10
-20.000000000000085
 20
77.330976841126699
 30
0.0
 11
-20.000000000000085
 21
94.330976841126471
 31
0.0
  0
LINE
  8
0
  6
CONTINUOUS
 62
               3
  5
387
 10
19.999999999999915
 20
94.330976841126471
 30
0.0
 11
19.999999999999915
 21
77.330976841126699
 31
0.0
  0
LINE
  8
0
  6
CONTINUOUS
 62
               3
  5
388
 10
-20.000000000000085
 20
84.330976841126471
 30
0.0
 11
19.999999999999915
 21
84.330976841126471
 31
0.0
  0
LINE
  8
0
  6
CONTINUOUS
 62
               3
  5
389
 10
-72.2841614740056
 20
94.330976841126471
 30
0.0
 11
-72.2841614740056
 21
77.330976841126699
 31
0.0
  0
LINE
  8
0
  6
CONTINUOUS
 62
               3
  5
38A
 10
-86.210498200625466
 20
84.330976841126471
 30
0.0
 11
-86.210498200625466
 21
77.330976841126699
 31
0.0
  0
LINE
  8
0
  6
CONTINUOUS
 62
               3
  5
38B
 10
-88.500000000000597
 20
84.330976841126471
 30
0.0
 11
-86.210498200625466
 21
84.330976841126471
 31
0.0
  0
LINE
  8
0
  6
CONTINUOUS
 62
               3
  5
38C
 10
-86.210498200625466
 20
84.330976841126471
 30
0.0
 11
-72.2841614740056
 21
94.330976841126471
 31
0.0
  0
LINE
  8
0
  6
CONTINUOUS
 62
               3
  5
38D
 10
88.499999999999432
 20
84.330976841126471
 30
0.0
 11
88.499999999999432
 21
77.330976841126699
 31
0.0
  0
LINE
  8
0
  6
CONTINUOUS
 62
               3
  5
38E
 10
88.499999999999432
 20
84.330976841126471
 30
0.0
 11
74.999999999999773
 21
94.330976841126471
 31
0.0
  0
ARC
  8
0
  6
CONTINUOUS
 62
               3
  5
38F
 10
76.999999999999943
 20
72.748401146170977
 30
0.0
 40
4.9999999999999991
 50
113.57817847817988
 51
179.99999999996507
  0
LINE
  8
0
  6
CONTINUOUS
 62
               3
  5
390
 10
72.284161474004009
 20
94.330976841126471
 30
0.0
 11
72.284161474004009
 21
77.330976841126699
 31
0.0
  0
LINE
  8
0
  6
CONTINUOUS
 62
               3
  5
391
 10
86.210498200625295
 20
84.330976841126471
 30
0.0
 11
86.210498200625295
 21
77.330976841126699
 31
0.0
  0
LINE
  8
0
  6
CONTINUOUS
 62
               3
  5
392
 10
88.499999999999432
 20
84.330976841126471
 30
0.0
 11
86.210498200625295
 21
84.330976841126471
 31
0.0
  0
LINE
  8
0
  6
CONTINUOUS
 62
               3
  5
393
 10
86.210498200625295
 20
84.330976841126471
 30
0.0
 11
72.284161474004009
 21
94.330976841126471
 31
0.0
  0
LINE
  8
0
  6
CONTINUOUS
 62
               3
  5
394
 10
89.999999999999488
 20
-132.66902315887245
 30
0.0
 11
-90.000000000000654
 21
-132.66902315887359
 31
0.0
  0
LINE
  8
0
  6
CONTINUOUS
 62
               3
  5
395
 10
-74.999999999999801
 20
-12.669023158874722
 30
0.0
 11
-74.999999999999801
 21
-127.66902315887489
 31
0.0
  0
ARC
  8
0
  6
CONTINUOUS
 62
               3
  5
396
 10
-54.999999999999801
 20
-12.669023158874722
 30
0.0
 40
19.999999999999996
 50
148.21166938291961
 51
179.99999999996518
  0
ARC
  8
0
  6
CONTINUOUS
 62
               3
  5
397
 10
-80.000000000000227
 20
-127.66902315887489
 30
0.0
 40
5.0
 50
269.99999999994782
 51
302.00545482770707
  0
ARC
  8
0
  6
CONTINUOUS
 62
               3
  5
398
 10
-80.000000000000227
 20
-127.66902315887489
 30
0.0
 40
5.0
 50
327.31636115368025
 51
359.99999999993042
  0
ARC
  8
0
  6
CONTINUOUS
 62
               3
  5
399
 10
-637.00000000000045
 20
-300.27916847476132
 30
0.0
 40
5.0
 50
134.99999999997598
 51
179.99999999996507
  0
LINE
  8
0
  6
CONTINUOUS
 62
               3
  5
39A
 10
-81.826203114826654
 20
649.87517799397881
 30
0.0
 11
-89.305879370509672
 21
595.38844159776784
 31
0.0
  0
ARC
  8
0
  6
CONTINUOUS
 62
               3
  5
39B
 10
-0.1420807370019759
 20
583.14846556661098
 30
0.0
 40
90.0
 50
172.18356639349557
 51
187.8164336064348
  0
LINE
  8
0
  6
CONTINUOUS
 62
               3
  5
39C
 10
-81.826203114826654
 20
516.42175313924383
 30
0.0
 11
-89.305879370509672
 21
570.90848953545458
 31
0.0
  0
ARC
  8
0
  6
CONTINUOUS
 62
               3
  5
39D
 10
-763.00000000000023
 20
-300.27916847476035
 30
0.0
 40
5.0
 50
359.99999999993048
 51
404.9999999999215
  0
ARC
  8
0
  6
CONTINUOUS
 62
               3
  5
39E
 10
-776.99999999999955
 20
72.748401146171091
 30
0.0
 40
4.9999999999999991
 50
0.0
 51
66.421821521785304
  0
ARC
  8
0
  6
CONTINUOUS
 62
               3
  5
39F
 10
-622.99999999999977
 20
72.748401146171091
 30
0.0
 40
4.9999999999999991
 50
113.57817847818016
 51
179.99999999996507
  0
LINE
  8
0
  6
CONTINUOUS
 62
               3
  5
3A0
 10
-26.787357092479681
 20
-202.66902315887376
 30
0.0
 11
26.787357092479226
 21
-202.66902315887376
 31
0.0
  0
CIRCLE
  8
0
  6
CONTINUOUS
 62
               3
  5
3A1
 10
-0.0000000000002274
 20
-230.66902315887359
 30
0.0
 40
48.500000000000007
  0
CIRCLE
  8
0
  6
CONTINUOUS
 62
               3
  5
3A2
 10
-0.0000000000002274
 20
-230.66902315887359
 30
0.0
 40
38.75
  0
CIRCLE
  8
0
  6
CONTINUOUS
 62
               3
  5
3A3
 10
-0.0000000000002274
 20
-230.66902315887359
 30
0.0
 40
47.299999999999997
  0
LINE
  8
0
  6
CONTINUOUS
 62
               3
  5
3A4
 10
31.819805153394384
 20
-262.48882831226791
 30
0.0
 11
33.446150750123479
 21
-264.11517390899729
 31
0.0
  0
LINE
  8
0
  6
CONTINUOUS
 62
               3
  5
3A5
 10
-31.819805153394839
 20
-262.48882831226791
 30
0.0
 11
-33.446150750123934
 21
-264.11517390899729
 31
0.0
  0
ARC
  8
0
  6
CONTINUOUS
 62
               3
  5
3A6
 10
-0.0000000000002274
 20
-230.66902315887359
 30
0.0
 40
45.0
 50
224.99999999995646
 51
314.99999999993912
  0
CIRCLE
  8
0
  6
CONTINUOUS
 62
               3
  5
3A7
 10
-0.0000000000002274
 20
-230.66902315887359
 30
0.0
 40
43.0
  0
LINE
  8
0
  6
CONTINUOUS
 62
               3
  5
3A8
 10
-56.500000000000199
 20
-399.16902315887342
 30
0.0
 11
-56.000000000000739
 21
-398.66902315887393
 31
0.0
  0
LINE
  8
0
  6
CONTINUOUS
 62
               3
  5
3A9
 10
56.499999999999829
 20
-399.16902315887376
 30
0.0
 11
56.0
 21
-398.66902315887398
 31
0.0
  0
CIRCLE
  8
0
  6
CONTINUOUS
 62
               3
  5
3AA
 10
609.28652321630761
 20
-1064.6327830682731
 30
0.0
 40
75.0
  0
CIRCLE
  8
0
  6
CONTINUOUS
 62
               3
  5
3AB
 10
609.28652321630761
 20
-1064.6327830682731
 30
0.0
 40
52.5
  0
LINE
  8
0
  6
CONTINUOUS
 62
               3
  5
3AC
 10
523.07602501568226
 20
-1044.6327830682731
 30
0.0
 11
537.00236174230236
 21
-1044.6327830682731
 31
0.0
  0
LINE
  8
0
  6
CONTINUOUS
 62
               3
  5
3AD
 10
537.00236174230236
 20
-1084.6327830682731
 30
0.0
 11
523.07602501568226
 21
-1084.6327830682731
 31
0.0
  0
ARC
  8
0
  6
CONTINUOUS
 62
               3
  5
3AE
 10
609.28652321630761
 20
-1064.6327830682731
 30
0.0
 40
88.5
 50
166.93897588510336
 51
193.06102411468945
  0
LINE
  8
0
  6
CONTINUOUS
 62
               3
  5
3AF
 10
589.28652321630761
 20
-1150.843281268898
 30
0.0
 11
589.28652321630761
 21
-1136.9169445422781
 31
0.0
  0
LINE
  8
0
  6
CONTINUOUS
 62
               3
  5
3B0
 10
629.28652321630761
 20
-1136.9169445422781
 30
0.0
 11
629.28652321630761
 21
-1150.843281268898
 31
0.0
  0
ARC
  8
0
  6
CONTINUOUS
 62
               3
  5
3B1
 10
609.28652321630761
 20
-1064.6327830682731
 30
0.0
 40
88.5
 50
256.93897588505166
 51
283.06102411463769
  0
LINE
  8
0
  6
CONTINUOUS
 62
               3
  5
3B2
 10
695.49702141693228
 20
-1084.6327830682731
 30
0.0
 11
681.57068469031196
 21
-1084.6327830682731
 31
0.0
  0
LINE
  8
0
  6
CONTINUOUS
 62
               3
  5
3B3
 10
681.57068469031196
 20
-1044.6327830682731
 30
0.0
 11
695.49702141693228
 21
-1044.6327830682731
 31
0.0
  0
ARC
  8
0
  6
CONTINUOUS
 62
               3
  5
3B4
 10
609.28652321630761
 20
-1064.6327830682731
 30
0.0
 40
88.5
 50
346.93897588499982
 51
373.06102411458585
  0
LINE
  8
0
  6
CONTINUOUS
 62
               3
  5
3B5
 10
629.28652321630761
 20
-978.42228486764736
 30
0.0
 11
629.28652321630761
 21
-992.34862159426791
 31
0.0
  0
LINE
  8
0
  6
CONTINUOUS
 62
               3
  5
3B6
 10
589.28652321630761
 20
-992.34862159426791
 30
0.0
 11
589.28652321630761
 21
-978.42228486764736
 31
0.0
  0
ARC
  8
0
  6
CONTINUOUS
 62
               3
  5
3B7
 10
609.28652321630761
 20
-1064.6327830682731
 30
0.0
 40
88.5
 50
76.938975885155216
 51
103.06102411474124
  0
LINE
  8
0
  6
CONTINUOUS
 62
               3
  5
3B8
 10
561.61839969544667
 20
-1086.6327830682735
 30
0.0
 11
656.95464673716765
 21
-1086.6327830682735
 31
0.0
  0
ARC
  8
0
  6
CONTINUOUS
 62
               3
  5
3B9
 10
621.79013486568874
 20
-1055.926385440654
 30
0.0
 40
54.763804151667173
 50
141.3859176367566
 51
145.15009542087031
  0
ARC
  8
0
  6
CONTINUOUS
 62
               3
  5
3BA
 10
609.28652321630761
 20
-1064.6327830682731
 30
0.0
 40
51.5
 50
334.71098847326505
 51
410.95932736340404
  0
ARC
  8
0
  6
CONTINUOUS
 62
               3
  5
3BB
 10
609.28652321630761
 20
-1064.6327830682731
 30
0.0
 40
51.5
 50
129.04067263628559
 51
205.28901152642416
  0
ARC
  8
0
  6
CONTINUOUS
 62
               3
  5
3BC
 10
609.28652321630761
 20
-1064.6327830682731
 30
0.0
 40
77.5
 50
104.95524831658298
 51
128.57288309095932
  0
ARC
  8
0
  6
CONTINUOUS
 62
               3
  5
3BD
 10
609.28652321630761
 20
-1064.6327830682731
 30
0.0
 40
77.5
 50
14.9552483166347
 51
75.044751683313535
  0
ARC
  8
0
  6
CONTINUOUS
 62
               3
  5
3BE
 10
609.28652321630761
 20
-1064.6327830682731
 30
0.0
 40
77.5
 50
321.42711690878122
 51
345.04475168315804
  0
LINE
  8
0
  6
CONTINUOUS
 62
               3
  5
3BF
 10
469.28652321630761
 20
-1119.6327830682731
 30
0.0
 11
469.95807934227184
 21
-1119.6327830682731
 31
0.0
  0
LINE
  8
0
  6
CONTINUOUS
 62
               3
  5
3C0
 10
472.4580793422723
 20
-1122.1327830682731
 30
0.0
 11
469.95807934227184
 21
-1119.6327830682731
 31
0.0
  0
LINE
  8
0
  6
CONTINUOUS
 62
               3
  5
3C1
 10
469.28652321630761
 20
-1009.6327830682729
 30
0.0
 11
469.95807934227184
 21
-1009.6327830682729
 31
0.0
  0
LINE
  8
0
  6
CONTINUOUS
 62
               3
  5
3C2
 10
472.45807934227184
 20
-1007.1327830682729
 30
0.0
 11
469.95807934227184
 21
-1009.6327830682729
 31
0.0
  0
LINE
  8
0
  6
CONTINUOUS
 62
               3
  5
3C3
 10
469.95807934227184
 20
-1009.6327830682729
 30
0.0
 11
469.95807934227184
 21
-1119.6327830682731
 31
0.0
  0
LINE
  8
0
  6
CONTINUOUS
 62
               3
  5
3C4
 10
563.79618742992966
 20
-1003.9431860499313
 30
0.0
 11
472.45807934227184
 21
-1007.1327830682729
 31
0.0
  0
LINE
  8
0
  6
CONTINUOUS
 62
               3
  5
3C5
 10
544.45005149975668
 20
-1124.6467981332407
 30
0.0
 11
472.45807934227241
 21
-1122.1327830682731
 31
0.0
  0
LINE
  8
0
  6
CONTINUOUS
 62
               3
  5
3C6
 10
464.28652321630761
 20
-1009.8043391942371
 30
0.0
 11
464.28652321630761
 21
-1119.732783068273
 31
0.0
  0
LINE
  8
0
  6
CONTINUOUS
 62
               3
  5
3C7
 10
469.28652321630761
 20
-1122.232783068273
 30
0.0
 11
469.28652321630761
 21
-1007.0327830682729
 31
0.0
  0
LINE
  8
0
  6
CONTINUOUS
 62
               3
  5
3C8
 10
469.28652321630761
 20
-1007.0327830682729
 30
0.0
 11
466.78652321630761
 21
-1007.0327830682729
 31
0.0
  0
LINE
  8
0
  6
CONTINUOUS
 62
               3
  5
3C9
 10
469.28652321630761
 20
-1122.232783068273
 30
0.0
 11
466.78652321630761
 21
-1122.232783068273
 31
0.0
  0
ARC
  8
0
  6
CONTINUOUS
 62
               3
  5
3CA
 10
466.78652321630761
 20
-1119.732783068273
 30
0.0
 40
2.5
 50
179.99999999989538
 51
269.99999999984436
  0
ARC
  8
0
  6
CONTINUOUS
 62
               3
  5
3CB
 10
466.78652321630761
 20
-1009.5327830682729
 30
0.0
 40
2.5
 50
89.999999999948997
 51
179.99999999989538
  0
LINE
  8
0
  6
CONTINUOUS
 62
               3
  5
3CC
 10
576.84812004969012
 20
-1024.6327830682731
 30
0.0
 11
609.28652321630761
 21
-1024.6327830682731
 31
0.0
  0
LINE
  8
0
  6
CONTINUOUS
 62
               3
  5
3CD
 10
609.28652321630761
 20
-1024.6327830682731
 30
0.0
 11
643.2901994881463
 21
-1024.6327830682731
 31
0.0
  0
LINE
  8
0
  6
CONTINUOUS
 62
               3
  5
3CE
 10
472.4580793422723
 20
-1122.1327830682731
 30
0.0
 11
472.45807934227184
 21
-1007.1327830682729
 31
0.0
  0
ARC
  8
0
  6
CONTINUOUS
 62
               3
  5
3CF
 10
563.62168994641729
 20
-998.94623191483583
 30
0.0
 40
5.0
 50
271.99999999984402
 51
304.806757870252
  0
LINE
  8
0
  6
CONTINUOUS
 62
               3
  5
3D0
 10
664.28652321630761
 20
-1204.6327830682731
 30
0.0
 11
664.28652321630761
 21
-1203.9612269423087
 31
0.0
  0
LINE
  8
0
  6
CONTINUOUS
 62
               3
  5
3D1
 10
666.78652321630761
 20
-1201.4612269423083
 30
0.0
 11
664.28652321630761
 21
-1203.9612269423087
 31
0.0
  0
LINE
  8
0
  6
CONTINUOUS
 62
               3
  5
3D2
 10
554.28652321630761
 20
-1204.6327830682731
 30
0.0
 11
554.28652321630761
 21
-1203.9612269423087
 31
0.0
  0
LINE
  8
0
  6
CONTINUOUS
 62
               3
  5
3D3
 10
551.78652321630761
 20
-1201.4612269423087
 30
0.0
 11
554.28652321630761
 21
-1203.9612269423087
 31
0.0
  0
LINE
  8
0
  6
CONTINUOUS
 62
               3
  5
3D4
 10
554.28652321630761
 20
-1203.9612269423087
 30
0.0
 11
664.28652321630761
 21
-1203.9612269423087
 31
0.0
  0
LINE
  8
0
  6
CONTINUOUS
 62
               3
  5
3D5
 10
554.45807934227173
 20
-1209.6327830682731
 30
0.0
 11
664.38652321630752
 21
-1209.6327830682731
 31
0.0
  0
LINE
  8
0
  6
CONTINUOUS
 62
               3
  5
3D6
 10
666.88652321630752
 20
-1204.6327830682731
 30
0.0
 11
551.68652321630748
 21
-1204.6327830682731
 31
0.0
  0
LINE
  8
0
  6
CONTINUOUS
 62
               3
  5
3D7
 10
551.68652321630748
 20
-1204.6327830682731
 30
0.0
 11
551.68652321630748
 21
-1207.1327830682731
 31
0.0
  0
LINE
  8
0
  6
CONTINUOUS
 62
               3
  5
3D8
 10
666.88652321630752
 20
-1204.6327830682731
 30
0.0
 11
666.88652321630752
 21
-1207.1327830682731
 31
0.0
  0
ARC
  8
0
  6
CONTINUOUS
 62
               3
  5
3D9
 10
664.38652321630752
 20
-1207.1327830682731
 30
0.0
 40
2.5
 50
269.99999999984567
 51
359.99999999979076
  0
ARC
  8
0
  6
CONTINUOUS
 62
               3
  5
3DA
 10
554.18652321630748
 20
-1207.1327830682731
 30
0.0
 40
2.5
 50
179.99999999989538
 51
269.99999999984567
  0
LINE
  8
0
  6
CONTINUOUS
 62
               3
  5
3DB
 10
666.78652321630761
 20
-1201.4612269423083
 30
0.0
 11
551.78652321630761
 21
-1201.4612269423087
 31
0.0
  0
LINE
  8
0
  6
CONTINUOUS
 62
               3
  5
3DC
 10
669.97612023464876
 20
-1110.1231188546517
 30
0.0
 11
666.78652321630761
 21
-1201.4612269423083
 31
0.0
  0
ARC
  8
0
  6
CONTINUOUS
 62
               3
  5
3DD
 10
674.97307436974415
 20
-1110.2976163381641
 30
0.0
 40
5.0
 50
145.19324212948862
 51
177.99999999989819
  0
LINE
  8
0
  6
CONTINUOUS
 62
               3
  5
3DE
 10
549.27250815133948
 20
-1129.469254784824
 30
0.0
 11
551.78652321630761
 21
-1201.4612269423087
 31
0.0
  0
ARC
  8
0
  6
CONTINUOUS
 62
               3
  5
3DF
 10
544.27555401624409
 20
-1129.6437522683364
 30
0.0
 40
5.0
 50
1.9999999999958187
 51
87.99999999994921
  0
LINE
  8
0
  6
CONTINUOUS
 62
               3
  5
3E0
 10
534.28652321630761
 20
-1373.1322168168576
 30
0.0
 11
684.28652321630761
 21
-1373.1322168168576
 31
0.0
  0
LINE
  8
0
  6
CONTINUOUS
 62
               3
  5
3E1
 10
520.78652321630739
 20
-1383.1322168168576
 30
0.0
 11
520.78652321630739
 21
-1390.1322168168572
 31
0.0
  0
LINE
  8
0
  6
CONTINUOUS
 62
               3
  5
3E2
 10
520.78652321630739
 20
-1383.1322168168576
 30
0.0
 11
534.28652321630761
 21
-1373.1322168168576
 31
0.0
  0
ARC
  8
0
  6
CONTINUOUS
 62
               3
  5
3E3
 10
532.28652321630784
 20
-1394.7147925118129
 30
0.0
 40
4.9999999999999991
 50
0.0
 51
66.421821521760023
  0
LINE
  8
0
  6
CONTINUOUS
 62
               3
  5
3E4
 10
520.78652321630739
 20
-1390.1322168168572
 30
0.0
 11
697.78652321630739
 21
-1390.1322168168572
 31
0.0
  0
ARC
  8
0
  6
CONTINUOUS
 62
               3
  5
3E5
 10
554.28652321630761
 20
-1480.1322168168576
 30
0.0
 40
19.999999999999996
 50
148.21166938286279
 51
167.26981986159123
  0
LINE
  8
0
  6
CONTINUOUS
 62
               3
  5
3E6
 10
537.28652321630784
 20
-1394.7147925118129
 30
0.0
 11
537.28652321630784
 21
-1469.5965630640048
 31
0.0
  0
LINE
  8
0
  6
CONTINUOUS
 62
               3
  5
3E7
 10
681.28652321630761
 20
-1464.5965630640044
 30
0.0
 11
681.28652321630761
 21
-1394.7147925118129
 31
0.0
  0
LINE
  8
0
  6
CONTINUOUS
 62
               3
  5
3E8
 10
537.28652321630784
 20
-1469.5965630640048
 30
0.0
 11
680.78652321630807
 21
-1469.5965630640048
 31
0.0
  0
LINE
  8
0
  6
CONTINUOUS
 62
               3
  5
3E9
 10
589.28652321630761
 20
-1390.1322168168572
 30
0.0
 11
589.28652321630761
 21
-1373.1322168168576
 31
0.0
  0
LINE
  8
0
  6
CONTINUOUS
 62
               3
  5
3EA
 10
629.28652321630761
 20
-1373.1322168168576
 30
0.0
 11
629.28652321630761
 21
-1390.1322168168572
 31
0.0
  0
LINE
  8
0
  6
CONTINUOUS
 62
               3
  5
3EB
 10
589.28652321630761
 20
-1383.1322168168576
 30
0.0
 11
629.28652321630761
 21
-1383.1322168168576
 31
0.0
  0
LINE
  8
0
  6
CONTINUOUS
 62
               3
  5
3EC
 10
537.00236174230236
 20
-1373.1322168168576
 30
0.0
 11
537.00236174230236
 21
-1390.1322168168572
 31
0.0
  0
LINE
  8
0
  6
CONTINUOUS
 62
               3
  5
3ED
 10
523.07602501568226
 20
-1383.1322168168576
 30
0.0
 11
523.07602501568226
 21
-1390.1322168168572
 31
0.0
  0
LINE
  8
0
  6
CONTINUOUS
 62
               3
  5
3EE
 10
520.78652321630739
 20
-1383.1322168168576
 30
0.0
 11
523.07602501568226
 21
-1383.1322168168576
 31
0.0
  0
LINE
  8
0
  6
CONTINUOUS
 62
               3
  5
3EF
 10
523.07602501568226
 20
-1383.1322168168576
 30
0.0
 11
537.00236174230236
 21
-1373.1322168168576
 31
0.0
  0
LINE
  8
0
  6
CONTINUOUS
 62
               3
  5
3F0
 10
697.78652321630739
 20
-1383.1322168168576
 30
0.0
 11
697.78652321630739
 21
-1390.1322168168572
 31
0.0
  0
LINE
  8
0
  6
CONTINUOUS
 62
               3
  5
3F1
 10
697.78652321630739
 20
-1383.1322168168576
 30
0.0
 11
684.28652321630761
 21
-1373.1322168168576
 31
0.0
  0
ARC
  8
0
  6
CONTINUOUS
 62
               3
  5
3F2
 10
686.28652321630761
 20
-1394.7147925118129
 30
0.0
 40
4.9999999999999991
 50
113.57817847813573
 51
179.99999999989538
  0
LINE
  8
0
  6
CONTINUOUS
 62
               3
  5
3F3
 10
681.57068469031196
 20
-1373.1322168168576
 30
0.0
 11
681.57068469031196
 21
-1390.1322168168572
 31
0.0
  0
LINE
  8
0
  6
CONTINUOUS
 62
               3
  5
3F4
 10
695.49702141693297
 20
-1383.1322168168576
 30
0.0
 11
695.49702141693297
 21
-1390.1322168168572
 31
0.0
  0
LINE
  8
0
  6
CONTINUOUS
 62
               3
  5
3F5
 10
697.78652321630739
 20
-1383.1322168168576
 30
0.0
 11
695.49702141693297
 21
-1383.1322168168576
 31
0.0
  0
LINE
  8
0
  6
CONTINUOUS
 62
               3
  5
3F6
 10
695.49702141693297
 20
-1383.1322168168576
 30
0.0
 11
681.57068469031196
 21
-1373.1322168168576
 31
0.0
  0
ARC
  8
0
  6
CONTINUOUS
 62
               3
  5
3F7
 10
544.28652321630761
 20
-1601.6322168168576
 30
0.0
 40
2.4999999999999996
 50
89.99999999994769
 51
269.99999999984567
  0
ARC
  8
0
  6
CONTINUOUS
 62
               3
  5
3F8
 10
684.28652321630761
 20
-1601.6322168168576
 30
0.0
 40
2.4999999999999996
 50
269.99999999984567
 51
449.99999999974102
  0
LINE
  8
0
  6
CONTINUOUS
 62
               3
  5
3F9
 10
469.28652321630761
 20
-1594.1322168168576
 30
0.0
 11
469.95807934227196
 21
-1594.1322168168576
 31
0.0
  0
LINE
  8
0
  6
CONTINUOUS
 62
               3
  5
3FA
 10
472.45807934227207
 20
-1596.6322168168567
 30
0.0
 11
469.95807934227196
 21
-1594.1322168168576
 31
0.0
  0
LINE
  8
0
  6
CONTINUOUS
 62
               3
  5
3FB
 10
472.45807934227287
 20
-1596.6322168168576
 30
0.0
 11
514.6231895985502
 21
-1598.1046549127118
 31
0.0
  0
LINE
  8
0
  6
CONTINUOUS
 62
               3
  5
3FC
 10
532.82205712224027
 20
-1614.4039062431434
 30
0.0
 11
517.98422602097025
 21
-1599.5660751418741
 31
0.0
  0
ARC
  8
0
  6
CONTINUOUS
 62
               3
  5
3FD
 10
529.28652321630761
 20
-1617.9394401490767
 30
0.0
 40
4.9999999999999991
 50
0.0
 51
44.999999999973191
  0
LINE
  8
0
  6
CONTINUOUS
 62
               3
  5
3FE
 10
469.28652321630761
 20
-1484.1322168168576
 30
0.0
 11
469.95807934227196
 21
-1484.1322168168576
 31
0.0
  0
LINE
  8
0
  6
CONTINUOUS
 62
               3
  5
3FF
 10
472.45807934227207
 20
-1481.6322168168576
 30
0.0
 11
469.95807934227196
 21
-1484.1322168168576
 31
0.0
  0
LINE
  8
0
  6
CONTINUOUS
 62
               3
  5
400
 10
472.45807934227196
 20
-1481.6322168168576
 30
0.0
 11
530.07555554444639
 21
-1479.620170211705
 31
0.0
  0
LINE
  8
0
  6
CONTINUOUS
 62
               3
  5
401
 10
469.95807934227196
 20
-1484.1322168168576
 30
0.0
 11
469.95807934227196
 21
-1594.1322168168576
 31
0.0
  0
LINE
  8
0
  6
CONTINUOUS
 62
               3
  5
402
 10
469.28652321630761
 20
-1596.7322168168575
 30
0.0
 11
469.28652321630761
 21
-1481.5322168168577
 31
0.0
  0
LINE
  8
0
  6
CONTINUOUS
 62
               3
  5
403
 10
469.28652321630761
 20
-1481.5322168168577
 30
0.0
 11
466.78652321630761
 21
-1481.5322168168577
 31
0.0
  0
ARC
  8
0
  6
CONTINUOUS
 62
               3
  5
404
 10
466.78652321630761
 20
-1484.0322168168577
 30
0.0
 40
2.5
 50
89.999999999948997
 51
179.99999999989538
  0
LINE
  8
0
  6
CONTINUOUS
 62
               3
  5
405
 10
464.28652321630761
 20
-1484.0322168168577
 30
0.0
 11
464.28652321630761
 21
-1594.2322168168575
 31
0.0
  0
LINE
  8
0
  6
CONTINUOUS
 62
               3
  5
406
 10
469.28652321630761
 20
-1596.7322168168575
 30
0.0
 11
466.78652321630761
 21
-1596.7322168168575
 31
0.0
  0
ARC
  8
0
  6
CONTINUOUS
 62
               3
  5
407
 10
466.78652321630761
 20
-1594.2322168168575
 30
0.0
 40
2.5
 50
179.99999999989538
 51
269.99999999984436
  0
LINE
  8
0
  6
CONTINUOUS
 62
               3
  5
408
 10
472.45807934227207
 20
-1481.6322168168576
 30
0.0
 11
472.45807934227287
 21
-1596.6322168168576
 31
0.0
  0
ARC
  8
0
  6
CONTINUOUS
 62
               3
  5
409
 10
514.4486921150376
 20
-1603.101609047807
 30
0.0
 40
5.0
 50
44.999999999975948
 51
87.999999999949253
  0
ARC
  8
0
  6
CONTINUOUS
 62
               3
  5
40A
 10
529.90105806093379
 20
-1474.6232160766099
 30
0.0
 40
5.0
 50
271.99999999984408
 51
347.26981986148661
  0
CIRCLE
  8
0
  6
CONTINUOUS
 62
               3
  5
40B
 10
609.28652321630761
 20
-1539.1322168168576
 30
0.0
 40
48.5
  0
CIRCLE
  8
0
  6
CONTINUOUS
 62
               3
  5
40C
 10
609.28652321630761
 20
-1539.1322168168576
 30
0.0
 40
47.299999999999997
  0
LINE
  8
0
  6
CONTINUOUS
 62
               3
  5
40D
 10
577.46671806291306
 20
-1570.9520219702522
 30
0.0
 11
575.84037246618391
 21
-1572.5783675669813
 31
0.0
  0
LINE
  8
0
  6
CONTINUOUS
 62
               3
  5
40E
 10
641.1063283697024
 20
-1570.9520219702522
 30
0.0
 11
642.73267396643132
 21
-1572.5783675669813
 31
0.0
  0
ARC
  8
0
  6
CONTINUOUS
 62
               3
  5
40F
 10
609.28652321630761
 20
-1539.1322168168576
 30
0.0
 40
45.0
 50
224.99999999987043
 51
314.99999999981884
  0
CIRCLE
  8
0
  6
CONTINUOUS
 62
               3
  5
410
 10
609.28652321630761
 20
-1539.1322168168576
 30
0.0
 40
57.600000000000001
  0
ARC
  8
0
  6
CONTINUOUS
 62
               3
  5
411
 10
586.7865232163083
 20
-1601.6322168168576
 30
0.0
 40
2.4999999999999996
 50
269.99999999984567
 51
449.99999999974102
  0
ARC
  8
0
  6
CONTINUOUS
 62
               3
  5
412
 10
631.7865232163083
 20
-1601.6322168168576
 30
0.0
 40
2.4999999999999996
 50
89.99999999994769
 51
269.99999999984567
  0
LINE
  8
0
  6
CONTINUOUS
 62
               3
  5
413
 10
544.28652321630761
 20
-1604.1322168168576
 30
0.0
 11
586.7865232163083
 21
-1604.1322168168576
 31
0.0
  0
LINE
  8
0
  6
CONTINUOUS
 62
               3
  5
414
 10
544.28652321630761
 20
-1599.1322168168576
 30
0.0
 11
586.7865232163083
 21
-1599.1322168168576
 31
0.0
  0
LINE
  8
0
  6
CONTINUOUS
 62
               3
  5
415
 10
631.7865232163083
 20
-1599.1322168168576
 30
0.0
 11
684.28652321630761
 21
-1599.1322168168576
 31
0.0
  0
LINE
  8
0
  6
CONTINUOUS
 62
               3
  5
416
 10
631.7865232163083
 20
-1604.1322168168576
 30
0.0
 11
684.28652321630761
 21
-1604.1322168168576
 31
0.0
  0
CIRCLE
  8
0
  6
CONTINUOUS
 62
               3
  5
417
 10
609.28652321630761
 20
-1064.6327830682731
 30
0.0
 40
59.0
  0
INSERT
  8
0
  6
CONTINUOUS
  5
418
  2
GROUP_1
 10
0.0
 20
0.0
 30
0.0
  0
INSERT
  8
0
  6
CONTINUOUS
  5
419
  2
GROUP_2
 10
0.0
 20
0.0
 30
0.0
  0
INSERT
  8
0
  6
CONTINUOUS
  5
41A
  2
GROUP_3
 10
0.0
 20
0.0
 30
0.0
  0
INSERT
  8
0
  6
CONTINUOUS
  5
41B
  2
GROUP_4
 10
0.0
 20
0.0
 30
0.0
  0
INSERT
  8
0
  6
CONTINUOUS
  5
41C
  2
GROUP_5
 10
0.0
 20
0.0
 30
0.0
  0
INSERT
  8
0
  6
CONTINUOUS
  5
41D
  2
GROUP_6
 10
0.0
 20
0.0
 30
0.0
  0
INSERT
  8
0
  6
CONTINUOUS
  5
41E
  2
GROUP_7
 10
0.0
 20
0.0
 30
0.0
  0
INSERT
  8
0
  6
CONTINUOUS
  5
41F
  2
GROUP_8
 10
0.0
 20
0.0
 30
0.0
  0
INSERT
  8
0
  6
CONTINUOUS
  5
420
  2
GROUP_9
 10
0.0
 20
0.0
 30
0.0
  0
INSERT
  8
0
  6
CONTINUOUS
  5
421
  2
GROUP_10
 10
0.0
 20
0.0
 30
0.0
  0
POINT
  8
0
  6
CONTINUOUS
 62
               5
  5
422
 10
-392.13776905046893
 20
-1122.3172186400639
 30
0.0
  0
POINT
  8
0
  6
CONTINUOUS
 62
               5
  5
423
 10
-218.90769754050859
 20
-1123.608012714953
 30
0.0
  0
POINT
  8
0
  6
CONTINUOUS
 62
               5
  5
424
 10
-565.36784056042916
 20
-1123.6080127149526
 30
0.0
  0
POINT
  8
0
  6
CONTINUOUS
 62
               5
  5
425
 10
-395.37452052112451
 20
-941.61926306106864
 30
0.0
  0
POINT
  8
0
  6
CONTINUOUS
 62
               5
  5
426
 10
493.01659472626795
 20
-1540.4230108917463
 30
0.0
  0
POINT
  8
0
  6
CONTINUOUS
 62
               5
  5
427
 10
493.01659472626807
 20
-1063.3419889933839
 30
0.0
  0
CIRCLE
  8
0
  6
CONTINUOUS
 62
               7
  5
428
 10
-392.13776905046893
 20
-1128.8172186400639
 30
0.0
 40
38.0
  0
CIRCLE
  8
0
  6
CONTINUOUS
 62
               7
  5
429
 10
-392.13776905046893
 20
-1128.8172186400639
 30
0.0
 40
33.5
  0
LINE
  8
0
  6
CONTINUOUS
 62
               7
  5
42A
 10
-247.63776905046893
 20
-1077.8172186400639
 30
0.0
 11
-247.63776905046893
 21
-1166.8119825193894
 31
0.0
  0
LINE
  8
0
  6
CONTINUOUS
 62
               7
  5
42B
 10
-247.03776905046891
 20
-1077.8172186400639
 30
0.0
 11
-247.63776905046893
 21
-1077.8172186400639
 31
0.0
  0
LINE
  8
0
  6
CONTINUOUS
 62
               7
  5
42C
 10
-282.63776905046893
 20
-1165.8172186400639
 30
0.0
 11
-282.63776905046893
 21
-1091.8172186400639
 31
0.0
  0
LINE
  8
0
  6
CONTINUOUS
 62
               7
  5
42D
 10
-189.63776905046893
 20
-1165.8172186400639
 30
0.0
 11
-189.63776905046893
 21
-1078.8172186400639
 31
0.0
  0
LINE
  8
0
  6
CONTINUOUS
 62
               7
  5
42E
 10
-247.63776905046893
 20
-1077.8172186400639
 30
0.0
 11
-190.63776905046893
 21
-1077.8172186400639
 31
0.0
  0
LINE
  8
0
  6
CONTINUOUS
 62
               7
  5
42F
 10
-281.63776905046893
 20
-1166.8172186400639
 30
0.0
 11
-190.63776905046893
 21
-1166.8172186400639
 31
0.0
  0
LINE
  8
0
  6
CONTINUOUS
 62
               7
  5
430
 10
-190.63776905046893
 20
-1077.8172186400639
 30
0.0
 11
-189.63776905046893
 21
-1078.8172186400639
 31
0.0
  0
LINE
  8
0
  6
CONTINUOUS
 62
               7
  5
431
 10
-189.63776905046893
 20
-1165.8172186400639
 30
0.0
 11
-190.63776905046893
 21
-1166.8172186400639
 31
0.0
  0
LINE
  8
0
  6
CONTINUOUS
 62
               7
  5
432
 10
-281.63776905046893
 20
-1090.8172186400639
 30
0.0
 11
-247.63776905046893
 21
-1090.8172186400639
 31
0.0
  0
CIRCLE
  8
0
  6
CONTINUOUS
 62
               7
  5
433
 10
-392.13776905046893
 20
-1122.3172186400639
 30
0.0
 40
44.5
  0
LINE
  8
0
  6
CONTINUOUS
 62
               7
  5
434
 10
-281.63776905046893
 20
-1090.8172186400639
 30
0.0
 11
-282.63776905046893
 21
-1091.8172186400639
 31
0.0
  0
LINE
  8
0
  6
CONTINUOUS
 62
               7
  5
435
 10
-282.63776905046893
 20
-1165.8172186400639
 30
0.0
 11
-281.63776905046893
 21
-1166.8172186400639
 31
0.0
  0
LINE
  8
0
  6
CONTINUOUS
 62
               7
  5
436
 10
-536.63776905046871
 20
-1077.8172186400639
 30
0.0
 11
-536.63776905046893
 21
-1166.8119825193894
 31
0.0
  0
LINE
  8
0
  6
CONTINUOUS
 62
               7
  5
437
 10
-537.23776905046884
 20
-1077.8172186400639
 30
0.0
 11
-536.63776905046871
 21
-1077.8172186400639
 31
0.0
  0
LINE
  8
0
  6
CONTINUOUS
 62
               7
  5
438
 10
-501.63776905046899
 20
-1165.8172186400639
 30
0.0
 11
-501.63776905046876
 21
-1091.8172186400639
 31
0.0
  0
LINE
  8
0
  6
CONTINUOUS
 62
               7
  5
439
 10
-594.63776905046893
 20
-1165.8172186400639
 30
0.0
 11
-594.63776905046871
 21
-1078.8172186400639
 31
0.0
  0
LINE
  8
0
  6
CONTINUOUS
 62
               7
  5
43A
 10
-536.63776905046871
 20
-1077.8172186400639
 30
0.0
 11
-593.63776905046871
 21
-1077.8172186400639
 31
0.0
  0
LINE
  8
0
  6
CONTINUOUS
 62
               7
  5
43B
 10
-502.63776905046899
 20
-1166.8172186400639
 30
0.0
 11
-593.63776905046893
 21
-1166.8172186400639
 31
0.0
  0
LINE
  8
0
  6
CONTINUOUS
 62
               7
  5
43C
 10
-593.63776905046871
 20
-1077.8172186400639
 30
0.0
 11
-594.63776905046871
 21
-1078.8172186400639
 31
0.0
  0
LINE
  8
0
  6
CONTINUOUS
 62
               7
  5
43D
 10
-594.63776905046893
 20
-1165.8172186400639
 30
0.0
 11
-593.63776905046893
 21
-1166.8172186400639
 31
0.0
  0
LINE
  8
0
  6
CONTINUOUS
 62
               7
  5
43E
 10
-502.63776905046876
 20
-1090.8172186400639
 30
0.0
 11
-536.63776905046871
 21
-1090.8172186400639
 31
0.0
  0
LINE
  8
0
  6
CONTINUOUS
 62
               7
  5
43F
 10
-502.63776905046876
 20
-1090.8172186400639
 30
0.0
 11
-501.63776905046876
 21
-1091.8172186400639
 31
0.0
  0
LINE
  8
0
  6
CONTINUOUS
 62
               7
  5
440
 10
-501.63776905046899
 20
-1165.8172186400639
 30
0.0
 11
-502.63776905046899
 21
-1166.8172186400639
 31
0.0
  0
LINE
  8
0
  6
CONTINUOUS
 62
               7
  5
441
 10
-349.58372644623546
 20
-970.34933457102909
 30
0.0
 11
-438.57849032556101
 21
-970.34933457102886
 31
0.0
  0
LINE
  8
0
  6
CONTINUOUS
 62
               7
  5
442
 10
-349.58372644623546
 20
-969.74933457102895
 30
0.0
 11
-349.58372644623546
 21
-970.34933457102909
 31
0.0
  0
LINE
  8
0
  6
CONTINUOUS
 62
               7
  5
443
 10
-431.08372644623546
 20
-1005.3493345710289
 30
0.0
 11
-357.08372644623546
 21
-1005.3493345710291
 31
0.0
  0
LINE
  8
0
  6
CONTINUOUS
 62
               7
  5
444
 10
-437.58372644623535
 20
-912.34933457102886
 30
0.0
 11
-350.58372644623546
 21
-912.34933457102909
 31
0.0
  0
LINE
  8
0
  6
CONTINUOUS
 62
               7
  5
445
 10
-349.58372644623546
 20
-970.34933457102909
 30
0.0
 11
-349.58372644623546
 21
-913.34933457102909
 31
0.0
  0
LINE
  8
0
  6
CONTINUOUS
 62
               7
  5
446
 10
-432.08372644623546
 20
-1004.3493345710289
 30
0.0
 11
-432.08372644623546
 21
-970.34933457102886
 31
0.0
  0
LINE
  8
0
  6
CONTINUOUS
 62
               7
  5
447
 10
-349.58372644623546
 20
-913.34933457102909
 30
0.0
 11
-350.58372644623546
 21
-912.34933457102909
 31
0.0
  0
LINE
  8
0
  6
CONTINUOUS
 62
               7
  5
448
 10
-437.58372644623535
 20
-912.34933457102886
 30
0.0
 11
-438.58372644623535
 21
-913.34933457102886
 31
0.0
  0
LINE
  8
0
  6
CONTINUOUS
 62
               7
  5
449
 10
-356.08372644623546
 20
-1004.3493345710291
 30
0.0
 11
-356.08372644623546
 21
-970.34933457102886
 31
0.0
  0
LINE
  8
0
  6
CONTINUOUS
 62
               7
  5
44A
 10
-356.08372644623546
 20
-1004.3493345710291
 30
0.0
 11
-357.08372644623546
 21
-1005.3493345710291
 31
0.0
  0
LINE
  8
0
  6
CONTINUOUS
 62
               7
  5
44B
 10
-431.08372644623546
 20
-1005.3493345710289
 30
0.0
 11
-432.08372644623546
 21
-1004.3493345710289
 31
0.0
  0
LINE
  8
0
  6
CONTINUOUS
 62
               7
  5
44C
 10
-438.58372644623546
 20
-970.34933457102886
 30
0.0
 11
-438.58372644623546
 21
-913.34933457102886
 31
0.0
  0
LINE
  8
0
  6
CONTINUOUS
 62
               7
  5
44D
 10
216.63392368588075
 20
-1165.8172186400639
 30
0.0
 11
216.63392368588075
 21
-1107.8172186400639
 31
0.0
  0
LINE
  8
0
  6
CONTINUOUS
 62
               7
  5
44E
 10
242.23392368588065
 20
-1077.8172186400639
 30
0.0
 11
242.23392368588065
 21
-1166.8172186400639
 31
0.0
  0
LINE
  8
0
  6
CONTINUOUS
 62
               7
  5
44F
 10
242.83392368588079
 20
-1077.8172186400639
 30
0.0
 11
242.23392368588065
 21
-1077.8172186400639
 31
0.0
  0
LINE
  8
0
  6
CONTINUOUS
 62
               7
  5
450
 10
300.23392368588088
 20
-1165.8172186400639
 30
0.0
 11
300.23392368588088
 21
-1078.8172186400639
 31
0.0
  0
CIRCLE
  8
0
  6
CONTINUOUS
 62
               7
  5
451
 10
120.87790746063774
 20
-1136.8172186400639
 30
0.0
 40
30.0
  0
CIRCLE
  8
0
  6
CONTINUOUS
 62
               7
  5
452
 10
120.87790746063774
 20
-1136.8172186400639
 30
0.0
 40
25.5
  0
CIRCLE
  8
0
  6
CONTINUOUS
 62
               7
  5
453
 10
120.87790746063774
 20
-1122.3172186400639
 30
0.0
 40
44.5
  0
LINE
  8
0
  6
CONTINUOUS
 62
               7
  5
454
 10
242.36837543136107
 20
-1077.8172186400639
 30
0.0
 11
299.23392368588088
 21
-1077.8172186400639
 31
0.0
  0
LINE
  8
0
  6
CONTINUOUS
 62
               7
  5
455
 10
217.63392368588075
 20
-1166.8172186400639
 30
0.0
 11
299.23392368588088
 21
-1166.8172186400639
 31
0.0
  0
LINE
  8
0
  6
CONTINUOUS
 62
               7
  5
456
 10
217.63392368588075
 20
-1106.8172186400639
 30
0.0
 11
242.23392368588065
 21
-1106.8172186400639
 31
0.0
  0
LINE
  8
0
  6
CONTINUOUS
 62
               7
  5
457
 10
217.63392368588075
 20
-1106.8172186400639
 30
0.0
 11
216.63392368588075
 21
-1107.8172186400639
 31
0.0
  0
LINE
  8
0
  6
CONTINUOUS
 62
               7
  5
458
 10
299.23392368588088
 20
-1077.8172186400639
 30
0.0
 11
300.23392368588088
 21
-1078.8172186400639
 31
0.0
  0
LINE
  8
0
  6
CONTINUOUS
 62
               7
  5
459
 10
216.63392368588075
 20
-1165.8172186400639
 30
0.0
 11
217.63392368588075
 21
-1166.8172186400639
 31
0.0
  0
LINE
  8
0
  6
CONTINUOUS
 62
               7
  5
45A
 10
300.23392368588088
 20
-1165.8172186400639
 30
0.0
 11
299.23392368588088
 21
-1166.8172186400639
 31
0.0
  0
LINE
  8
0
  6
CONTINUOUS
 62
               7
  5
45B
 10
25.121891235394969
 20
-1165.8172186400639
 30
0.0
 11
25.121891235394969
 21
-1107.8172186400639
 31
0.0
  0
LINE
  8
0
  6
CONTINUOUS
 62
               7
  5
45C
 10
-0.4781087646050537
 20
-1077.8172186400639
 30
0.0
 11
-0.4781087646050537
 21
-1166.8172186400639
 31
0.0
  0
LINE
  8
0
  6
CONTINUOUS
 62
               7
  5
45D
 10
-1.0781087646050764
 20
-1077.8172186400639
 30
0.0
 11
-0.4781087646050537
 21
-1077.8172186400639
 31
0.0
  0
LINE
  8
0
  6
CONTINUOUS
 62
               7
  5
45E
 10
-58.478108764605054
 20
-1165.8172186400639
 30
0.0
 11
-58.478108764605054
 21
-1078.8172186400639
 31
0.0
  0
LINE
  8
0
  6
CONTINUOUS
 62
               7
  5
45F
 10
-0.6125605100853591
 20
-1077.8172186400639
 30
0.0
 11
-57.478108764605054
 21
-1077.8172186400639
 31
0.0
  0
LINE
  8
0
  6
CONTINUOUS
 62
               7
  5
460
 10
24.121891235394969
 20
-1166.8172186400639
 30
0.0
 11
-57.478108764605054
 21
-1166.8172186400639
 31
0.0
  0
LINE
  8
0
  6
CONTINUOUS
 62
               7
  5
461
 10
24.121891235394969
 20
-1106.8172186400639
 30
0.0
 11
-0.4781087646050537
 21
-1106.8172186400639
 31
0.0
  0
LINE
  8
0
  6
CONTINUOUS
 62
               7
  5
462
 10
24.121891235394969
 20
-1106.8172186400639
 30
0.0
 11
25.121891235394969
 21
-1107.8172186400639
 31
0.0
  0
LINE
  8
0
  6
CONTINUOUS
 62
               7
  5
463
 10
-57.478108764605054
 20
-1077.8172186400639
 30
0.0
 11
-58.478108764605054
 21
-1078.8172186400639
 31
0.0
  0
LINE
  8
0
  6
CONTINUOUS
 62
               7
  5
464
 10
25.121891235394969
 20
-1165.8172186400639
 30
0.0
 11
24.121891235394969
 21
-1166.8172186400639
 31
0.0
  0
LINE
  8
0
  6
CONTINUOUS
 62
               7
  5
465
 10
-58.478108764605054
 20
-1165.8172186400639
 30
0.0
 11
-57.478108764605054
 21
-1166.8172186400639
 31
0.0
  0
LINE
  8
0
  6
CONTINUOUS
 62
               7
  5
466
 10
91.877907460637971
 20
-1016.0612024148212
 30
0.0
 11
149.87790746063797
 21
-1016.0612024148212
 31
0.0
  0
LINE
  8
0
  6
CONTINUOUS
 62
               7
  5
467
 10
165.37790746063797
 20
-990.46120241482106
 30
0.0
 11
76.377907460637971
 21
-990.46120241482106
 31
0.0
  0
LINE
  8
0
  6
CONTINUOUS
 62
               7
  5
468
 10
165.37790746063797
 20
-989.86120241482115
 30
0.0
 11
165.37790746063797
 21
-990.46120241482106
 31
0.0
  0
LINE
  8
0
  6
CONTINUOUS
 62
               7
  5
469
 10
77.377907460637971
 20
-932.46120241482106
 30
0.0
 11
164.37790746063797
 21
-932.46120241482106
 31
0.0
  0
LINE
  8
0
  6
CONTINUOUS
 62
               7
  5
46A
 10
165.37790746063797
 20
-990.32675066934087
 30
0.0
 11
165.37790746063797
 21
-933.46120241482106
 31
0.0
  0
LINE
  8
0
  6
CONTINUOUS
 62
               7
  5
46B
 10
90.877907460637971
 20
-1015.0612024148212
 30
0.0
 11
90.877907460637971
 21
-990.46120241482106
 31
0.0
  0
LINE
  8
0
  6
CONTINUOUS
 62
               7
  5
46C
 10
150.87790746063797
 20
-1015.0612024148212
 30
0.0
 11
150.87790746063797
 21
-990.46120241482106
 31
0.0
  0
LINE
  8
0
  6
CONTINUOUS
 62
               7
  5
46D
 10
150.87790746063797
 20
-1015.0612024148212
 30
0.0
 11
149.87790746063797
 21
-1016.0612024148212
 31
0.0
  0
LINE
  8
0
  6
CONTINUOUS
 62
               7
  5
46E
 10
165.37790746063797
 20
-933.46120241482106
 30
0.0
 11
164.37790746063797
 21
-932.46120241482106
 31
0.0
  0
LINE
  8
0
  6
CONTINUOUS
 62
               7
  5
46F
 10
91.877907460637971
 20
-1016.0612024148212
 30
0.0
 11
90.877907460637971
 21
-1015.0612024148212
 31
0.0
  0
LINE
  8
0
  6
CONTINUOUS
 62
               7
  5
470
 10
77.377907460637971
 20
-932.46120241482106
 30
0.0
 11
76.377907460637971
 21
-933.46120241482106
 31
0.0
  0
LINE
  8
0
  6
CONTINUOUS
 62
               7
  5
471
 10
76.377907460637971
 20
-990.32675066934064
 30
0.0
 11
76.377907460637971
 21
-933.46120241482106
 31
0.0
  0
CIRCLE
  8
0
  6
CONTINUOUS
 62
               7
  5
472
 10
609.28652321630761
 20
-1553.6322168168576
 30
0.0
 40
25.5
  0
CIRCLE
  8
0
  6
CONTINUOUS
 62
               7
  5
473
 10
609.28652321630761
 20
-1539.1322168168576
 30
0.0
 40
44.5
  0
CIRCLE
  8
0
  6
CONTINUOUS
 62
               7
  5
474
 10
609.28652321630761
 20
-1553.6322168168576
 30
0.0
 40
30.0
  0
LINE
  8
0
  6
CONTINUOUS
 62
               7
  5
475
 10
580.28652321630761
 20
-1235.232783068273
 30
0.0
 11
638.28652321630761
 21
-1235.232783068273
 31
0.0
  0
LINE
  8
0
  6
CONTINUOUS
 62
               7
  5
476
 10
653.78652321630761
 20
-1209.6327830682731
 30
0.0
 11
564.78652321630761
 21
-1209.6327830682731
 31
0.0
  0
LINE
  8
0
  6
CONTINUOUS
 62
               7
  5
477
 10
653.78652321630761
 20
-1209.0327830682731
 30
0.0
 11
653.78652321630761
 21
-1209.6327830682731
 31
0.0
  0
LINE
  8
0
  6
CONTINUOUS
 62
               7
  5
478
 10
565.78652321630761
 20
-1151.6327830682731
 30
0.0
 11
652.78652321630761
 21
-1151.6327830682731
 31
0.0
  0
LINE
  8
0
  6
CONTINUOUS
 62
               7
  5
479
 10
653.78652321630761
 20
-1209.4983313227926
 30
0.0
 11
653.78652321630761
 21
-1152.6327830682731
 31
0.0
  0
LINE
  8
0
  6
CONTINUOUS
 62
               7
  5
47A
 10
579.28652321630761
 20
-1234.232783068273
 30
0.0
 11
579.28652321630761
 21
-1209.6327830682731
 31
0.0
  0
LINE
  8
0
  6
CONTINUOUS
 62
               7
  5
47B
 10
639.28652321630761
 20
-1234.232783068273
 30
0.0
 11
639.28652321630761
 21
-1209.6327830682731
 31
0.0
  0
LINE
  8
0
  6
CONTINUOUS
 62
               7
  5
47C
 10
639.28652321630761
 20
-1234.232783068273
 30
0.0
 11
638.28652321630761
 21
-1235.232783068273
 31
0.0
  0
LINE
  8
0
  6
CONTINUOUS
 62
               7
  5
47D
 10
653.78652321630761
 20
-1152.6327830682731
 30
0.0
 11
652.78652321630761
 21
-1151.6327830682731
 31
0.0
  0
LINE
  8
0
  6
CONTINUOUS
 62
               7
  5
47E
 10
580.28652321630761
 20
-1235.232783068273
 30
0.0
 11
579.28652321630761
 21
-1234.232783068273
 31
0.0
  0
LINE
  8
0
  6
CONTINUOUS
 62
               7
  5
47F
 10
565.78652321630761
 20
-1151.6327830682731
 30
0.0
 11
564.78652321630761
 21
-1152.6327830682731
 31
0.0
  0
LINE
  8
0
  6
CONTINUOUS
 62
               7
  5
480
 10
564.78652321630761
 20
-1209.4983313227926
 30
0.0
 11
564.78652321630761
 21
-1152.6327830682731
 31
0.0
  0
LINE
  8
0
  6
CONTINUOUS
 62
               7
  5
481
 10
464.28652321630761
 20
-1494.6322168168576
 30
0.0
 11
464.28652321630761
 21
-1583.6269806961832
 31
0.0
  0
LINE
  8
0
  6
CONTINUOUS
 62
               7
  5
482
 10
464.88652321630764
 20
-1494.6322168168576
 30
0.0
 11
464.28652321630761
 21
-1494.6322168168576
 31
0.0
  0
LINE
  8
0
  6
CONTINUOUS
 62
               7
  5
483
 10
429.28652321630761
 20
-1582.6322168168576
 30
0.0
 11
429.28652321630761
 21
-1508.6322168168576
 31
0.0
  0
LINE
  8
0
  6
CONTINUOUS
 62
               7
  5
484
 10
522.28652321630761
 20
-1582.6322168168576
 30
0.0
 11
522.28652321630761
 21
-1495.6322168168576
 31
0.0
  0
LINE
  8
0
  6
CONTINUOUS
 62
               7
  5
485
 10
464.28652321630761
 20
-1494.6322168168576
 30
0.0
 11
521.28652321630761
 21
-1494.6322168168576
 31
0.0
  0
LINE
  8
0
  6
CONTINUOUS
 62
               7
  5
486
 10
430.28652321630761
 20
-1583.6322168168576
 30
0.0
 11
521.28652321630761
 21
-1583.6322168168576
 31
0.0
  0
LINE
  8
0
  6
CONTINUOUS
 62
               7
  5
487
 10
521.28652321630761
 20
-1494.6322168168576
 30
0.0
 11
522.28652321630761
 21
-1495.6322168168576
 31
0.0
  0
LINE
  8
0
  6
CONTINUOUS
 62
               7
  5
488
 10
522.28652321630761
 20
-1582.6322168168576
 30
0.0
 11
521.28652321630761
 21
-1583.6322168168576
 31
0.0
  0
LINE
  8
0
  6
CONTINUOUS
 62
               7
  5
489
 10
430.28652321630761
 20
-1507.6322168168576
 30
0.0
 11
464.28652321630761
 21
-1507.6322168168576
 31
0.0
  0
LINE
  8
0
  6
CONTINUOUS
 62
               7
  5
48A
 10
430.28652321630761
 20
-1507.6322168168576
 30
0.0
 11
429.28652321630761
 21
-1508.6322168168576
 31
0.0
  0
LINE
  8
0
  6
CONTINUOUS
 62
               7
  5
48B
 10
429.28652321630761
 20
-1582.6322168168576
 30
0.0
 11
430.28652321630761
 21
-1583.6322168168576
 31
0.0
  0
LINE
  8
0
  6
CONTINUOUS
 62
               7
  5
48C
 10
464.28652321630761
 20
-1109.1327830682726
 30
0.0
 11
464.28652321630784
 21
-1020.1380191889472
 31
0.0
  0
LINE
  8
0
  6
CONTINUOUS
 62
               7
  5
48D
 10
464.88652321630775
 20
-1109.1327830682726
 30
0.0
 11
464.28652321630761
 21
-1109.1327830682726
 31
0.0
  0
LINE
  8
0
  6
CONTINUOUS
 62
               7
  5
48E
 10
429.28652321630784
 20
-1027.6327830682726
 30
0.0
 11
429.28652321630761
 21
-1101.6327830682726
 31
0.0
  0
LINE
  8
0
  6
CONTINUOUS
 62
               7
  5
48F
 10
522.28652321630784
 20
-1021.1327830682729
 30
0.0
 11
522.28652321630761
 21
-1108.1327830682726
 31
0.0
  0
LINE
  8
0
  6
CONTINUOUS
 62
               7
  5
490
 10
464.28652321630761
 20
-1109.1327830682726
 30
0.0
 11
521.28652321630761
 21
-1109.1327830682726
 31
0.0
  0
LINE
  8
0
  6
CONTINUOUS
 62
               7
  5
491
 10
430.28652321630784
 20
-1026.6327830682726
 30
0.0
 11
464.28652321630784
 21
-1026.6327830682726
 31
0.0
  0
LINE
  8
0
  6
CONTINUOUS
 62
               7
  5
492
 10
521.28652321630761
 20
-1109.1327830682726
 30
0.0
 11
522.28652321630761
 21
-1108.1327830682726
 31
0.0
  0
LINE
  8
0
  6
CONTINUOUS
 62
               7
  5
493
 10
522.28652321630784
 20
-1021.1327830682729
 30
0.0
 11
521.28652321630784
 21
-1020.1327830682729
 31
0.0
  0
LINE
  8
0
  6
CONTINUOUS
 62
               7
  5
494
 10
430.28652321630761
 20
-1102.6327830682726
 30
0.0
 11
464.28652321630784
 21
-1102.6327830682726
 31
0.0
  0
LINE
  8
0
  6
CONTINUOUS
 62
               7
  5
495
 10
430.28652321630761
 20
-1102.6327830682726
 30
0.0
 11
429.28652321630761
 21
-1101.6327830682726
 31
0.0
  0
LINE
  8
0
  6
CONTINUOUS
 62
               7
  5
496
 10
429.28652321630784
 20
-1027.6327830682726
 30
0.0
 11
430.28652321630784
 21
-1026.6327830682726
 31
0.0
  0
LINE
  8
0
  6
CONTINUOUS
 62
               7
  5
497
 10
464.28652321630784
 20
-1020.1327830682727
 30
0.0
 11
521.28652321630784
 21
-1020.1327830682727
 31
0.0
  0
CIRCLE
  8
0
  6
DASHED
 62
               7
  5
498
 10
-392.13776905046893
 20
-1122.3172186400639
 30
0.0
 40
40.0
  0
CIRCLE
  8
0
  6
DASHED
 62
               7
  5
499
 10
120.87790746063774
 20
-1122.3172186400639
 30
0.0
 40
40.0
  0
CIRCLE
  8
0
  6
DASHED
 62
               7
  5
49A
 10
609.28652321630761
 20
-1539.1322168168576
 30
0.0
 40
40.0
  0
TEXT
  8
0
 62
               3
  5
49B
 10
-392.13776905046893
 20
-1206.8172186400639
 30
0.0
 40
40.0
  1
EMB_80×65
 41
0.8
 72
               1
 11
-392.13776905046893
 21
-1206.8172186400639
 31
0.0
 73
               3
  0
TEXT
  8
0
 62
               3
  5
49C
 10
120.87790746063774
 20
-1206.8172186400643
 30
0.0
 40
40.0
  1
EMB_80×50
 41
0.8
 72
               1
 11
120.87790746063774
 21
-1206.8172186400643
 31
0.0
 73
               3
  0
TEXT
  8
0
 62
               3
  5
49D
 10
605.58911923866731
 20
-885.18641456305363
 30
0.0
 40
40.0
  1
EMB使用例
 41
0.8
 72
               1
 11
605.58911923866731
 21
-885.18641456305363
 31
0.0
 73
               3
  0
TEXT
  8
0
 62
               3
  5
49E
 10
-123.74270409089112
 20
-830.82627866271412
 30
0.0
 40
35.0
  1
横枝管に呼び６５、５０の管を接続するときは、EMBをご使用ください。
 41
0.8
 72
               1
 11
-123.74270409089112
 21
-830.82627866271412
 31
0.0
 73
               3
  0
ENDSEC
  0
EOF
