  0
SECTION
  2
HEADER
  9
$ACADVER
  1
AC1009
  9
$INSBASE
 10
0.0
 20
0.0
 30
0.0
  9
$EXTMIN
 10
-81.120000000000005
 20
-201.32799999999997
 30
0.0
  9
$EXTMAX
 10
81.120000000000005
 20
229.12800000000001
 30
0.0
  9
$LIMMIN
 10
-86.189999999999998
 20
-214.77974999999998
  9
$LIMMAX
 10
86.189999999999998
 20
242.57975000000002
  9
$ORTHOMODE
 70
               0
  9
$REGENMODE
 70
               1
  9
$FILLMODE
 70
               1
  9
$QTEXTMODE
 70
               0
  9
$MIRRTEXT
 70
               1
  9
$DRAGMODE
 70
               2
  9
$LTSCALE
 40
1.0
  9
$OSMODE
 70
               0
  9
$ATTMODE
 70
               1
  9
$TEXTSIZE
 40
0.2
  9
$TRACEWID
 40
0.05
  9
$TEXTSTYLE
  7
STANDARD
  9
$CLAYER
  8
0
  9
$CELTYPE
  6
CONTINUOUS
  9
$CECOLOR
 62
             256
  9
$DIMSCALE
 40
1.0
  9
$DIMASZ
 40
0.18
  9
$DIMEXO
 40
0.0625
  9
$DIMDLI
 40
0.38
  9
$DIMRND
 40
0.0
  9
$DIMDLE
 40
0.0
  9
$DIMEXE
 40
0.18
  9
$DIMTP
 40
0.0
  9
$DIMTM
 40
0.0
  9
$DIMTXT
 40
0.18
  9
$DIMCEN
 40
0.09
  9
$DIMTSZ
 40
0.0
  9
$DIMTOL
 70
               0
  9
$DIMLIM
 70
               0
  9
$DIMTIH
 70
               1
  9
$DIMTOH
 70
               1
  9
$DIMSE1
 70
               0
  9
$DIMSE2
 70
               0
  9
$DIMTAD
 70
               0
  9
$DIMZIN
 70
               0
  9
$DIMBLK
  1

  9
$DIMASO
 70
               1
  9
$DIMSHO
 70
               1
  9
$DIMPOST
  1

  9
$DIMAPOST
  1

  9
$DIMALT
 70
               0
  9
$DIMALTD
 70
               2
  9
$DIMALTF
 40
25.399999999999999
  9
$DIMLFAC
 40
1.0
  9
$DIMTOFL
 70
               0
  9
$DIMTVP
 40
0.0
  9
$DIMTIX
 70
               0
  9
$DIMSOXD
 70
               0
  9
$DIMSAH
 70
               0
  9
$DIMBLK1
  1

  9
$DIMBLK2
  1

  9
$DIMSTYLE
  2
STANDARD
  9
$DIMCLRD
 70
               0
  9
$DIMCLRE
 70
               0
  9
$DIMCLRT
 70
               0
  9
$DIMTFAC
 40
1.0
  9
$DIMGAP
 40
0.09
  9
$LUNITS
 70
               2
  9
$LUPREC
 70
               4
  9
$AXISMODE
 70
               0
  9
$AXISUNIT
 10
0.0
 20
0.0
  9
$SKETCHINC
 40
0.1
  9
$FILLETRAD
 40
0.0
  9
$AUNITS
 70
               0
  9
$AUPREC
 70
               0
  9
$MENU
  1
acad
  9
$ELEVATION
 40
0.0
  9
$PELEVATION
 40
0.0
  9
$THICKNESS
 40
0.0
  9
$LIMCHECK
 70
               0
  9
$BLIPMODE
 70
               1
  9
$CHAMFERA
 40
0.0
  9
$CHAMFERB
 40
0.0
  9
$SKPOLY
 70
               0
  9
$TDCREATE
 40
0.000000000
  9
$TDUPDATE
 40
0.000000000
  9
$TDINDWG
 40
0.0000000000
  9
$TDUSRTIMER
 40
0.0000000000
  9
$USRTIMER
 70
               1
  9
$ANGBASE
 50
0.0
  9
$ANGDIR
 70
               0
  9
$PDMODE
 70
               0
  9
$PDSIZE
 40
1.0
  9
$PLINEWID
 40
0.0
  9
$COORDS
 70
               1
  9
$SPLFRAME
 70
               0
  9
$SPLINETYPE
 70
               6
  9
$SPLINESEGS
 70
               8
  9
$ATTDIA
 70
               0
  9
$ATTREQ
 70
               1
  9
$HANDLING
 70
               1
  9
$HANDSEED
  5
1C2
  9
$SURFTAB1
 70
               6
  9
$SURFTAB2
 70
               6
  9
$SURFTYPE
 70
               6
  9
$SURFU
 70
               6
  9
$SURFV
 70
               6
  9
$UCSNAME
  2

  9
$UCSORG
 10
0.0
 20
0.0
 30
0.0
  9
$UCSXDIR
 10
1.0
 20
0.0
 30
0.0
  9
$UCSYDIR
 10
0.0
 20
1.0
 30
0.0
  9
$PUCSNAME
  2

  9
$PUCSORG
 10
0.0
 20
0.0
 30
0.0
  9
$PUCSXDIR
 10
1.0
 20
0.0
 30
0.0
  9
$PUCSYDIR
 10
0.0
 20
1.0
 30
0.0
  9
$USERI1
 70
               0
  9
$USERI2
 70
               0
  9
$USERI3
 70
               0
  9
$USERI4
 70
               0
  9
$USERI5
 70
               0
  9
$USERR1
 40
0.0
  9
$USERR2
 40
0.0
  9
$USERR3
 40
0.0
  9
$USERR4
 40
0.0
  9
$USERR5
 40
0.0
  9
$WORLDVIEW
 70
               1
  9
$SHADEDGE
 70
               3
  9
$SHADEDIF
 70
              70
  9
$TILEMODE
 70
               1
  9
$MAXACTVP
 70
              16
  9
$PINSBASE
 10
0.0
 20
0.0
 30
0.0
  9
$PLIMCHECK
 70
               0
  9
$PEXTMIN
 10
1.0000000000000000E+20
 20
1.0000000000000000E+20
 30
1.0000000000000000E+20
  9
$PEXTMAX
 10
-1.0000000000000000E+20
 20
-1.0000000000000000E+20
 30
-1.0000000000000000E+20
  9
$PLIMMIN
 10
0.0
 20
0.0
  9
$PLIMMAX
 10
12.0
 20
9.0
  9
$UNITMODE
 70
               0
  9
$VISRETAIN
 70
               0
  9
$PLINEGEN
 70
               1
  9
$PSLTSCALE
 70
               0
  9
$TREEDEPTH
 70
            3020
  9
$DWGCODEPAGE
  3
dos932
  0
ENDSEC
  0
SECTION
  2
TABLES
  0
TABLE
  2
VPORT
 70
               1
  0
VPORT
  2
*ACTIVE
 70
               0
 10
0.0
 20
0.0
 11
1.0
 21
1.0
 12
0.0
 22
13.90000000000002
 13
0.0
 23
0.0
 14
1.0
 24
1.0
 15
0.0
 25
0.0
 16
0.0
 26
0.0
 36
1.0
 17
0.0
 27
0.0
 37
0.0
 40
457.35950000000003
 41
0.3769026334863493
 42
50.0
 43
0.0
 44
0.0
 50
0.0
 51
0.0
 71
               0
 72
             100
 73
               1
 74
               1
 75
               0
 76
               0
 77
               0
 78
               0
  0
ENDTAB
  0
TABLE
  2
LTYPE
 70
              26
  0
LTYPE
  2
CONTINUOUS
 70
               0
  3
Solid line
 72
              65
 73
               0
 40
0.0
  0
LTYPE
  2
HIDDENX2
 70
               0
  3
CADPAC FUSION LINETYPE
 72
              65
 73
               2
 40
23.760000000000002
 49
17.82
 49
-5.9400000000000004
  0
LTYPE
  2
HIDDEN
 70
               0
  3
CADPAC FUSION LINETYPE
 72
              65
 73
               2
 40
17.82
 49
11.880000000000001
 49
-5.9400000000000004
  0
LTYPE
  2
HIDDEN2
 70
               0
  3
CADPAC FUSION LINETYPE
 72
              65
 73
               2
 40
14.850000000000001
 49
8.9100000000000001
 49
-5.9400000000000004
  0
LTYPE
  2
DASHED
 70
               0
  3
CADPAC FUSION LINETYPE
 72
              65
 73
               2
 40
17.82
 49
11.880000000000001
 49
-5.9400000000000004
  0
LTYPE
  2
DASHED2
 70
               0
  3
CADPAC FUSION LINETYPE
 72
              65
 73
               2
 40
13.365
 49
8.9100000000000001
 49
-4.4550000000000001
  0
LTYPE
  2
DASHEDX2
 70
               0
  3
CADPAC FUSION LINETYPE
 72
              65
 73
               2
 40
26.73
 49
17.82
 49
-8.9100000000000001
  0
LTYPE
  2
DOTX2
 70
               0
  3
CADPAC FUSION LINETYPE
 72
              65
 73
               2
 40
7.4250000000000007
 49
0.0
 49
-7.4250000000000007
  0
LTYPE
  2
DOT
 70
               0
  3
CADPAC FUSION LINETYPE
 72
              65
 73
               2
 40
5.9400000000000004
 49
0.0
 49
-5.9400000000000004
  0
LTYPE
  2
DOTS
 70
               0
  3
CADPAC FUSION LINETYPE
 72
              65
 73
               2
 40
5.9400000000000004
 49
0.0
 49
-5.9400000000000004
  0
LTYPE
  2
DOT2
 70
               0
  3
CADPAC FUSION LINETYPE
 72
              65
 73
               2
 40
4.4550000000000001
 49
0.0
 49
-4.4550000000000001
  0
LTYPE
  2
CENTERX2
 70
               0
  3
CADPAC FUSION LINETYPE
 72
              65
 73
               4
 40
35.640000000000001
 49
14.850000000000001
 49
-7.4250000000000007
 49
5.9400000000000004
 49
-7.4250000000000007
  0
LTYPE
  2
CENTER
 70
               0
  3
CADPAC FUSION LINETYPE
 72
              65
 73
               4
 40
27.324000000000002
 49
11.880000000000001
 49
-5.9400000000000004
 49
3.5640000000000001
 49
-5.9400000000000004
  0
LTYPE
  2
CENTER2
 70
               0
  3
CADPAC FUSION LINETYPE
 72
              65
 73
               4
 40
19.008000000000003
 49
8.9100000000000001
 49
-4.4550000000000001
 49
1.1880000000000002
 49
-4.4550000000000001
  0
LTYPE
  2
DASHDOTX2
 70
               0
  3
CADPAC FUSION LINETYPE
 72
              65
 73
               4
 40
29.700000000000003
 49
14.850000000000001
 49
-7.4250000000000007
 49
0.0
 49
-7.4250000000000007
  0
LTYPE
  2
DASHDOT
 70
               0
  3
CADPAC FUSION LINETYPE
 72
              65
 73
               4
 40
23.760000000000002
 49
11.880000000000001
 49
-5.9400000000000004
 49
0.0
 49
-5.9400000000000004
  0
LTYPE
  2
DASHDOT2
 70
               0
  3
CADPAC FUSION LINETYPE
 72
              65
 73
               4
 40
17.82
 49
8.9100000000000001
 49
-4.4550000000000001
 49
0.0
 49
-4.4550000000000001
  0
LTYPE
  2
DIVIDEX2
 70
               0
  3
CADPAC FUSION LINETYPE
 72
              65
 73
               6
 40
37.125
 49
14.850000000000001
 49
-7.4250000000000007
 49
0.0
 49
-7.4250000000000007
 49
0.0
 49
-7.4250000000000007
  0
LTYPE
  2
DIVIDE
 70
               0
  3
CADPAC FUSION LINETYPE
 72
              65
 73
               6
 40
29.700000000000003
 49
11.880000000000001
 49
-5.9400000000000004
 49
0.0
 49
-5.9400000000000004
 49
0.0
 49
-5.9400000000000004
  0
LTYPE
  2
DIVIDE2
 70
               0
  3
CADPAC FUSION LINETYPE
 72
              65
 73
               6
 40
22.274999999999999
 49
8.9100000000000001
 49
-4.4550000000000001
 49
0.0
 49
-4.4550000000000001
 49
0.0
 49
-4.4550000000000001
  0
LTYPE
  2
BORDERX2
 70
               0
  3
CADPAC FUSION LINETYPE
 72
              65
 73
               6
 40
51.975000000000009
 49
14.850000000000001
 49
-7.4250000000000007
 49
14.850000000000001
 49
-7.4250000000000007
 49
0.0
 49
-7.4250000000000007
  0
LTYPE
  2
BORDER
 70
               0
  3
CADPAC FUSION LINETYPE
 72
              65
 73
               6
 40
41.579999999999998
 49
11.880000000000001
 49
-5.9400000000000004
 49
11.880000000000001
 49
-5.9400000000000004
 49
0.0
 49
-5.9400000000000004
  0
LTYPE
  2
BORDER2
 70
               0
  3
CADPAC FUSION LINETYPE
 72
              65
 73
               6
 40
31.185000000000002
 49
8.9100000000000001
 49
-4.4550000000000001
 49
8.9100000000000001
 49
-4.4550000000000001
 49
0.0
 49
-4.4550000000000001
  0
LTYPE
  2
PHANTOMX2
 70
               0
  3
CADPAC FUSION LINETYPE
 72
              65
 73
               6
 40
44.550000000000004
 49
14.850000000000001
 49
-5.9400000000000004
 49
5.9400000000000004
 49
-5.9400000000000004
 49
5.9400000000000004
 49
-5.9400000000000004
  0
LTYPE
  2
PHANTOM
 70
               0
  3
CADPAC FUSION LINETYPE
 72
              65
 73
               6
 40
36.828000000000003
 49
11.880000000000001
 49
-5.9400000000000004
 49
3.5640000000000001
 49
-5.9400000000000004
 49
3.5640000000000001
 49
-5.9400000000000004
  0
LTYPE
  2
PHANTOM2
 70
               0
  3
CADPAC FUSION LINETYPE
 72
              65
 73
               6
 40
31.482000000000006
 49
8.9100000000000001
 49
-5.9400000000000004
 49
2.3760000000000003
 49
-5.9400000000000004
 49
2.3760000000000003
 49
-5.9400000000000004
  0
ENDTAB
  0
TABLE
  2
LAYER
 70
             256
  0
LAYER
  2
0
 70
               0
 62
               7
  6
CONTINUOUS
  0
LAYER
  2
LAYER001
 70
               0
 62
               7
  6
CONTINUOUS
  0
LAYER
  2
LAYER002
 70
               0
 62
               7
  6
CONTINUOUS
  0
LAYER
  2
LAYER003
 70
               0
 62
               7
  6
CONTINUOUS
  0
LAYER
  2
LAYER004
 70
               0
 62
               7
  6
CONTINUOUS
  0
LAYER
  2
LAYER005
 70
               0
 62
               7
  6
CONTINUOUS
  0
LAYER
  2
LAYER006
 70
               0
 62
               7
  6
CONTINUOUS
  0
LAYER
  2
LAYER007
 70
               0
 62
               7
  6
CONTINUOUS
  0
LAYER
  2
LAYER008
 70
               0
 62
               7
  6
CONTINUOUS
  0
LAYER
  2
LAYER009
 70
               0
 62
               7
  6
CONTINUOUS
  0
LAYER
  2
LAYER010
 70
               0
 62
               7
  6
CONTINUOUS
  0
LAYER
  2
LAYER011
 70
               0
 62
               7
  6
CONTINUOUS
  0
LAYER
  2
LAYER012
 70
               0
 62
               7
  6
CONTINUOUS
  0
LAYER
  2
LAYER013
 70
               0
 62
               7
  6
CONTINUOUS
  0
LAYER
  2
LAYER014
 70
               0
 62
               7
  6
CONTINUOUS
  0
LAYER
  2
LAYER015
 70
               0
 62
               7
  6
CONTINUOUS
  0
LAYER
  2
LAYER016
 70
               0
 62
               7
  6
CONTINUOUS
  0
LAYER
  2
LAYER017
 70
               0
 62
               7
  6
CONTINUOUS
  0
LAYER
  2
LAYER018
 70
               0
 62
               7
  6
CONTINUOUS
  0
LAYER
  2
LAYER019
 70
               0
 62
               7
  6
CONTINUOUS
  0
LAYER
  2
LAYER020
 70
               0
 62
               7
  6
CONTINUOUS
  0
LAYER
  2
LAYER021
 70
               0
 62
               7
  6
CONTINUOUS
  0
LAYER
  2
LAYER022
 70
               0
 62
               7
  6
CONTINUOUS
  0
LAYER
  2
LAYER023
 70
               0
 62
               7
  6
CONTINUOUS
  0
LAYER
  2
LAYER024
 70
               0
 62
               7
  6
CONTINUOUS
  0
LAYER
  2
LAYER025
 70
               0
 62
               7
  6
CONTINUOUS
  0
LAYER
  2
LAYER026
 70
               0
 62
               7
  6
CONTINUOUS
  0
LAYER
  2
LAYER027
 70
               0
 62
               7
  6
CONTINUOUS
  0
LAYER
  2
LAYER028
 70
               0
 62
               7
  6
CONTINUOUS
  0
LAYER
  2
LAYER029
 70
               0
 62
               7
  6
CONTINUOUS
  0
LAYER
  2
LAYER030
 70
               0
 62
               7
  6
CONTINUOUS
  0
LAYER
  2
LAYER031
 70
               0
 62
               7
  6
CONTINUOUS
  0
LAYER
  2
LAYER032
 70
               0
 62
               7
  6
CONTINUOUS
  0
LAYER
  2
LAYER033
 70
               0
 62
               7
  6
CONTINUOUS
  0
LAYER
  2
LAYER034
 70
               0
 62
               7
  6
CONTINUOUS
  0
LAYER
  2
LAYER035
 70
               0
 62
               7
  6
CONTINUOUS
  0
LAYER
  2
LAYER036
 70
               0
 62
               7
  6
CONTINUOUS
  0
LAYER
  2
LAYER037
 70
               0
 62
               7
  6
CONTINUOUS
  0
LAYER
  2
LAYER038
 70
               0
 62
               7
  6
CONTINUOUS
  0
LAYER
  2
LAYER039
 70
               0
 62
               7
  6
CONTINUOUS
  0
LAYER
  2
LAYER040
 70
               0
 62
               7
  6
CONTINUOUS
  0
LAYER
  2
LAYER041
 70
               0
 62
               7
  6
CONTINUOUS
  0
LAYER
  2
LAYER042
 70
               0
 62
               7
  6
CONTINUOUS
  0
LAYER
  2
LAYER043
 70
               0
 62
               7
  6
CONTINUOUS
  0
LAYER
  2
LAYER044
 70
               0
 62
               7
  6
CONTINUOUS
  0
LAYER
  2
LAYER045
 70
               0
 62
               7
  6
CONTINUOUS
  0
LAYER
  2
LAYER046
 70
               0
 62
               7
  6
CONTINUOUS
  0
LAYER
  2
LAYER047
 70
               0
 62
               7
  6
CONTINUOUS
  0
LAYER
  2
LAYER048
 70
               0
 62
               7
  6
CONTINUOUS
  0
LAYER
  2
LAYER049
 70
               0
 62
               7
  6
CONTINUOUS
  0
LAYER
  2
LAYER050
 70
               0
 62
               7
  6
CONTINUOUS
  0
LAYER
  2
LAYER051
 70
               0
 62
               7
  6
CONTINUOUS
  0
LAYER
  2
LAYER052
 70
               0
 62
               7
  6
CONTINUOUS
  0
LAYER
  2
LAYER053
 70
               0
 62
               7
  6
CONTINUOUS
  0
LAYER
  2
LAYER054
 70
               0
 62
               7
  6
CONTINUOUS
  0
LAYER
  2
LAYER055
 70
               0
 62
               7
  6
CONTINUOUS
  0
LAYER
  2
LAYER056
 70
               0
 62
               7
  6
CONTINUOUS
  0
LAYER
  2
LAYER057
 70
               0
 62
               7
  6
CONTINUOUS
  0
LAYER
  2
LAYER058
 70
               0
 62
               7
  6
CONTINUOUS
  0
LAYER
  2
LAYER059
 70
               0
 62
               7
  6
CONTINUOUS
  0
LAYER
  2
LAYER060
 70
               0
 62
               7
  6
CONTINUOUS
  0
LAYER
  2
LAYER061
 70
               0
 62
               7
  6
CONTINUOUS
  0
LAYER
  2
LAYER062
 70
               0
 62
               7
  6
CONTINUOUS
  0
LAYER
  2
LAYER063
 70
               0
 62
               7
  6
CONTINUOUS
  0
LAYER
  2
LAYER064
 70
               0
 62
               7
  6
CONTINUOUS
  0
LAYER
  2
LAYER065
 70
               0
 62
               7
  6
CONTINUOUS
  0
LAYER
  2
LAYER066
 70
               0
 62
               7
  6
CONTINUOUS
  0
LAYER
  2
LAYER067
 70
               0
 62
               7
  6
CONTINUOUS
  0
LAYER
  2
LAYER068
 70
               0
 62
               7
  6
CONTINUOUS
  0
LAYER
  2
LAYER069
 70
               0
 62
               7
  6
CONTINUOUS
  0
LAYER
  2
LAYER070
 70
               0
 62
               7
  6
CONTINUOUS
  0
LAYER
  2
LAYER071
 70
               0
 62
               7
  6
CONTINUOUS
  0
LAYER
  2
LAYER072
 70
               0
 62
               7
  6
CONTINUOUS
  0
LAYER
  2
LAYER073
 70
               0
 62
               7
  6
CONTINUOUS
  0
LAYER
  2
LAYER074
 70
               0
 62
               7
  6
CONTINUOUS
  0
LAYER
  2
LAYER075
 70
               0
 62
               7
  6
CONTINUOUS
  0
LAYER
  2
LAYER076
 70
               0
 62
               7
  6
CONTINUOUS
  0
LAYER
  2
LAYER077
 70
               0
 62
               7
  6
CONTINUOUS
  0
LAYER
  2
LAYER078
 70
               0
 62
               7
  6
CONTINUOUS
  0
LAYER
  2
LAYER079
 70
               0
 62
               7
  6
CONTINUOUS
  0
LAYER
  2
LAYER080
 70
               0
 62
               7
  6
CONTINUOUS
  0
LAYER
  2
LAYER081
 70
               0
 62
               7
  6
CONTINUOUS
  0
LAYER
  2
LAYER082
 70
               0
 62
               7
  6
CONTINUOUS
  0
LAYER
  2
LAYER083
 70
               0
 62
               7
  6
CONTINUOUS
  0
LAYER
  2
LAYER084
 70
               0
 62
               7
  6
CONTINUOUS
  0
LAYER
  2
LAYER085
 70
               0
 62
               7
  6
CONTINUOUS
  0
LAYER
  2
LAYER086
 70
               0
 62
               7
  6
CONTINUOUS
  0
LAYER
  2
LAYER087
 70
               0
 62
               7
  6
CONTINUOUS
  0
LAYER
  2
LAYER088
 70
               0
 62
               7
  6
CONTINUOUS
  0
LAYER
  2
LAYER089
 70
               0
 62
               7
  6
CONTINUOUS
  0
LAYER
  2
LAYER090
 70
               0
 62
               7
  6
CONTINUOUS
  0
LAYER
  2
LAYER091
 70
               0
 62
               7
  6
CONTINUOUS
  0
LAYER
  2
LAYER092
 70
               0
 62
               7
  6
CONTINUOUS
  0
LAYER
  2
LAYER093
 70
               0
 62
               7
  6
CONTINUOUS
  0
LAYER
  2
LAYER094
 70
               0
 62
               7
  6
CONTINUOUS
  0
LAYER
  2
LAYER095
 70
               0
 62
               7
  6
CONTINUOUS
  0
LAYER
  2
LAYER096
 70
               0
 62
               7
  6
CONTINUOUS
  0
LAYER
  2
LAYER097
 70
               0
 62
               7
  6
CONTINUOUS
  0
LAYER
  2
LAYER098
 70
               0
 62
               7
  6
CONTINUOUS
  0
LAYER
  2
LAYER099
 70
               0
 62
               7
  6
CONTINUOUS
  0
LAYER
  2
LAYER100
 70
               0
 62
               7
  6
CONTINUOUS
  0
LAYER
  2
LAYER101
 70
               0
 62
               7
  6
CONTINUOUS
  0
LAYER
  2
LAYER102
 70
               0
 62
               7
  6
CONTINUOUS
  0
LAYER
  2
LAYER103
 70
               0
 62
               7
  6
CONTINUOUS
  0
LAYER
  2
LAYER104
 70
               0
 62
               7
  6
CONTINUOUS
  0
LAYER
  2
LAYER105
 70
               0
 62
               7
  6
CONTINUOUS
  0
LAYER
  2
LAYER106
 70
               0
 62
               7
  6
CONTINUOUS
  0
LAYER
  2
LAYER107
 70
               0
 62
               7
  6
CONTINUOUS
  0
LAYER
  2
LAYER108
 70
               0
 62
               7
  6
CONTINUOUS
  0
LAYER
  2
LAYER109
 70
               0
 62
               7
  6
CONTINUOUS
  0
LAYER
  2
LAYER110
 70
               0
 62
               7
  6
CONTINUOUS
  0
LAYER
  2
LAYER111
 70
               0
 62
               7
  6
CONTINUOUS
  0
LAYER
  2
LAYER112
 70
               0
 62
               7
  6
CONTINUOUS
  0
LAYER
  2
LAYER113
 70
               0
 62
               7
  6
CONTINUOUS
  0
LAYER
  2
LAYER114
 70
               0
 62
               7
  6
CONTINUOUS
  0
LAYER
  2
LAYER115
 70
               0
 62
               7
  6
CONTINUOUS
  0
LAYER
  2
LAYER116
 70
               0
 62
               7
  6
CONTINUOUS
  0
LAYER
  2
LAYER117
 70
               0
 62
               7
  6
CONTINUOUS
  0
LAYER
  2
LAYER118
 70
               0
 62
               7
  6
CONTINUOUS
  0
LAYER
  2
LAYER119
 70
               0
 62
               7
  6
CONTINUOUS
  0
LAYER
  2
LAYER120
 70
               0
 62
               7
  6
CONTINUOUS
  0
LAYER
  2
LAYER121
 70
               0
 62
               7
  6
CONTINUOUS
  0
LAYER
  2
LAYER122
 70
               0
 62
               7
  6
CONTINUOUS
  0
LAYER
  2
LAYER123
 70
               0
 62
               7
  6
CONTINUOUS
  0
LAYER
  2
LAYER124
 70
               0
 62
               7
  6
CONTINUOUS
  0
LAYER
  2
LAYER125
 70
               0
 62
               7
  6
CONTINUOUS
  0
LAYER
  2
LAYER126
 70
               0
 62
               7
  6
CONTINUOUS
  0
LAYER
  2
LAYER127
 70
               0
 62
               7
  6
CONTINUOUS
  0
LAYER
  2
LAYER128
 70
               0
 62
               7
  6
CONTINUOUS
  0
LAYER
  2
LAYER129
 70
               0
 62
               7
  6
CONTINUOUS
  0
LAYER
  2
LAYER130
 70
               0
 62
               7
  6
CONTINUOUS
  0
LAYER
  2
LAYER131
 70
               0
 62
               7
  6
CONTINUOUS
  0
LAYER
  2
LAYER132
 70
               0
 62
               7
  6
CONTINUOUS
  0
LAYER
  2
LAYER133
 70
               0
 62
               7
  6
CONTINUOUS
  0
LAYER
  2
LAYER134
 70
               0
 62
               7
  6
CONTINUOUS
  0
LAYER
  2
LAYER135
 70
               0
 62
               7
  6
CONTINUOUS
  0
LAYER
  2
LAYER136
 70
               0
 62
               7
  6
CONTINUOUS
  0
LAYER
  2
LAYER137
 70
               0
 62
               7
  6
CONTINUOUS
  0
LAYER
  2
LAYER138
 70
               0
 62
               7
  6
CONTINUOUS
  0
LAYER
  2
LAYER139
 70
               0
 62
               7
  6
CONTINUOUS
  0
LAYER
  2
LAYER140
 70
               0
 62
               7
  6
CONTINUOUS
  0
LAYER
  2
LAYER141
 70
               0
 62
               7
  6
CONTINUOUS
  0
LAYER
  2
LAYER142
 70
               0
 62
               7
  6
CONTINUOUS
  0
LAYER
  2
LAYER143
 70
               0
 62
               7
  6
CONTINUOUS
  0
LAYER
  2
LAYER144
 70
               0
 62
               7
  6
CONTINUOUS
  0
LAYER
  2
LAYER145
 70
               0
 62
               7
  6
CONTINUOUS
  0
LAYER
  2
LAYER146
 70
               0
 62
               7
  6
CONTINUOUS
  0
LAYER
  2
LAYER147
 70
               0
 62
               7
  6
CONTINUOUS
  0
LAYER
  2
LAYER148
 70
               0
 62
               7
  6
CONTINUOUS
  0
LAYER
  2
LAYER149
 70
               0
 62
               7
  6
CONTINUOUS
  0
LAYER
  2
LAYER150
 70
               0
 62
               7
  6
CONTINUOUS
  0
LAYER
  2
LAYER151
 70
               0
 62
               7
  6
CONTINUOUS
  0
LAYER
  2
LAYER152
 70
               0
 62
               7
  6
CONTINUOUS
  0
LAYER
  2
LAYER153
 70
               0
 62
               7
  6
CONTINUOUS
  0
LAYER
  2
LAYER154
 70
               0
 62
               7
  6
CONTINUOUS
  0
LAYER
  2
LAYER155
 70
               0
 62
               7
  6
CONTINUOUS
  0
LAYER
  2
LAYER156
 70
               0
 62
               7
  6
CONTINUOUS
  0
LAYER
  2
LAYER157
 70
               0
 62
               7
  6
CONTINUOUS
  0
LAYER
  2
LAYER158
 70
               0
 62
               7
  6
CONTINUOUS
  0
LAYER
  2
LAYER159
 70
               0
 62
               7
  6
CONTINUOUS
  0
LAYER
  2
LAYER160
 70
               0
 62
               7
  6
CONTINUOUS
  0
LAYER
  2
LAYER161
 70
               0
 62
               7
  6
CONTINUOUS
  0
LAYER
  2
LAYER162
 70
               0
 62
               7
  6
CONTINUOUS
  0
LAYER
  2
LAYER163
 70
               0
 62
               7
  6
CONTINUOUS
  0
LAYER
  2
LAYER164
 70
               0
 62
               7
  6
CONTINUOUS
  0
LAYER
  2
LAYER165
 70
               0
 62
               7
  6
CONTINUOUS
  0
LAYER
  2
LAYER166
 70
               0
 62
               7
  6
CONTINUOUS
  0
LAYER
  2
LAYER167
 70
               0
 62
               7
  6
CONTINUOUS
  0
LAYER
  2
LAYER168
 70
               0
 62
               7
  6
CONTINUOUS
  0
LAYER
  2
LAYER169
 70
               0
 62
               7
  6
CONTINUOUS
  0
LAYER
  2
LAYER170
 70
               0
 62
               7
  6
CONTINUOUS
  0
LAYER
  2
LAYER171
 70
               0
 62
               7
  6
CONTINUOUS
  0
LAYER
  2
LAYER172
 70
               0
 62
               7
  6
CONTINUOUS
  0
LAYER
  2
LAYER173
 70
               0
 62
               7
  6
CONTINUOUS
  0
LAYER
  2
LAYER174
 70
               0
 62
               7
  6
CONTINUOUS
  0
LAYER
  2
LAYER175
 70
               0
 62
               7
  6
CONTINUOUS
  0
LAYER
  2
LAYER176
 70
               0
 62
               7
  6
CONTINUOUS
  0
LAYER
  2
LAYER177
 70
               0
 62
               7
  6
CONTINUOUS
  0
LAYER
  2
LAYER178
 70
               0
 62
               7
  6
CONTINUOUS
  0
LAYER
  2
LAYER179
 70
               0
 62
               7
  6
CONTINUOUS
  0
LAYER
  2
LAYER180
 70
               0
 62
               7
  6
CONTINUOUS
  0
LAYER
  2
LAYER181
 70
               0
 62
               7
  6
CONTINUOUS
  0
LAYER
  2
LAYER182
 70
               0
 62
               7
  6
CONTINUOUS
  0
LAYER
  2
LAYER183
 70
               0
 62
               7
  6
CONTINUOUS
  0
LAYER
  2
LAYER184
 70
               0
 62
               7
  6
CONTINUOUS
  0
LAYER
  2
LAYER185
 70
               0
 62
               7
  6
CONTINUOUS
  0
LAYER
  2
LAYER186
 70
               0
 62
               7
  6
CONTINUOUS
  0
LAYER
  2
LAYER187
 70
               0
 62
               7
  6
CONTINUOUS
  0
LAYER
  2
LAYER188
 70
               0
 62
               7
  6
CONTINUOUS
  0
LAYER
  2
LAYER189
 70
               0
 62
               7
  6
CONTINUOUS
  0
LAYER
  2
LAYER190
 70
               0
 62
               7
  6
CONTINUOUS
  0
LAYER
  2
LAYER191
 70
               0
 62
               7
  6
CONTINUOUS
  0
LAYER
  2
LAYER192
 70
               0
 62
               7
  6
CONTINUOUS
  0
LAYER
  2
LAYER193
 70
               0
 62
               7
  6
CONTINUOUS
  0
LAYER
  2
LAYER194
 70
               0
 62
               7
  6
CONTINUOUS
  0
LAYER
  2
LAYER195
 70
               0
 62
               7
  6
CONTINUOUS
  0
LAYER
  2
LAYER196
 70
               0
 62
               7
  6
CONTINUOUS
  0
LAYER
  2
LAYER197
 70
               0
 62
               7
  6
CONTINUOUS
  0
LAYER
  2
LAYER198
 70
               0
 62
               7
  6
CONTINUOUS
  0
LAYER
  2
LAYER199
 70
               0
 62
               7
  6
CONTINUOUS
  0
LAYER
  2
LAYER200
 70
               0
 62
               7
  6
CONTINUOUS
  0
LAYER
  2
LAYER201
 70
               0
 62
               7
  6
CONTINUOUS
  0
LAYER
  2
LAYER202
 70
               0
 62
               7
  6
CONTINUOUS
  0
LAYER
  2
LAYER203
 70
               0
 62
               7
  6
CONTINUOUS
  0
LAYER
  2
LAYER204
 70
               0
 62
               7
  6
CONTINUOUS
  0
LAYER
  2
LAYER205
 70
               0
 62
               7
  6
CONTINUOUS
  0
LAYER
  2
LAYER206
 70
               0
 62
               7
  6
CONTINUOUS
  0
LAYER
  2
LAYER207
 70
               0
 62
               7
  6
CONTINUOUS
  0
LAYER
  2
LAYER208
 70
               0
 62
               7
  6
CONTINUOUS
  0
LAYER
  2
LAYER209
 70
               0
 62
               7
  6
CONTINUOUS
  0
LAYER
  2
LAYER210
 70
               0
 62
               7
  6
CONTINUOUS
  0
LAYER
  2
LAYER211
 70
               0
 62
               7
  6
CONTINUOUS
  0
LAYER
  2
LAYER212
 70
               0
 62
               7
  6
CONTINUOUS
  0
LAYER
  2
LAYER213
 70
               0
 62
               7
  6
CONTINUOUS
  0
LAYER
  2
LAYER214
 70
               0
 62
               7
  6
CONTINUOUS
  0
LAYER
  2
LAYER215
 70
               0
 62
               7
  6
CONTINUOUS
  0
LAYER
  2
LAYER216
 70
               0
 62
               7
  6
CONTINUOUS
  0
LAYER
  2
LAYER217
 70
               0
 62
               7
  6
CONTINUOUS
  0
LAYER
  2
LAYER218
 70
               0
 62
               7
  6
CONTINUOUS
  0
LAYER
  2
LAYER219
 70
               0
 62
               7
  6
CONTINUOUS
  0
LAYER
  2
LAYER220
 70
               0
 62
               7
  6
CONTINUOUS
  0
LAYER
  2
LAYER221
 70
               0
 62
               7
  6
CONTINUOUS
  0
LAYER
  2
LAYER222
 70
               0
 62
               7
  6
CONTINUOUS
  0
LAYER
  2
LAYER223
 70
               0
 62
               7
  6
CONTINUOUS
  0
LAYER
  2
LAYER224
 70
               0
 62
               7
  6
CONTINUOUS
  0
LAYER
  2
LAYER225
 70
               0
 62
               7
  6
CONTINUOUS
  0
LAYER
  2
LAYER226
 70
               0
 62
               7
  6
CONTINUOUS
  0
LAYER
  2
LAYER227
 70
               0
 62
               7
  6
CONTINUOUS
  0
LAYER
  2
LAYER228
 70
               0
 62
               7
  6
CONTINUOUS
  0
LAYER
  2
LAYER229
 70
               0
 62
               7
  6
CONTINUOUS
  0
LAYER
  2
LAYER230
 70
               0
 62
               7
  6
CONTINUOUS
  0
LAYER
  2
LAYER231
 70
               0
 62
               7
  6
CONTINUOUS
  0
LAYER
  2
LAYER232
 70
               0
 62
               7
  6
CONTINUOUS
  0
LAYER
  2
LAYER233
 70
               0
 62
               7
  6
CONTINUOUS
  0
LAYER
  2
LAYER234
 70
               0
 62
               7
  6
CONTINUOUS
  0
LAYER
  2
LAYER235
 70
               0
 62
               7
  6
CONTINUOUS
  0
LAYER
  2
LAYER236
 70
               0
 62
               7
  6
CONTINUOUS
  0
LAYER
  2
LAYER237
 70
               0
 62
               7
  6
CONTINUOUS
  0
LAYER
  2
LAYER238
 70
               0
 62
               7
  6
CONTINUOUS
  0
LAYER
  2
LAYER239
 70
               0
 62
               7
  6
CONTINUOUS
  0
LAYER
  2
LAYER240
 70
               0
 62
               7
  6
CONTINUOUS
  0
LAYER
  2
LAYER241
 70
               0
 62
               7
  6
CONTINUOUS
  0
LAYER
  2
LAYER242
 70
               0
 62
               7
  6
CONTINUOUS
  0
LAYER
  2
LAYER243
 70
               0
 62
               7
  6
CONTINUOUS
  0
LAYER
  2
LAYER244
 70
               0
 62
               7
  6
CONTINUOUS
  0
LAYER
  2
LAYER245
 70
               0
 62
               7
  6
CONTINUOUS
  0
LAYER
  2
LAYER246
 70
               0
 62
               7
  6
CONTINUOUS
  0
LAYER
  2
LAYER247
 70
               0
 62
               7
  6
CONTINUOUS
  0
LAYER
  2
LAYER248
 70
               0
 62
               7
  6
CONTINUOUS
  0
LAYER
  2
LAYER249
 70
               0
 62
               7
  6
CONTINUOUS
  0
LAYER
  2
LAYER250
 70
               0
 62
               7
  6
CONTINUOUS
  0
LAYER
  2
LAYER251
 70
               0
 62
               7
  6
CONTINUOUS
  0
LAYER
  2
LAYER252
 70
               0
 62
               7
  6
CONTINUOUS
  0
LAYER
  2
LAYER253
 70
               0
 62
               7
  6
CONTINUOUS
  0
LAYER
  2
LAYER254
 70
               0
 62
               7
  6
CONTINUOUS
  0
LAYER
  2
LAYER255
 70
               0
 62
               7
  6
CONTINUOUS
  0
ENDTAB
  0
TABLE
  2
STYLE
 70
               1
  0
STYLE
  2
STANDARD
 70
               0
 40
0.0
 41
1.0
 50
0.0
 71
               0
 42
0.0
  3
txt
  4

  0
ENDTAB
  0
TABLE
  2
VIEW
 70
               0
  0
VIEW
  2
QQQQ
 70
               0
 40
457.35950000000003
 10
0.0
 20
13.90000000000002
 41
172.38
 11
0.0
 21
0.0
 31
1.0
 12
100.0
 22
100.0
 32
0.0
 42
50.0
 43
0.0
 44
0.0
 50
0.0
 71
               0
  0
ENDTAB
  0
TABLE
  2
UCS
 70
               0
  0
ENDTAB
  0
TABLE
  2
APPID
 70
               1
  0
APPID
  2
ACAD
 70
               0
  0
ENDTAB
  0
TABLE
  2
DIMSTYLE
 70
               1
  0
DIMSTYLE
  2
STANDARD
 70
               0
  3

  4

  5

  6

  7

 40
1.0
 41
0.18
 42
0.0625
 43
0.38
 44
0.18
 45
0.0
 46
0.0
 47
0.0
 48
0.0
140
0.18
141
0.09
142
0.0
143
25.399999999999999
144
1.0
145
0.0
146
1.0
147
0.09
 71
               0
 72
               0
 73
               1
 74
               1
 75
               0
 76
               0
 77
               0
 78
               0
170
               0
171
               2
172
               0
173
               0
174
               0
175
               0
176
               0
177
               0
178
               0
  0
ENDTAB
  0
ENDSEC
  0
SECTION
  2
BLOCKS
  0
ENDSEC
  0
SECTION
  2
ENTITIES
  0
LINE
  8
0
  6
CONTINUOUS
 62
               7
  5
136
 10
-66.5
 20
-58.0
 30
0.0
 11
66.5
 21
-58.0
 31
0.0
  0
LINE
  8
0
  6
CONTINUOUS
 62
               7
  5
137
 10
0.0
 20
-183.0
 30
0.0
 11
-37.100000000000009
 21
-183.0
 31
0.0
  0
ARC
  8
0
  6
CONTINUOUS
 62
               7
  5
138
 10
-37.100000000000009
 20
-180.99999999999997
 30
0.0
 40
2.0
 50
183.01111090199001
 51
269.99999969147945
  0
LINE
  8
0
  6
CONTINUOUS
 62
               7
  5
139
 10
-39.100000000000009
 20
-181.10000000000002
 30
0.0
 11
-39.700000000000003
 21
-169.72499999999999
 31
0.0
  0
ARC
  8
0
  6
CONTINUOUS
 62
               7
  5
13A
 10
-44.674999999999997
 20
-170.0
 30
0.0
 40
5.0
 50
3.0111111076704091
 51
89.99999989715981
  0
LINE
  8
0
  6
CONTINUOUS
 62
               7
  5
13B
 10
51.374999999999986
 20
-165.0
 30
0.0
 11
-51.349999999999994
 21
-165.0
 31
0.0
  0
ARC
  8
0
  6
CONTINUOUS
 62
               7
  5
13C
 10
-51.349999999999994
 20
-149.5
 30
0.0
 40
15.499999999999998
 50
181.99999979203426
 51
269.99999969147945
  0
LINE
  8
0
  6
CONTINUOUS
 62
               7
  5
13D
 10
0.0
 20
-183.0
 30
0.0
 11
37.099999999999994
 21
-183.0
 31
0.0
  0
ARC
  8
0
  6
CONTINUOUS
 62
               7
  5
13E
 10
37.099999999999994
 20
-180.99999999999997
 30
0.0
 40
2.0
 50
269.99999969147945
 51
356.98888848096885
  0
LINE
  8
0
  6
CONTINUOUS
 62
               7
  5
13F
 10
39.099999999999994
 20
-181.10000000000002
 30
0.0
 11
39.699999999999989
 21
-169.72499999999999
 31
0.0
  0
ARC
  8
0
  6
CONTINUOUS
 62
               7
  5
140
 10
44.674999999999983
 20
-170.0
 30
0.0
 40
5.0
 50
89.99999989715981
 51
176.9888886866492
  0
LINE
  8
0
  6
CONTINUOUS
 62
               7
  5
141
 10
-68.049999999999997
 20
-59.5
 30
0.0
 11
-68.900000000000006
 21
-92.149999999999991
 31
0.0
  0
LINE
  8
0
  6
CONTINUOUS
 62
               7
  5
142
 10
68.049999999999983
 20
-59.5
 30
0.0
 11
68.899999999999991
 21
-92.249999999999986
 31
0.0
  0
LINE
  8
0
  6
CONTINUOUS
 62
               7
  5
143
 10
-66.849999999999994
 20
-150.04999999999998
 30
0.0
 11
-68.900000000000006
 21
-92.099999999999994
 31
0.0
  0
ARC
  8
0
  6
CONTINUOUS
 62
               7
  5
144
 10
51.374999999999986
 20
-149.5
 30
0.0
 40
15.499999999999998
 50
269.99999969147945
 51
357.99999959092457
  0
LINE
  8
0
  6
CONTINUOUS
 62
               7
  5
145
 10
-66.5
 20
-58.0
 30
0.0
 11
-68.0
 21
-59.5
 31
0.0
  0
LINE
  8
0
  6
CONTINUOUS
 62
               7
  5
146
 10
66.5
 20
-58.0
 30
0.0
 11
68.0
 21
-59.5
 31
0.0
  0
LINE
  8
0
  6
CONTINUOUS
 62
               7
  5
147
 10
66.849999999999994
 20
-150.04999999999998
 30
0.0
 11
68.90000000000002
 21
-92.099999999999994
 31
0.0
  0
LINE
  8
0
  6
CONTINUOUS
 62
               7
  5
148
 10
-57.0
 20
-58.0
 30
0.0
 11
-57.0
 21
0.0
 31
0.0
  0
LINE
  8
0
  6
CONTINUOUS
 62
               7
  5
149
 10
57.0
 20
0.0
 30
0.0
 11
57.0
 21
-58.0
 31
0.0
  0
LINE
  8
0
  6
CONTINUOUS
 62
               7
  5
14A
 10
55.067567567567593
 20
-58.0
 30
0.0
 11
55.067567567567593
 21
0.0
 31
0.0
  0
LINE
  8
0
  6
CONTINUOUS
 62
               7
  5
14B
 10
-55.067567567567593
 20
-58.0
 30
0.0
 11
-55.067567567567593
 21
0.0
 31
0.0
  0
LINE
  8
0
  6
CONTINUOUS
 62
               7
  5
14C
 10
68.049999999999983
 20
-59.5
 30
0.0
 11
-68.049999999999997
 21
-59.5
 31
0.0
  0
CIRCLE
  8
0
  6
CONTINUOUS
 62
               7
  5
14D
 10
-0.0000000000000071
 20
142.84999999999999
 30
0.0
 40
67.999999999999986
  0
LINE
  8
0
  6
CONTINUOUS
 62
               7
  5
14E
 10
-58.5
 20
10.000000325274158
 30
0.0
 11
58.5
 21
10.000000325274158
 31
0.0
  0
LINE
  8
0
  6
CONTINUOUS
 62
               7
  5
14F
 10
-4.0
 20
9.9999921626370849
 30
0.0
 11
-4.0
 21
0.0
 31
0.0
  0
LINE
  8
0
  6
CONTINUOUS
 62
               7
  5
150
 10
4.0
 20
0.0
 30
0.0
 11
4.0
 21
9.9999921626370849
 31
0.0
  0
ARC
  8
0
  6
CONTINUOUS
 62
               7
  5
151
 10
-0.0000000000001213
 20
142.85000087368124
 30
0.0
 40
51.499999999999993
 50
140.25555539528992
 51
174.98888868893457
  0
ARC
  8
0
  6
CONTINUOUS
 62
               7
  5
152
 10
-0.0000000000001213
 20
142.85000087368124
 30
0.0
 40
51.499999999999993
 50
95.01111100254488
 51
129.76666651838636
  0
ARC
  8
0
  6
CONTINUOUS
 62
               7
  5
153
 10
-49.300000000000111
 20
147.35000087368124
 30
0.0
 40
2.0
 50
174.78888868916309
 51
269.99999969147945
  0
ARC
  8
0
  6
CONTINUOUS
 62
               7
  5
154
 10
-0.0000000000001213
 20
142.85000087368124
 30
0.0
 40
34.0
 50
142.19999983751251
 51
172.82222202474367
  0
ARC
  8
0
  6
CONTINUOUS
 62
               7
  5
155
 10
-0.0000000000001213
 20
142.85000087368124
 30
0.0
 40
34.0
 50
97.177777666735764
 51
127.79999985396692
  0
ARC
  8
0
  6
CONTINUOUS
 62
               7
  5
156
 10
-22.075000000000124
 20
171.30000087368128
 30
0.0
 40
2.0
 50
224.99999974289952
 51
307.81111075938497
  0
ARC
  8
0
  6
CONTINUOUS
 62
               7
  5
157
 10
-28.450000000000113
 20
164.92500087368128
 30
0.0
 40
2.0
 50
322.18888852073371
 51
405.03333328187432
  0
ARC
  8
0
  6
CONTINUOUS
 62
               7
  5
158
 10
-35.725000000000122
 20
147.35000087368124
 30
0.0
 40
2.0
 50
269.99999969147945
 51
352.82222181906326
  0
LINE
  8
0
  6
CONTINUOUS
 62
               7
  5
159
 10
-36.625000000000121
 20
175.92500087368123
 30
0.0
 11
-27.025000000000119
 21
166.35000087368127
 31
0.0
  0
ARC
  8
0
  6
CONTINUOUS
 62
               7
  5
15A
 10
-38.050000000000111
 20
174.50000087368127
 30
0.0
 40
2.0
 50
45.033333281875151
 51
140.2444442841915
  0
LINE
  8
0
  6
CONTINUOUS
 62
               7
  5
15B
 10
-33.100000000000122
 20
179.4750008736813
 30
0.0
 11
-23.500000000000117
 21
169.87500087368127
 31
0.0
  0
ARC
  8
0
  6
CONTINUOUS
 62
               7
  5
15C
 10
-31.675000000000111
 20
180.90000087368125
 30
0.0
 40
2.0
 50
129.77777762948477
 51
224.99999974289952
  0
LINE
  8
0
  6
CONTINUOUS
 62
               7
  5
15D
 10
-35.725000000000122
 20
145.35000087368127
 30
0.0
 11
-49.300000000000111
 21
145.35000087368127
 31
0.0
  0
LINE
  8
0
  6
CONTINUOUS
 62
               7
  5
15E
 10
-2.5000000000001177
 20
178.57500087368132
 30
0.0
 11
-2.5000000000001177
 21
192.15000087368125
 31
0.0
  0
ARC
  8
0
  6
CONTINUOUS
 62
               7
  5
15F
 10
-4.5000000000001217
 20
178.57500087368132
 30
0.0
 40
2.0
 50
277.17777746105537
 51
359.99999958863924
  0
ARC
  8
0
  6
CONTINUOUS
 62
               7
  5
160
 10
-4.5000000000001217
 20
192.15000087368125
 30
0.0
 40
2.0
 50
0.0
 51
95.211111002316343
  0
ARC
  8
0
  6
CONTINUOUS
 62
               7
  5
161
 10
-0.0000000000001213
 20
142.85000087368124
 30
0.0
 40
30.0
 50
0.0
 51
179.99999979431962
  0
ARC
  8
0
  6
CONTINUOUS
 62
               7
  5
162
 10
-0.0000000000001213
 20
142.85000087368124
 30
0.0
 40
24.0
 50
0.0
 51
179.99999979431962
  0
ARC
  8
0
  6
CONTINUOUS
 62
               7
  5
163
 10
-0.0000000000001213
 20
142.85000087368124
 30
0.0
 40
22.5
 50
0.0
 51
179.99999979431962
  0
LINE
  8
0
  6
CONTINUOUS
 62
               7
  5
164
 10
-0.3000000000001149
 20
143.80000087368126
 30
0.0
 11
-6.3500000000001124
 21
162.37500087368124
 31
0.0
  0
LINE
  8
0
  6
CONTINUOUS
 62
               7
  5
165
 10
0.7999999999998758
 20
143.45000087368129
 30
0.0
 11
16.599999999999895
 21
154.92500087368126
 31
0.0
  0
LINE
  8
0
  6
CONTINUOUS
 62
               7
  5
166
 10
-1.0000000000001177
 20
142.85000087368124
 30
0.0
 11
-20.500000000000117
 21
142.85000087368124
 31
0.0
  0
ARC
  8
0
  6
CONTINUOUS
 62
               7
  5
167
 10
-21.500000000000114
 20
142.85000087368124
 30
0.0
 40
1.0
 50
0.0
 51
179.99999979431962
  0
CIRCLE
  8
0
  6
CONTINUOUS
 62
               7
  5
168
 10
-6.650000000000106
 20
163.30000087368126
 30
0.0
 40
1.0
  0
CIRCLE
  8
0
  6
CONTINUOUS
 62
               7
  5
169
 10
17.399999999999892
 20
155.50000087368124
 30
0.0
 40
1.0
  0
ARC
  8
0
  6
CONTINUOUS
 62
               7
  5
16A
 10
-0.0000000000001213
 20
142.85000087368124
 30
0.0
 40
58.999999999999993
 50
0.0
 51
180.00000665639453
  0
ARC
  8
0
  6
CONTINUOUS
 62
               7
  5
16B
 10
-0.0000000000001213
 20
142.85000087368124
 30
0.0
 40
51.499999999999993
 50
5.011111105385071
 51
39.74444439902971
  0
ARC
  8
0
  6
CONTINUOUS
 62
               7
  5
16C
 10
-0.0000000000001213
 20
142.85000087368124
 30
0.0
 40
51.499999999999993
 50
50.233333275933269
 51
84.988888791774741
  0
ARC
  8
0
  6
CONTINUOUS
 62
               7
  5
16D
 10
49.299999999999869
 20
147.35000087368124
 30
0.0
 40
2.0
 50
269.99999969147945
 51
365.21111110515574
  0
ARC
  8
0
  6
CONTINUOUS
 62
               7
  5
16E
 10
-0.0000000000001213
 20
142.85000087368124
 30
0.0
 40
34.0
 50
7.1777777695759557
 51
37.79999995680712
  0
ARC
  8
0
  6
CONTINUOUS
 62
               7
  5
16F
 10
-0.0000000000001213
 20
142.85000087368124
 30
0.0
 40
34.0
 50
52.19999994035269
 51
82.822222127583856
  0
ARC
  8
0
  6
CONTINUOUS
 62
               7
  5
170
 10
22.074999999999882
 20
171.30000087368128
 30
0.0
 40
2.0
 50
232.18888862357389
 51
314.99999964005934
  0
ARC
  8
0
  6
CONTINUOUS
 62
               7
  5
171
 10
28.449999999999882
 20
164.92500087368128
 30
0.0
 40
2.0
 50
134.96666651244448
 51
217.81111086222518
  0
ARC
  8
0
  6
CONTINUOUS
 62
               7
  5
172
 10
35.724999999999895
 20
147.35000087368124
 30
0.0
 40
2.0
 50
187.17777756389557
 51
269.99999969147945
  0
LINE
  8
0
  6
CONTINUOUS
 62
               7
  5
173
 10
36.624999999999886
 20
175.92500087368123
 30
0.0
 11
27.024999999999878
 21
166.35000087368127
 31
0.0
  0
ARC
  8
0
  6
CONTINUOUS
 62
               7
  5
174
 10
38.049999999999869
 20
174.50000087368127
 30
0.0
 40
2.0
 50
39.755555510128126
 51
134.96666651244448
  0
LINE
  8
0
  6
CONTINUOUS
 62
               7
  5
175
 10
33.099999999999895
 20
179.4750008736813
 30
0.0
 11
23.499999999999886
 21
169.87500087368127
 31
0.0
  0
ARC
  8
0
  6
CONTINUOUS
 62
               7
  5
176
 10
31.674999999999869
 20
180.90000087368125
 30
0.0
 40
2.0
 50
314.99999964005934
 51
410.22222216483408
  0
LINE
  8
0
  6
CONTINUOUS
 62
               7
  5
177
 10
35.724999999999895
 20
145.35000087368127
 30
0.0
 11
49.299999999999869
 21
145.35000087368127
 31
0.0
  0
LINE
  8
0
  6
CONTINUOUS
 62
               7
  5
178
 10
2.4999999999998859
 20
178.57500087368132
 30
0.0
 11
2.4999999999998859
 21
192.15000087368125
 31
0.0
  0
ARC
  8
0
  6
CONTINUOUS
 62
               7
  5
179
 10
4.4999999999998783
 20
178.57500087368132
 30
0.0
 40
2.0
 50
179.99999979431962
 51
262.82222192190346
  0
ARC
  8
0
  6
CONTINUOUS
 62
               7
  5
17A
 10
4.4999999999998783
 20
192.15000087368125
 30
0.0
 40
2.0
 50
84.788888792003277
 51
179.99999979431962
  0
ARC
  8
0
  6
CONTINUOUS
 62
               7
  5
17B
 10
-0.0000000000001213
 20
142.85000087368124
 30
0.0
 40
1.0
 50
0.0
 51
179.99999979431962
  0
ARC
  8
0
  6
CONTINUOUS
 62
               7
  5
17C
 10
-0.0000000000001213
 20
142.85000087368124
 30
0.0
 40
65.0
 50
0.0
 51
179.99999979431962
  0
ARC
  8
0
  6
CONTINUOUS
 62
               7
  5
17D
 10
-0.0000000000000071
 20
142.84999999999999
 30
0.0
 40
51.499999999999979
 50
185.01112377540966
 51
219.74445706905431
  0
ARC
  8
0
  6
CONTINUOUS
 62
               7
  5
17E
 10
-0.0000000000000071
 20
142.84999999999999
 30
0.0
 40
51.499999999999979
 50
230.23334594595786
 51
264.98890146179934
  0
ARC
  8
0
  6
CONTINUOUS
 62
               7
  5
17F
 10
-49.299999021051448
 20
138.34998927508778
 30
0.0
 40
1.9999999999999996
 50
90.000012772864793
 51
185.21112377518114
  0
ARC
  8
0
  6
CONTINUOUS
 62
               7
  5
180
 10
-0.0000000000000071
 20
142.84999999999999
 30
0.0
 40
33.999999999999993
 50
187.17779043960056
 51
217.80001262683172
  0
ARC
  8
0
  6
CONTINUOUS
 62
               7
  5
181
 10
-0.0000000000000071
 20
142.84999999999999
 30
0.0
 40
33.999999999999993
 50
232.20001261037729
 51
262.82223479760847
  0
ARC
  8
0
  6
CONTINUOUS
 62
               7
  5
182
 10
-22.07499381087667
 20
114.3999951977199
 30
0.0
 40
1.9999999999999996
 50
52.188901704959257
 51
135.0000127214447
  0
ARC
  8
0
  6
CONTINUOUS
 62
               7
  5
183
 10
-28.449995197718614
 20
120.77499381087765
 30
0.0
 40
1.9999999999999996
 50
314.96667918246908
 51
397.81112394360969
  0
ARC
  8
0
  6
CONTINUOUS
 62
               7
  5
184
 10
-35.724999021051786
 20
138.34999222824567
 30
0.0
 40
1.9999999999999996
 50
7.177790645280961
 51
90.000012772864793
  0
LINE
  8
0
  6
CONTINUOUS
 62
               7
  5
185
 10
-36.624992804735967
 20
109.77499203245688
 30
0.0
 11
-27.024994887718652
 21
119.34999412087768
 31
0.0
  0
ARC
  8
0
  6
CONTINUOUS
 62
               7
  5
186
 10
-38.049993114735919
 20
111.19999172245687
 30
0.0
 40
1.9999999999999996
 50
219.75556818015272
 51
314.96667918246908
  0
LINE
  8
0
  6
CONTINUOUS
 62
               7
  5
187
 10
-33.099992032455347
 20
106.22499279929903
 30
0.0
 11
-23.499994120876629
 21
115.8249948877199
 31
0.0
  0
ARC
  8
0
  6
CONTINUOUS
 62
               7
  5
188
 10
-31.674991722455371
 20
104.79999310929909
 30
0.0
 40
1.9999999999999996
 50
135.0000127214447
 51
230.22223483485942
  0
LINE
  8
0
  6
CONTINUOUS
 62
               7
  5
189
 10
-35.724999456139507
 20
140.34999222824561
 30
0.0
 11
-49.299999456139169
 21
140.34998927508772
 31
0.0
  0
LINE
  8
0
  6
CONTINUOUS
 62
               7
  5
18A
 10
-2.4999922282455493
 20
107.12499945614107
 30
0.0
 11
-2.4999892750876511
 21
93.549999456141478
 31
0.0
  0
ARC
  8
0
  6
CONTINUOUS
 62
               7
  5
18B
 10
-4.4999922282455049
 20
107.12499902105336
 30
0.0
 40
1.9999999999999996
 50
0.000012875705011
 51
82.822235003288853
  0
ARC
  8
0
  6
CONTINUOUS
 62
               7
  5
18C
 10
-4.4999892750876072
 20
93.549999021053765
 30
0.0
 40
1.9999999999999996
 50
264.78890146202787
 51
360.00001246434425
  0
ARC
  8
0
  6
CONTINUOUS
 62
               7
  5
18D
 10
-0.0000000000000071
 20
142.84999999999999
 30
0.0
 40
29.999999999999993
 50
180.0000126700246
 51
360.00001246434425
  0
ARC
  8
0
  6
CONTINUOUS
 62
               7
  5
18E
 10
-0.0000000000000071
 20
142.84999999999999
 30
0.0
 40
23.999999999999993
 50
180.0000126700246
 51
360.00001246434425
  0
ARC
  8
0
  6
CONTINUOUS
 62
               7
  5
18F
 10
-0.0000000000000071
 20
142.84999999999999
 30
0.0
 40
22.499999999999996
 50
180.0000126700246
 51
360.00001246434425
  0
LINE
  8
0
  6
CONTINUOUS
 62
               7
  5
190
 10
-0.2999997933333266
 20
141.8999999347368
 30
0.0
 11
-6.3499957524559818
 21
123.32499861859694
 31
0.0
  0
LINE
  8
0
  6
CONTINUOUS
 62
               7
  5
191
 10
0.8000001305262868
 20
142.25000017403502
 30
0.0
 11
16.600002626841718
 21
130.77500361122833
 31
0.0
  0
ARC
  8
0
  6
CONTINUOUS
 62
               7
  5
192
 10
-21.499999999999488
 20
142.84999532280699
 30
0.0
 40
0.9999999999999998
 50
180.0000126700246
 51
360.00001246434425
  0
CIRCLE
  8
0
  6
CONTINUOUS
 62
               7
  5
193
 10
-6.6499955512278976
 20
122.39999855333377
 30
0.0
 40
0.9999999999999998
  0
CIRCLE
  8
0
  6
CONTINUOUS
 62
               7
  5
194
 10
17.400002751929417
 20
130.20000378526342
 30
0.0
 40
0.9999999999999998
  0
ARC
  8
0
  6
CONTINUOUS
 62
               7
  5
195
 10
-0.0000000000000071
 20
142.84999999999999
 30
0.0
 40
58.999999999999979
 50
180.00000580794969
 51
360.00001246434425
  0
ARC
  8
0
  6
CONTINUOUS
 62
               7
  5
196
 10
-0.0000000000000071
 20
142.84999999999999
 30
0.0
 40
51.499999999999979
 50
320.25556806531449
 51
354.98890135895914
  0
ARC
  8
0
  6
CONTINUOUS
 62
               7
  5
197
 10
-0.0000000000000071
 20
142.84999999999999
 30
0.0
 40
51.499999999999979
 50
275.01112367256951
 51
309.76667918841093
  0
ARC
  8
0
  6
CONTINUOUS
 62
               7
  5
198
 10
49.300000978946173
 20
138.35001072491235
 30
0.0
 40
1.9999999999999996
 50
354.78890135918766
 51
450.00001277286401
  0
ARC
  8
0
  6
CONTINUOUS
 62
               7
  5
199
 10
-0.0000000000000071
 20
142.84999999999999
 30
0.0
 40
33.999999999999993
 50
322.20001250753711
 51
352.82223469476827
  0
ARC
  8
0
  6
CONTINUOUS
 62
               7
  5
19A
 10
-0.0000000000000071
 20
142.84999999999999
 30
0.0
 40
33.999999999999993
 50
277.17779033676032
 51
307.80001252399148
  0
ARC
  8
0
  6
CONTINUOUS
 62
               7
  5
19B
 10
22.075006189122284
 20
114.4000048022813
 30
0.0
 40
1.9999999999999996
 50
45.000012824284909
 51
127.81112384077036
  0
ARC
  8
0
  6
CONTINUOUS
 62
               7
  5
19C
 10
28.450004802280024
 20
120.77500618912327
 30
0.0
 40
1.9999999999999996
 50
142.18890160211907
 51
225.03334595189975
  0
ARC
  8
0
  6
CONTINUOUS
 62
               7
  5
19D
 10
35.725000978946525
 20
138.35000777175446
 30
0.0
 40
1.9999999999999996
 50
90.000012772864793
 51
172.82223490044865
  0
LINE
  8
0
  6
CONTINUOUS
 62
               7
  5
19E
 10
36.625007195262292
 20
109.77500796754461
 30
0.0
 11
27.025005112280052
 21
119.3500058791233
 31
0.0
  0
ARC
  8
0
  6
CONTINUOUS
 62
               7
  5
19F
 10
38.050006885262242
 20
111.20000827754458
 30
0.0
 40
1.9999999999999996
 50
225.03334595189975
 51
320.2444569542161
  0
LINE
  8
0
  6
CONTINUOUS
 62
               7
  5
1A0
 10
33.100007967543092
 20
106.22500720070255
 30
0.0
 11
23.500005879122252
 21
115.82500511228133
 31
0.0
  0
ARC
  8
0
  6
CONTINUOUS
 62
               7
  5
1A1
 10
31.675008277543096
 20
104.80000689070263
 30
0.0
 40
1.9999999999999996
 50
309.77779029950938
 51
405.00001282428411
  0
LINE
  8
0
  6
CONTINUOUS
 62
               7
  5
1A2
 10
35.725000543858805
 20
140.35000777175441
 30
0.0
 11
49.300000543858452
 21
140.35001072491229
 31
0.0
  0
LINE
  8
0
  6
CONTINUOUS
 62
               7
  5
1A3
 10
2.5000077717543352
 20
107.12500054386035
 30
0.0
 11
2.5000107249122334
 21
93.550000543860762
 31
0.0
  0
ARC
  8
0
  6
CONTINUOUS
 62
               7
  5
1A4
 10
4.5000077717542801
 20
107.12500097894812
 30
0.0
 40
1.9999999999999996
 50
97.177790542440746
 51
180.0000126700246
  0
ARC
  8
0
  6
CONTINUOUS
 62
               7
  5
1A5
 10
4.5000107249121779
 20
93.550000978948532
 30
0.0
 40
1.9999999999999996
 50
180.0000126700246
 51
275.21112367234093
  0
ARC
  8
0
  6
CONTINUOUS
 62
               7
  5
1A6
 10
-0.0000000000000071
 20
142.84999999999999
 30
0.0
 40
0.9999999999999998
 50
180.0000126700246
 51
360.00001246434425
  0
ARC
  8
0
  6
CONTINUOUS
 62
               7
  5
1A7
 10
-0.0000000000000071
 20
142.84999999999999
 30
0.0
 40
64.999999999999986
 50
180.0000126700246
 51
360.00001246434425
  0
LINE
  8
0
  6
DASHDOT
 62
               7
  5
1A8
 10
-78.0
 20
142.84999999999999
 30
0.0
 11
78.0
 21
142.84999999999999
 31
0.0
  0
LINE
  8
0
  6
DASHDOT
 62
               7
  5
1A9
 10
-0.0000000000000096
 20
68.638375483684968
 30
0.0
 11
0.0
 21
220.85000000000002
 31
0.0
  0
LINE
  8
0
  6
DASHDOT
 62
               7
  5
1AA
 10
0.0
 20
-193.04999999999998
 30
0.0
 11
0.0000000000000138
 21
32.360844543354091
 31
0.0
  0
LINE
  8
LAYER001
  6
CONTINUOUS
 62
               7
  5
1AB
 10
65.0
 20
22.0
 30
0.0
 11
65.0
 21
19.0
 31
0.0
  0
ARC
  8
LAYER001
  6
CONTINUOUS
 62
               7
  5
1AC
 10
60.5
 20
8.0635079999999846
 30
0.0
 40
2.0
 50
104.47751199998018
 51
179.99999999996541
  0
ARC
  8
LAYER001
  6
CONTINUOUS
 62
               7
  5
1AD
 10
59.5
 20
11.936491999999987
 30
0.0
 40
2.0
 50
284.47751199994536
 51
359.9999999999992
  0
ARC
  8
LAYER001
  6
CONTINUOUS
 62
               7
  5
1AE
 10
63.5
 20
17.0
 30
0.0
 40
2.0
 50
89.999999999982705
 51
179.99999999996541
  0
LINE
  8
LAYER001
  6
CONTINUOUS
 62
               7
  5
1AF
 10
59.0
 20
0.0
 30
0.0
 11
-59.0
 21
0.0
 31
0.0
  0
ARC
  8
LAYER001
  6
CONTINUOUS
 62
               7
  5
1B0
 10
59.0
 20
1.0
 30
0.0
 40
1.0
 50
269.9999999999489
 51
359.9999999999992
  0
ARC
  8
LAYER001
  6
CONTINUOUS
 62
               7
  5
1B1
 10
57.5
 20
1.0
 30
0.0
 40
1.0
 50
269.9999999999489
 51
359.9999999999992
  0
LINE
  8
LAYER001
  6
CONTINUOUS
 62
               7
  5
1B2
 10
60.0
 20
10.0
 30
0.0
 11
60.0
 21
1.0
 31
0.0
  0
LINE
  8
LAYER001
  6
CONTINUOUS
 62
               7
  5
1B3
 10
58.5
 20
1.0
 30
0.0
 11
58.5
 21
8.0635079999999846
 31
0.0
  0
LINE
  8
LAYER001
  6
CONTINUOUS
 62
               7
  5
1B4
 10
61.5
 20
17.0
 30
0.0
 11
61.5
 21
11.936491999999987
 31
0.0
  0
LINE
  8
LAYER001
  6
CONTINUOUS
 62
               7
  5
1B5
 10
-65.0
 20
22.0
 30
0.0
 11
-65.0
 21
19.0
 31
0.0
  0
LINE
  8
LAYER001
  6
CONTINUOUS
 62
               7
  5
1B6
 10
-65.0
 20
19.0
 30
0.0
 11
65.0
 21
19.0
 31
0.0
  0
ARC
  8
LAYER001
  6
CONTINUOUS
 62
               7
  5
1B7
 10
-63.5
 20
17.0
 30
0.0
 40
2.0
 50
0.0
 51
89.999999999982705
  0
LINE
  8
LAYER001
  6
CONTINUOUS
 62
               7
  5
1B8
 10
-61.5
 20
17.0
 30
0.0
 11
-61.5
 21
11.936491999999987
 31
0.0
  0
ARC
  8
LAYER001
  6
CONTINUOUS
 62
               7
  5
1B9
 10
-59.5
 20
11.936491999999987
 30
0.0
 40
2.0
 50
179.99999999996541
 51
255.5224879999511
  0
ARC
  8
LAYER001
  6
CONTINUOUS
 62
               7
  5
1BA
 10
-60.5
 20
8.0635079999999846
 30
0.0
 40
2.0
 50
0.0
 51
75.522487999985671
  0
LINE
  8
LAYER001
  6
CONTINUOUS
 62
               7
  5
1BB
 10
-60.0
 20
9.9999996747261122
 30
0.0
 11
-60.0
 21
1.0
 31
0.0
  0
LINE
  8
LAYER001
  6
CONTINUOUS
 62
               7
  5
1BC
 10
-58.5
 20
1.0
 30
0.0
 11
-58.5
 21
8.0635079999999846
 31
0.0
  0
ARC
  8
LAYER001
  6
CONTINUOUS
 62
               7
  5
1BD
 10
-59.0
 20
1.0
 30
0.0
 40
1.0
 50
179.99999999996541
 51
269.9999999999485
  0
ARC
  8
LAYER001
  6
CONTINUOUS
 62
               7
  5
1BE
 10
-57.5
 20
1.0
 30
0.0
 40
1.0
 50
179.99999999996541
 51
269.9999999999485
  0
LINE
  8
LAYER001
  6
CONTINUOUS
 62
               7
  5
1BF
 10
-65.0
 20
22.0
 30
0.0
 11
65.0
 21
22.0
 31
0.0
  0
ENDSEC
  0
EOF
