  0
SECTION
  2
HEADER
  9
$ACADVER
  1
AC1009
  9
$INSBASE
 10
0.0
 20
0.0
 30
0.0
  9
$EXTMIN
 10
-80.055717943304089
 20
-202.05491698327907
 30
0.0
  9
$EXTMAX
 10
163.5124536566961
 20
273.01710173672092
 30
0.0
  9
$LIMMIN
 10
-87.6672233058041
 20
-216.90091756827906
  9
$LIMMAX
 10
171.12395901919609
 20
287.86310232172093
  9
$ORTHOMODE
 70
               0
  9
$REGENMODE
 70
               1
  9
$FILLMODE
 70
               1
  9
$QTEXTMODE
 70
               0
  9
$MIRRTEXT
 70
               1
  9
$DRAGMODE
 70
               2
  9
$LTSCALE
 40
1.0
  9
$OSMODE
 70
               0
  9
$ATTMODE
 70
               1
  9
$TEXTSIZE
 40
0.2
  9
$TRACEWID
 40
0.05
  9
$TEXTSTYLE
  7
STANDARD
  9
$CLAYER
  8
0
  9
$CELTYPE
  6
CONTINUOUS
  9
$CECOLOR
 62
             256
  9
$DIMSCALE
 40
1.0
  9
$DIMASZ
 40
0.18
  9
$DIMEXO
 40
0.0625
  9
$DIMDLI
 40
0.38
  9
$DIMRND
 40
0.0
  9
$DIMDLE
 40
0.0
  9
$DIMEXE
 40
0.18
  9
$DIMTP
 40
0.0
  9
$DIMTM
 40
0.0
  9
$DIMTXT
 40
0.18
  9
$DIMCEN
 40
0.09
  9
$DIMTSZ
 40
0.0
  9
$DIMTOL
 70
               0
  9
$DIMLIM
 70
               0
  9
$DIMTIH
 70
               1
  9
$DIMTOH
 70
               1
  9
$DIMSE1
 70
               0
  9
$DIMSE2
 70
               0
  9
$DIMTAD
 70
               0
  9
$DIMZIN
 70
               0
  9
$DIMBLK
  1

  9
$DIMASO
 70
               1
  9
$DIMSHO
 70
               1
  9
$DIMPOST
  1

  9
$DIMAPOST
  1

  9
$DIMALT
 70
               0
  9
$DIMALTD
 70
               2
  9
$DIMALTF
 40
25.399999999999999
  9
$DIMLFAC
 40
1.0
  9
$DIMTOFL
 70
               0
  9
$DIMTVP
 40
0.0
  9
$DIMTIX
 70
               0
  9
$DIMSOXD
 70
               0
  9
$DIMSAH
 70
               0
  9
$DIMBLK1
  1

  9
$DIMBLK2
  1

  9
$DIMSTYLE
  2
STANDARD
  9
$DIMCLRD
 70
               0
  9
$DIMCLRE
 70
               0
  9
$DIMCLRT
 70
               0
  9
$DIMTFAC
 40
1.0
  9
$DIMGAP
 40
0.09
  9
$LUNITS
 70
               2
  9
$LUPREC
 70
               4
  9
$AXISMODE
 70
               0
  9
$AXISUNIT
 10
0.0
 20
0.0
  9
$SKETCHINC
 40
0.1
  9
$FILLETRAD
 40
0.0
  9
$AUNITS
 70
               0
  9
$AUPREC
 70
               0
  9
$MENU
  1
acad
  9
$ELEVATION
 40
0.0
  9
$PELEVATION
 40
0.0
  9
$THICKNESS
 40
0.0
  9
$LIMCHECK
 70
               0
  9
$BLIPMODE
 70
               1
  9
$CHAMFERA
 40
0.0
  9
$CHAMFERB
 40
0.0
  9
$SKPOLY
 70
               0
  9
$TDCREATE
 40
0.000000000
  9
$TDUPDATE
 40
0.000000000
  9
$TDINDWG
 40
0.0000000000
  9
$TDUSRTIMER
 40
0.0000000000
  9
$USRTIMER
 70
               1
  9
$ANGBASE
 50
0.0
  9
$ANGDIR
 70
               0
  9
$PDMODE
 70
               0
  9
$PDSIZE
 40
1.0
  9
$PLINEWID
 40
0.0
  9
$COORDS
 70
               1
  9
$SPLFRAME
 70
               0
  9
$SPLINETYPE
 70
               6
  9
$SPLINESEGS
 70
               8
  9
$ATTDIA
 70
               0
  9
$ATTREQ
 70
               1
  9
$HANDLING
 70
               1
  9
$HANDSEED
  5
248
  9
$SURFTAB1
 70
               6
  9
$SURFTAB2
 70
               6
  9
$SURFTYPE
 70
               6
  9
$SURFU
 70
               6
  9
$SURFV
 70
               6
  9
$UCSNAME
  2

  9
$UCSORG
 10
0.0
 20
0.0
 30
0.0
  9
$UCSXDIR
 10
1.0
 20
0.0
 30
0.0
  9
$UCSYDIR
 10
0.0
 20
1.0
 30
0.0
  9
$PUCSNAME
  2

  9
$PUCSORG
 10
0.0
 20
0.0
 30
0.0
  9
$PUCSXDIR
 10
1.0
 20
0.0
 30
0.0
  9
$PUCSYDIR
 10
0.0
 20
1.0
 30
0.0
  9
$USERI1
 70
               0
  9
$USERI2
 70
               0
  9
$USERI3
 70
               0
  9
$USERI4
 70
               0
  9
$USERI5
 70
               0
  9
$USERR1
 40
0.0
  9
$USERR2
 40
0.0
  9
$USERR3
 40
0.0
  9
$USERR4
 40
0.0
  9
$USERR5
 40
0.0
  9
$WORLDVIEW
 70
               1
  9
$SHADEDGE
 70
               3
  9
$SHADEDIF
 70
              70
  9
$TILEMODE
 70
               1
  9
$MAXACTVP
 70
              16
  9
$PINSBASE
 10
0.0
 20
0.0
 30
0.0
  9
$PLIMCHECK
 70
               0
  9
$PEXTMIN
 10
1.0000000000000000E+20
 20
1.0000000000000000E+20
 30
1.0000000000000000E+20
  9
$PEXTMAX
 10
-1.0000000000000000E+20
 20
-1.0000000000000000E+20
 30
-1.0000000000000000E+20
  9
$PLIMMIN
 10
0.0
 20
0.0
  9
$PLIMMAX
 10
12.0
 20
9.0
  9
$UNITMODE
 70
               0
  9
$VISRETAIN
 70
               0
  9
$PLINEGEN
 70
               1
  9
$PSLTSCALE
 70
               0
  9
$TREEDEPTH
 70
            3020
  9
$DWGCODEPAGE
  3
dos932
  0
ENDSEC
  0
SECTION
  2
TABLES
  0
TABLE
  2
VPORT
 70
               1
  0
VPORT
  2
*ACTIVE
 70
               0
 10
0.0
 20
0.0
 11
1.0
 21
1.0
 12
41.728367856695996
 22
35.481092376720937
 13
0.0
 23
0.0
 14
1.0
 24
1.0
 15
0.0
 25
0.0
 16
0.0
 26
0.0
 36
1.0
 17
0.0
 27
0.0
 37
0.0
 40
504.76401988999999
 41
0.5126973637728713
 42
50.0
 43
0.0
 44
0.0
 50
0.0
 51
0.0
 71
               0
 72
             100
 73
               1
 74
               1
 75
               0
 76
               0
 77
               0
 78
               0
  0
ENDTAB
  0
TABLE
  2
LTYPE
 70
              26
  0
LTYPE
  2
CONTINUOUS
 70
               0
  3
Solid line
 72
              65
 73
               0
 40
0.0
  0
LTYPE
  2
HIDDENX2
 70
               0
  3
CADPAC FUSION LINETYPE
 72
              65
 73
               2
 40
23.760000000000002
 49
17.82
 49
-5.9400000000000004
  0
LTYPE
  2
HIDDEN
 70
               0
  3
CADPAC FUSION LINETYPE
 72
              65
 73
               2
 40
17.82
 49
11.880000000000001
 49
-5.9400000000000004
  0
LTYPE
  2
HIDDEN2
 70
               0
  3
CADPAC FUSION LINETYPE
 72
              65
 73
               2
 40
14.850000000000001
 49
8.9100000000000001
 49
-5.9400000000000004
  0
LTYPE
  2
DASHED
 70
               0
  3
CADPAC FUSION LINETYPE
 72
              65
 73
               2
 40
17.82
 49
11.880000000000001
 49
-5.9400000000000004
  0
LTYPE
  2
DASHED2
 70
               0
  3
CADPAC FUSION LINETYPE
 72
              65
 73
               2
 40
13.365
 49
8.9100000000000001
 49
-4.4550000000000001
  0
LTYPE
  2
DASHEDX2
 70
               0
  3
CADPAC FUSION LINETYPE
 72
              65
 73
               2
 40
26.73
 49
17.82
 49
-8.9100000000000001
  0
LTYPE
  2
DOTX2
 70
               0
  3
CADPAC FUSION LINETYPE
 72
              65
 73
               2
 40
7.4250000000000007
 49
0.0
 49
-7.4250000000000007
  0
LTYPE
  2
DOT
 70
               0
  3
CADPAC FUSION LINETYPE
 72
              65
 73
               2
 40
5.9400000000000004
 49
0.0
 49
-5.9400000000000004
  0
LTYPE
  2
DOTS
 70
               0
  3
CADPAC FUSION LINETYPE
 72
              65
 73
               2
 40
5.9400000000000004
 49
0.0
 49
-5.9400000000000004
  0
LTYPE
  2
DOT2
 70
               0
  3
CADPAC FUSION LINETYPE
 72
              65
 73
               2
 40
4.4550000000000001
 49
0.0
 49
-4.4550000000000001
  0
LTYPE
  2
CENTERX2
 70
               0
  3
CADPAC FUSION LINETYPE
 72
              65
 73
               4
 40
35.640000000000001
 49
14.850000000000001
 49
-7.4250000000000007
 49
5.9400000000000004
 49
-7.4250000000000007
  0
LTYPE
  2
CENTER
 70
               0
  3
CADPAC FUSION LINETYPE
 72
              65
 73
               4
 40
27.324000000000002
 49
11.880000000000001
 49
-5.9400000000000004
 49
3.5640000000000001
 49
-5.9400000000000004
  0
LTYPE
  2
CENTER2
 70
               0
  3
CADPAC FUSION LINETYPE
 72
              65
 73
               4
 40
19.008000000000003
 49
8.9100000000000001
 49
-4.4550000000000001
 49
1.1880000000000002
 49
-4.4550000000000001
  0
LTYPE
  2
DASHDOTX2
 70
               0
  3
CADPAC FUSION LINETYPE
 72
              65
 73
               4
 40
29.700000000000003
 49
14.850000000000001
 49
-7.4250000000000007
 49
0.0
 49
-7.4250000000000007
  0
LTYPE
  2
DASHDOT
 70
               0
  3
CADPAC FUSION LINETYPE
 72
              65
 73
               4
 40
23.760000000000002
 49
11.880000000000001
 49
-5.9400000000000004
 49
0.0
 49
-5.9400000000000004
  0
LTYPE
  2
DASHDOT2
 70
               0
  3
CADPAC FUSION LINETYPE
 72
              65
 73
               4
 40
17.82
 49
8.9100000000000001
 49
-4.4550000000000001
 49
0.0
 49
-4.4550000000000001
  0
LTYPE
  2
DIVIDEX2
 70
               0
  3
CADPAC FUSION LINETYPE
 72
              65
 73
               6
 40
37.125
 49
14.850000000000001
 49
-7.4250000000000007
 49
0.0
 49
-7.4250000000000007
 49
0.0
 49
-7.4250000000000007
  0
LTYPE
  2
DIVIDE
 70
               0
  3
CADPAC FUSION LINETYPE
 72
              65
 73
               6
 40
29.700000000000003
 49
11.880000000000001
 49
-5.9400000000000004
 49
0.0
 49
-5.9400000000000004
 49
0.0
 49
-5.9400000000000004
  0
LTYPE
  2
DIVIDE2
 70
               0
  3
CADPAC FUSION LINETYPE
 72
              65
 73
               6
 40
22.274999999999999
 49
8.9100000000000001
 49
-4.4550000000000001
 49
0.0
 49
-4.4550000000000001
 49
0.0
 49
-4.4550000000000001
  0
LTYPE
  2
BORDERX2
 70
               0
  3
CADPAC FUSION LINETYPE
 72
              65
 73
               6
 40
51.975000000000009
 49
14.850000000000001
 49
-7.4250000000000007
 49
14.850000000000001
 49
-7.4250000000000007
 49
0.0
 49
-7.4250000000000007
  0
LTYPE
  2
BORDER
 70
               0
  3
CADPAC FUSION LINETYPE
 72
              65
 73
               6
 40
41.579999999999998
 49
11.880000000000001
 49
-5.9400000000000004
 49
11.880000000000001
 49
-5.9400000000000004
 49
0.0
 49
-5.9400000000000004
  0
LTYPE
  2
BORDER2
 70
               0
  3
CADPAC FUSION LINETYPE
 72
              65
 73
               6
 40
31.185000000000002
 49
8.9100000000000001
 49
-4.4550000000000001
 49
8.9100000000000001
 49
-4.4550000000000001
 49
0.0
 49
-4.4550000000000001
  0
LTYPE
  2
PHANTOMX2
 70
               0
  3
CADPAC FUSION LINETYPE
 72
              65
 73
               6
 40
44.550000000000004
 49
14.850000000000001
 49
-5.9400000000000004
 49
5.9400000000000004
 49
-5.9400000000000004
 49
5.9400000000000004
 49
-5.9400000000000004
  0
LTYPE
  2
PHANTOM
 70
               0
  3
CADPAC FUSION LINETYPE
 72
              65
 73
               6
 40
36.828000000000003
 49
11.880000000000001
 49
-5.9400000000000004
 49
3.5640000000000001
 49
-5.9400000000000004
 49
3.5640000000000001
 49
-5.9400000000000004
  0
LTYPE
  2
PHANTOM2
 70
               0
  3
CADPAC FUSION LINETYPE
 72
              65
 73
               6
 40
31.482000000000006
 49
8.9100000000000001
 49
-5.9400000000000004
 49
2.3760000000000003
 49
-5.9400000000000004
 49
2.3760000000000003
 49
-5.9400000000000004
  0
ENDTAB
  0
TABLE
  2
LAYER
 70
             256
  0
LAYER
  2
0
 70
               0
 62
               7
  6
CONTINUOUS
  0
LAYER
  2
LAYER001
 70
               0
 62
               7
  6
CONTINUOUS
  0
LAYER
  2
LAYER002
 70
               0
 62
               7
  6
CONTINUOUS
  0
LAYER
  2
LAYER003
 70
               0
 62
               7
  6
CONTINUOUS
  0
LAYER
  2
LAYER004
 70
               0
 62
               7
  6
CONTINUOUS
  0
LAYER
  2
LAYER005
 70
               0
 62
               7
  6
CONTINUOUS
  0
LAYER
  2
LAYER006
 70
               0
 62
               7
  6
CONTINUOUS
  0
LAYER
  2
LAYER007
 70
               0
 62
               7
  6
CONTINUOUS
  0
LAYER
  2
LAYER008
 70
               0
 62
               7
  6
CONTINUOUS
  0
LAYER
  2
LAYER009
 70
               0
 62
               7
  6
CONTINUOUS
  0
LAYER
  2
LAYER010
 70
               0
 62
               7
  6
CONTINUOUS
  0
LAYER
  2
LAYER011
 70
               0
 62
               7
  6
CONTINUOUS
  0
LAYER
  2
LAYER012
 70
               0
 62
               7
  6
CONTINUOUS
  0
LAYER
  2
LAYER013
 70
               0
 62
               7
  6
CONTINUOUS
  0
LAYER
  2
LAYER014
 70
               0
 62
               7
  6
CONTINUOUS
  0
LAYER
  2
LAYER015
 70
               0
 62
               7
  6
CONTINUOUS
  0
LAYER
  2
LAYER016
 70
               0
 62
               7
  6
CONTINUOUS
  0
LAYER
  2
LAYER017
 70
               0
 62
               7
  6
CONTINUOUS
  0
LAYER
  2
LAYER018
 70
               0
 62
               7
  6
CONTINUOUS
  0
LAYER
  2
LAYER019
 70
               0
 62
               7
  6
CONTINUOUS
  0
LAYER
  2
LAYER020
 70
               0
 62
               7
  6
CONTINUOUS
  0
LAYER
  2
LAYER021
 70
               0
 62
               7
  6
CONTINUOUS
  0
LAYER
  2
LAYER022
 70
               0
 62
               7
  6
CONTINUOUS
  0
LAYER
  2
LAYER023
 70
               0
 62
               7
  6
CONTINUOUS
  0
LAYER
  2
LAYER024
 70
               0
 62
               7
  6
CONTINUOUS
  0
LAYER
  2
LAYER025
 70
               0
 62
               7
  6
CONTINUOUS
  0
LAYER
  2
LAYER026
 70
               0
 62
               7
  6
CONTINUOUS
  0
LAYER
  2
LAYER027
 70
               0
 62
               7
  6
CONTINUOUS
  0
LAYER
  2
LAYER028
 70
               0
 62
               7
  6
CONTINUOUS
  0
LAYER
  2
LAYER029
 70
               0
 62
               7
  6
CONTINUOUS
  0
LAYER
  2
LAYER030
 70
               0
 62
               7
  6
CONTINUOUS
  0
LAYER
  2
LAYER031
 70
               0
 62
               7
  6
CONTINUOUS
  0
LAYER
  2
LAYER032
 70
               0
 62
               7
  6
CONTINUOUS
  0
LAYER
  2
LAYER033
 70
               0
 62
               7
  6
CONTINUOUS
  0
LAYER
  2
LAYER034
 70
               0
 62
               7
  6
CONTINUOUS
  0
LAYER
  2
LAYER035
 70
               0
 62
               7
  6
CONTINUOUS
  0
LAYER
  2
LAYER036
 70
               0
 62
               7
  6
CONTINUOUS
  0
LAYER
  2
LAYER037
 70
               0
 62
               7
  6
CONTINUOUS
  0
LAYER
  2
LAYER038
 70
               0
 62
               7
  6
CONTINUOUS
  0
LAYER
  2
LAYER039
 70
               0
 62
               7
  6
CONTINUOUS
  0
LAYER
  2
LAYER040
 70
               0
 62
               7
  6
CONTINUOUS
  0
LAYER
  2
LAYER041
 70
               0
 62
               7
  6
CONTINUOUS
  0
LAYER
  2
LAYER042
 70
               0
 62
               7
  6
CONTINUOUS
  0
LAYER
  2
LAYER043
 70
               0
 62
               7
  6
CONTINUOUS
  0
LAYER
  2
LAYER044
 70
               0
 62
               7
  6
CONTINUOUS
  0
LAYER
  2
LAYER045
 70
               0
 62
               7
  6
CONTINUOUS
  0
LAYER
  2
LAYER046
 70
               0
 62
               7
  6
CONTINUOUS
  0
LAYER
  2
LAYER047
 70
               0
 62
               7
  6
CONTINUOUS
  0
LAYER
  2
LAYER048
 70
               0
 62
               7
  6
CONTINUOUS
  0
LAYER
  2
LAYER049
 70
               0
 62
               7
  6
CONTINUOUS
  0
LAYER
  2
LAYER050
 70
               0
 62
               7
  6
CONTINUOUS
  0
LAYER
  2
LAYER051
 70
               0
 62
               7
  6
CONTINUOUS
  0
LAYER
  2
LAYER052
 70
               0
 62
               7
  6
CONTINUOUS
  0
LAYER
  2
LAYER053
 70
               0
 62
               7
  6
CONTINUOUS
  0
LAYER
  2
LAYER054
 70
               0
 62
               7
  6
CONTINUOUS
  0
LAYER
  2
LAYER055
 70
               0
 62
               7
  6
CONTINUOUS
  0
LAYER
  2
LAYER056
 70
               0
 62
               7
  6
CONTINUOUS
  0
LAYER
  2
LAYER057
 70
               0
 62
               7
  6
CONTINUOUS
  0
LAYER
  2
LAYER058
 70
               0
 62
               7
  6
CONTINUOUS
  0
LAYER
  2
LAYER059
 70
               0
 62
               7
  6
CONTINUOUS
  0
LAYER
  2
LAYER060
 70
               0
 62
               7
  6
CONTINUOUS
  0
LAYER
  2
LAYER061
 70
               0
 62
               7
  6
CONTINUOUS
  0
LAYER
  2
LAYER062
 70
               0
 62
               7
  6
CONTINUOUS
  0
LAYER
  2
LAYER063
 70
               0
 62
               7
  6
CONTINUOUS
  0
LAYER
  2
LAYER064
 70
               0
 62
               7
  6
CONTINUOUS
  0
LAYER
  2
LAYER065
 70
               0
 62
               7
  6
CONTINUOUS
  0
LAYER
  2
LAYER066
 70
               0
 62
               7
  6
CONTINUOUS
  0
LAYER
  2
LAYER067
 70
               0
 62
               7
  6
CONTINUOUS
  0
LAYER
  2
LAYER068
 70
               0
 62
               7
  6
CONTINUOUS
  0
LAYER
  2
LAYER069
 70
               0
 62
               7
  6
CONTINUOUS
  0
LAYER
  2
LAYER070
 70
               0
 62
               7
  6
CONTINUOUS
  0
LAYER
  2
LAYER071
 70
               0
 62
               7
  6
CONTINUOUS
  0
LAYER
  2
LAYER072
 70
               0
 62
               7
  6
CONTINUOUS
  0
LAYER
  2
LAYER073
 70
               0
 62
               7
  6
CONTINUOUS
  0
LAYER
  2
LAYER074
 70
               0
 62
               7
  6
CONTINUOUS
  0
LAYER
  2
LAYER075
 70
               0
 62
               7
  6
CONTINUOUS
  0
LAYER
  2
LAYER076
 70
               0
 62
               7
  6
CONTINUOUS
  0
LAYER
  2
LAYER077
 70
               0
 62
               7
  6
CONTINUOUS
  0
LAYER
  2
LAYER078
 70
               0
 62
               7
  6
CONTINUOUS
  0
LAYER
  2
LAYER079
 70
               0
 62
               7
  6
CONTINUOUS
  0
LAYER
  2
LAYER080
 70
               0
 62
               7
  6
CONTINUOUS
  0
LAYER
  2
LAYER081
 70
               0
 62
               7
  6
CONTINUOUS
  0
LAYER
  2
LAYER082
 70
               0
 62
               7
  6
CONTINUOUS
  0
LAYER
  2
LAYER083
 70
               0
 62
               7
  6
CONTINUOUS
  0
LAYER
  2
LAYER084
 70
               0
 62
               7
  6
CONTINUOUS
  0
LAYER
  2
LAYER085
 70
               0
 62
               7
  6
CONTINUOUS
  0
LAYER
  2
LAYER086
 70
               0
 62
               7
  6
CONTINUOUS
  0
LAYER
  2
LAYER087
 70
               0
 62
               7
  6
CONTINUOUS
  0
LAYER
  2
LAYER088
 70
               0
 62
               7
  6
CONTINUOUS
  0
LAYER
  2
LAYER089
 70
               0
 62
               7
  6
CONTINUOUS
  0
LAYER
  2
LAYER090
 70
               0
 62
               7
  6
CONTINUOUS
  0
LAYER
  2
LAYER091
 70
               0
 62
               7
  6
CONTINUOUS
  0
LAYER
  2
LAYER092
 70
               0
 62
               7
  6
CONTINUOUS
  0
LAYER
  2
LAYER093
 70
               0
 62
               7
  6
CONTINUOUS
  0
LAYER
  2
LAYER094
 70
               0
 62
               7
  6
CONTINUOUS
  0
LAYER
  2
LAYER095
 70
               0
 62
               7
  6
CONTINUOUS
  0
LAYER
  2
LAYER096
 70
               0
 62
               7
  6
CONTINUOUS
  0
LAYER
  2
LAYER097
 70
               0
 62
               7
  6
CONTINUOUS
  0
LAYER
  2
LAYER098
 70
               0
 62
               7
  6
CONTINUOUS
  0
LAYER
  2
LAYER099
 70
               0
 62
               7
  6
CONTINUOUS
  0
LAYER
  2
LAYER100
 70
               0
 62
               7
  6
CONTINUOUS
  0
LAYER
  2
LAYER101
 70
               0
 62
               7
  6
CONTINUOUS
  0
LAYER
  2
LAYER102
 70
               0
 62
               7
  6
CONTINUOUS
  0
LAYER
  2
LAYER103
 70
               0
 62
               7
  6
CONTINUOUS
  0
LAYER
  2
LAYER104
 70
               0
 62
               7
  6
CONTINUOUS
  0
LAYER
  2
LAYER105
 70
               0
 62
               7
  6
CONTINUOUS
  0
LAYER
  2
LAYER106
 70
               0
 62
               7
  6
CONTINUOUS
  0
LAYER
  2
LAYER107
 70
               0
 62
               7
  6
CONTINUOUS
  0
LAYER
  2
LAYER108
 70
               0
 62
               7
  6
CONTINUOUS
  0
LAYER
  2
LAYER109
 70
               0
 62
               7
  6
CONTINUOUS
  0
LAYER
  2
LAYER110
 70
               0
 62
               7
  6
CONTINUOUS
  0
LAYER
  2
LAYER111
 70
               0
 62
               7
  6
CONTINUOUS
  0
LAYER
  2
LAYER112
 70
               0
 62
               7
  6
CONTINUOUS
  0
LAYER
  2
LAYER113
 70
               0
 62
               7
  6
CONTINUOUS
  0
LAYER
  2
LAYER114
 70
               0
 62
               7
  6
CONTINUOUS
  0
LAYER
  2
LAYER115
 70
               0
 62
               7
  6
CONTINUOUS
  0
LAYER
  2
LAYER116
 70
               0
 62
               7
  6
CONTINUOUS
  0
LAYER
  2
LAYER117
 70
               0
 62
               7
  6
CONTINUOUS
  0
LAYER
  2
LAYER118
 70
               0
 62
               7
  6
CONTINUOUS
  0
LAYER
  2
LAYER119
 70
               0
 62
               7
  6
CONTINUOUS
  0
LAYER
  2
LAYER120
 70
               0
 62
               7
  6
CONTINUOUS
  0
LAYER
  2
LAYER121
 70
               0
 62
               7
  6
CONTINUOUS
  0
LAYER
  2
LAYER122
 70
               0
 62
               7
  6
CONTINUOUS
  0
LAYER
  2
LAYER123
 70
               0
 62
               7
  6
CONTINUOUS
  0
LAYER
  2
LAYER124
 70
               0
 62
               7
  6
CONTINUOUS
  0
LAYER
  2
LAYER125
 70
               0
 62
               7
  6
CONTINUOUS
  0
LAYER
  2
LAYER126
 70
               0
 62
               7
  6
CONTINUOUS
  0
LAYER
  2
LAYER127
 70
               0
 62
               7
  6
CONTINUOUS
  0
LAYER
  2
LAYER128
 70
               0
 62
               7
  6
CONTINUOUS
  0
LAYER
  2
LAYER129
 70
               0
 62
               7
  6
CONTINUOUS
  0
LAYER
  2
LAYER130
 70
               0
 62
               7
  6
CONTINUOUS
  0
LAYER
  2
LAYER131
 70
               0
 62
               7
  6
CONTINUOUS
  0
LAYER
  2
LAYER132
 70
               0
 62
               7
  6
CONTINUOUS
  0
LAYER
  2
LAYER133
 70
               0
 62
               7
  6
CONTINUOUS
  0
LAYER
  2
LAYER134
 70
               0
 62
               7
  6
CONTINUOUS
  0
LAYER
  2
LAYER135
 70
               0
 62
               7
  6
CONTINUOUS
  0
LAYER
  2
LAYER136
 70
               0
 62
               7
  6
CONTINUOUS
  0
LAYER
  2
LAYER137
 70
               0
 62
               7
  6
CONTINUOUS
  0
LAYER
  2
LAYER138
 70
               0
 62
               7
  6
CONTINUOUS
  0
LAYER
  2
LAYER139
 70
               0
 62
               7
  6
CONTINUOUS
  0
LAYER
  2
LAYER140
 70
               0
 62
               7
  6
CONTINUOUS
  0
LAYER
  2
LAYER141
 70
               0
 62
               7
  6
CONTINUOUS
  0
LAYER
  2
LAYER142
 70
               0
 62
               7
  6
CONTINUOUS
  0
LAYER
  2
LAYER143
 70
               0
 62
               7
  6
CONTINUOUS
  0
LAYER
  2
LAYER144
 70
               0
 62
               7
  6
CONTINUOUS
  0
LAYER
  2
LAYER145
 70
               0
 62
               7
  6
CONTINUOUS
  0
LAYER
  2
LAYER146
 70
               0
 62
               7
  6
CONTINUOUS
  0
LAYER
  2
LAYER147
 70
               0
 62
               7
  6
CONTINUOUS
  0
LAYER
  2
LAYER148
 70
               0
 62
               7
  6
CONTINUOUS
  0
LAYER
  2
LAYER149
 70
               0
 62
               7
  6
CONTINUOUS
  0
LAYER
  2
LAYER150
 70
               0
 62
               7
  6
CONTINUOUS
  0
LAYER
  2
LAYER151
 70
               0
 62
               7
  6
CONTINUOUS
  0
LAYER
  2
LAYER152
 70
               0
 62
               7
  6
CONTINUOUS
  0
LAYER
  2
LAYER153
 70
               0
 62
               7
  6
CONTINUOUS
  0
LAYER
  2
LAYER154
 70
               0
 62
               7
  6
CONTINUOUS
  0
LAYER
  2
LAYER155
 70
               0
 62
               7
  6
CONTINUOUS
  0
LAYER
  2
LAYER156
 70
               0
 62
               7
  6
CONTINUOUS
  0
LAYER
  2
LAYER157
 70
               0
 62
               7
  6
CONTINUOUS
  0
LAYER
  2
LAYER158
 70
               0
 62
               7
  6
CONTINUOUS
  0
LAYER
  2
LAYER159
 70
               0
 62
               7
  6
CONTINUOUS
  0
LAYER
  2
LAYER160
 70
               0
 62
               7
  6
CONTINUOUS
  0
LAYER
  2
LAYER161
 70
               0
 62
               7
  6
CONTINUOUS
  0
LAYER
  2
LAYER162
 70
               0
 62
               7
  6
CONTINUOUS
  0
LAYER
  2
LAYER163
 70
               0
 62
               7
  6
CONTINUOUS
  0
LAYER
  2
LAYER164
 70
               0
 62
               7
  6
CONTINUOUS
  0
LAYER
  2
LAYER165
 70
               0
 62
               7
  6
CONTINUOUS
  0
LAYER
  2
LAYER166
 70
               0
 62
               7
  6
CONTINUOUS
  0
LAYER
  2
LAYER167
 70
               0
 62
               7
  6
CONTINUOUS
  0
LAYER
  2
LAYER168
 70
               0
 62
               7
  6
CONTINUOUS
  0
LAYER
  2
LAYER169
 70
               0
 62
               7
  6
CONTINUOUS
  0
LAYER
  2
LAYER170
 70
               0
 62
               7
  6
CONTINUOUS
  0
LAYER
  2
LAYER171
 70
               0
 62
               7
  6
CONTINUOUS
  0
LAYER
  2
LAYER172
 70
               0
 62
               7
  6
CONTINUOUS
  0
LAYER
  2
LAYER173
 70
               0
 62
               7
  6
CONTINUOUS
  0
LAYER
  2
LAYER174
 70
               0
 62
               7
  6
CONTINUOUS
  0
LAYER
  2
LAYER175
 70
               0
 62
               7
  6
CONTINUOUS
  0
LAYER
  2
LAYER176
 70
               0
 62
               7
  6
CONTINUOUS
  0
LAYER
  2
LAYER177
 70
               0
 62
               7
  6
CONTINUOUS
  0
LAYER
  2
LAYER178
 70
               0
 62
               7
  6
CONTINUOUS
  0
LAYER
  2
LAYER179
 70
               0
 62
               7
  6
CONTINUOUS
  0
LAYER
  2
LAYER180
 70
               0
 62
               7
  6
CONTINUOUS
  0
LAYER
  2
LAYER181
 70
               0
 62
               7
  6
CONTINUOUS
  0
LAYER
  2
LAYER182
 70
               0
 62
               7
  6
CONTINUOUS
  0
LAYER
  2
LAYER183
 70
               0
 62
               7
  6
CONTINUOUS
  0
LAYER
  2
LAYER184
 70
               0
 62
               7
  6
CONTINUOUS
  0
LAYER
  2
LAYER185
 70
               0
 62
               7
  6
CONTINUOUS
  0
LAYER
  2
LAYER186
 70
               0
 62
               7
  6
CONTINUOUS
  0
LAYER
  2
LAYER187
 70
               0
 62
               7
  6
CONTINUOUS
  0
LAYER
  2
LAYER188
 70
               0
 62
               7
  6
CONTINUOUS
  0
LAYER
  2
LAYER189
 70
               0
 62
               7
  6
CONTINUOUS
  0
LAYER
  2
LAYER190
 70
               0
 62
               7
  6
CONTINUOUS
  0
LAYER
  2
LAYER191
 70
               0
 62
               7
  6
CONTINUOUS
  0
LAYER
  2
LAYER192
 70
               0
 62
               7
  6
CONTINUOUS
  0
LAYER
  2
LAYER193
 70
               0
 62
               7
  6
CONTINUOUS
  0
LAYER
  2
LAYER194
 70
               0
 62
               7
  6
CONTINUOUS
  0
LAYER
  2
LAYER195
 70
               0
 62
               7
  6
CONTINUOUS
  0
LAYER
  2
LAYER196
 70
               0
 62
               7
  6
CONTINUOUS
  0
LAYER
  2
LAYER197
 70
               0
 62
               7
  6
CONTINUOUS
  0
LAYER
  2
LAYER198
 70
               0
 62
               7
  6
CONTINUOUS
  0
LAYER
  2
LAYER199
 70
               0
 62
               7
  6
CONTINUOUS
  0
LAYER
  2
LAYER200
 70
               0
 62
               7
  6
CONTINUOUS
  0
LAYER
  2
LAYER201
 70
               0
 62
               7
  6
CONTINUOUS
  0
LAYER
  2
LAYER202
 70
               0
 62
               7
  6
CONTINUOUS
  0
LAYER
  2
LAYER203
 70
               0
 62
               7
  6
CONTINUOUS
  0
LAYER
  2
LAYER204
 70
               0
 62
               7
  6
CONTINUOUS
  0
LAYER
  2
LAYER205
 70
               0
 62
               7
  6
CONTINUOUS
  0
LAYER
  2
LAYER206
 70
               0
 62
               7
  6
CONTINUOUS
  0
LAYER
  2
LAYER207
 70
               0
 62
               7
  6
CONTINUOUS
  0
LAYER
  2
LAYER208
 70
               0
 62
               7
  6
CONTINUOUS
  0
LAYER
  2
LAYER209
 70
               0
 62
               7
  6
CONTINUOUS
  0
LAYER
  2
LAYER210
 70
               0
 62
               7
  6
CONTINUOUS
  0
LAYER
  2
LAYER211
 70
               0
 62
               7
  6
CONTINUOUS
  0
LAYER
  2
LAYER212
 70
               0
 62
               7
  6
CONTINUOUS
  0
LAYER
  2
LAYER213
 70
               0
 62
               7
  6
CONTINUOUS
  0
LAYER
  2
LAYER214
 70
               0
 62
               7
  6
CONTINUOUS
  0
LAYER
  2
LAYER215
 70
               0
 62
               7
  6
CONTINUOUS
  0
LAYER
  2
LAYER216
 70
               0
 62
               7
  6
CONTINUOUS
  0
LAYER
  2
LAYER217
 70
               0
 62
               7
  6
CONTINUOUS
  0
LAYER
  2
LAYER218
 70
               0
 62
               7
  6
CONTINUOUS
  0
LAYER
  2
LAYER219
 70
               0
 62
               7
  6
CONTINUOUS
  0
LAYER
  2
LAYER220
 70
               0
 62
               7
  6
CONTINUOUS
  0
LAYER
  2
LAYER221
 70
               0
 62
               7
  6
CONTINUOUS
  0
LAYER
  2
LAYER222
 70
               0
 62
               7
  6
CONTINUOUS
  0
LAYER
  2
LAYER223
 70
               0
 62
               7
  6
CONTINUOUS
  0
LAYER
  2
LAYER224
 70
               0
 62
               7
  6
CONTINUOUS
  0
LAYER
  2
LAYER225
 70
               0
 62
               7
  6
CONTINUOUS
  0
LAYER
  2
LAYER226
 70
               0
 62
               7
  6
CONTINUOUS
  0
LAYER
  2
LAYER227
 70
               0
 62
               7
  6
CONTINUOUS
  0
LAYER
  2
LAYER228
 70
               0
 62
               7
  6
CONTINUOUS
  0
LAYER
  2
LAYER229
 70
               0
 62
               7
  6
CONTINUOUS
  0
LAYER
  2
LAYER230
 70
               0
 62
               7
  6
CONTINUOUS
  0
LAYER
  2
LAYER231
 70
               0
 62
               7
  6
CONTINUOUS
  0
LAYER
  2
LAYER232
 70
               0
 62
               7
  6
CONTINUOUS
  0
LAYER
  2
LAYER233
 70
               0
 62
               7
  6
CONTINUOUS
  0
LAYER
  2
LAYER234
 70
               0
 62
               7
  6
CONTINUOUS
  0
LAYER
  2
LAYER235
 70
               0
 62
               7
  6
CONTINUOUS
  0
LAYER
  2
LAYER236
 70
               0
 62
               7
  6
CONTINUOUS
  0
LAYER
  2
LAYER237
 70
               0
 62
               7
  6
CONTINUOUS
  0
LAYER
  2
LAYER238
 70
               0
 62
               7
  6
CONTINUOUS
  0
LAYER
  2
LAYER239
 70
               0
 62
               7
  6
CONTINUOUS
  0
LAYER
  2
LAYER240
 70
               0
 62
               7
  6
CONTINUOUS
  0
LAYER
  2
LAYER241
 70
               0
 62
               7
  6
CONTINUOUS
  0
LAYER
  2
LAYER242
 70
               0
 62
               7
  6
CONTINUOUS
  0
LAYER
  2
LAYER243
 70
               0
 62
               7
  6
CONTINUOUS
  0
LAYER
  2
LAYER244
 70
               0
 62
               7
  6
CONTINUOUS
  0
LAYER
  2
LAYER245
 70
               0
 62
               7
  6
CONTINUOUS
  0
LAYER
  2
LAYER246
 70
               0
 62
               7
  6
CONTINUOUS
  0
LAYER
  2
LAYER247
 70
               0
 62
               7
  6
CONTINUOUS
  0
LAYER
  2
LAYER248
 70
               0
 62
               7
  6
CONTINUOUS
  0
LAYER
  2
LAYER249
 70
               0
 62
               7
  6
CONTINUOUS
  0
LAYER
  2
LAYER250
 70
               0
 62
               7
  6
CONTINUOUS
  0
LAYER
  2
LAYER251
 70
               0
 62
               7
  6
CONTINUOUS
  0
LAYER
  2
LAYER252
 70
               0
 62
               7
  6
CONTINUOUS
  0
LAYER
  2
LAYER253
 70
               0
 62
               7
  6
CONTINUOUS
  0
LAYER
  2
LAYER254
 70
               0
 62
               7
  6
CONTINUOUS
  0
LAYER
  2
LAYER255
 70
               0
 62
               7
  6
CONTINUOUS
  0
ENDTAB
  0
TABLE
  2
STYLE
 70
               1
  0
STYLE
  2
STANDARD
 70
               0
 40
0.0
 41
1.0
 50
0.0
 71
               0
 42
0.0
  3
txt
  4

  0
ENDTAB
  0
TABLE
  2
VIEW
 70
               0
  0
VIEW
  2
QQQQ
 70
               0
 40
504.76401988999999
 10
41.728367856695996
 20
35.481092376720937
 41
258.79118232500019
 11
0.0
 21
0.0
 31
1.0
 12
100.0
 22
100.0
 32
0.0
 42
50.0
 43
0.0
 44
0.0
 50
0.0
 71
               0
  0
ENDTAB
  0
TABLE
  2
UCS
 70
               0
  0
ENDTAB
  0
TABLE
  2
APPID
 70
               1
  0
APPID
  2
ACAD
 70
               0
  0
ENDTAB
  0
TABLE
  2
DIMSTYLE
 70
               1
  0
DIMSTYLE
  2
STANDARD
 70
               0
  3

  4

  5

  6

  7

 40
1.0
 41
0.18
 42
0.0625
 43
0.38
 44
0.18
 45
0.0
 46
0.0
 47
0.0
 48
0.0
140
0.18
141
0.09
142
0.0
143
25.399999999999999
144
1.0
145
0.0
146
1.0
147
0.09
 71
               0
 72
               0
 73
               1
 74
               1
 75
               0
 76
               0
 77
               0
 78
               0
170
               0
171
               2
172
               0
173
               0
174
               0
175
               0
176
               0
177
               0
178
               0
  0
ENDTAB
  0
ENDSEC
  0
SECTION
  2
BLOCKS
  0
ENDSEC
  0
SECTION
  2
ENTITIES
  0
ARC
  8
0
  6
CONTINUOUS
 62
               7
  5
136
 10
-31.921714643304099
 20
12.881101376720835
 30
0.0
 40
1.0
 50
183.01111090199001
 51
269.99999969147945
  0
LINE
  8
0
  6
CONTINUOUS
 62
               7
  5
137
 10
-32.921714643304099
 20
12.831101376720824
 30
0.0
 11
-33.672921731435316
 21
27.053955578671889
 31
0.0
  0
LINE
  8
0
  6
CONTINUOUS
 62
               7
  5
138
 10
-0.3717146433040879
 20
61.881101376720835
 30
0.0
 11
-64.871714643304088
 21
61.881101376720835
 31
0.0
  0
LINE
  8
0
  6
CONTINUOUS
 62
               7
  5
139
 10
-64.871714643304088
 20
61.881101376720835
 30
0.0
 11
-65.371714643304088
 21
61.381101376720778
 31
0.0
  0
LINE
  8
0
  6
CONTINUOUS
 62
               7
  5
13A
 10
-65.371714643304088
 20
57.881101376720835
 30
0.0
 11
-65.371714643304088
 21
61.381101376720778
 31
0.0
  0
LINE
  8
0
  6
CONTINUOUS
 62
               7
  5
13B
 10
-59.821714643304134
 20
43.706101376720824
 30
0.0
 11
-35.170414611757764
 21
29.494764276467663
 31
0.0
  0
ARC
  8
0
  6
CONTINUOUS
 62
               7
  5
13C
 10
-56.571714643304134
 20
49.356101376720801
 30
0.0
 40
6.5
 50
182.99999979089159
 51
240.04444417015313
  0
LINE
  8
0
  6
CONTINUOUS
 62
               7
  5
13D
 10
-35.721714643304111
 20
28.231101376720801
 30
0.0
 11
-35.046714643304099
 21
15.356101376720801
 31
0.0
  0
ARC
  8
0
  6
CONTINUOUS
 62
               7
  5
13E
 10
-38.721714643304111
 20
28.081101376720824
 30
0.0
 40
3.0000000000000004
 50
3.0111111076704082
 51
60.022222153636704
  0
LINE
  8
0
  6
CONTINUOUS
 62
               7
  5
13F
 10
-34.046714643304099
 20
14.381101376720835
 30
0.0
 11
-32.996714643304088
 21
14.381101376720835
 31
0.0
  0
ARC
  8
0
  6
CONTINUOUS
 62
               7
  5
140
 10
-34.046714643304099
 20
15.406101376720812
 30
0.0
 40
1.0
 50
182.97777756869476
 51
269.99999969147945
  0
LINE
  8
0
  6
CONTINUOUS
 62
               7
  5
141
 10
-63.071714643304134
 20
49.006101376720835
 30
0.0
 11
-63.471714643304111
 21
56.456101376720767
 31
0.0
  0
ARC
  8
0
  6
CONTINUOUS
 62
               7
  5
142
 10
-64.971714643304111
 20
56.381101376720778
 30
0.0
 40
1.5000000000000002
 50
3.1222222186545565
 51
89.99999989715981
  0
ARC
  8
0
  6
CONTINUOUS
 62
               7
  5
143
 10
31.178285356695895
 20
12.881101376720835
 30
0.0
 40
1.0
 50
269.99999969147945
 51
356.98888848096885
  0
LINE
  8
0
  6
CONTINUOUS
 62
               7
  5
144
 10
32.178285356695895
 20
12.831101376720824
 30
0.0
 11
32.929492444827105
 21
27.053955578671776
 31
0.0
  0
LINE
  8
0
  6
CONTINUOUS
 62
               7
  5
145
 10
-0.3717146433040879
 20
61.881101376720835
 30
0.0
 11
64.128285356695898
 21
61.881101376720835
 31
0.0
  0
LINE
  8
0
  6
CONTINUOUS
 62
               7
  5
146
 10
64.128285356695898
 20
61.881101376720835
 30
0.0
 11
64.628285356695898
 21
61.381101376720778
 31
0.0
  0
LINE
  8
0
  6
CONTINUOUS
 62
               7
  5
147
 10
64.628285356695898
 20
57.881101376720835
 30
0.0
 11
64.628285356695898
 21
61.381101376720778
 31
0.0
  0
LINE
  8
0
  6
CONTINUOUS
 62
               7
  5
148
 10
59.078285356695901
 20
43.706101376720824
 30
0.0
 11
34.426985325149552
 21
29.494764276467649
 31
0.0
  0
ARC
  8
0
  6
CONTINUOUS
 62
               7
  5
149
 10
55.828285356695901
 20
49.356101376720801
 30
0.0
 40
6.5
 50
299.95555521280573
 51
356.99999959206724
  0
LINE
  8
0
  6
CONTINUOUS
 62
               7
  5
14A
 10
34.978285356695906
 20
28.231101376720801
 30
0.0
 11
34.303285356695895
 21
15.356101376720801
 31
0.0
  0
ARC
  8
0
  6
CONTINUOUS
 62
               7
  5
14B
 10
37.978285356695906
 20
28.081101376720824
 30
0.0
 40
3.0000000000000004
 50
119.97777764068292
 51
176.9888886866492
  0
LINE
  8
0
  6
CONTINUOUS
 62
               7
  5
14C
 10
33.303285356695895
 20
14.381101376720835
 30
0.0
 11
32.253285356695912
 21
14.381101376720835
 31
0.0
  0
ARC
  8
0
  6
CONTINUOUS
 62
               7
  5
14D
 10
33.303285356695895
 20
15.406101376720812
 30
0.0
 40
1.0
 50
269.99999969147945
 51
357.02222181426407
  0
LINE
  8
0
  6
CONTINUOUS
 62
               7
  5
14E
 10
62.328285356695901
 20
49.006101376720835
 30
0.0
 11
62.728285356695906
 21
56.456101376720767
 31
0.0
  0
ARC
  8
0
  6
CONTINUOUS
 62
               7
  5
14F
 10
64.22828535669592
 20
56.381101376720778
 30
0.0
 40
1.5000000000000002
 50
89.99999989715981
 51
176.87777757566508
  0
LINE
  8
0
  6
CONTINUOUS
 62
               7
  5
150
 10
29.628285356695883
 20
61.881101376720835
 30
0.0
 11
32.928285356695895
 21
65.18110137672079
 31
0.0
  0
LINE
  8
0
  6
CONTINUOUS
 62
               7
  5
151
 10
32.953285356695901
 20
65.18110137672079
 30
0.0
 11
66.828285356695886
 21
99.056101376720903
 31
0.0
  0
LINE
  8
0
  6
CONTINUOUS
 62
               7
  5
152
 10
28.128285356695883
 20
62.481101376720801
 30
0.0
 11
32.103285356695906
 21
66.481101376720858
 31
0.0
  0
LINE
  8
0
  6
CONTINUOUS
 62
               7
  5
153
 10
28.128285356695883
 20
62.481101376720801
 30
0.0
 11
28.128285356695883
 21
61.881101376720835
 31
0.0
  0
LINE
  8
0
  6
CONTINUOUS
 62
               7
  5
154
 10
29.728285356695906
 20
70.406101376720812
 30
0.0
 11
61.553285356695895
 21
102.25610137672084
 31
0.0
  0
LINE
  8
0
  6
CONTINUOUS
 62
               7
  5
155
 10
32.253285356695912
 20
70.131101376720778
 30
0.0
 11
61.853285356695906
 21
99.706101376720881
 31
0.0
  0
LINE
  8
0
  6
CONTINUOUS
 62
               7
  5
156
 10
29.728285356695906
 20
70.381101376720835
 30
0.0
 11
32.103285356695906
 21
66.481101376720858
 31
0.0
  0
LINE
  8
0
  6
CONTINUOUS
 62
               7
  5
157
 10
32.253285356695912
 20
70.131101376720778
 30
0.0
 11
34.378285356695883
 21
66.581101376720824
 31
0.0
  0
LINE
  8
0
  6
CONTINUOUS
 62
               7
  5
158
 10
61.553285356695895
 20
102.25610137672084
 30
0.0
 11
66.828285356695886
 21
99.056101376720903
 31
0.0
  0
LINE
  8
0
  6
CONTINUOUS
 62
               7
  5
159
 10
61.853285356695906
 20
99.731101376720858
 30
0.0
 11
65.428285356695909
 21
97.581101376720767
 31
0.0
  0
ARC
  8
0
  6
CONTINUOUS
 62
               7
  5
15A
 10
-0.3717146433040879
 20
188.88110137672089
 30
0.0
 40
65.0
 50
89.99999989715981
 51
179.99999979431962
  0
ARC
  8
0
  6
CONTINUOUS
 62
               7
  5
15B
 10
-0.3717146433040879
 20
188.88110137672089
 30
0.0
 40
30.0
 50
0.0
 51
179.99999979431962
  0
ARC
  8
0
  6
CONTINUOUS
 62
               7
  5
15C
 10
-0.3717146433040879
 20
188.88110137672089
 30
0.0
 40
24.000000000000004
 50
0.0
 51
179.99999979431962
  0
ARC
  8
0
  6
CONTINUOUS
 62
               7
  5
15D
 10
-0.3717146433040879
 20
188.88110137672089
 30
0.0
 40
22.5
 50
0.0
 51
179.99999979431962
  0
LINE
  8
0
  6
CONTINUOUS
 62
               7
  5
15E
 10
-0.6717146433040993
 20
189.83110137672094
 30
0.0
 11
-6.7217146433041108
 21
208.40610137672093
 31
0.0
  0
LINE
  8
0
  6
CONTINUOUS
 62
               7
  5
15F
 10
0.4282853566958951
 20
189.48110137672091
 30
0.0
 11
16.228285356695878
 21
200.95610137672088
 31
0.0
  0
LINE
  8
0
  6
CONTINUOUS
 62
               7
  5
160
 10
-1.3717146433040879
 20
188.88110137672089
 30
0.0
 11
-20.871714643304088
 21
188.88110137672089
 31
0.0
  0
ARC
  8
0
  6
CONTINUOUS
 62
               7
  5
161
 10
-21.871714643304088
 20
188.88110137672089
 30
0.0
 40
1.0
 50
0.0
 51
179.99999979431962
  0
CIRCLE
  8
0
  6
CONTINUOUS
 62
               7
  5
162
 10
-7.0217146433041222
 20
209.33110137672094
 30
0.0
 40
1.0
  0
CIRCLE
  8
0
  6
CONTINUOUS
 62
               7
  5
163
 10
17.028285356695889
 20
201.53110137672093
 30
0.0
 40
1.0
  0
ARC
  8
0
  6
CONTINUOUS
 62
               7
  5
164
 10
-0.3717146433040879
 20
188.88110137672089
 30
0.0
 40
65.0
 50
13.86666665082166
 51
89.99999989715981
  0
ARC
  8
0
  6
CONTINUOUS
 62
               7
  5
165
 10
-0.3717146433040879
 20
188.88110137672089
 30
0.0
 40
1.0
 50
0.0
 51
179.99999979431962
  0
LINE
  8
0
  6
CONTINUOUS
 62
               7
  5
166
 10
61.528285356695889
 20
188.88110137672089
 30
0.0
 11
61.478285356695906
 21
190.83110137672082
 31
0.0
  0
LINE
  8
0
  6
CONTINUOUS
 62
               7
  5
167
 10
61.478285356695906
 20
190.83110137672082
 30
0.0
 11
61.278285356695889
 21
192.78110137672093
 31
0.0
  0
LINE
  8
0
  6
CONTINUOUS
 62
               7
  5
168
 10
61.278285356695889
 20
192.78110137672093
 30
0.0
 11
60.978285356695906
 21
194.70610137672088
 31
0.0
  0
LINE
  8
0
  6
CONTINUOUS
 62
               7
  5
169
 10
60.978285356695906
 20
194.70610137672088
 30
0.0
 11
60.578285356695901
 21
196.58110137672088
 31
0.0
  0
LINE
  8
0
  6
CONTINUOUS
 62
               7
  5
16A
 10
60.578285356695901
 20
196.58110137672088
 30
0.0
 11
60.028285356695889
 21
198.38110137672095
 31
0.0
  0
LINE
  8
0
  6
CONTINUOUS
 62
               7
  5
16B
 10
60.028285356695889
 20
198.38110137672095
 30
0.0
 11
59.403285356695889
 21
200.13110137672089
 31
0.0
  0
LINE
  8
0
  6
CONTINUOUS
 62
               7
  5
16C
 10
59.403285356695889
 20
200.13110137672089
 30
0.0
 11
58.653285356695889
 21
201.78110137672087
 31
0.0
  0
LINE
  8
0
  6
CONTINUOUS
 62
               7
  5
16D
 10
58.653285356695889
 20
201.78110137672087
 30
0.0
 11
57.803285356695895
 21
203.35610137672097
 31
0.0
  0
LINE
  8
0
  6
CONTINUOUS
 62
               7
  5
16E
 10
57.803285356695895
 20
203.35610137672097
 30
0.0
 11
56.878285356695883
 21
204.78110137672081
 31
0.0
  0
LINE
  8
0
  6
CONTINUOUS
 62
               7
  5
16F
 10
56.878285356695883
 20
204.78110137672081
 30
0.0
 11
55.853285356695906
 21
206.10610137672091
 31
0.0
  0
LINE
  8
0
  6
CONTINUOUS
 62
               7
  5
170
 10
55.853285356695906
 20
206.10610137672091
 30
0.0
 11
54.753285356695912
 21
207.30610137672096
 31
0.0
  0
LINE
  8
0
  6
CONTINUOUS
 62
               7
  5
171
 10
54.753285356695912
 20
207.30610137672096
 30
0.0
 11
53.578285356695901
 21
208.35610137672097
 31
0.0
  0
LINE
  8
0
  6
CONTINUOUS
 62
               7
  5
172
 10
53.578285356695901
 20
208.35610137672097
 30
0.0
 11
52.353285356695906
 21
209.28110137672087
 31
0.0
  0
LINE
  8
0
  6
CONTINUOUS
 62
               7
  5
173
 10
52.353285356695906
 20
209.28110137672087
 30
0.0
 11
51.078285356695901
 21
210.03110137672087
 31
0.0
  0
LINE
  8
0
  6
CONTINUOUS
 62
               7
  5
174
 10
51.078285356695901
 20
210.03110137672087
 30
0.0
 11
49.753285356695912
 21
210.60610137672091
 31
0.0
  0
LINE
  8
0
  6
CONTINUOUS
 62
               7
  5
175
 10
49.753285356695912
 20
210.60610137672091
 30
0.0
 11
48.378285356695912
 21
211.03110137672081
 31
0.0
  0
LINE
  8
0
  6
CONTINUOUS
 62
               7
  5
176
 10
48.378285356695912
 20
211.03110137672081
 30
0.0
 11
47.003285356695912
 21
211.30610137672085
 31
0.0
  0
LINE
  8
0
  6
CONTINUOUS
 62
               7
  5
177
 10
47.003285356695912
 20
211.30610137672085
 30
0.0
 11
45.628285356695912
 21
211.38110137672089
 31
0.0
  0
LINE
  8
0
  6
CONTINUOUS
 62
               7
  5
178
 10
45.628285356695912
 20
211.38110137672089
 30
0.0
 11
44.253285356695883
 21
211.30610137672085
 31
0.0
  0
LINE
  8
0
  6
CONTINUOUS
 62
               7
  5
179
 10
44.253285356695883
 20
211.30610137672085
 30
0.0
 11
42.878285356695883
 21
211.03110137672081
 31
0.0
  0
LINE
  8
0
  6
CONTINUOUS
 62
               7
  5
17A
 10
42.878285356695883
 20
211.03110137672081
 30
0.0
 11
41.503285356695912
 21
210.60610137672091
 31
0.0
  0
LINE
  8
0
  6
CONTINUOUS
 62
               7
  5
17B
 10
41.503285356695912
 20
210.60610137672091
 30
0.0
 11
40.178285356695895
 21
210.03110137672087
 31
0.0
  0
LINE
  8
0
  6
CONTINUOUS
 62
               7
  5
17C
 10
40.178285356695895
 20
210.03110137672087
 30
0.0
 11
38.903285356695889
 21
209.28110137672087
 31
0.0
  0
LINE
  8
0
  6
CONTINUOUS
 62
               7
  5
17D
 10
38.903285356695889
 20
209.28110137672087
 30
0.0
 11
37.678285356695895
 21
208.35610137672097
 31
0.0
  0
LINE
  8
0
  6
CONTINUOUS
 62
               7
  5
17E
 10
37.678285356695895
 20
208.35610137672097
 30
0.0
 11
36.503285356695883
 21
207.30610137672096
 31
0.0
  0
LINE
  8
0
  6
CONTINUOUS
 62
               7
  5
17F
 10
36.503285356695883
 20
207.30610137672096
 30
0.0
 11
35.403285356695889
 21
206.10610137672091
 31
0.0
  0
LINE
  8
0
  6
CONTINUOUS
 62
               7
  5
180
 10
35.403285356695889
 20
206.10610137672091
 30
0.0
 11
34.378285356695883
 21
204.78110137672081
 31
0.0
  0
LINE
  8
0
  6
CONTINUOUS
 62
               7
  5
181
 10
34.378285356695883
 20
204.78110137672081
 30
0.0
 11
33.453285356695901
 21
203.35610137672097
 31
0.0
  0
LINE
  8
0
  6
CONTINUOUS
 62
               7
  5
182
 10
33.453285356695901
 20
203.35610137672097
 30
0.0
 11
32.603285356695906
 21
201.78110137672087
 31
0.0
  0
LINE
  8
0
  6
CONTINUOUS
 62
               7
  5
183
 10
32.603285356695906
 20
201.78110137672087
 30
0.0
 11
31.853285356695906
 21
200.13110137672089
 31
0.0
  0
LINE
  8
0
  6
CONTINUOUS
 62
               7
  5
184
 10
31.853285356695906
 20
200.13110137672089
 30
0.0
 11
31.228285356695906
 21
198.38110137672095
 31
0.0
  0
LINE
  8
0
  6
CONTINUOUS
 62
               7
  5
185
 10
31.228285356695906
 20
198.38110137672095
 30
0.0
 11
30.678285356695895
 21
196.58110137672088
 31
0.0
  0
LINE
  8
0
  6
CONTINUOUS
 62
               7
  5
186
 10
30.678285356695895
 20
196.58110137672088
 30
0.0
 11
30.278285356695889
 21
194.70610137672088
 31
0.0
  0
LINE
  8
0
  6
CONTINUOUS
 62
               7
  5
187
 10
30.278285356695889
 20
194.70610137672088
 30
0.0
 11
29.978285356695906
 21
192.78110137672093
 31
0.0
  0
LINE
  8
0
  6
CONTINUOUS
 62
               7
  5
188
 10
29.978285356695906
 20
192.78110137672093
 30
0.0
 11
29.778285356695889
 21
190.83110137672082
 31
0.0
  0
LINE
  8
0
  6
CONTINUOUS
 62
               7
  5
189
 10
29.778285356695889
 20
190.83110137672082
 30
0.0
 11
29.728285356695906
 21
188.88110137672089
 31
0.0
  0
LINE
  8
0
  6
CONTINUOUS
 62
               7
  5
18A
 10
66.828285356695886
 20
188.88110137672089
 30
0.0
 11
66.753285356695898
 21
190.95610137672088
 31
0.0
  0
LINE
  8
0
  6
CONTINUOUS
 62
               7
  5
18B
 10
66.753285356695898
 20
190.95610137672088
 30
0.0
 11
66.578285356695886
 21
193.03110137672087
 31
0.0
  0
LINE
  8
0
  6
CONTINUOUS
 62
               7
  5
18C
 10
66.578285356695886
 20
193.03110137672087
 30
0.0
 11
66.253285356695898
 21
195.08110137672082
 31
0.0
  0
LINE
  8
0
  6
CONTINUOUS
 62
               7
  5
18D
 10
66.253285356695898
 20
195.08110137672082
 30
0.0
 11
65.803285356695909
 21
197.08110137672082
 31
0.0
  0
LINE
  8
0
  6
CONTINUOUS
 62
               7
  5
18E
 10
65.803285356695909
 20
197.08110137672082
 30
0.0
 11
65.22828535669592
 21
199.00610137672095
 31
0.0
  0
LINE
  8
0
  6
CONTINUOUS
 62
               7
  5
18F
 10
65.22828535669592
 20
199.00610137672095
 30
0.0
 11
64.553285356695909
 21
200.85610137672097
 31
0.0
  0
LINE
  8
0
  6
CONTINUOUS
 62
               7
  5
190
 10
64.553285356695909
 20
200.85610137672097
 30
0.0
 11
63.753285356695898
 21
202.60610137672091
 31
0.0
  0
LINE
  8
0
  6
CONTINUOUS
 62
               7
  5
191
 10
63.753285356695898
 20
202.60610137672091
 30
0.0
 11
62.853285356695906
 21
204.28110137672087
 31
0.0
  0
LINE
  8
0
  6
CONTINUOUS
 62
               7
  5
192
 10
62.853285356695906
 20
204.28110137672087
 30
0.0
 11
61.853285356695906
 21
205.80610137672085
 31
0.0
  0
LINE
  8
0
  6
CONTINUOUS
 62
               7
  5
193
 10
61.853285356695906
 20
205.80610137672085
 30
0.0
 11
60.778285356695889
 21
207.23110137672086
 31
0.0
  0
LINE
  8
0
  6
CONTINUOUS
 62
               7
  5
194
 10
60.778285356695889
 20
207.23110137672086
 30
0.0
 11
59.603285356695906
 21
208.50610137672084
 31
0.0
  0
LINE
  8
0
  6
CONTINUOUS
 62
               7
  5
195
 10
59.603285356695906
 20
208.50610137672084
 30
0.0
 11
58.353285356695906
 21
209.63110137672095
 31
0.0
  0
LINE
  8
0
  6
CONTINUOUS
 62
               7
  5
196
 10
58.353285356695906
 20
209.63110137672095
 30
0.0
 11
57.053285356695895
 21
210.58110137672094
 31
0.0
  0
LINE
  8
0
  6
CONTINUOUS
 62
               7
  5
197
 10
57.053285356695895
 20
210.58110137672094
 30
0.0
 11
55.678285356695895
 21
211.38110137672089
 31
0.0
  0
LINE
  8
0
  6
CONTINUOUS
 62
               7
  5
198
 10
55.678285356695895
 20
211.38110137672089
 30
0.0
 11
54.253285356695883
 21
212.00610137672089
 31
0.0
  0
LINE
  8
0
  6
CONTINUOUS
 62
               7
  5
199
 10
54.253285356695883
 20
212.00610137672089
 30
0.0
 11
52.828285356695901
 21
212.45610137672094
 31
0.0
  0
LINE
  8
0
  6
CONTINUOUS
 62
               7
  5
19A
 10
52.828285356695901
 20
212.45610137672094
 30
0.0
 11
51.353285356695906
 21
212.73110137672097
 31
0.0
  0
LINE
  8
0
  6
CONTINUOUS
 62
               7
  5
19B
 10
51.353285356695906
 20
212.73110137672097
 30
0.0
 11
49.878285356695883
 21
212.83110137672088
 31
0.0
  0
LINE
  8
0
  6
CONTINUOUS
 62
               7
  5
19C
 10
49.878285356695883
 20
212.83110137672088
 30
0.0
 11
48.403285356695889
 21
212.73110137672097
 31
0.0
  0
LINE
  8
0
  6
CONTINUOUS
 62
               7
  5
19D
 10
48.403285356695889
 20
212.73110137672097
 30
0.0
 11
46.928285356695895
 21
212.45610137672094
 31
0.0
  0
LINE
  8
0
  6
CONTINUOUS
 62
               7
  5
19E
 10
46.928285356695895
 20
212.45610137672094
 30
0.0
 11
45.503285356695883
 21
212.00610137672089
 31
0.0
  0
LINE
  8
0
  6
CONTINUOUS
 62
               7
  5
19F
 10
45.503285356695883
 20
212.00610137672089
 30
0.0
 11
44.078285356695901
 21
211.38110137672089
 31
0.0
  0
LINE
  8
0
  6
CONTINUOUS
 62
               7
  5
1A0
 10
44.078285356695901
 20
211.38110137672089
 30
0.0
 11
43.778285356695889
 21
211.20610137672094
 31
0.0
  0
ARC
  8
0
  6
CONTINUOUS
 62
               7
  5
1A1
 10
-0.3717146433040911
 20
188.88110137672089
 30
0.0
 40
65.0
 50
180.00000020567956
 51
270.00000010283935
  0
ARC
  8
0
  6
CONTINUOUS
 62
               7
  5
1A2
 10
-0.3717146433040911
 20
188.88110137672089
 30
0.0
 40
30.0
 50
180.00000020567956
 51
359.9999999999992
  0
ARC
  8
0
  6
CONTINUOUS
 62
               7
  5
1A3
 10
-0.3717146433040911
 20
188.88110137672089
 30
0.0
 40
24.000000000000004
 50
180.00000020567956
 51
359.9999999999992
  0
ARC
  8
0
  6
CONTINUOUS
 62
               7
  5
1A4
 10
-0.3717146433040911
 20
188.88110137672089
 30
0.0
 40
22.5
 50
180.00000020567956
 51
359.9999999999992
  0
LINE
  8
0
  6
CONTINUOUS
 62
               7
  5
1A5
 10
-0.6717146433041028
 20
187.93110137672085
 30
0.0
 11
-6.7217146433041215
 21
169.35610137672086
 31
0.0
  0
LINE
  8
0
  6
CONTINUOUS
 62
               7
  5
1A6
 10
0.4282853566958916
 20
188.28110137672087
 30
0.0
 11
16.228285356695871
 21
176.8061013767209
 31
0.0
  0
ARC
  8
0
  6
CONTINUOUS
 62
               7
  5
1A7
 10
-21.871714643304092
 20
188.88110137672092
 30
0.0
 40
1.0
 50
180.00000020567956
 51
359.9999999999992
  0
CIRCLE
  8
0
  6
CONTINUOUS
 62
               7
  5
1A8
 10
-7.0217146433041329
 20
168.43110137672085
 30
0.0
 40
1.0
  0
CIRCLE
  8
0
  6
CONTINUOUS
 62
               7
  5
1A9
 10
17.028285356695882
 20
176.23110137672086
 30
0.0
 40
1.0
  0
ARC
  8
0
  6
CONTINUOUS
 62
               7
  5
1AA
 10
-0.3717146433040911
 20
188.88110137672089
 30
0.0
 40
65.0
 50
270.00000010283935
 51
346.13333334917752
  0
ARC
  8
0
  6
CONTINUOUS
 62
               7
  5
1AB
 10
-0.3717146433040911
 20
188.88110137672089
 30
0.0
 40
1.0
 50
180.00000020567956
 51
359.9999999999992
  0
LINE
  8
0
  6
CONTINUOUS
 62
               7
  5
1AC
 10
61.528285356695889
 20
188.88110137672089
 30
0.0
 11
61.478285356695899
 21
186.93110137672096
 31
0.0
  0
LINE
  8
0
  6
CONTINUOUS
 62
               7
  5
1AD
 10
61.478285356695899
 20
186.93110137672096
 30
0.0
 11
61.278285356695882
 21
184.98110137672086
 31
0.0
  0
LINE
  8
0
  6
CONTINUOUS
 62
               7
  5
1AE
 10
61.278285356695882
 20
184.98110137672086
 30
0.0
 11
60.978285356695899
 21
183.0561013767209
 31
0.0
  0
LINE
  8
0
  6
CONTINUOUS
 62
               7
  5
1AF
 10
60.978285356695899
 20
183.0561013767209
 30
0.0
 11
60.578285356695893
 21
181.1811013767209
 31
0.0
  0
LINE
  8
0
  6
CONTINUOUS
 62
               7
  5
1B0
 10
60.578285356695893
 20
181.1811013767209
 30
0.0
 11
60.028285356695882
 21
179.38110137672084
 31
0.0
  0
LINE
  8
0
  6
CONTINUOUS
 62
               7
  5
1B1
 10
60.028285356695882
 20
179.38110137672084
 30
0.0
 11
59.403285356695882
 21
177.63110137672089
 31
0.0
  0
LINE
  8
0
  6
CONTINUOUS
 62
               7
  5
1B2
 10
59.403285356695882
 20
177.63110137672089
 30
0.0
 11
58.653285356695882
 21
175.98110137672091
 31
0.0
  0
LINE
  8
0
  6
CONTINUOUS
 62
               7
  5
1B3
 10
58.653285356695882
 20
175.98110137672091
 30
0.0
 11
57.803285356695888
 21
174.40610137672081
 31
0.0
  0
LINE
  8
0
  6
CONTINUOUS
 62
               7
  5
1B4
 10
57.803285356695888
 20
174.40610137672081
 30
0.0
 11
56.878285356695876
 21
172.98110137672097
 31
0.0
  0
LINE
  8
0
  6
CONTINUOUS
 62
               7
  5
1B5
 10
56.878285356695876
 20
172.98110137672097
 30
0.0
 11
55.853285356695899
 21
171.65610137672087
 31
0.0
  0
LINE
  8
0
  6
CONTINUOUS
 62
               7
  5
1B6
 10
55.853285356695899
 20
171.65610137672087
 30
0.0
 11
54.753285356695905
 21
170.45610137672082
 31
0.0
  0
LINE
  8
0
  6
CONTINUOUS
 62
               7
  5
1B7
 10
54.753285356695905
 20
170.45610137672082
 30
0.0
 11
53.578285356695893
 21
169.40610137672081
 31
0.0
  0
LINE
  8
0
  6
CONTINUOUS
 62
               7
  5
1B8
 10
53.578285356695893
 20
169.40610137672081
 30
0.0
 11
52.353285356695899
 21
168.48110137672091
 31
0.0
  0
LINE
  8
0
  6
CONTINUOUS
 62
               7
  5
1B9
 10
52.353285356695899
 20
168.48110137672091
 30
0.0
 11
51.078285356695886
 21
167.73110137672091
 31
0.0
  0
LINE
  8
0
  6
CONTINUOUS
 62
               7
  5
1BA
 10
51.078285356695886
 20
167.73110137672091
 30
0.0
 11
49.753285356695898
 21
167.15610137672087
 31
0.0
  0
LINE
  8
0
  6
CONTINUOUS
 62
               7
  5
1BB
 10
49.753285356695898
 20
167.15610137672087
 30
0.0
 11
48.378285356695898
 21
166.73110137672097
 31
0.0
  0
LINE
  8
0
  6
CONTINUOUS
 62
               7
  5
1BC
 10
48.378285356695898
 20
166.73110137672097
 30
0.0
 11
47.003285356695898
 21
166.45610137672094
 31
0.0
  0
LINE
  8
0
  6
CONTINUOUS
 62
               7
  5
1BD
 10
47.003285356695898
 20
166.45610137672094
 30
0.0
 11
45.628285356695898
 21
166.38110137672089
 31
0.0
  0
LINE
  8
0
  6
CONTINUOUS
 62
               7
  5
1BE
 10
45.628285356695898
 20
166.38110137672089
 30
0.0
 11
44.253285356695869
 21
166.45610137672094
 31
0.0
  0
LINE
  8
0
  6
CONTINUOUS
 62
               7
  5
1BF
 10
44.253285356695869
 20
166.45610137672094
 30
0.0
 11
42.878285356695869
 21
166.73110137672097
 31
0.0
  0
LINE
  8
0
  6
CONTINUOUS
 62
               7
  5
1C0
 10
42.878285356695869
 20
166.73110137672097
 30
0.0
 11
41.503285356695898
 21
167.15610137672087
 31
0.0
  0
LINE
  8
0
  6
CONTINUOUS
 62
               7
  5
1C1
 10
41.503285356695898
 20
167.15610137672087
 30
0.0
 11
40.178285356695881
 21
167.73110137672091
 31
0.0
  0
LINE
  8
0
  6
CONTINUOUS
 62
               7
  5
1C2
 10
40.178285356695881
 20
167.73110137672091
 30
0.0
 11
38.903285356695882
 21
168.48110137672091
 31
0.0
  0
LINE
  8
0
  6
CONTINUOUS
 62
               7
  5
1C3
 10
38.903285356695882
 20
168.48110137672091
 30
0.0
 11
37.678285356695888
 21
169.40610137672081
 31
0.0
  0
LINE
  8
0
  6
CONTINUOUS
 62
               7
  5
1C4
 10
37.678285356695888
 20
169.40610137672081
 30
0.0
 11
36.503285356695876
 21
170.45610137672082
 31
0.0
  0
LINE
  8
0
  6
CONTINUOUS
 62
               7
  5
1C5
 10
36.503285356695876
 20
170.45610137672082
 30
0.0
 11
35.403285356695882
 21
171.65610137672087
 31
0.0
  0
LINE
  8
0
  6
CONTINUOUS
 62
               7
  5
1C6
 10
35.403285356695882
 20
171.65610137672087
 30
0.0
 11
34.378285356695876
 21
172.98110137672097
 31
0.0
  0
LINE
  8
0
  6
CONTINUOUS
 62
               7
  5
1C7
 10
34.378285356695876
 20
172.98110137672097
 30
0.0
 11
33.453285356695893
 21
174.40610137672081
 31
0.0
  0
LINE
  8
0
  6
CONTINUOUS
 62
               7
  5
1C8
 10
33.453285356695893
 20
174.40610137672081
 30
0.0
 11
32.603285356695899
 21
175.98110137672091
 31
0.0
  0
LINE
  8
0
  6
CONTINUOUS
 62
               7
  5
1C9
 10
32.603285356695899
 20
175.98110137672091
 30
0.0
 11
31.853285356695899
 21
177.63110137672089
 31
0.0
  0
LINE
  8
0
  6
CONTINUOUS
 62
               7
  5
1CA
 10
31.853285356695899
 20
177.63110137672089
 30
0.0
 11
31.228285356695899
 21
179.38110137672084
 31
0.0
  0
LINE
  8
0
  6
CONTINUOUS
 62
               7
  5
1CB
 10
31.228285356695899
 20
179.38110137672084
 30
0.0
 11
30.678285356695888
 21
181.1811013767209
 31
0.0
  0
LINE
  8
0
  6
CONTINUOUS
 62
               7
  5
1CC
 10
30.678285356695888
 20
181.1811013767209
 30
0.0
 11
30.278285356695882
 21
183.0561013767209
 31
0.0
  0
LINE
  8
0
  6
CONTINUOUS
 62
               7
  5
1CD
 10
30.278285356695882
 20
183.0561013767209
 30
0.0
 11
29.978285356695903
 21
184.98110137672086
 31
0.0
  0
LINE
  8
0
  6
CONTINUOUS
 62
               7
  5
1CE
 10
29.978285356695903
 20
184.98110137672086
 30
0.0
 11
29.778285356695886
 21
186.93110137672096
 31
0.0
  0
LINE
  8
0
  6
CONTINUOUS
 62
               7
  5
1CF
 10
29.778285356695886
 20
186.93110137672096
 30
0.0
 11
29.728285356695903
 21
188.88110137672089
 31
0.0
  0
LINE
  8
0
  6
CONTINUOUS
 62
               7
  5
1D0
 10
66.828285356695886
 20
188.88110137672089
 30
0.0
 11
66.753285356695898
 21
186.8061013767209
 31
0.0
  0
LINE
  8
0
  6
CONTINUOUS
 62
               7
  5
1D1
 10
66.753285356695898
 20
186.8061013767209
 30
0.0
 11
66.578285356695886
 21
184.73110137672091
 31
0.0
  0
LINE
  8
0
  6
CONTINUOUS
 62
               7
  5
1D2
 10
66.578285356695886
 20
184.73110137672091
 30
0.0
 11
66.253285356695898
 21
182.68110137672096
 31
0.0
  0
LINE
  8
0
  6
CONTINUOUS
 62
               7
  5
1D3
 10
66.253285356695898
 20
182.68110137672096
 30
0.0
 11
65.803285356695909
 21
180.68110137672096
 31
0.0
  0
LINE
  8
0
  6
CONTINUOUS
 62
               7
  5
1D4
 10
65.803285356695909
 20
180.68110137672096
 30
0.0
 11
65.22828535669592
 21
178.75610137672084
 31
0.0
  0
LINE
  8
0
  6
CONTINUOUS
 62
               7
  5
1D5
 10
65.22828535669592
 20
178.75610137672084
 30
0.0
 11
64.553285356695895
 21
176.90610137672081
 31
0.0
  0
LINE
  8
0
  6
CONTINUOUS
 62
               7
  5
1D6
 10
64.553285356695895
 20
176.90610137672081
 30
0.0
 11
63.753285356695883
 21
175.15610137672087
 31
0.0
  0
LINE
  8
0
  6
CONTINUOUS
 62
               7
  5
1D7
 10
63.753285356695883
 20
175.15610137672087
 30
0.0
 11
62.853285356695899
 21
173.48110137672091
 31
0.0
  0
LINE
  8
0
  6
CONTINUOUS
 62
               7
  5
1D8
 10
62.853285356695899
 20
173.48110137672091
 30
0.0
 11
61.853285356695899
 21
171.95610137672094
 31
0.0
  0
LINE
  8
0
  6
CONTINUOUS
 62
               7
  5
1D9
 10
61.853285356695899
 20
171.95610137672094
 30
0.0
 11
60.778285356695882
 21
170.53110137672093
 31
0.0
  0
LINE
  8
0
  6
CONTINUOUS
 62
               7
  5
1DA
 10
60.778285356695882
 20
170.53110137672093
 30
0.0
 11
59.603285356695899
 21
169.25610137672095
 31
0.0
  0
LINE
  8
0
  6
CONTINUOUS
 62
               7
  5
1DB
 10
59.603285356695899
 20
169.25610137672095
 30
0.0
 11
58.353285356695892
 21
168.13110137672084
 31
0.0
  0
LINE
  8
0
  6
CONTINUOUS
 62
               7
  5
1DC
 10
58.353285356695892
 20
168.13110137672084
 30
0.0
 11
57.053285356695881
 21
167.18110137672085
 31
0.0
  0
LINE
  8
0
  6
CONTINUOUS
 62
               7
  5
1DD
 10
57.053285356695881
 20
167.18110137672085
 30
0.0
 11
55.678285356695881
 21
166.38110137672089
 31
0.0
  0
LINE
  8
0
  6
CONTINUOUS
 62
               7
  5
1DE
 10
55.678285356695881
 20
166.38110137672089
 30
0.0
 11
54.253285356695869
 21
165.75610137672089
 31
0.0
  0
LINE
  8
0
  6
CONTINUOUS
 62
               7
  5
1DF
 10
54.253285356695869
 20
165.75610137672089
 30
0.0
 11
52.828285356695886
 21
165.30610137672085
 31
0.0
  0
LINE
  8
0
  6
CONTINUOUS
 62
               7
  5
1E0
 10
52.828285356695886
 20
165.30610137672085
 30
0.0
 11
51.353285356695892
 21
165.03110137672081
 31
0.0
  0
LINE
  8
0
  6
CONTINUOUS
 62
               7
  5
1E1
 10
51.353285356695892
 20
165.03110137672081
 30
0.0
 11
49.878285356695869
 21
164.9311013767209
 31
0.0
  0
LINE
  8
0
  6
CONTINUOUS
 62
               7
  5
1E2
 10
49.878285356695869
 20
164.9311013767209
 30
0.0
 11
48.403285356695875
 21
165.03110137672081
 31
0.0
  0
LINE
  8
0
  6
CONTINUOUS
 62
               7
  5
1E3
 10
48.403285356695875
 20
165.03110137672081
 30
0.0
 11
46.928285356695881
 21
165.30610137672085
 31
0.0
  0
LINE
  8
0
  6
CONTINUOUS
 62
               7
  5
1E4
 10
46.928285356695881
 20
165.30610137672085
 30
0.0
 11
45.503285356695869
 21
165.75610137672089
 31
0.0
  0
LINE
  8
0
  6
CONTINUOUS
 62
               7
  5
1E5
 10
45.503285356695869
 20
165.75610137672089
 30
0.0
 11
44.078285356695886
 21
166.38110137672089
 31
0.0
  0
LINE
  8
0
  6
CONTINUOUS
 62
               7
  5
1E6
 10
44.078285356695886
 20
166.38110137672089
 30
0.0
 11
43.778285356695875
 21
166.55610137672085
 31
0.0
  0
ARC
  8
0
  6
CONTINUOUS
 62
               7
  5
1E7
 10
-0.3717146433040879
 20
188.88110137672089
 30
0.0
 40
58.5
 50
23.632226936785287
 51
336.36777306321392
  0
ARC
  8
0
  6
CONTINUOUS
 62
               7
  5
1E8
 10
-0.3717146433040879
 20
188.88110137672089
 30
0.0
 40
58.999999999999986
 50
23.209146473351669
 51
336.79085352664754
  0
LINE
  8
0
  6
CONTINUOUS
 62
               7
  5
1E9
 10
-31.921714643304099
 20
11.881101376720835
 30
0.0
 11
31.178285356695895
 21
11.881101376720835
 31
0.0
  0
LINE
  8
0
  6
CONTINUOUS
 62
               7
  5
1EA
 10
-65.371714643304088
 20
57.881101376720835
 30
0.0
 11
64.628285356695898
 21
57.881101376720835
 31
0.0
  0
LINE
  8
0
  6
CONTINUOUS
 62
               7
  5
1EB
 10
-65.371714643304088
 20
61.381101376720778
 30
0.0
 11
64.628285356695912
 21
61.381101376720778
 31
0.0
  0
LINE
  8
0
  6
CONTINUOUS
 62
               7
  5
1EC
 10
54.078285356695901
 20
43.706101376720824
 30
0.0
 11
-54.817347138893197
 21
43.706101376720838
 31
0.0
  0
LINE
  8
0
  6
CONTINUOUS
 62
               7
  5
1ED
 10
-30.147722419302831
 20
29.47975916727038
 30
0.0
 11
29.403285356695889
 21
29.47975916727038
 31
0.0
  0
ARC
  8
0
  6
CONTINUOUS
 62
               7
  5
1EE
 10
35.925316741672063
 20
26.895725422148296
 30
0.0
 40
3.0
 50
119.96320928571596
 51
176.97662373609373
  0
ARC
  8
0
  6
CONTINUOUS
 62
               7
  5
1EF
 10
-36.668746028280268
 20
26.89572542214831
 30
0.0
 40
3.0
 50
3.0233762639077639
 51
60.036790714283768
  0
LINE
  8
0
  6
CONTINUOUS
 62
               7
  5
1F0
 10
17.228285356695764
 20
-187.91891662327907
 30
0.0
 11
57.228285356695764
 21
-187.91891662327907
 31
0.0
  0
ARC
  8
0
  6
CONTINUOUS
 62
               7
  5
1F1
 10
64.228285356695764
 20
-185.81739265867481
 30
0.0
 40
5.0
 50
111.3992664953504
 51
180.83092669754697
  0
ARC
  8
0
  6
CONTINUOUS
 62
               7
  5
1F2
 10
10.228285356695768
 20
-185.81739265867481
 30
0.0
 40
5.0
 50
359.16907330245181
 51
428.60073350464842
  0
ARC
  8
0
  6
CONTINUOUS
 62
               7
  5
1F3
 10
17.228285356695764
 20
-185.91891662327907
 30
0.0
 40
2.0
 50
179.16907330245218
 51
269.99999999999937
  0
ARC
  8
0
  6
CONTINUOUS
 62
               7
  5
1F4
 10
57.228285356695764
 20
-185.91891662327907
 30
0.0
 40
2.0
 50
269.99999999999937
 51
360.83092669754666
  0
ARC
  8
0
  6
CONTINUOUS
 62
               7
  5
1F5
 10
37.228285356695764
 20
-116.91891662327909
 30
0.0
 40
69.0
 50
291.39926649534999
 51
359.9999999999992
  0
ARC
  8
0
  6
CONTINUOUS
 62
               7
  5
1F6
 10
37.228285356695764
 20
-116.91891662327909
 30
0.0
 40
69.0
 50
179.9999999999996
 51
248.60073350464879
  0
LINE
  8
0
  6
CONTINUOUS
 62
               7
  5
1F7
 10
-37.271714643304236
 20
-55.918916623279074
 30
0.0
 11
36.72828535669575
 21
-55.918916623279074
 31
0.0
  0
LINE
  8
0
  6
CONTINUOUS
 62
               7
  5
1F8
 10
-39.271714643304236
 20
-57.918916623279074
 30
0.0
 11
-39.271714643304236
 21
-64.753765233367389
 31
0.0
  0
ARC
  8
0
  6
CONTINUOUS
 62
               7
  5
1F9
 10
-37.271714643304236
 20
-57.918916623279074
 30
0.0
 40
2.0
 50
89.999999999999801
 51
179.9999999999996
  0
LINE
  8
0
  6
CONTINUOUS
 62
               7
  5
1FA
 10
-32.771714643304236
 20
-77.918916623279088
 30
0.0
 11
32.22828535669575
 21
-77.918916623279088
 31
0.0
  0
ARC
  8
0
  6
CONTINUOUS
 62
               7
  5
1FB
 10
-34.271714643304236
 20
-64.753765233367389
 30
0.0
 40
5.0
 50
179.9999999999996
 51
229.4583981264966
  0
LINE
  8
0
  6
CONTINUOUS
 62
               7
  5
1FC
 10
-34.137662589990995
 20
-68.918916623279074
 30
0.0
 11
33.594233303382495
 21
-68.918916623279088
 31
0.0
  0
ARC
  8
0
  6
CONTINUOUS
 62
               7
  5
1FD
 10
-28.271714643304236
 20
-77.918916623279088
 30
0.0
 40
7.5
 50
179.9999999999996
 51
227.1563569564031
  0
ARC
  8
0
  6
CONTINUOUS
 62
               7
  5
1FE
 10
-40.771714643304236
 20
-72.353107310152723
 30
0.0
 40
5.0
 50
0.0
 51
49.458398126493762
  0
LINE
  8
0
  6
CONTINUOUS
 62
               7
  5
1FF
 10
-35.771714643304236
 20
-72.353107310152723
 30
0.0
 11
-35.771714643304236
 21
-77.918916623279088
 31
0.0
  0
ARC
  8
0
  6
CONTINUOUS
 62
               7
  5
200
 10
-36.771714643304236
 20
-87.084068013190759
 30
0.0
 40
5.0
 50
0.0
 51
47.156356956403599
  0
LINE
  8
0
  6
CONTINUOUS
 62
               7
  5
201
 10
38.72828535669575
 20
-57.918916623279088
 30
0.0
 11
38.72828535669575
 21
-64.753765233367403
 31
0.0
  0
ARC
  8
0
  6
CONTINUOUS
 62
               7
  5
202
 10
36.72828535669575
 20
-57.918916623279088
 30
0.0
 40
2.0
 50
359.9999999999992
 51
449.99999999999898
  0
ARC
  8
0
  6
CONTINUOUS
 62
               7
  5
203
 10
33.72828535669575
 20
-64.753765233367403
 30
0.0
 40
5.0
 50
310.5416018735022
 51
359.9999999999992
  0
ARC
  8
0
  6
CONTINUOUS
 62
               7
  5
204
 10
27.728285356695753
 20
-77.918916623279102
 30
0.0
 40
7.5
 50
312.84364304359565
 51
359.9999999999992
  0
ARC
  8
0
  6
CONTINUOUS
 62
               7
  5
205
 10
40.228285356695743
 20
-72.353107310152737
 30
0.0
 40
5.0
 50
130.54160187350584
 51
179.9999999999996
  0
LINE
  8
0
  6
CONTINUOUS
 62
               7
  5
206
 10
35.22828535669575
 20
-72.353107310152737
 30
0.0
 11
35.22828535669575
 21
-77.918916623279102
 31
0.0
  0
ARC
  8
0
  6
CONTINUOUS
 62
               7
  5
207
 10
36.22828535669575
 20
-87.084068013190787
 30
0.0
 40
5.0
 50
132.84364304359602
 51
179.9999999999996
  0
LINE
  8
0
  6
CONTINUOUS
 62
               7
  5
208
 10
31.228285356695753
 20
-87.084068013190787
 30
0.0
 11
31.228285356695746
 21
-116.91891662327907
 31
0.0
  0
LINE
  8
0
  6
CONTINUOUS
 62
               7
  5
209
 10
-31.771714643304236
 20
-87.084068013190759
 30
0.0
 11
-31.771714643304236
 21
-116.91891662327909
 31
0.0
  0
ARC
  8
0
  6
CONTINUOUS
 62
               7
  5
20A
 10
37.228285356695764
 20
-116.91891662327909
 30
0.0
 40
6.0
 50
179.9999999999996
 51
359.9999999999992
  0
LINE
  8
0
  6
CONTINUOUS
 62
               7
  5
20B
 10
43.228285356695785
 20
-87.084068013190787
 30
0.0
 11
43.228285356695778
 21
-116.91891662327907
 31
0.0
  0
LINE
  8
0
  6
CONTINUOUS
 62
               7
  5
20C
 10
148.48163375596783
 20
-14.926586794119686
 30
0.0
 11
146.97493695742372
 21
-88.911246452438434
 31
0.0
  0
LINE
  8
0
  6
CONTINUOUS
 62
               7
  5
20D
 10
146.52276989489283
 20
-12.886279862853115
 30
0.0
 11
139.68933816200746
 21
-12.74711709907811
 31
0.0
  0
ARC
  8
0
  6
CONTINUOUS
 62
               7
  5
20E
 10
146.48204835979703
 20
-14.885865259023916
 30
0.0
 40
2.0
 50
358.83333333333252
 51
448.83333333333235
  0
LINE
  8
0
  6
CONTINUOUS
 62
               7
  5
20F
 10
126.39457094412373
 20
-18.977717049450263
 30
0.0
 11
125.07112105351065
 21
-83.964242425000535
 31
0.0
  0
ARC
  8
0
  6
CONTINUOUS
 62
               7
  5
210
 10
139.58753432426801
 20
-17.746080589505056
 30
0.0
 40
5.0
 50
88.833333333333144
 51
138.29173145983015
  0
LINE
  8
0
  6
CONTINUOUS
 62
               7
  5
211
 10
135.42051697551727
 20
-17.795299174319183
 30
0.0
 11
134.04144358765416
 21
-85.5131541159937
 31
0.0
  0
ARC
  8
0
  6
CONTINUOUS
 62
               7
  5
212
 10
126.3029474901582
 20
-23.476784190834479
 30
0.0
 40
7.5
 50
88.833333333333087
 51
136.5059498217143
  0
ARC
  8
0
  6
CONTINUOUS
 62
               7
  5
213
 10
132.12211259470627
 20
-11.092699614407621
 30
0.0
 40
5.0
 50
268.83333333333275
 51
318.29173145982645
  0
LINE
  8
0
  6
CONTINUOUS
 62
               7
  5
214
 10
132.02030875696681
 20
-16.091663104834566
 30
0.0
 11
126.45565324676741
 21
-15.978338955194118
 31
0.0
  0
LINE
  8
0
  6
CONTINUOUS
 62
               7
  5
215
 10
144.93463002615715
 20
-90.870110313513436
 30
0.0
 11
138.10119829327175
 21
-90.730947549738389
 31
0.0
  0
ARC
  8
0
  6
CONTINUOUS
 62
               7
  5
216
 10
144.97535156125292
 20
-88.870524917342649
 30
0.0
 40
2.0
 50
268.83333333333275
 51
358.83333333333252
  0
ARC
  8
0
  6
CONTINUOUS
 62
               7
  5
217
 10
138.20300213101123
 20
-85.731984059311444
 30
0.0
 40
5.0
 50
219.37493520683572
 51
268.83333333333275
  0
ARC
  8
0
  6
CONTINUOUS
 62
               7
  5
218
 10
125.16274450747616
 20
-79.465175283616276
 30
0.0
 40
7.5
 50
221.67697637692922
 51
268.83333333333275
  0
ARC
  8
0
  6
CONTINUOUS
 62
               7
  5
219
 10
130.47289042332687
 20
-92.075908159324086
 30
0.0
 40
5.0
 50
39.374935206839375
 51
88.83333333333313
  0
LINE
  8
0
  6
CONTINUOUS
 62
               7
  5
21A
 10
130.57469426106636
 20
-87.07694466889717
 30
0.0
 11
125.01003875086697
 21
-86.963620519256708
 31
0.0
  0
ARC
  8
0
  6
CONTINUOUS
 62
               7
  5
21B
 10
115.82642654683822
 20
-87.77680370035084
 30
0.0
 40
5.0
 50
41.676976376929531
 51
88.83333333333313
  0
LINE
  8
0
  6
CONTINUOUS
 62
               7
  5
21C
 10
106.22828535669576
 20
-116.91891656683438
 30
0.0
 11
106.22828535669576
 21
-88.703734938594252
 31
0.0
  0
LINE
  8
0
  6
CONTINUOUS
 62
               7
  5
21D
 10
115.92823046013417
 20
-82.777840211462603
 30
0.0
 11
112.35044996198312
 21
-82.704978750081921
 31
0.0
  0
ARC
  8
0
  6
CONTINUOUS
 62
               7
  5
21E
 10
112.22828535669576
 20
-88.703734938594252
 30
0.0
 40
6.0
 50
88.833333333333229
 51
179.9999999999996
  0
ARC
  8
0
  6
CONTINUOUS
 62
               7
  5
21F
 10
112.22828535669576
 20
-88.703734938594252
 30
0.0
 40
69.0
 50
86.120598425218091
 51
179.9999999999996
  0
ARC
  8
0
  6
CONTINUOUS
 62
               7
  5
220
 10
117.23487438291966
 20
-14.873293613064476
 30
0.0
 40
5.0
 50
266.12059842521779
 51
316.50594982171475
  0
LINE
  8
0
  6
CONTINUOUS
 62
               7
  5
221
 10
147.62828535669593
 20
225.88110137672089
 30
0.0
 11
147.62828535669593
 21
151.88110137672089
 31
0.0
  0
LINE
  8
0
  6
CONTINUOUS
 62
               7
  5
222
 10
145.62828535669593
 20
227.88110137672089
 30
0.0
 11
138.7934367466076
 21
227.88110137672089
 31
0.0
  0
ARC
  8
0
  6
CONTINUOUS
 62
               7
  5
223
 10
145.62828535669593
 20
225.88110137672089
 30
0.0
 40
2.0
 50
0.0000000000000035
 51
89.999999999999815
  0
LINE
  8
0
  6
CONTINUOUS
 62
               7
  5
224
 10
125.62828535669588
 20
221.38110137672089
 30
0.0
 11
125.62828535669588
 21
156.38110137672089
 31
0.0
  0
ARC
  8
0
  6
CONTINUOUS
 62
               7
  5
225
 10
138.7934367466076
 20
222.88110137672089
 30
0.0
 40
5.0
 50
89.999999999999815
 51
139.4583981264968
  0
LINE
  8
0
  6
CONTINUOUS
 62
               7
  5
226
 10
134.62828535669593
 20
222.74704932340765
 30
0.0
 11
134.62828535669587
 21
155.01515343003416
 31
0.0
  0
ARC
  8
0
  6
CONTINUOUS
 62
               7
  5
227
 10
125.62828535669588
 20
216.88110137672089
 30
0.0
 40
7.5
 50
89.999999999999815
 51
137.15635695640333
  0
ARC
  8
0
  6
CONTINUOUS
 62
               7
  5
228
 10
131.19409466982228
 20
229.38110137672089
 30
0.0
 40
5.0
 50
269.99999999999937
 51
319.45839812649314
  0
LINE
  8
0
  6
CONTINUOUS
 62
               7
  5
229
 10
131.19409466982228
 20
224.38110137672089
 30
0.0
 11
125.62828535669588
 21
224.38110137672089
 31
0.0
  0
ARC
  8
0
  6
CONTINUOUS
 62
               7
  5
22A
 10
116.46313396678421
 20
225.38110137672089
 30
0.0
 40
5.0
 50
269.99999999999937
 51
317.15635695640299
  0
LINE
  8
0
  6
CONTINUOUS
 62
               7
  5
22B
 10
145.62828535669587
 20
149.88110137672089
 30
0.0
 11
138.7934367466076
 21
149.88110137672089
 31
0.0
  0
ARC
  8
0
  6
CONTINUOUS
 62
               7
  5
22C
 10
145.62828535669587
 20
151.88110137672089
 30
0.0
 40
2.0
 50
269.99999999999937
 51
359.9999999999992
  0
ARC
  8
0
  6
CONTINUOUS
 62
               7
  5
22D
 10
138.7934367466076
 20
154.88110137672089
 30
0.0
 40
5.0
 50
220.54160187350237
 51
269.99999999999937
  0
ARC
  8
0
  6
CONTINUOUS
 62
               7
  5
22E
 10
125.62828535669588
 20
160.88110137672089
 30
0.0
 40
7.5
 50
222.84364304359585
 51
269.99999999999937
  0
ARC
  8
0
  6
CONTINUOUS
 62
               7
  5
22F
 10
131.19409466982222
 20
148.38110137672089
 30
0.0
 40
5.0
 50
40.541601873506039
 51
89.999999999999801
  0
LINE
  8
0
  6
CONTINUOUS
 62
               7
  5
230
 10
131.19409466982222
 20
153.38110137672089
 30
0.0
 11
125.62828535669588
 21
153.38110137672089
 31
0.0
  0
ARC
  8
0
  6
CONTINUOUS
 62
               7
  5
231
 10
116.46313396678418
 20
152.38110137672089
 30
0.0
 40
5.0
 50
42.843643043596195
 51
89.999999999999801
  0
LINE
  8
0
  6
CONTINUOUS
 62
               7
  5
232
 10
56.485562815258767
 20
220.38110137672089
 30
0.0
 11
116.46313396678421
 21
220.38110137672089
 31
0.0
  0
LINE
  8
0
  6
CONTINUOUS
 62
               7
  5
233
 10
56.48556281525876
 20
157.38110137672089
 30
0.0
 11
116.46313396678421
 21
157.38110137672089
 31
0.0
  0
ARC
  8
0
  6
CONTINUOUS
 62
               7
  5
234
 10
74.62828535669594
 20
188.88110137672089
 30
0.0
 40
31.5
 50
89.999999999999801
 51
120.41744126466743
  0
ARC
  8
0
  6
CONTINUOUS
 62
               7
  5
235
 10
74.62828535669594
 20
188.88110137672089
 30
0.0
 40
31.5
 50
239.58255873533173
 51
269.99999999999937
  0
LINE
  8
0
  6
DASHDOT
 62
               7
  5
236
 10
-0.3717146433040927
 20
113.88110137672091
 30
0.0
 11
-0.3717146433040826
 21
263.88110137672089
 31
0.0
  0
LINE
  8
0
  6
DASHDOT
 62
               7
  5
237
 10
158.8284503566961
 20
188.88110137672084
 30
0.0
 11
-75.371714643304088
 21
188.88110137672089
 31
0.0
  0
LINE
  8
0
  6
DASHDOT
 62
               7
  5
238
 10
-0.2717146433042356
 20
71.881101376720835
 30
0.0
 11
-0.2717146433018345
 21
-116.91891662327956
 31
0.0
  0
LINE
  8
0
  6
DASHDOT
 62
               7
  5
239
 10
74.728285356695793
 20
-51.918916623279088
 30
0.0
 11
157.72828535669578
 21
-51.918916623279486
 31
0.0
  0
LINE
  8
0
  6
DASHDOT
 62
               7
  5
23A
 10
37.228285356695764
 20
-117.91891662327909
 30
0.0
 11
37.228285356695764
 21
-192.91891662327907
 31
0.0
  0
LINE
  8
0
  6
DASHDOT
 62
               7
  5
23B
 10
74.728285356695793
 20
-50.432272408090711
 30
0.0
 11
157.72621233754967
 21
-52.122524298758421
 31
0.0
  0
ARC
  8
0
  6
DASHDOT
 62
               7
  5
23C
 10
37.228285356695764
 20
-116.91891662327907
 30
0.0
 40
37.5
 50
179.9999999999996
 51
359.9999999999992
  0
ARC
  8
0
  6
DASHDOT
 62
               7
  5
23D
 10
112.22828535669576
 20
-88.703734938594252
 30
0.0
 40
37.5
 50
88.83333333333313
 51
179.99999999999957
  0
LINE
  8
0
  6
DASHDOT
 62
               7
  5
23E
 10
74.728285356695778
 20
-88.703734938594238
 30
0.0
 11
74.728285356695778
 21
-116.91891662327909
 31
0.0
  0
LINE
  8
LAYER001
  6
CONTINUOUS
 62
               7
  5
23F
 10
2.7282853566958924
 20
14.381101376720835
 30
0.0
 11
-3.2717146433041076
 21
14.381101376720835
 31
0.0
  0
LINE
  8
LAYER001
  6
CONTINUOUS
 62
               7
  5
240
 10
-4.2717146433041071
 20
29.479759167270402
 30
0.0
 11
-4.2717146433041071
 21
15.381101376720835
 31
0.0
  0
LINE
  8
LAYER001
  6
CONTINUOUS
 62
               7
  5
241
 10
3.7282853566958924
 20
29.479759167270402
 30
0.0
 11
3.7282853566958924
 21
15.381101376720835
 31
0.0
  0
ARC
  8
LAYER001
  6
CONTINUOUS
 62
               7
  5
242
 10
2.7282853566958924
 20
15.381101376720835
 30
0.0
 40
1.0
 50
269.99999999994731
 51
359.9999999999992
  0
ARC
  8
LAYER001
  6
CONTINUOUS
 62
               7
  5
243
 10
-3.2717146433041076
 20
15.381101376720835
 30
0.0
 40
1.0
 50
179.99999999996052
 51
269.99999999994731
  0
LINE
  8
LAYER001
  6
CONTINUOUS
 62
               7
  5
244
 10
-30.521714643304108
 20
11.881101376720835
 30
0.0
 11
-30.521714643304108
 21
-55.918916623279074
 31
0.0
  0
LINE
  8
LAYER001
  6
CONTINUOUS
 62
               7
  5
245
 10
29.978285356695892
 20
11.881101376720835
 30
0.0
 11
29.978285356695892
 21
-55.918916623279074
 31
0.0
  0
ENDSEC
  0
EOF
