  0
SECTION
  2
HEADER
  9
$ACADVER
  1
AC1014
  9
$ACADMAINTVER
 70
               0
  9
$DWGCODEPAGE
  3
ANSI_932
  9
$INSBASE
 10
0.0
 20
0.0
 30
0.0
  9
$EXTMIN
 10
-121.20000800000045
 20
-339.24003027999959
 30
0.0
  9
$EXTMAX
 10
175.19999199999955
 20
359.64001028000058
 30
0.0
  9
$LIMMIN
 10
-130.46250800000044
 20
-361.08003154749957
  9
$LIMMAX
 10
184.46249199999954
 20
381.48001154750057
  9
$ORTHOMODE
 70
               0
  9
$REGENMODE
 70
               1
  9
$FILLMODE
 70
               1
  9
$QTEXTMODE
 70
               0
  9
$MIRRTEXT
 70
               1
  9
$DRAGMODE
 70
               2
  9
$LTSCALE
 40
1.0
  9
$OSMODE
 70
               0
  9
$ATTMODE
 70
               1
  9
$TEXTSIZE
 40
0.2
  9
$TRACEWID
 40
0.05
  9
$TEXTSTYLE
  7
STANDARD
  9
$CLAYER
  8
0
  9
$CELTYPE
  6
CONTINUOUS
  9
$CECOLOR
 62
             256
  9
$CELTSCALE
 40
1.0
  9
$DELOBJ
 70
               1
  9
$DISPSILH
 70
               0
  9
$DIMSCALE
 40
1.0
  9
$DIMASZ
 40
0.18
  9
$DIMEXO
 40
0.0625
  9
$DIMDLI
 40
0.38
  9
$DIMRND
 40
0.0
  9
$DIMDLE
 40
0.0
  9
$DIMEXE
 40
0.18
  9
$DIMTP
 40
0.0
  9
$DIMTM
 40
0.0
  9
$DIMTXT
 40
0.18
  9
$DIMCEN
 40
0.09
  9
$DIMTSZ
 40
0.0
  9
$DIMTOL
 70
               0
  9
$DIMLIM
 70
               0
  9
$DIMTIH
 70
               1
  9
$DIMTOH
 70
               1
  9
$DIMSE1
 70
               0
  9
$DIMSE2
 70
               0
  9
$DIMTAD
 70
               0
  9
$DIMZIN
 70
               0
  9
$DIMBLK
  1

  9
$DIMASO
 70
               1
  9
$DIMSHO
 70
               1
  9
$DIMPOST
  1

  9
$DIMAPOST
  1

  9
$DIMALT
 70
               0
  9
$DIMALTD
 70
               2
  9
$DIMALTF
 40
25.399999999999999
  9
$DIMLFAC
 40
1.0
  9
$DIMTOFL
 70
               0
  9
$DIMTVP
 40
0.0
  9
$DIMTIX
 70
               0
  9
$DIMSOXD
 70
               0
  9
$DIMSAH
 70
               0
  9
$DIMBLK1
  1

  9
$DIMBLK2
  1

  9
$DIMSTYLE
  2
STANDARD
  9
$DIMCLRD
 70
               0
  9
$DIMCLRE
 70
               0
  9
$DIMCLRT
 70
               0
  9
$DIMTFAC
 40
1.0
  9
$DIMGAP
 40
0.09
  9
$DIMJUST
 70
               0
  9
$DIMSD1
 70
               0
  9
$DIMSD2
 70
               0
  9
$DIMTOLJ
 70
               1
  9
$DIMTZIN
 70
               0
  9
$DIMALTZ
 70
               0
  9
$DIMALTTZ
 70
               0
  9
$DIMFIT
 70
               3
  9
$DIMUPT
 70
               0
  9
$DIMUNIT
 70
               2
  9
$DIMDEC
 70
               4
  9
$DIMTDEC
 70
               4
  9
$DIMALTU
 70
               2
  9
$DIMALTTD
 70
               2
  9
$DIMTXSTY
  7
STANDARD
  9
$DIMAUNIT
 70
               0
  9
$LUNITS
 70
               2
  9
$LUPREC
 70
               4
  9
$SKETCHINC
 40
0.1
  9
$FILLETRAD
 40
0.0
  9
$AUNITS
 70
               0
  9
$AUPREC
 70
               0
  9
$MENU
  1
acad
  9
$ELEVATION
 40
0.0
  9
$PELEVATION
 40
0.0
  9
$THICKNESS
 40
0.0
  9
$LIMCHECK
 70
               0
  9
$BLIPMODE
 70
               1
  9
$CHAMFERA
 40
0.0
  9
$CHAMFERB
 40
0.0
  9
$CHAMFERC
 40
0.0
  9
$CHAMFERD
 40
0.0
  9
$SKPOLY
 70
               0
  9
$TDCREATE
 40
0.000000000
  9
$TDUPDATE
 40
0.000000000
  9
$TDINDWG
 40
0.0000000000
  9
$TDUSRTIMER
 40
0.0000000000
  9
$USRTIMER
 70
               1
  9
$ANGBASE
 50
0.0
  9
$ANGDIR
 70
               0
  9
$PDMODE
 70
               0
  9
$PDSIZE
 40
1.0
  9
$PLINEWID
 40
0.0
  9
$COORDS
 70
               1
  9
$SPLFRAME
 70
               0
  9
$SPLINETYPE
 70
               6
  9
$SPLINESEGS
 70
               8
  9
$ATTDIA
 70
               0
  9
$ATTREQ
 70
               1
  9
$HANDLING
 70
               1
  9
$HANDSEED
  5
22B
  9
$SURFTAB1
 70
               6
  9
$SURFTAB2
 70
               6
  9
$SURFTYPE
 70
               6
  9
$SURFU
 70
               6
  9
$SURFV
 70
               6
  9
$UCSNAME
  2

  9
$UCSORG
 10
0.0
 20
0.0
 30
0.0
  9
$UCSXDIR
 10
1.0
 20
0.0
 30
0.0
  9
$UCSYDIR
 10
0.0
 20
1.0
 30
0.0
  9
$PUCSNAME
  2

  9
$PUCSORG
 10
0.0
 20
0.0
 30
0.0
  9
$PUCSXDIR
 10
1.0
 20
0.0
 30
0.0
  9
$PUCSYDIR
 10
0.0
 20
1.0
 30
0.0
  9
$USERI1
 70
               0
  9
$USERI2
 70
               0
  9
$USERI3
 70
               0
  9
$USERI4
 70
               0
  9
$USERI5
 70
               0
  9
$USERR1
 40
0.0
  9
$USERR2
 40
0.0
  9
$USERR3
 40
0.0
  9
$USERR4
 40
0.0
  9
$USERR5
 40
0.0
  9
$WORLDVIEW
 70
               1
  9
$SHADEDGE
 70
               3
  9
$SHADEDIF
 70
              70
  9
$TILEMODE
 70
               1
  9
$MAXACTVP
 70
              16
  9
$PINSBASE
 10
0.0
 20
0.0
 30
0.0
  9
$PLIMCHECK
 70
               0
  9
$PEXTMIN
 10
1.0000000000000000E+20
 20
1.0000000000000000E+20
 30
1.0000000000000000E+20
  9
$PEXTMAX
 10
-1.0000000000000000E+20
 20
-1.0000000000000000E+20
 30
-1.0000000000000000E+20
  9
$PLIMMIN
 10
0.0
 20
0.0
  9
$PLIMMAX
 10
12.0
 20
9.0
  9
$UNITMODE
 70
               0
  9
$VISRETAIN
 70
               0
  9
$PLINEGEN
 70
               1
  9
$PSLTSCALE
 70
               0
  9
$TREEDEPTH
 70
            3020
  9
$PICKSTYLE
 70
               1
  9
$CMLSTYLE
  2
STANDARD
  9
$CMLJUST
 70
               0
  9
$CMLSCALE
 40
1.0
  9
$PROXYGRAPHICS
 70
               0
  9
$MEASUREMENT
 70
               0
  0
ENDSEC
  0
SECTION
  2
CLASSES
  0
CLASS
  1
LWPOLYLINE
  2
AcDbPolyline
  3
"AutoCAD"
 90
        0
280
               0
281
               1
  0
CLASS
  1
IMAGE
  2
AcDbRasterImage
  3
ISM
 90
      127
280
               0
281
               1
  0
CLASS
  1
OLE2FRAME
  2
AcDbOle2Frame
  3
""
 90
        0
280
               0
281
               1
  0
CLASS
  1
HATCH
  2
AcDbHatch
  3
"ACAD_SEDONA"
 90
        0
280
               0
281
               1
  0
CLASS
  1
DICTIONARYVAR
  2
AcDbDictionaryVar
  3
"AutoCAD"
 90
        0
280
               0
281
               0
  0
CLASS
  1
RASTERVARIABLES
  2
AcDbRasterVariables
  3
ISM
 90
        0
280
               0
281
               0
  0
CLASS
  1
IMAGEDEF
  2
AcDbRasterImageDef
  3
ISM
 90
        0
280
               0
281
               0
  0
CLASS
  1
IMAGEDEF_REACTOR
  2
AcDbRasterImageDefReactor
  3
ISM
 90
        1
280
               0
281
               0
  0
CLASS
  1
IDBUFFER
  2
AcDbIdBuffer
  3
"Acad"
 90
        0
280
               0
281
               0
  0
CLASS
  1
SPATIAL_FILTER
  2
AcDbSpatialFilter
  3
"Acad"
 90
        0
280
               0
281
               0
  0
CLASS
  1
XRECORD
  2
AcDbXrecord
  3
"<Built In>"
 90
        0
280
               0
281
               0
  0
CLASS
  1
SORTENTSTABLE
  2
AcDbSortentsTable
  3
"AutoCAD"
 90
        0
280
               0
281
               0
  0
CLASS
  1
LAYER_INDEX
  2
AcDbLayerIndex
  3
"Acad"
 90
        0
280
               0
281
               0
  0
CLASS
  1
SPATIAL_INDEX
  2
AcDbSpatialIndex
  3
"Acad"
 90
        0
280
               0
281
               0
  0
CLASS
  1
OBJECT_PTR
  2
CAseDLPNTableRecord
  3
"ASE-LPNTableRecord"
 90
        1
280
               0
281
               0
  0
ENDSEC
  0
SECTION
  2
TABLES
  0
TABLE
  2
VPORT
  5
7
100
AcDbSymbolTable
 70
               1
  0
VPORT
  5
15
100
AcDbSymbolTableRecord
100
AcDbViewportTableRecord
  2
*ACTIVE
 70
               0
 10
0.0
 20
0.0
 11
1.0
 21
1.0
 12
26.999991999999551
 22
10.199990000000497
 13
0.0
 23
0.0
 14
1.0
 24
1.0
 15
0.0
 25
0.0
 16
0.0
 26
0.0
 36
1.0
 17
0.0
 27
0.0
 37
0.0
 40
742.56004309500008
 41
0.4241071182437832
 42
50.0
 43
0.0
 44
0.0
 50
0.0
 51
0.0
 71
               0
 72
             100
 73
               1
 74
               1
 75
               0
 76
               0
 77
               0
 78
               0
  0
ENDTAB
  0
TABLE
  2
LTYPE
  5
4
100
AcDbSymbolTable
 70
              28
  0
LTYPE
  5
11
100
AcDbSymbolTableRecord
100
AcDbLinetypeTableRecord
  2
BYBLOCK
 70
               0
  3

 72
              65
 73
               0
 40
0.0
  0
LTYPE
  5
12
100
AcDbSymbolTableRecord
100
AcDbLinetypeTableRecord
  2
BYLAYER
 70
               0
  3

 72
              65
 73
               0
 40
0.0
  0
LTYPE
  5
13
100
AcDbSymbolTableRecord
100
AcDbLinetypeTableRecord
  2
CONTINUOUS
 70
               0
  3
Solid line
 72
              65
 73
               0
 40
0.0
  0
LTYPE
  5
1D
100
AcDbSymbolTableRecord
100
AcDbLinetypeTableRecord
  2
HIDDENX2
 70
               0
  3
CADPAC FUSION LINETYPE
 72
              65
 73
               2
 40
33.640000000000001
 49
25.23
 74
               0
 49
-8.4100000000000001
 74
               0
  0
LTYPE
  5
1E
100
AcDbSymbolTableRecord
100
AcDbLinetypeTableRecord
  2
HIDDEN
 70
               0
  3
CADPAC FUSION LINETYPE
 72
              65
 73
               2
 40
25.23
 49
16.82
 74
               0
 49
-8.4100000000000001
 74
               0
  0
LTYPE
  5
1F
100
AcDbSymbolTableRecord
100
AcDbLinetypeTableRecord
  2
HIDDEN2
 70
               0
  3
CADPAC FUSION LINETYPE
 72
              65
 73
               2
 40
21.024999999999999
 49
12.615
 74
               0
 49
-8.4100000000000001
 74
               0
  0
LTYPE
  5
20
100
AcDbSymbolTableRecord
100
AcDbLinetypeTableRecord
  2
DASHED
 70
               0
  3
CADPAC FUSION LINETYPE
 72
              65
 73
               2
 40
25.23
 49
16.82
 74
               0
 49
-8.4100000000000001
 74
               0
  0
LTYPE
  5
21
100
AcDbSymbolTableRecord
100
AcDbLinetypeTableRecord
  2
DASHED2
 70
               0
  3
CADPAC FUSION LINETYPE
 72
              65
 73
               2
 40
18.922499999999999
 49
12.615
 74
               0
 49
-6.3075000000000001
 74
               0
  0
LTYPE
  5
22
100
AcDbSymbolTableRecord
100
AcDbLinetypeTableRecord
  2
DASHEDX2
 70
               0
  3
CADPAC FUSION LINETYPE
 72
              65
 73
               2
 40
37.844999999999999
 49
25.23
 74
               0
 49
-12.615
 74
               0
  0
LTYPE
  5
23
100
AcDbSymbolTableRecord
100
AcDbLinetypeTableRecord
  2
DOTX2
 70
               0
  3
CADPAC FUSION LINETYPE
 72
              65
 73
               2
 40
10.512499999999999
 49
0.0
 74
               0
 49
-10.512499999999999
 74
               0
  0
LTYPE
  5
24
100
AcDbSymbolTableRecord
100
AcDbLinetypeTableRecord
  2
DOT
 70
               0
  3
CADPAC FUSION LINETYPE
 72
              65
 73
               2
 40
8.4100000000000001
 49
0.0
 74
               0
 49
-8.4100000000000001
 74
               0
  0
LTYPE
  5
25
100
AcDbSymbolTableRecord
100
AcDbLinetypeTableRecord
  2
DOTS
 70
               0
  3
CADPAC FUSION LINETYPE
 72
              65
 73
               2
 40
8.4100000000000001
 49
0.0
 74
               0
 49
-8.4100000000000001
 74
               0
  0
LTYPE
  5
26
100
AcDbSymbolTableRecord
100
AcDbLinetypeTableRecord
  2
DOT2
 70
               0
  3
CADPAC FUSION LINETYPE
 72
              65
 73
               2
 40
6.3075000000000001
 49
0.0
 74
               0
 49
-6.3075000000000001
 74
               0
  0
LTYPE
  5
27
100
AcDbSymbolTableRecord
100
AcDbLinetypeTableRecord
  2
CENTERX2
 70
               0
  3
CADPAC FUSION LINETYPE
 72
              65
 73
               4
 40
50.459999999999994
 49
21.024999999999999
 74
               0
 49
-10.512499999999999
 74
               0
 49
8.4100000000000001
 74
               0
 49
-10.512499999999999
 74
               0
  0
LTYPE
  5
28
100
AcDbSymbolTableRecord
100
AcDbLinetypeTableRecord
  2
CENTER
 70
               0
  3
CADPAC FUSION LINETYPE
 72
              65
 73
               4
 40
38.686
 49
16.82
 74
               0
 49
-8.4100000000000001
 74
               0
 49
5.0460000000000003
 74
               0
 49
-8.4100000000000001
 74
               0
  0
LTYPE
  5
29
100
AcDbSymbolTableRecord
100
AcDbLinetypeTableRecord
  2
CENTER2
 70
               0
  3
CADPAC FUSION LINETYPE
 72
              65
 73
               4
 40
26.911999999999999
 49
12.615
 74
               0
 49
-6.3075000000000001
 74
               0
 49
1.6820000000000002
 74
               0
 49
-6.3075000000000001
 74
               0
  0
LTYPE
  5
2A
100
AcDbSymbolTableRecord
100
AcDbLinetypeTableRecord
  2
DASHDOTX2
 70
               0
  3
CADPAC FUSION LINETYPE
 72
              65
 73
               4
 40
42.049999999999997
 49
21.024999999999999
 74
               0
 49
-10.512499999999999
 74
               0
 49
0.0
 74
               0
 49
-10.512499999999999
 74
               0
  0
LTYPE
  5
2B
100
AcDbSymbolTableRecord
100
AcDbLinetypeTableRecord
  2
DASHDOT
 70
               0
  3
CADPAC FUSION LINETYPE
 72
              65
 73
               4
 40
33.640000000000001
 49
16.82
 74
               0
 49
-8.4100000000000001
 74
               0
 49
0.0
 74
               0
 49
-8.4100000000000001
 74
               0
  0
LTYPE
  5
2C
100
AcDbSymbolTableRecord
100
AcDbLinetypeTableRecord
  2
DASHDOT2
 70
               0
  3
CADPAC FUSION LINETYPE
 72
              65
 73
               4
 40
25.23
 49
12.615
 74
               0
 49
-6.3075000000000001
 74
               0
 49
0.0
 74
               0
 49
-6.3075000000000001
 74
               0
  0
LTYPE
  5
2D
100
AcDbSymbolTableRecord
100
AcDbLinetypeTableRecord
  2
DIVIDEX2
 70
               0
  3
CADPAC FUSION LINETYPE
 72
              65
 73
               6
 40
52.5625
 49
21.024999999999999
 74
               0
 49
-10.512499999999999
 74
               0
 49
0.0
 74
               0
 49
-10.512499999999999
 74
               0
 49
0.0
 74
               0
 49
-10.512499999999999
 74
               0
  0
LTYPE
  5
2E
100
AcDbSymbolTableRecord
100
AcDbLinetypeTableRecord
  2
DIVIDE
 70
               0
  3
CADPAC FUSION LINETYPE
 72
              65
 73
               6
 40
42.049999999999997
 49
16.82
 74
               0
 49
-8.4100000000000001
 74
               0
 49
0.0
 74
               0
 49
-8.4100000000000001
 74
               0
 49
0.0
 74
               0
 49
-8.4100000000000001
 74
               0
  0
LTYPE
  5
2F
100
AcDbSymbolTableRecord
100
AcDbLinetypeTableRecord
  2
DIVIDE2
 70
               0
  3
CADPAC FUSION LINETYPE
 72
              65
 73
               6
 40
31.537500000000001
 49
12.615
 74
               0
 49
-6.3075000000000001
 74
               0
 49
0.0
 74
               0
 49
-6.3075000000000001
 74
               0
 49
0.0
 74
               0
 49
-6.3075000000000001
 74
               0
  0
LTYPE
  5
30
100
AcDbSymbolTableRecord
100
AcDbLinetypeTableRecord
  2
BORDERX2
 70
               0
  3
CADPAC FUSION LINETYPE
 72
              65
 73
               6
 40
73.587499999999991
 49
21.024999999999999
 74
               0
 49
-10.512499999999999
 74
               0
 49
21.024999999999999
 74
               0
 49
-10.512499999999999
 74
               0
 49
0.0
 74
               0
 49
-10.512499999999999
 74
               0
  0
LTYPE
  5
31
100
AcDbSymbolTableRecord
100
AcDbLinetypeTableRecord
  2
BORDER
 70
               0
  3
CADPAC FUSION LINETYPE
 72
              65
 73
               6
 40
58.870000000000005
 49
16.82
 74
               0
 49
-8.4100000000000001
 74
               0
 49
16.82
 74
               0
 49
-8.4100000000000001
 74
               0
 49
0.0
 74
               0
 49
-8.4100000000000001
 74
               0
  0
LTYPE
  5
32
100
AcDbSymbolTableRecord
100
AcDbLinetypeTableRecord
  2
BORDER2
 70
               0
  3
CADPAC FUSION LINETYPE
 72
              65
 73
               6
 40
44.152499999999996
 49
12.615
 74
               0
 49
-6.3075000000000001
 74
               0
 49
12.615
 74
               0
 49
-6.3075000000000001
 74
               0
 49
0.0
 74
               0
 49
-6.3075000000000001
 74
               0
  0
LTYPE
  5
33
100
AcDbSymbolTableRecord
100
AcDbLinetypeTableRecord
  2
PHANTOMX2
 70
               0
  3
CADPAC FUSION LINETYPE
 72
              65
 73
               6
 40
63.074999999999996
 49
21.024999999999999
 74
               0
 49
-8.4100000000000001
 74
               0
 49
8.4100000000000001
 74
               0
 49
-8.4100000000000001
 74
               0
 49
8.4100000000000001
 74
               0
 49
-8.4100000000000001
 74
               0
  0
LTYPE
  5
34
100
AcDbSymbolTableRecord
100
AcDbLinetypeTableRecord
  2
PHANTOM
 70
               0
  3
CADPAC FUSION LINETYPE
 72
              65
 73
               6
 40
52.141999999999996
 49
16.82
 74
               0
 49
-8.4100000000000001
 74
               0
 49
5.0460000000000003
 74
               0
 49
-8.4100000000000001
 74
               0
 49
5.0460000000000003
 74
               0
 49
-8.4100000000000001
 74
               0
  0
LTYPE
  5
35
100
AcDbSymbolTableRecord
100
AcDbLinetypeTableRecord
  2
PHANTOM2
 70
               0
  3
CADPAC FUSION LINETYPE
 72
              65
 73
               6
 40
44.573
 49
12.615
 74
               0
 49
-8.4100000000000001
 74
               0
 49
3.3640000000000003
 74
               0
 49
-8.4100000000000001
 74
               0
 49
3.3640000000000003
 74
               0
 49
-8.4100000000000001
 74
               0
  0
ENDTAB
  0
TABLE
  2
LAYER
  5
2
100
AcDbSymbolTable
 70
             256
  0
LAYER
  5
14
100
AcDbSymbolTableRecord
100
AcDbLayerTableRecord
  2
0
 70
               0
 62
               7
  6
CONTINUOUS
  0
LAYER
  5
36
100
AcDbSymbolTableRecord
100
AcDbLayerTableRecord
  2
LAYER001
 70
               0
 62
               7
  6
CONTINUOUS
  0
LAYER
  5
37
100
AcDbSymbolTableRecord
100
AcDbLayerTableRecord
  2
LAYER002
 70
               0
 62
               7
  6
CONTINUOUS
  0
LAYER
  5
38
100
AcDbSymbolTableRecord
100
AcDbLayerTableRecord
  2
LAYER003
 70
               0
 62
               7
  6
CONTINUOUS
  0
LAYER
  5
39
100
AcDbSymbolTableRecord
100
AcDbLayerTableRecord
  2
LAYER004
 70
               0
 62
               7
  6
CONTINUOUS
  0
LAYER
  5
3A
100
AcDbSymbolTableRecord
100
AcDbLayerTableRecord
  2
LAYER005
 70
               0
 62
               7
  6
CONTINUOUS
  0
LAYER
  5
3B
100
AcDbSymbolTableRecord
100
AcDbLayerTableRecord
  2
LAYER006
 70
               0
 62
               7
  6
CONTINUOUS
  0
LAYER
  5
3C
100
AcDbSymbolTableRecord
100
AcDbLayerTableRecord
  2
LAYER007
 70
               0
 62
               7
  6
CONTINUOUS
  0
LAYER
  5
3D
100
AcDbSymbolTableRecord
100
AcDbLayerTableRecord
  2
LAYER008
 70
               0
 62
               7
  6
CONTINUOUS
  0
LAYER
  5
3E
100
AcDbSymbolTableRecord
100
AcDbLayerTableRecord
  2
LAYER009
 70
               0
 62
               7
  6
CONTINUOUS
  0
LAYER
  5
3F
100
AcDbSymbolTableRecord
100
AcDbLayerTableRecord
  2
LAYER010
 70
               0
 62
               7
  6
CONTINUOUS
  0
LAYER
  5
40
100
AcDbSymbolTableRecord
100
AcDbLayerTableRecord
  2
LAYER011
 70
               0
 62
               7
  6
CONTINUOUS
  0
LAYER
  5
41
100
AcDbSymbolTableRecord
100
AcDbLayerTableRecord
  2
LAYER012
 70
               0
 62
               7
  6
CONTINUOUS
  0
LAYER
  5
42
100
AcDbSymbolTableRecord
100
AcDbLayerTableRecord
  2
LAYER013
 70
               0
 62
               7
  6
CONTINUOUS
  0
LAYER
  5
43
100
AcDbSymbolTableRecord
100
AcDbLayerTableRecord
  2
LAYER014
 70
               0
 62
               7
  6
CONTINUOUS
  0
LAYER
  5
44
100
AcDbSymbolTableRecord
100
AcDbLayerTableRecord
  2
LAYER015
 70
               0
 62
               7
  6
CONTINUOUS
  0
LAYER
  5
45
100
AcDbSymbolTableRecord
100
AcDbLayerTableRecord
  2
LAYER016
 70
               0
 62
               7
  6
CONTINUOUS
  0
LAYER
  5
46
100
AcDbSymbolTableRecord
100
AcDbLayerTableRecord
  2
LAYER017
 70
               0
 62
               7
  6
CONTINUOUS
  0
LAYER
  5
47
100
AcDbSymbolTableRecord
100
AcDbLayerTableRecord
  2
LAYER018
 70
               0
 62
               7
  6
CONTINUOUS
  0
LAYER
  5
48
100
AcDbSymbolTableRecord
100
AcDbLayerTableRecord
  2
LAYER019
 70
               0
 62
               7
  6
CONTINUOUS
  0
LAYER
  5
49
100
AcDbSymbolTableRecord
100
AcDbLayerTableRecord
  2
LAYER020
 70
               0
 62
               7
  6
CONTINUOUS
  0
LAYER
  5
4A
100
AcDbSymbolTableRecord
100
AcDbLayerTableRecord
  2
LAYER021
 70
               0
 62
               7
  6
CONTINUOUS
  0
LAYER
  5
4B
100
AcDbSymbolTableRecord
100
AcDbLayerTableRecord
  2
LAYER022
 70
               0
 62
               7
  6
CONTINUOUS
  0
LAYER
  5
4C
100
AcDbSymbolTableRecord
100
AcDbLayerTableRecord
  2
LAYER023
 70
               0
 62
               7
  6
CONTINUOUS
  0
LAYER
  5
4D
100
AcDbSymbolTableRecord
100
AcDbLayerTableRecord
  2
LAYER024
 70
               0
 62
               7
  6
CONTINUOUS
  0
LAYER
  5
4E
100
AcDbSymbolTableRecord
100
AcDbLayerTableRecord
  2
LAYER025
 70
               0
 62
               7
  6
CONTINUOUS
  0
LAYER
  5
4F
100
AcDbSymbolTableRecord
100
AcDbLayerTableRecord
  2
LAYER026
 70
               0
 62
               7
  6
CONTINUOUS
  0
LAYER
  5
50
100
AcDbSymbolTableRecord
100
AcDbLayerTableRecord
  2
LAYER027
 70
               0
 62
               7
  6
CONTINUOUS
  0
LAYER
  5
51
100
AcDbSymbolTableRecord
100
AcDbLayerTableRecord
  2
LAYER028
 70
               0
 62
               7
  6
CONTINUOUS
  0
LAYER
  5
52
100
AcDbSymbolTableRecord
100
AcDbLayerTableRecord
  2
LAYER029
 70
               0
 62
               7
  6
CONTINUOUS
  0
LAYER
  5
53
100
AcDbSymbolTableRecord
100
AcDbLayerTableRecord
  2
LAYER030
 70
               0
 62
               7
  6
CONTINUOUS
  0
LAYER
  5
54
100
AcDbSymbolTableRecord
100
AcDbLayerTableRecord
  2
LAYER031
 70
               0
 62
               7
  6
CONTINUOUS
  0
LAYER
  5
55
100
AcDbSymbolTableRecord
100
AcDbLayerTableRecord
  2
LAYER032
 70
               0
 62
               7
  6
CONTINUOUS
  0
LAYER
  5
56
100
AcDbSymbolTableRecord
100
AcDbLayerTableRecord
  2
LAYER033
 70
               0
 62
               7
  6
CONTINUOUS
  0
LAYER
  5
57
100
AcDbSymbolTableRecord
100
AcDbLayerTableRecord
  2
LAYER034
 70
               0
 62
               7
  6
CONTINUOUS
  0
LAYER
  5
58
100
AcDbSymbolTableRecord
100
AcDbLayerTableRecord
  2
LAYER035
 70
               0
 62
               7
  6
CONTINUOUS
  0
LAYER
  5
59
100
AcDbSymbolTableRecord
100
AcDbLayerTableRecord
  2
LAYER036
 70
               0
 62
               7
  6
CONTINUOUS
  0
LAYER
  5
5A
100
AcDbSymbolTableRecord
100
AcDbLayerTableRecord
  2
LAYER037
 70
               0
 62
               7
  6
CONTINUOUS
  0
LAYER
  5
5B
100
AcDbSymbolTableRecord
100
AcDbLayerTableRecord
  2
LAYER038
 70
               0
 62
               7
  6
CONTINUOUS
  0
LAYER
  5
5C
100
AcDbSymbolTableRecord
100
AcDbLayerTableRecord
  2
LAYER039
 70
               0
 62
               7
  6
CONTINUOUS
  0
LAYER
  5
5D
100
AcDbSymbolTableRecord
100
AcDbLayerTableRecord
  2
LAYER040
 70
               0
 62
               7
  6
CONTINUOUS
  0
LAYER
  5
5E
100
AcDbSymbolTableRecord
100
AcDbLayerTableRecord
  2
LAYER041
 70
               0
 62
               7
  6
CONTINUOUS
  0
LAYER
  5
5F
100
AcDbSymbolTableRecord
100
AcDbLayerTableRecord
  2
LAYER042
 70
               0
 62
               7
  6
CONTINUOUS
  0
LAYER
  5
60
100
AcDbSymbolTableRecord
100
AcDbLayerTableRecord
  2
LAYER043
 70
               0
 62
               7
  6
CONTINUOUS
  0
LAYER
  5
61
100
AcDbSymbolTableRecord
100
AcDbLayerTableRecord
  2
LAYER044
 70
               0
 62
               7
  6
CONTINUOUS
  0
LAYER
  5
62
100
AcDbSymbolTableRecord
100
AcDbLayerTableRecord
  2
LAYER045
 70
               0
 62
               7
  6
CONTINUOUS
  0
LAYER
  5
63
100
AcDbSymbolTableRecord
100
AcDbLayerTableRecord
  2
LAYER046
 70
               0
 62
               7
  6
CONTINUOUS
  0
LAYER
  5
64
100
AcDbSymbolTableRecord
100
AcDbLayerTableRecord
  2
LAYER047
 70
               0
 62
               7
  6
CONTINUOUS
  0
LAYER
  5
65
100
AcDbSymbolTableRecord
100
AcDbLayerTableRecord
  2
LAYER048
 70
               0
 62
               7
  6
CONTINUOUS
  0
LAYER
  5
66
100
AcDbSymbolTableRecord
100
AcDbLayerTableRecord
  2
LAYER049
 70
               0
 62
               7
  6
CONTINUOUS
  0
LAYER
  5
67
100
AcDbSymbolTableRecord
100
AcDbLayerTableRecord
  2
LAYER050
 70
               0
 62
               7
  6
CONTINUOUS
  0
LAYER
  5
68
100
AcDbSymbolTableRecord
100
AcDbLayerTableRecord
  2
LAYER051
 70
               0
 62
               7
  6
CONTINUOUS
  0
LAYER
  5
69
100
AcDbSymbolTableRecord
100
AcDbLayerTableRecord
  2
LAYER052
 70
               0
 62
               7
  6
CONTINUOUS
  0
LAYER
  5
6A
100
AcDbSymbolTableRecord
100
AcDbLayerTableRecord
  2
LAYER053
 70
               0
 62
               7
  6
CONTINUOUS
  0
LAYER
  5
6B
100
AcDbSymbolTableRecord
100
AcDbLayerTableRecord
  2
LAYER054
 70
               0
 62
               7
  6
CONTINUOUS
  0
LAYER
  5
6C
100
AcDbSymbolTableRecord
100
AcDbLayerTableRecord
  2
LAYER055
 70
               0
 62
               7
  6
CONTINUOUS
  0
LAYER
  5
6D
100
AcDbSymbolTableRecord
100
AcDbLayerTableRecord
  2
LAYER056
 70
               0
 62
               7
  6
CONTINUOUS
  0
LAYER
  5
6E
100
AcDbSymbolTableRecord
100
AcDbLayerTableRecord
  2
LAYER057
 70
               0
 62
               7
  6
CONTINUOUS
  0
LAYER
  5
6F
100
AcDbSymbolTableRecord
100
AcDbLayerTableRecord
  2
LAYER058
 70
               0
 62
               7
  6
CONTINUOUS
  0
LAYER
  5
70
100
AcDbSymbolTableRecord
100
AcDbLayerTableRecord
  2
LAYER059
 70
               0
 62
               7
  6
CONTINUOUS
  0
LAYER
  5
71
100
AcDbSymbolTableRecord
100
AcDbLayerTableRecord
  2
LAYER060
 70
               0
 62
               7
  6
CONTINUOUS
  0
LAYER
  5
72
100
AcDbSymbolTableRecord
100
AcDbLayerTableRecord
  2
LAYER061
 70
               0
 62
               7
  6
CONTINUOUS
  0
LAYER
  5
73
100
AcDbSymbolTableRecord
100
AcDbLayerTableRecord
  2
LAYER062
 70
               0
 62
               7
  6
CONTINUOUS
  0
LAYER
  5
74
100
AcDbSymbolTableRecord
100
AcDbLayerTableRecord
  2
LAYER063
 70
               0
 62
               7
  6
CONTINUOUS
  0
LAYER
  5
75
100
AcDbSymbolTableRecord
100
AcDbLayerTableRecord
  2
LAYER064
 70
               0
 62
               7
  6
CONTINUOUS
  0
LAYER
  5
76
100
AcDbSymbolTableRecord
100
AcDbLayerTableRecord
  2
LAYER065
 70
               0
 62
               7
  6
CONTINUOUS
  0
LAYER
  5
77
100
AcDbSymbolTableRecord
100
AcDbLayerTableRecord
  2
LAYER066
 70
               0
 62
               7
  6
CONTINUOUS
  0
LAYER
  5
78
100
AcDbSymbolTableRecord
100
AcDbLayerTableRecord
  2
LAYER067
 70
               0
 62
               7
  6
CONTINUOUS
  0
LAYER
  5
79
100
AcDbSymbolTableRecord
100
AcDbLayerTableRecord
  2
LAYER068
 70
               0
 62
               7
  6
CONTINUOUS
  0
LAYER
  5
7A
100
AcDbSymbolTableRecord
100
AcDbLayerTableRecord
  2
LAYER069
 70
               0
 62
               7
  6
CONTINUOUS
  0
LAYER
  5
7B
100
AcDbSymbolTableRecord
100
AcDbLayerTableRecord
  2
LAYER070
 70
               0
 62
               7
  6
CONTINUOUS
  0
LAYER
  5
7C
100
AcDbSymbolTableRecord
100
AcDbLayerTableRecord
  2
LAYER071
 70
               0
 62
               7
  6
CONTINUOUS
  0
LAYER
  5
7D
100
AcDbSymbolTableRecord
100
AcDbLayerTableRecord
  2
LAYER072
 70
               0
 62
               7
  6
CONTINUOUS
  0
LAYER
  5
7E
100
AcDbSymbolTableRecord
100
AcDbLayerTableRecord
  2
LAYER073
 70
               0
 62
               7
  6
CONTINUOUS
  0
LAYER
  5
7F
100
AcDbSymbolTableRecord
100
AcDbLayerTableRecord
  2
LAYER074
 70
               0
 62
               7
  6
CONTINUOUS
  0
LAYER
  5
80
100
AcDbSymbolTableRecord
100
AcDbLayerTableRecord
  2
LAYER075
 70
               0
 62
               7
  6
CONTINUOUS
  0
LAYER
  5
81
100
AcDbSymbolTableRecord
100
AcDbLayerTableRecord
  2
LAYER076
 70
               0
 62
               7
  6
CONTINUOUS
  0
LAYER
  5
82
100
AcDbSymbolTableRecord
100
AcDbLayerTableRecord
  2
LAYER077
 70
               0
 62
               7
  6
CONTINUOUS
  0
LAYER
  5
83
100
AcDbSymbolTableRecord
100
AcDbLayerTableRecord
  2
LAYER078
 70
               0
 62
               7
  6
CONTINUOUS
  0
LAYER
  5
84
100
AcDbSymbolTableRecord
100
AcDbLayerTableRecord
  2
LAYER079
 70
               0
 62
               7
  6
CONTINUOUS
  0
LAYER
  5
85
100
AcDbSymbolTableRecord
100
AcDbLayerTableRecord
  2
LAYER080
 70
               0
 62
               7
  6
CONTINUOUS
  0
LAYER
  5
86
100
AcDbSymbolTableRecord
100
AcDbLayerTableRecord
  2
LAYER081
 70
               0
 62
               7
  6
CONTINUOUS
  0
LAYER
  5
87
100
AcDbSymbolTableRecord
100
AcDbLayerTableRecord
  2
LAYER082
 70
               0
 62
               7
  6
CONTINUOUS
  0
LAYER
  5
88
100
AcDbSymbolTableRecord
100
AcDbLayerTableRecord
  2
LAYER083
 70
               0
 62
               7
  6
CONTINUOUS
  0
LAYER
  5
89
100
AcDbSymbolTableRecord
100
AcDbLayerTableRecord
  2
LAYER084
 70
               0
 62
               7
  6
CONTINUOUS
  0
LAYER
  5
8A
100
AcDbSymbolTableRecord
100
AcDbLayerTableRecord
  2
LAYER085
 70
               0
 62
               7
  6
CONTINUOUS
  0
LAYER
  5
8B
100
AcDbSymbolTableRecord
100
AcDbLayerTableRecord
  2
LAYER086
 70
               0
 62
               7
  6
CONTINUOUS
  0
LAYER
  5
8C
100
AcDbSymbolTableRecord
100
AcDbLayerTableRecord
  2
LAYER087
 70
               0
 62
               7
  6
CONTINUOUS
  0
LAYER
  5
8D
100
AcDbSymbolTableRecord
100
AcDbLayerTableRecord
  2
LAYER088
 70
               0
 62
               7
  6
CONTINUOUS
  0
LAYER
  5
8E
100
AcDbSymbolTableRecord
100
AcDbLayerTableRecord
  2
LAYER089
 70
               0
 62
               7
  6
CONTINUOUS
  0
LAYER
  5
8F
100
AcDbSymbolTableRecord
100
AcDbLayerTableRecord
  2
LAYER090
 70
               0
 62
               7
  6
CONTINUOUS
  0
LAYER
  5
90
100
AcDbSymbolTableRecord
100
AcDbLayerTableRecord
  2
LAYER091
 70
               0
 62
               7
  6
CONTINUOUS
  0
LAYER
  5
91
100
AcDbSymbolTableRecord
100
AcDbLayerTableRecord
  2
LAYER092
 70
               0
 62
               7
  6
CONTINUOUS
  0
LAYER
  5
92
100
AcDbSymbolTableRecord
100
AcDbLayerTableRecord
  2
LAYER093
 70
               0
 62
               7
  6
CONTINUOUS
  0
LAYER
  5
93
100
AcDbSymbolTableRecord
100
AcDbLayerTableRecord
  2
LAYER094
 70
               0
 62
               7
  6
CONTINUOUS
  0
LAYER
  5
94
100
AcDbSymbolTableRecord
100
AcDbLayerTableRecord
  2
LAYER095
 70
               0
 62
               7
  6
CONTINUOUS
  0
LAYER
  5
95
100
AcDbSymbolTableRecord
100
AcDbLayerTableRecord
  2
LAYER096
 70
               0
 62
               7
  6
CONTINUOUS
  0
LAYER
  5
96
100
AcDbSymbolTableRecord
100
AcDbLayerTableRecord
  2
LAYER097
 70
               0
 62
               7
  6
CONTINUOUS
  0
LAYER
  5
97
100
AcDbSymbolTableRecord
100
AcDbLayerTableRecord
  2
LAYER098
 70
               0
 62
               7
  6
CONTINUOUS
  0
LAYER
  5
98
100
AcDbSymbolTableRecord
100
AcDbLayerTableRecord
  2
LAYER099
 70
               0
 62
               7
  6
CONTINUOUS
  0
LAYER
  5
99
100
AcDbSymbolTableRecord
100
AcDbLayerTableRecord
  2
LAYER100
 70
               0
 62
               7
  6
CONTINUOUS
  0
LAYER
  5
9A
100
AcDbSymbolTableRecord
100
AcDbLayerTableRecord
  2
LAYER101
 70
               0
 62
               7
  6
CONTINUOUS
  0
LAYER
  5
9B
100
AcDbSymbolTableRecord
100
AcDbLayerTableRecord
  2
LAYER102
 70
               0
 62
               7
  6
CONTINUOUS
  0
LAYER
  5
9C
100
AcDbSymbolTableRecord
100
AcDbLayerTableRecord
  2
LAYER103
 70
               0
 62
               7
  6
CONTINUOUS
  0
LAYER
  5
9D
100
AcDbSymbolTableRecord
100
AcDbLayerTableRecord
  2
LAYER104
 70
               0
 62
               7
  6
CONTINUOUS
  0
LAYER
  5
9E
100
AcDbSymbolTableRecord
100
AcDbLayerTableRecord
  2
LAYER105
 70
               0
 62
               7
  6
CONTINUOUS
  0
LAYER
  5
9F
100
AcDbSymbolTableRecord
100
AcDbLayerTableRecord
  2
LAYER106
 70
               0
 62
               7
  6
CONTINUOUS
  0
LAYER
  5
A0
100
AcDbSymbolTableRecord
100
AcDbLayerTableRecord
  2
LAYER107
 70
               0
 62
               7
  6
CONTINUOUS
  0
LAYER
  5
A1
100
AcDbSymbolTableRecord
100
AcDbLayerTableRecord
  2
LAYER108
 70
               0
 62
               7
  6
CONTINUOUS
  0
LAYER
  5
A2
100
AcDbSymbolTableRecord
100
AcDbLayerTableRecord
  2
LAYER109
 70
               0
 62
               7
  6
CONTINUOUS
  0
LAYER
  5
A3
100
AcDbSymbolTableRecord
100
AcDbLayerTableRecord
  2
LAYER110
 70
               0
 62
               7
  6
CONTINUOUS
  0
LAYER
  5
A4
100
AcDbSymbolTableRecord
100
AcDbLayerTableRecord
  2
LAYER111
 70
               0
 62
               7
  6
CONTINUOUS
  0
LAYER
  5
A5
100
AcDbSymbolTableRecord
100
AcDbLayerTableRecord
  2
LAYER112
 70
               0
 62
               7
  6
CONTINUOUS
  0
LAYER
  5
A6
100
AcDbSymbolTableRecord
100
AcDbLayerTableRecord
  2
LAYER113
 70
               0
 62
               7
  6
CONTINUOUS
  0
LAYER
  5
A7
100
AcDbSymbolTableRecord
100
AcDbLayerTableRecord
  2
LAYER114
 70
               0
 62
               7
  6
CONTINUOUS
  0
LAYER
  5
A8
100
AcDbSymbolTableRecord
100
AcDbLayerTableRecord
  2
LAYER115
 70
               0
 62
               7
  6
CONTINUOUS
  0
LAYER
  5
A9
100
AcDbSymbolTableRecord
100
AcDbLayerTableRecord
  2
LAYER116
 70
               0
 62
               7
  6
CONTINUOUS
  0
LAYER
  5
AA
100
AcDbSymbolTableRecord
100
AcDbLayerTableRecord
  2
LAYER117
 70
               0
 62
               7
  6
CONTINUOUS
  0
LAYER
  5
AB
100
AcDbSymbolTableRecord
100
AcDbLayerTableRecord
  2
LAYER118
 70
               0
 62
               7
  6
CONTINUOUS
  0
LAYER
  5
AC
100
AcDbSymbolTableRecord
100
AcDbLayerTableRecord
  2
LAYER119
 70
               0
 62
               7
  6
CONTINUOUS
  0
LAYER
  5
AD
100
AcDbSymbolTableRecord
100
AcDbLayerTableRecord
  2
LAYER120
 70
               0
 62
               7
  6
CONTINUOUS
  0
LAYER
  5
AE
100
AcDbSymbolTableRecord
100
AcDbLayerTableRecord
  2
LAYER121
 70
               0
 62
               7
  6
CONTINUOUS
  0
LAYER
  5
AF
100
AcDbSymbolTableRecord
100
AcDbLayerTableRecord
  2
LAYER122
 70
               0
 62
               7
  6
CONTINUOUS
  0
LAYER
  5
B0
100
AcDbSymbolTableRecord
100
AcDbLayerTableRecord
  2
LAYER123
 70
               0
 62
               7
  6
CONTINUOUS
  0
LAYER
  5
B1
100
AcDbSymbolTableRecord
100
AcDbLayerTableRecord
  2
LAYER124
 70
               0
 62
               7
  6
CONTINUOUS
  0
LAYER
  5
B2
100
AcDbSymbolTableRecord
100
AcDbLayerTableRecord
  2
LAYER125
 70
               0
 62
               7
  6
CONTINUOUS
  0
LAYER
  5
B3
100
AcDbSymbolTableRecord
100
AcDbLayerTableRecord
  2
LAYER126
 70
               0
 62
               7
  6
CONTINUOUS
  0
LAYER
  5
B4
100
AcDbSymbolTableRecord
100
AcDbLayerTableRecord
  2
LAYER127
 70
               0
 62
               7
  6
CONTINUOUS
  0
LAYER
  5
B5
100
AcDbSymbolTableRecord
100
AcDbLayerTableRecord
  2
LAYER128
 70
               0
 62
               7
  6
CONTINUOUS
  0
LAYER
  5
B6
100
AcDbSymbolTableRecord
100
AcDbLayerTableRecord
  2
LAYER129
 70
               0
 62
               7
  6
CONTINUOUS
  0
LAYER
  5
B7
100
AcDbSymbolTableRecord
100
AcDbLayerTableRecord
  2
LAYER130
 70
               0
 62
               7
  6
CONTINUOUS
  0
LAYER
  5
B8
100
AcDbSymbolTableRecord
100
AcDbLayerTableRecord
  2
LAYER131
 70
               0
 62
               7
  6
CONTINUOUS
  0
LAYER
  5
B9
100
AcDbSymbolTableRecord
100
AcDbLayerTableRecord
  2
LAYER132
 70
               0
 62
               7
  6
CONTINUOUS
  0
LAYER
  5
BA
100
AcDbSymbolTableRecord
100
AcDbLayerTableRecord
  2
LAYER133
 70
               0
 62
               7
  6
CONTINUOUS
  0
LAYER
  5
BB
100
AcDbSymbolTableRecord
100
AcDbLayerTableRecord
  2
LAYER134
 70
               0
 62
               7
  6
CONTINUOUS
  0
LAYER
  5
BC
100
AcDbSymbolTableRecord
100
AcDbLayerTableRecord
  2
LAYER135
 70
               0
 62
               7
  6
CONTINUOUS
  0
LAYER
  5
BD
100
AcDbSymbolTableRecord
100
AcDbLayerTableRecord
  2
LAYER136
 70
               0
 62
               7
  6
CONTINUOUS
  0
LAYER
  5
BE
100
AcDbSymbolTableRecord
100
AcDbLayerTableRecord
  2
LAYER137
 70
               0
 62
               7
  6
CONTINUOUS
  0
LAYER
  5
BF
100
AcDbSymbolTableRecord
100
AcDbLayerTableRecord
  2
LAYER138
 70
               0
 62
               7
  6
CONTINUOUS
  0
LAYER
  5
C0
100
AcDbSymbolTableRecord
100
AcDbLayerTableRecord
  2
LAYER139
 70
               0
 62
               7
  6
CONTINUOUS
  0
LAYER
  5
C1
100
AcDbSymbolTableRecord
100
AcDbLayerTableRecord
  2
LAYER140
 70
               0
 62
               7
  6
CONTINUOUS
  0
LAYER
  5
C2
100
AcDbSymbolTableRecord
100
AcDbLayerTableRecord
  2
LAYER141
 70
               0
 62
               7
  6
CONTINUOUS
  0
LAYER
  5
C3
100
AcDbSymbolTableRecord
100
AcDbLayerTableRecord
  2
LAYER142
 70
               0
 62
               7
  6
CONTINUOUS
  0
LAYER
  5
C4
100
AcDbSymbolTableRecord
100
AcDbLayerTableRecord
  2
LAYER143
 70
               0
 62
               7
  6
CONTINUOUS
  0
LAYER
  5
C5
100
AcDbSymbolTableRecord
100
AcDbLayerTableRecord
  2
LAYER144
 70
               0
 62
               7
  6
CONTINUOUS
  0
LAYER
  5
C6
100
AcDbSymbolTableRecord
100
AcDbLayerTableRecord
  2
LAYER145
 70
               0
 62
               7
  6
CONTINUOUS
  0
LAYER
  5
C7
100
AcDbSymbolTableRecord
100
AcDbLayerTableRecord
  2
LAYER146
 70
               0
 62
               7
  6
CONTINUOUS
  0
LAYER
  5
C8
100
AcDbSymbolTableRecord
100
AcDbLayerTableRecord
  2
LAYER147
 70
               0
 62
               7
  6
CONTINUOUS
  0
LAYER
  5
C9
100
AcDbSymbolTableRecord
100
AcDbLayerTableRecord
  2
LAYER148
 70
               0
 62
               7
  6
CONTINUOUS
  0
LAYER
  5
CA
100
AcDbSymbolTableRecord
100
AcDbLayerTableRecord
  2
LAYER149
 70
               0
 62
               7
  6
CONTINUOUS
  0
LAYER
  5
CB
100
AcDbSymbolTableRecord
100
AcDbLayerTableRecord
  2
LAYER150
 70
               0
 62
               7
  6
CONTINUOUS
  0
LAYER
  5
CC
100
AcDbSymbolTableRecord
100
AcDbLayerTableRecord
  2
LAYER151
 70
               0
 62
               7
  6
CONTINUOUS
  0
LAYER
  5
CD
100
AcDbSymbolTableRecord
100
AcDbLayerTableRecord
  2
LAYER152
 70
               0
 62
               7
  6
CONTINUOUS
  0
LAYER
  5
CE
100
AcDbSymbolTableRecord
100
AcDbLayerTableRecord
  2
LAYER153
 70
               0
 62
               7
  6
CONTINUOUS
  0
LAYER
  5
CF
100
AcDbSymbolTableRecord
100
AcDbLayerTableRecord
  2
LAYER154
 70
               0
 62
               7
  6
CONTINUOUS
  0
LAYER
  5
D0
100
AcDbSymbolTableRecord
100
AcDbLayerTableRecord
  2
LAYER155
 70
               0
 62
               7
  6
CONTINUOUS
  0
LAYER
  5
D1
100
AcDbSymbolTableRecord
100
AcDbLayerTableRecord
  2
LAYER156
 70
               0
 62
               7
  6
CONTINUOUS
  0
LAYER
  5
D2
100
AcDbSymbolTableRecord
100
AcDbLayerTableRecord
  2
LAYER157
 70
               0
 62
               7
  6
CONTINUOUS
  0
LAYER
  5
D3
100
AcDbSymbolTableRecord
100
AcDbLayerTableRecord
  2
LAYER158
 70
               0
 62
               7
  6
CONTINUOUS
  0
LAYER
  5
D4
100
AcDbSymbolTableRecord
100
AcDbLayerTableRecord
  2
LAYER159
 70
               0
 62
               7
  6
CONTINUOUS
  0
LAYER
  5
D5
100
AcDbSymbolTableRecord
100
AcDbLayerTableRecord
  2
LAYER160
 70
               0
 62
               7
  6
CONTINUOUS
  0
LAYER
  5
D6
100
AcDbSymbolTableRecord
100
AcDbLayerTableRecord
  2
LAYER161
 70
               0
 62
               7
  6
CONTINUOUS
  0
LAYER
  5
D7
100
AcDbSymbolTableRecord
100
AcDbLayerTableRecord
  2
LAYER162
 70
               0
 62
               7
  6
CONTINUOUS
  0
LAYER
  5
D8
100
AcDbSymbolTableRecord
100
AcDbLayerTableRecord
  2
LAYER163
 70
               0
 62
               7
  6
CONTINUOUS
  0
LAYER
  5
D9
100
AcDbSymbolTableRecord
100
AcDbLayerTableRecord
  2
LAYER164
 70
               0
 62
               7
  6
CONTINUOUS
  0
LAYER
  5
DA
100
AcDbSymbolTableRecord
100
AcDbLayerTableRecord
  2
LAYER165
 70
               0
 62
               7
  6
CONTINUOUS
  0
LAYER
  5
DB
100
AcDbSymbolTableRecord
100
AcDbLayerTableRecord
  2
LAYER166
 70
               0
 62
               7
  6
CONTINUOUS
  0
LAYER
  5
DC
100
AcDbSymbolTableRecord
100
AcDbLayerTableRecord
  2
LAYER167
 70
               0
 62
               7
  6
CONTINUOUS
  0
LAYER
  5
DD
100
AcDbSymbolTableRecord
100
AcDbLayerTableRecord
  2
LAYER168
 70
               0
 62
               7
  6
CONTINUOUS
  0
LAYER
  5
DE
100
AcDbSymbolTableRecord
100
AcDbLayerTableRecord
  2
LAYER169
 70
               0
 62
               7
  6
CONTINUOUS
  0
LAYER
  5
DF
100
AcDbSymbolTableRecord
100
AcDbLayerTableRecord
  2
LAYER170
 70
               0
 62
               7
  6
CONTINUOUS
  0
LAYER
  5
E0
100
AcDbSymbolTableRecord
100
AcDbLayerTableRecord
  2
LAYER171
 70
               0
 62
               7
  6
CONTINUOUS
  0
LAYER
  5
E1
100
AcDbSymbolTableRecord
100
AcDbLayerTableRecord
  2
LAYER172
 70
               0
 62
               7
  6
CONTINUOUS
  0
LAYER
  5
E2
100
AcDbSymbolTableRecord
100
AcDbLayerTableRecord
  2
LAYER173
 70
               0
 62
               7
  6
CONTINUOUS
  0
LAYER
  5
E3
100
AcDbSymbolTableRecord
100
AcDbLayerTableRecord
  2
LAYER174
 70
               0
 62
               7
  6
CONTINUOUS
  0
LAYER
  5
E4
100
AcDbSymbolTableRecord
100
AcDbLayerTableRecord
  2
LAYER175
 70
               0
 62
               7
  6
CONTINUOUS
  0
LAYER
  5
E5
100
AcDbSymbolTableRecord
100
AcDbLayerTableRecord
  2
LAYER176
 70
               0
 62
               7
  6
CONTINUOUS
  0
LAYER
  5
E6
100
AcDbSymbolTableRecord
100
AcDbLayerTableRecord
  2
LAYER177
 70
               0
 62
               7
  6
CONTINUOUS
  0
LAYER
  5
E7
100
AcDbSymbolTableRecord
100
AcDbLayerTableRecord
  2
LAYER178
 70
               0
 62
               7
  6
CONTINUOUS
  0
LAYER
  5
E8
100
AcDbSymbolTableRecord
100
AcDbLayerTableRecord
  2
LAYER179
 70
               0
 62
               7
  6
CONTINUOUS
  0
LAYER
  5
E9
100
AcDbSymbolTableRecord
100
AcDbLayerTableRecord
  2
LAYER180
 70
               0
 62
               7
  6
CONTINUOUS
  0
LAYER
  5
EA
100
AcDbSymbolTableRecord
100
AcDbLayerTableRecord
  2
LAYER181
 70
               0
 62
               7
  6
CONTINUOUS
  0
LAYER
  5
EB
100
AcDbSymbolTableRecord
100
AcDbLayerTableRecord
  2
LAYER182
 70
               0
 62
               7
  6
CONTINUOUS
  0
LAYER
  5
EC
100
AcDbSymbolTableRecord
100
AcDbLayerTableRecord
  2
LAYER183
 70
               0
 62
               7
  6
CONTINUOUS
  0
LAYER
  5
ED
100
AcDbSymbolTableRecord
100
AcDbLayerTableRecord
  2
LAYER184
 70
               0
 62
               7
  6
CONTINUOUS
  0
LAYER
  5
EE
100
AcDbSymbolTableRecord
100
AcDbLayerTableRecord
  2
LAYER185
 70
               0
 62
               7
  6
CONTINUOUS
  0
LAYER
  5
EF
100
AcDbSymbolTableRecord
100
AcDbLayerTableRecord
  2
LAYER186
 70
               0
 62
               7
  6
CONTINUOUS
  0
LAYER
  5
F0
100
AcDbSymbolTableRecord
100
AcDbLayerTableRecord
  2
LAYER187
 70
               0
 62
               7
  6
CONTINUOUS
  0
LAYER
  5
F1
100
AcDbSymbolTableRecord
100
AcDbLayerTableRecord
  2
LAYER188
 70
               0
 62
               7
  6
CONTINUOUS
  0
LAYER
  5
F2
100
AcDbSymbolTableRecord
100
AcDbLayerTableRecord
  2
LAYER189
 70
               0
 62
               7
  6
CONTINUOUS
  0
LAYER
  5
F3
100
AcDbSymbolTableRecord
100
AcDbLayerTableRecord
  2
LAYER190
 70
               0
 62
               7
  6
CONTINUOUS
  0
LAYER
  5
F4
100
AcDbSymbolTableRecord
100
AcDbLayerTableRecord
  2
LAYER191
 70
               0
 62
               7
  6
CONTINUOUS
  0
LAYER
  5
F5
100
AcDbSymbolTableRecord
100
AcDbLayerTableRecord
  2
LAYER192
 70
               0
 62
               7
  6
CONTINUOUS
  0
LAYER
  5
F6
100
AcDbSymbolTableRecord
100
AcDbLayerTableRecord
  2
LAYER193
 70
               0
 62
               7
  6
CONTINUOUS
  0
LAYER
  5
F7
100
AcDbSymbolTableRecord
100
AcDbLayerTableRecord
  2
LAYER194
 70
               0
 62
               7
  6
CONTINUOUS
  0
LAYER
  5
F8
100
AcDbSymbolTableRecord
100
AcDbLayerTableRecord
  2
LAYER195
 70
               0
 62
               7
  6
CONTINUOUS
  0
LAYER
  5
F9
100
AcDbSymbolTableRecord
100
AcDbLayerTableRecord
  2
LAYER196
 70
               0
 62
               7
  6
CONTINUOUS
  0
LAYER
  5
FA
100
AcDbSymbolTableRecord
100
AcDbLayerTableRecord
  2
LAYER197
 70
               0
 62
               7
  6
CONTINUOUS
  0
LAYER
  5
FB
100
AcDbSymbolTableRecord
100
AcDbLayerTableRecord
  2
LAYER198
 70
               0
 62
               7
  6
CONTINUOUS
  0
LAYER
  5
FC
100
AcDbSymbolTableRecord
100
AcDbLayerTableRecord
  2
LAYER199
 70
               0
 62
               7
  6
CONTINUOUS
  0
LAYER
  5
FD
100
AcDbSymbolTableRecord
100
AcDbLayerTableRecord
  2
LAYER200
 70
               0
 62
               7
  6
CONTINUOUS
  0
LAYER
  5
FE
100
AcDbSymbolTableRecord
100
AcDbLayerTableRecord
  2
LAYER201
 70
               0
 62
               7
  6
CONTINUOUS
  0
LAYER
  5
FF
100
AcDbSymbolTableRecord
100
AcDbLayerTableRecord
  2
LAYER202
 70
               0
 62
               7
  6
CONTINUOUS
  0
LAYER
  5
100
100
AcDbSymbolTableRecord
100
AcDbLayerTableRecord
  2
LAYER203
 70
               0
 62
               7
  6
CONTINUOUS
  0
LAYER
  5
101
100
AcDbSymbolTableRecord
100
AcDbLayerTableRecord
  2
LAYER204
 70
               0
 62
               7
  6
CONTINUOUS
  0
LAYER
  5
102
100
AcDbSymbolTableRecord
100
AcDbLayerTableRecord
  2
LAYER205
 70
               0
 62
               7
  6
CONTINUOUS
  0
LAYER
  5
103
100
AcDbSymbolTableRecord
100
AcDbLayerTableRecord
  2
LAYER206
 70
               0
 62
               7
  6
CONTINUOUS
  0
LAYER
  5
104
100
AcDbSymbolTableRecord
100
AcDbLayerTableRecord
  2
LAYER207
 70
               0
 62
               7
  6
CONTINUOUS
  0
LAYER
  5
105
100
AcDbSymbolTableRecord
100
AcDbLayerTableRecord
  2
LAYER208
 70
               0
 62
               7
  6
CONTINUOUS
  0
LAYER
  5
106
100
AcDbSymbolTableRecord
100
AcDbLayerTableRecord
  2
LAYER209
 70
               0
 62
               7
  6
CONTINUOUS
  0
LAYER
  5
107
100
AcDbSymbolTableRecord
100
AcDbLayerTableRecord
  2
LAYER210
 70
               0
 62
               7
  6
CONTINUOUS
  0
LAYER
  5
108
100
AcDbSymbolTableRecord
100
AcDbLayerTableRecord
  2
LAYER211
 70
               0
 62
               7
  6
CONTINUOUS
  0
LAYER
  5
109
100
AcDbSymbolTableRecord
100
AcDbLayerTableRecord
  2
LAYER212
 70
               0
 62
               7
  6
CONTINUOUS
  0
LAYER
  5
10A
100
AcDbSymbolTableRecord
100
AcDbLayerTableRecord
  2
LAYER213
 70
               0
 62
               7
  6
CONTINUOUS
  0
LAYER
  5
10B
100
AcDbSymbolTableRecord
100
AcDbLayerTableRecord
  2
LAYER214
 70
               0
 62
               7
  6
CONTINUOUS
  0
LAYER
  5
10C
100
AcDbSymbolTableRecord
100
AcDbLayerTableRecord
  2
LAYER215
 70
               0
 62
               7
  6
CONTINUOUS
  0
LAYER
  5
10D
100
AcDbSymbolTableRecord
100
AcDbLayerTableRecord
  2
LAYER216
 70
               0
 62
               7
  6
CONTINUOUS
  0
LAYER
  5
10E
100
AcDbSymbolTableRecord
100
AcDbLayerTableRecord
  2
LAYER217
 70
               0
 62
               7
  6
CONTINUOUS
  0
LAYER
  5
10F
100
AcDbSymbolTableRecord
100
AcDbLayerTableRecord
  2
LAYER218
 70
               0
 62
               7
  6
CONTINUOUS
  0
LAYER
  5
110
100
AcDbSymbolTableRecord
100
AcDbLayerTableRecord
  2
LAYER219
 70
               0
 62
               7
  6
CONTINUOUS
  0
LAYER
  5
111
100
AcDbSymbolTableRecord
100
AcDbLayerTableRecord
  2
LAYER220
 70
               0
 62
               7
  6
CONTINUOUS
  0
LAYER
  5
112
100
AcDbSymbolTableRecord
100
AcDbLayerTableRecord
  2
LAYER221
 70
               0
 62
               7
  6
CONTINUOUS
  0
LAYER
  5
113
100
AcDbSymbolTableRecord
100
AcDbLayerTableRecord
  2
LAYER222
 70
               0
 62
               7
  6
CONTINUOUS
  0
LAYER
  5
114
100
AcDbSymbolTableRecord
100
AcDbLayerTableRecord
  2
LAYER223
 70
               0
 62
               7
  6
CONTINUOUS
  0
LAYER
  5
115
100
AcDbSymbolTableRecord
100
AcDbLayerTableRecord
  2
LAYER224
 70
               0
 62
               7
  6
CONTINUOUS
  0
LAYER
  5
116
100
AcDbSymbolTableRecord
100
AcDbLayerTableRecord
  2
LAYER225
 70
               0
 62
               7
  6
CONTINUOUS
  0
LAYER
  5
117
100
AcDbSymbolTableRecord
100
AcDbLayerTableRecord
  2
LAYER226
 70
               0
 62
               7
  6
CONTINUOUS
  0
LAYER
  5
118
100
AcDbSymbolTableRecord
100
AcDbLayerTableRecord
  2
LAYER227
 70
               0
 62
               7
  6
CONTINUOUS
  0
LAYER
  5
119
100
AcDbSymbolTableRecord
100
AcDbLayerTableRecord
  2
LAYER228
 70
               0
 62
               7
  6
CONTINUOUS
  0
LAYER
  5
11A
100
AcDbSymbolTableRecord
100
AcDbLayerTableRecord
  2
LAYER229
 70
               0
 62
               7
  6
CONTINUOUS
  0
LAYER
  5
11B
100
AcDbSymbolTableRecord
100
AcDbLayerTableRecord
  2
LAYER230
 70
               0
 62
               7
  6
CONTINUOUS
  0
LAYER
  5
11C
100
AcDbSymbolTableRecord
100
AcDbLayerTableRecord
  2
LAYER231
 70
               0
 62
               7
  6
CONTINUOUS
  0
LAYER
  5
11D
100
AcDbSymbolTableRecord
100
AcDbLayerTableRecord
  2
LAYER232
 70
               0
 62
               7
  6
CONTINUOUS
  0
LAYER
  5
11E
100
AcDbSymbolTableRecord
100
AcDbLayerTableRecord
  2
LAYER233
 70
               0
 62
               7
  6
CONTINUOUS
  0
LAYER
  5
11F
100
AcDbSymbolTableRecord
100
AcDbLayerTableRecord
  2
LAYER234
 70
               0
 62
               7
  6
CONTINUOUS
  0
LAYER
  5
120
100
AcDbSymbolTableRecord
100
AcDbLayerTableRecord
  2
LAYER235
 70
               0
 62
               7
  6
CONTINUOUS
  0
LAYER
  5
121
100
AcDbSymbolTableRecord
100
AcDbLayerTableRecord
  2
LAYER236
 70
               0
 62
               7
  6
CONTINUOUS
  0
LAYER
  5
122
100
AcDbSymbolTableRecord
100
AcDbLayerTableRecord
  2
LAYER237
 70
               0
 62
               7
  6
CONTINUOUS
  0
LAYER
  5
123
100
AcDbSymbolTableRecord
100
AcDbLayerTableRecord
  2
LAYER238
 70
               0
 62
               7
  6
CONTINUOUS
  0
LAYER
  5
124
100
AcDbSymbolTableRecord
100
AcDbLayerTableRecord
  2
LAYER239
 70
               0
 62
               7
  6
CONTINUOUS
  0
LAYER
  5
125
100
AcDbSymbolTableRecord
100
AcDbLayerTableRecord
  2
LAYER240
 70
               0
 62
               7
  6
CONTINUOUS
  0
LAYER
  5
126
100
AcDbSymbolTableRecord
100
AcDbLayerTableRecord
  2
LAYER241
 70
               0
 62
               7
  6
CONTINUOUS
  0
LAYER
  5
127
100
AcDbSymbolTableRecord
100
AcDbLayerTableRecord
  2
LAYER242
 70
               0
 62
               7
  6
CONTINUOUS
  0
LAYER
  5
128
100
AcDbSymbolTableRecord
100
AcDbLayerTableRecord
  2
LAYER243
 70
               0
 62
               7
  6
CONTINUOUS
  0
LAYER
  5
129
100
AcDbSymbolTableRecord
100
AcDbLayerTableRecord
  2
LAYER244
 70
               0
 62
               7
  6
CONTINUOUS
  0
LAYER
  5
12A
100
AcDbSymbolTableRecord
100
AcDbLayerTableRecord
  2
LAYER245
 70
               0
 62
               7
  6
CONTINUOUS
  0
LAYER
  5
12B
100
AcDbSymbolTableRecord
100
AcDbLayerTableRecord
  2
LAYER246
 70
               0
 62
               7
  6
CONTINUOUS
  0
LAYER
  5
12C
100
AcDbSymbolTableRecord
100
AcDbLayerTableRecord
  2
LAYER247
 70
               0
 62
               7
  6
CONTINUOUS
  0
LAYER
  5
12D
100
AcDbSymbolTableRecord
100
AcDbLayerTableRecord
  2
LAYER248
 70
               0
 62
               7
  6
CONTINUOUS
  0
LAYER
  5
12E
100
AcDbSymbolTableRecord
100
AcDbLayerTableRecord
  2
LAYER249
 70
               0
 62
               7
  6
CONTINUOUS
  0
LAYER
  5
12F
100
AcDbSymbolTableRecord
100
AcDbLayerTableRecord
  2
LAYER250
 70
               0
 62
               7
  6
CONTINUOUS
  0
LAYER
  5
130
100
AcDbSymbolTableRecord
100
AcDbLayerTableRecord
  2
LAYER251
 70
               0
 62
               7
  6
CONTINUOUS
  0
LAYER
  5
131
100
AcDbSymbolTableRecord
100
AcDbLayerTableRecord
  2
LAYER252
 70
               0
 62
               7
  6
CONTINUOUS
  0
LAYER
  5
132
100
AcDbSymbolTableRecord
100
AcDbLayerTableRecord
  2
LAYER253
 70
               0
 62
               7
  6
CONTINUOUS
  0
LAYER
  5
133
100
AcDbSymbolTableRecord
100
AcDbLayerTableRecord
  2
LAYER254
 70
               0
 62
               7
  6
CONTINUOUS
  0
LAYER
  5
134
100
AcDbSymbolTableRecord
100
AcDbLayerTableRecord
  2
LAYER255
 70
               0
 62
               7
  6
CONTINUOUS
  0
ENDTAB
  0
TABLE
  2
STYLE
  5
3
100
AcDbSymbolTable
 70
               1
  0
STYLE
  5
17
100
AcDbSymbolTableRecord
100
AcDbTextStyleTableRecord
  2
STANDARD
 70
               0
 40
0.0
 41
1.0
 50
0.0
 71
               0
 42
0.0
  3
txt
  4

  0
ENDTAB
  0
TABLE
  2
VIEW
  5
5
100
AcDbSymbolTable
 70
               1
  0
VIEW
  5
135
100
AcDbSymbolTableRecord
100
AcDbViewTableRecord
  2
QQQQ
 70
               0
 40
742.56004309500008
 10
26.999991999999551
 20
10.199990000000497
 41
314.92499999999995
 11
0.0
 21
0.0
 31
1.0
 12
100.0
 22
100.0
 32
0.0
 42
50.0
 43
0.0
 44
0.0
 50
0.0
 71
               0
  0
ENDTAB
  0
TABLE
  2
UCS
  5
6
100
AcDbSymbolTable
 70
               0
  0
ENDTAB
  0
TABLE
  2
APPID
  5
8
100
AcDbSymbolTable
 70
               1
  0
APPID
  5
16
100
AcDbSymbolTableRecord
100
AcDbRegAppTableRecord
  2
ACAD
 70
               0
  0
ENDTAB
  0
TABLE
  2
DIMSTYLE
  5
9
100
AcDbSymbolTable
 70
               1
  0
DIMSTYLE
105
18
100
AcDbSymbolTableRecord
100
AcDbDimStyleTableRecord
  2
STANDARD
 70
               0
  3

  4

  5

  6

  7

 40
1.0
 41
0.18
 42
0.0625
 43
0.38
 44
0.18
 45
0.0
 46
0.0
 47
0.0
 48
0.0
140
0.18
141
0.09
142
0.0
143
25.399999999999999
144
1.0
145
0.0
146
1.0
147
0.09
 71
               0
 72
               0
 73
               1
 74
               1
 75
               0
 76
               0
 77
               0
 78
               0
170
               0
171
               2
172
               0
173
               0
174
               0
175
               0
176
               0
177
               0
178
               0
270
               2
271
               4
272
               4
273
               2
274
               2
340
17
275
               0
280
               0
281
               0
282
               0
283
               1
284
               0
285
               0
286
               0
287
               0
288
               0
  0
ENDTAB
  0
TABLE
  2
BLOCK_RECORD
  5
1
100
AcDbSymbolTable
 70
               0
  0
BLOCK_RECORD
  5
A
100
AcDbSymbolTableRecord
100
AcDbBlockTableRecord
  2
*MODEL_SPACE
  0
BLOCK_RECORD
  5
B
100
AcDbSymbolTableRecord
100
AcDbBlockTableRecord
  2
*PAPER_SPACE
  0
ENDTAB
  0
ENDSEC
  0
SECTION
  2
BLOCKS
  0
BLOCK
  5
D
100
AcDbEntity
  8
0
100
AcDbBlockBegin
  2
*MODEL_SPACE
 70
               0
 10
0.0
 20
0.0
 30
0.0
  3
*MODEL_SPACE
  1

  0
ENDBLK
  5
E
100
AcDbEntity
  8
0
100
AcDbBlockEnd
  0
BLOCK
  5
F
100
AcDbEntity
 67
               1
  8
0
100
AcDbBlockBegin
  2
*PAPER_SPACE
 70
               0
 10
0.0
 20
0.0
 30
0.0
  3
*PAPER_SPACE
  1

  0
ENDBLK
  5
10
100
AcDbEntity
 67
               1
  8
0
100
AcDbBlockEnd
  0
ENDSEC
  0
SECTION
  2
ENTITIES
  0
LINE
  5
136
100
AcDbEntity
  8
0
  6
CONTINUOUS
 62
               7
100
AcDbLine
 10
57.50000399999999
 20
-311.8000294999996
 30
0.0
 11
18.50000399999999
 21
-311.8000294999996
 31
0.0
  0
ARC
  5
137
100
AcDbEntity
  8
0
  6
CONTINUOUS
 62
               7
100
AcDbCircle
 10
57.50000399999999
 20
-310.8000294999996
 30
0.0
 40
1.0
100
AcDbArc
 50
269.99999969147945
 51
359.99999958863924
  0
ARC
  5
138
100
AcDbEntity
  8
0
  6
CONTINUOUS
 62
               7
100
AcDbCircle
 10
18.50000399999999
 20
-309.8000294999996
 30
0.0
 40
2.0
100
AcDbArc
 50
179.99999979431962
 51
269.99999969147945
  0
ARC
  5
139
100
AcDbEntity
  8
0
  6
CONTINUOUS
 62
               7
100
AcDbCircle
 10
11.62500399999999
 20
-308.60002949999955
 30
0.0
 40
5.0
100
AcDbArc
 50
350.09999959995167
 51
358.56666625694373
  0
LINE
  5
13A
100
AcDbEntity
  8
0
  6
CONTINUOUS
 62
               7
100
AcDbLine
 10
-31.49999600000001
 20
-209.02502949999956
 30
0.0
 11
-31.49999600000001
 21
-239.30002949999954
 31
0.0
  0
ARC
  5
13B
100
AcDbEntity
  8
0
  6
CONTINUOUS
 62
               7
100
AcDbCircle
 10
-36.49999600000001
 20
-209.02502949999956
 30
0.0
 40
5.0
100
AcDbArc
 50
0.0
 51
47.188888834967621
  0
ARC
  5
13C
100
AcDbEntity
  8
0
  6
CONTINUOUS
 62
               7
100
AcDbCircle
 10
-27.99999600000001
 20
-199.85002949999955
 30
0.0
 40
7.5
100
AcDbArc
 50
179.99999979431962
 51
227.18888862928722
  0
LINE
  5
13D
100
AcDbEntity
  8
0
  6
CONTINUOUS
 62
               7
100
AcDbLine
 10
31.50000399999999
 20
-210.02502949999956
 30
0.0
 11
31.50000399999999
 21
-239.30002949999954
 31
0.0
  0
ARC
  5
13E
100
AcDbEntity
  8
0
  6
CONTINUOUS
 62
               7
100
AcDbCircle
 10
36.50000399999999
 20
-210.02502949999956
 30
0.0
 40
5.0
100
AcDbArc
 50
132.81111095935202
 51
179.99999979431962
  0
LINE
  5
13F
100
AcDbEntity
  8
0
  6
CONTINUOUS
 62
               7
100
AcDbLine
 10
106.50000399999999
 20
-211.30002949999954
 30
0.0
 11
106.50000399999999
 21
-239.30002949999954
 31
0.0
  0
ARC
  5
140
100
AcDbEntity
  8
0
  6
CONTINUOUS
 62
               7
100
AcDbCircle
 10
112.50000399999999
 20
-211.30002949999954
 30
0.0
 40
6.0
100
AcDbArc
 50
88.822222120727844
 51
179.99999979431962
  0
ARC
  5
141
100
AcDbEntity
  8
0
  6
CONTINUOUS
 62
               7
100
AcDbCircle
 10
37.50000399999999
 20
-239.30002949999954
 30
0.0
 40
69.0
100
AcDbArc
 50
179.99999979431962
 51
249.42771502733603
  0
ARC
  5
142
100
AcDbEntity
  8
0
  6
CONTINUOUS
 62
               7
100
AcDbCircle
 10
37.50000399999999
 20
-239.30002949999954
 30
0.0
 40
69.0
100
AcDbArc
 50
290.56666633464522
 51
359.99999958863924
  0
ARC
  5
143
100
AcDbEntity
  8
0
  6
CONTINUOUS
 62
               7
100
AcDbCircle
 10
63.50000399999999
 20
-308.57502949999957
 30
0.0
 40
5.0
100
AcDbArc
 50
110.56666654032558
 51
179.99999979431962
  0
ARC
  5
144
100
AcDbEntity
  8
0
  6
CONTINUOUS
 62
               7
100
AcDbCircle
 10
37.50000399999999
 20
-239.30002949999954
 30
0.0
 40
6.0
100
AcDbArc
 50
179.99999979431962
 51
359.99999958863924
  0
LINE
  5
145
100
AcDbEntity
  8
0
  6
CONTINUOUS
 62
               7
100
AcDbLine
 10
43.50000399999999
 20
-211.2750294999995
 30
0.0
 11
43.50000399999999
 21
-239.30002949999954
 31
0.0
  0
LINE
  5
146
100
AcDbEntity
  8
0
  6
CONTINUOUS
 62
               7
100
AcDbLine
 10
16.50000399999999
 20
-309.8000294999996
 30
0.0
 11
16.50000399999999
 21
-308.57502949999957
 31
0.0
  0
ARC
  5
147
100
AcDbEntity
  8
0
  6
CONTINUOUS
 62
               7
100
AcDbCircle
 10
11.50000399999999
 20
-308.57502949999957
 30
0.0
 40
5.0
100
AcDbArc
 50
0.0
 51
69.433333253994036
  0
LINE
  5
148
100
AcDbEntity
  8
0
  6
CONTINUOUS
 62
               7
100
AcDbLine
 10
58.50000399999999
 20
-308.57502949999957
 30
0.0
 11
58.50000399999999
 21
-310.8000294999996
 31
0.0
  0
LINE
  5
149
100
AcDbEntity
  8
0
  6
CONTINUOUS
 62
               7
100
AcDbLine
 10
114.02500399999997
 20
-142.27502949999956
 30
0.0
 11
118.050004
 21
-142.37502949999953
 31
0.0
  0
ARC
  5
14A
100
AcDbEntity
  8
0
  6
CONTINUOUS
 62
               7
100
AcDbCircle
 10
112.50000399999999
 20
-211.2750294999995
 30
0.0
 40
69.0
100
AcDbArc
 50
88.744444343038936
 51
179.99999979431962
  0
LINE
  5
14B
100
AcDbEntity
  8
0
  6
CONTINUOUS
 62
               7
100
AcDbLine
 10
112.47500400000001
 20
-205.32502949999957
 30
0.0
 11
115.57500399999998
 21
-205.40002949999956
 31
0.0
  0
LINE
  5
14C
100
AcDbEntity
  8
0
  6
CONTINUOUS
 62
               7
100
AcDbLine
 10
-36.99999600000001
 20
-178.30002949999954
 30
0.0
 11
0.0000039999999899
 21
-178.30002949999954
 31
0.0
  0
LINE
  5
14D
100
AcDbEntity
  8
0
  6
CONTINUOUS
 62
               7
100
AcDbLine
 10
0.0000039999999899
 20
-178.30002949999954
 30
0.0
 11
37.00000399999999
 21
-178.30002949999954
 31
0.0
  0
LINE
  5
14E
100
AcDbEntity
  8
0
  6
CONTINUOUS
 62
               7
100
AcDbLine
 10
39.00000399999999
 20
-180.30002949999954
 30
0.0
 11
39.00000399999999
 21
-190.58033349291486
 31
0.0
  0
ARC
  5
14F
100
AcDbEntity
  8
0
  6
CONTINUOUS
 62
               7
100
AcDbCircle
 10
37.00000399999999
 20
-180.30002949999954
 30
0.0
 40
2.0
100
AcDbArc
 50
0.0
 51
89.99999989715981
  0
LINE
  5
150
100
AcDbEntity
  8
0
  6
CONTINUOUS
 62
               7
100
AcDbLine
 10
-38.999996000000024
 20
-180.30002949999954
 30
0.0
 11
-38.999996000000024
 21
-190.58033349291486
 31
0.0
  0
ARC
  5
151
100
AcDbEntity
  8
0
  6
CONTINUOUS
 62
               7
100
AcDbCircle
 10
-36.99999600000001
 20
-180.30002949999954
 30
0.0
 40
2.0
100
AcDbArc
 50
89.99999989715981
 51
179.99999979431962
  0
LINE
  5
152
100
AcDbEntity
  8
0
  6
CONTINUOUS
 62
               7
100
AcDbLine
 10
-35.49999600000001
 20
-195.35002949999955
 30
0.0
 11
-35.49999600000001
 21
-199.85002949999955
 31
0.0
  0
ARC
  5
153
100
AcDbEntity
  8
0
  6
CONTINUOUS
 62
               7
100
AcDbCircle
 10
-40.499996000000024
 20
-195.35002949999955
 30
0.0
 40
5.0
100
AcDbArc
 50
0.0
 51
72.542396876277721
  0
LINE
  5
154
100
AcDbEntity
  8
0
  6
CONTINUOUS
 62
               7
100
AcDbLine
 10
35.50000399999999
 20
-195.35002949999955
 30
0.0
 11
35.50000399999999
 21
-200.85002949999955
 31
0.0
  0
ARC
  5
155
100
AcDbEntity
  8
0
  6
CONTINUOUS
 62
               7
100
AcDbCircle
 10
28.00000399999999
 20
-200.85002949999955
 30
0.0
 40
7.5
100
AcDbArc
 50
312.81111075367164
 51
359.99999958863924
  0
ARC
  5
156
100
AcDbEntity
  8
0
  6
CONTINUOUS
 62
               7
100
AcDbCircle
 10
40.50000399999999
 20
-195.35002949999955
 30
0.0
 40
5.0
100
AcDbArc
 50
107.45760312372187
 51
179.99999979431962
  0
ARC
  5
157
100
AcDbEntity
  8
0
  6
CONTINUOUS
 62
               7
100
AcDbCircle
 10
127.35000400000001
 20
-145.85002949999955
 30
0.0
 40
7.5
100
AcDbArc
 50
88.199999899216621
 51
137.26666650981633
  0
ARC
  5
158
100
AcDbEntity
  8
0
  6
CONTINUOUS
 62
               7
100
AcDbCircle
 10
118.175004
 20
-137.37502949999953
 30
0.0
 40
5.0
100
AcDbArc
 50
268.47777747099661
 51
317.26666630413592
  0
LINE
  5
159
100
AcDbEntity
  8
0
  6
CONTINUOUS
 62
               7
100
AcDbLine
 10
144.77500399999997
 20
-213.42502949999954
 30
0.0
 11
134.49232296641304
 21
-213.11083646841769
 31
0.0
  0
ARC
  5
15A
100
AcDbEntity
  8
0
  6
CONTINUOUS
 62
               7
100
AcDbCircle
 10
144.82500399999998
 20
-211.42502949999954
 30
0.0
 40
2.0
100
AcDbArc
 50
268.1999996935362
 51
358.19999959069605
  0
LINE
  5
15B
100
AcDbEntity
  8
0
  6
CONTINUOUS
 62
               7
100
AcDbLine
 10
147.22500399999996
 20
-135.47502949999955
 30
0.0
 11
136.96616773737691
 21
-135.16069189863782
 31
0.0
  0
ARC
  5
15C
100
AcDbEntity
  8
0
  6
CONTINUOUS
 62
               7
100
AcDbCircle
 10
147.175004
 20
-137.47502949999955
 30
0.0
 40
2.0
100
AcDbArc
 50
358.19999959069605
 51
448.19999989921581
  0
LINE
  5
15D
100
AcDbEntity
  8
0
  6
CONTINUOUS
 62
               7
100
AcDbLine
 10
132.07500399999998
 20
-138.50002949999953
 30
0.0
 11
127.57500399999998
 21
-138.32502949999957
 31
0.0
  0
ARC
  5
15E
100
AcDbEntity
  8
0
  6
CONTINUOUS
 62
               7
100
AcDbCircle
 10
132.25000399999999
 20
-133.50002949999953
 30
0.0
 40
5.0
100
AcDbArc
 50
268.1999996935362
 51
340.60174045737813
  0
LINE
  5
15F
100
AcDbEntity
  8
0
  6
CONTINUOUS
 62
               7
100
AcDbLine
 10
129.85000399999996
 20
-209.45002949999957
 30
0.0
 11
124.35000400000001
 21
-209.30002949999954
 31
0.0
  0
ARC
  5
160
100
AcDbEntity
  8
0
  6
CONTINUOUS
 62
               7
100
AcDbCircle
 10
124.57500399999998
 20
-201.80002949999954
 30
0.0
 40
7.5
100
AcDbArc
 50
223.54444418900718
 51
268.1999996935362
  0
ARC
  5
161
100
AcDbEntity
  8
0
  6
CONTINUOUS
 62
               7
100
AcDbCircle
 10
115.52500399999997
 20
-210.4000294999995
 30
0.0
 40
5.0
100
AcDbArc
 50
43.544444394687574
 51
89.133333231483462
  0
ARC
  5
162
100
AcDbEntity
  8
0
  6
CONTINUOUS
 62
               7
100
AcDbCircle
 10
129.675004
 20
-214.45002949999957
 30
0.0
 40
5.0
100
AcDbArc
 50
15.53569172429448
 51
88.199999899216621
  0
LINE
  5
163
100
AcDbEntity
  8
0
  6
CONTINUOUS
 62
               7
100
AcDbLine
 10
134.49232296641304
 20
-213.11083646841769
 30
0.0
 11
136.96616773737691
 21
-135.16069189863782
 31
0.0
  0
LINE
  5
164
100
AcDbEntity
  8
0
  6
CONTINUOUS
 62
               7
100
AcDbLine
 10
146.82401712028269
 20
-211.48785103243608
 30
0.0
 11
149.17401712028266
 21
-137.53785103243615
 31
0.0
  0
LINE
  5
165
100
AcDbEntity
  8
0
  6
CONTINUOUS
 62
               7
100
AcDbLine
 10
0.0000039999999899
 20
-108.30002949999954
 30
0.0
 11
-37.102066866570254
 21
-108.30002949999954
 31
0.0
  0
LINE
  5
166
100
AcDbEntity
  8
0
  6
CONTINUOUS
 62
               7
100
AcDbLine
 10
-39.099325936079396
 20
-106.40470141248539
 30
0.0
 11
-40.558453216405979
 21
-78.562894331780683
 31
0.0
  0
LINE
  5
167
100
AcDbEntity
  8
0
  6
CONTINUOUS
 62
               7
100
AcDbLine
 10
0.0000039999999899
 20
-53.300029499999539
 30
0.0
 11
-103.99999600000001
 21
-53.300029499999539
 31
0.0
  0
LINE
  5
168
100
AcDbEntity
  8
0
  6
CONTINUOUS
 62
               7
100
AcDbLine
 10
-104.99999600000001
 20
-54.300029499999539
 30
0.0
 11
-104.99999600000001
 21
-59.300029499999539
 31
0.0
  0
LINE
  5
169
100
AcDbEntity
  8
0
  6
CONTINUOUS
 62
               7
100
AcDbLine
 10
-103.99999600000001
 20
-60.300029499999539
 30
0.0
 11
-98.49999600000001
 21
-60.300029499999539
 31
0.0
  0
LINE
  5
16A
100
AcDbEntity
  8
0
  6
CONTINUOUS
 62
               7
100
AcDbLine
 10
-98.49999600000001
 20
-60.300029499999539
 30
0.0
 11
-83.49999600000001
 21
-68.960283537843935
 31
0.0
  0
LINE
  5
16B
100
AcDbEntity
  8
0
  6
CONTINUOUS
 62
               7
100
AcDbLine
 10
-83.49999600000001
 20
-68.960283537843935
 30
0.0
 11
-45.923059645327527
 21
-72.90977869702877
 31
0.0
  0
ARC
  5
16C
100
AcDbEntity
  8
0
  6
CONTINUOUS
 62
               7
100
AcDbCircle
 10
-37.102066866570254
 20
-106.30002949999954
 30
0.0
 40
2.0
100
AcDbArc
 50
182.99999999999866
 51
269.99999999999937
  0
ARC
  5
16D
100
AcDbEntity
  8
0
  6
CONTINUOUS
 62
               7
100
AcDbCircle
 10
-46.550230424933432
 20
-78.876910069238363
 30
0.0
 40
6.0
100
AcDbArc
 50
3.0000000000001568
 51
83.999999999999844
  0
LINE
  5
16E
100
AcDbEntity
  8
0
  6
CONTINUOUS
 62
               7
100
AcDbLine
 10
-104.99999600000001
 20
-59.300029499999539
 30
0.0
 11
-103.99999600000001
 21
-60.300029499999539
 31
0.0
  0
LINE
  5
16F
100
AcDbEntity
  8
0
  6
CONTINUOUS
 62
               7
100
AcDbLine
 10
-104.99999600000001
 20
-59.300029499999539
 30
0.0
 11
0.0000039999999899
 21
-59.300029499999539
 31
0.0
  0
LINE
  5
170
100
AcDbEntity
  8
0
  6
CONTINUOUS
 62
               7
100
AcDbLine
 10
-98.49999600000001
 20
-60.300029499999539
 30
0.0
 11
0.0000039999999899
 21
-60.300029499999539
 31
0.0
  0
LINE
  5
171
100
AcDbEntity
  8
0
  6
CONTINUOUS
 62
               7
100
AcDbLine
 10
-83.49999600000001
 20
-68.960283537843935
 30
0.0
 11
0.0000039999999899
 21
-68.960283537843935
 31
0.0
  0
LINE
  5
172
100
AcDbEntity
  8
0
  6
CONTINUOUS
 62
               7
100
AcDbLine
 10
-40.826647992700856
 20
-73.445433146377184
 30
0.0
 11
0.0000039999999899
 21
-73.445433146377184
 31
0.0
  0
LINE
  5
173
100
AcDbEntity
  8
0
  6
CONTINUOUS
 62
               7
100
AcDbLine
 10
0.0000039999999899
 20
-108.30002949999954
 30
0.0
 11
37.102074866570206
 21
-108.30002949999954
 31
0.0
  0
LINE
  5
174
100
AcDbEntity
  8
0
  6
CONTINUOUS
 62
               7
100
AcDbLine
 10
39.099333936079375
 20
-106.40470141248539
 30
0.0
 11
40.558461216405959
 21
-78.562894331780683
 31
0.0
  0
LINE
  5
175
100
AcDbEntity
  8
0
  6
CONTINUOUS
 62
               7
100
AcDbLine
 10
0.0000039999999899
 20
-53.300029499999539
 30
0.0
 11
104.00000399999999
 21
-53.300029499999539
 31
0.0
  0
LINE
  5
176
100
AcDbEntity
  8
0
  6
CONTINUOUS
 62
               7
100
AcDbLine
 10
105.00000399999999
 20
-54.300029499999539
 30
0.0
 11
105.00000399999999
 21
-59.300029499999539
 31
0.0
  0
LINE
  5
177
100
AcDbEntity
  8
0
  6
CONTINUOUS
 62
               7
100
AcDbLine
 10
104.00000399999999
 20
-60.300029499999539
 30
0.0
 11
98.50000399999999
 21
-60.300029499999539
 31
0.0
  0
LINE
  5
178
100
AcDbEntity
  8
0
  6
CONTINUOUS
 62
               7
100
AcDbLine
 10
98.50000399999999
 20
-60.300029499999539
 30
0.0
 11
83.50000399999999
 21
-68.960283537843935
 31
0.0
  0
LINE
  5
179
100
AcDbEntity
  8
0
  6
CONTINUOUS
 62
               7
100
AcDbLine
 10
83.50000399999999
 20
-68.960283537843935
 30
0.0
 11
45.923067645327478
 21
-72.90977869702877
 31
0.0
  0
ARC
  5
17A
100
AcDbEntity
  8
0
  6
CONTINUOUS
 62
               7
100
AcDbCircle
 10
37.102074866570206
 20
-106.30002949999954
 30
0.0
 40
2.0
100
AcDbArc
 50
269.99999999999937
 51
357.00000000000011
  0
ARC
  5
17B
100
AcDbEntity
  8
0
  6
CONTINUOUS
 62
               7
100
AcDbCircle
 10
46.550238424933411
 20
-78.876910069238363
 30
0.0
 40
6.0
100
AcDbArc
 50
95.999999999999758
 51
176.99999999999946
  0
LINE
  5
17C
100
AcDbEntity
  8
0
  6
CONTINUOUS
 62
               7
100
AcDbLine
 10
105.00000399999999
 20
-59.300029499999539
 30
0.0
 11
104.00000399999999
 21
-60.300029499999539
 31
0.0
  0
LINE
  5
17D
100
AcDbEntity
  8
0
  6
CONTINUOUS
 62
               7
100
AcDbLine
 10
105.00000399999999
 20
-59.300029499999539
 30
0.0
 11
0.0000039999999899
 21
-59.300029499999539
 31
0.0
  0
LINE
  5
17E
100
AcDbEntity
  8
0
  6
CONTINUOUS
 62
               7
100
AcDbLine
 10
98.50000399999999
 20
-60.300029499999539
 30
0.0
 11
0.0000039999999899
 21
-60.300029499999539
 31
0.0
  0
LINE
  5
17F
100
AcDbEntity
  8
0
  6
CONTINUOUS
 62
               7
100
AcDbLine
 10
83.50000399999999
 20
-68.960283537843935
 30
0.0
 11
0.0000039999999899
 21
-68.960283537843935
 31
0.0
  0
LINE
  5
180
100
AcDbEntity
  8
0
  6
CONTINUOUS
 62
               7
100
AcDbLine
 10
40.826655992700807
 20
-73.445433146377184
 30
0.0
 11
0.0000039999999899
 21
-73.445433146377184
 31
0.0
  0
ARC
  5
181
100
AcDbEntity
  8
0
  6
CONTINUOUS
 62
               7
100
AcDbCircle
 10
-103.99999600000001
 20
-54.300029499999539
 30
0.0
 40
1.0
100
AcDbArc
 50
89.999999999999801
 51
179.9999999999996
  0
ARC
  5
182
100
AcDbEntity
  8
0
  6
CONTINUOUS
 62
               7
100
AcDbCircle
 10
104.00000399999999
 20
-54.300029499999539
 30
0.0
 40
1.0
100
AcDbArc
 50
0.0
 51
89.999999999999801
  0
LINE
  5
183
100
AcDbEntity
  8
0
  6
CONTINUOUS
 62
               7
100
AcDbLine
 10
0.0000039999999899
 20
-48.300029499999539
 30
0.0
 11
-58.99999600000001
 21
-48.300029499999539
 31
0.0
  0
LINE
  5
184
100
AcDbEntity
  8
0
  6
CONTINUOUS
 62
               7
100
AcDbLine
 10
-58.99999600617555
 20
-48.300029449703885
 30
0.0
 11
-58.386073195485508
 21
-53.300029499999539
 31
0.0
  0
LINE
  5
185
100
AcDbEntity
  8
0
  6
CONTINUOUS
 62
               7
100
AcDbLine
 10
0.0000039999999899
 20
-48.300029499999539
 30
0.0
 11
59.00000399999999
 21
-48.300029499999539
 31
0.0
  0
LINE
  5
186
100
AcDbEntity
  8
0
  6
CONTINUOUS
 62
               7
100
AcDbLine
 10
59.000004006175516
 20
-48.300029449703885
 30
0.0
 11
58.386081195485474
 21
-53.300029499999539
 31
0.0
  0
LINE
  5
187
100
AcDbEntity
  8
0
  6
CONTINUOUS
 62
               7
100
AcDbLine
 10
-38.999996000000024
 20
-190.58033349291486
 30
0.0
 11
39.00000399999999
 21
-190.58033349291486
 31
0.0
  0
LINE
  5
188
100
AcDbEntity
  8
0
  6
CONTINUOUS
 62
               7
100
AcDbLine
 10
117.27499199999953
 20
263.19998850000081
 30
0.0
 11
100.16360248803888
 21
263.19998850000081
 31
0.0
  0
ARC
  5
189
100
AcDbEntity
  8
0
  6
CONTINUOUS
 62
               7
100
AcDbCircle
 10
117.27499199999953
 20
268.19998850000081
 30
0.0
 40
5.0
100
AcDbArc
 50
269.99999999999937
 51
317.18888883496697
  0
ARC
  5
18A
100
AcDbEntity
  8
0
  6
CONTINUOUS
 62
               7
100
AcDbCircle
 10
126.44999199999954
 20
259.69998850000081
 30
0.0
 40
7.5
100
AcDbArc
 50
89.99999979431982
 51
137.18888862928745
  0
LINE
  5
18B
100
AcDbEntity
  8
0
  6
CONTINUOUS
 62
               7
100
AcDbLine
 10
116.27499199999953
 20
200.19998850000081
 30
0.0
 11
100.16361380951525
 21
200.19998850000079
 31
0.0
  0
ARC
  5
18C
100
AcDbEntity
  8
0
  6
CONTINUOUS
 62
               7
100
AcDbCircle
 10
116.27499199999953
 20
195.19998850000081
 30
0.0
 40
5.0
100
AcDbArc
 50
42.811110959352206
 51
89.99999979431982
  0
LINE
  5
18D
100
AcDbEntity
  8
0
  6
CONTINUOUS
 62
               7
100
AcDbLine
 10
147.99999199999957
 20
268.69998850000081
 30
0.0
 11
147.99999199999957
 21
231.69998850000081
 31
0.0
  0
LINE
  5
18E
100
AcDbEntity
  8
0
  6
CONTINUOUS
 62
               7
100
AcDbLine
 10
147.99999199999957
 20
231.69998850000081
 30
0.0
 11
147.99999199999957
 21
194.69998850000081
 31
0.0
  0
LINE
  5
18F
100
AcDbEntity
  8
0
  6
CONTINUOUS
 62
               7
100
AcDbLine
 10
145.99999199999957
 20
192.69998850000081
 30
0.0
 11
135.71968800708427
 21
192.69998850000081
 31
0.0
  0
ARC
  5
190
100
AcDbEntity
  8
0
  6
CONTINUOUS
 62
               7
100
AcDbCircle
 10
145.99999199999957
 20
194.69998850000081
 30
0.0
 40
2.0
100
AcDbArc
 50
269.99999999999937
 51
359.99999989715917
  0
LINE
  5
191
100
AcDbEntity
  8
0
  6
CONTINUOUS
 62
               7
100
AcDbLine
 10
145.99999199999957
 20
270.69998850000081
 30
0.0
 11
135.71968800708427
 21
270.69998850000081
 31
0.0
  0
ARC
  5
192
100
AcDbEntity
  8
0
  6
CONTINUOUS
 62
               7
100
AcDbCircle
 10
145.99999199999957
 20
268.69998850000081
 30
0.0
 40
2.0
100
AcDbArc
 50
359.99999989715917
 51
449.99999979431897
  0
LINE
  5
193
100
AcDbEntity
  8
0
  6
CONTINUOUS
 62
               7
100
AcDbLine
 10
130.94999199999955
 20
267.19998850000081
 30
0.0
 11
126.44999199999954
 21
267.19998850000081
 31
0.0
  0
ARC
  5
194
100
AcDbEntity
  8
0
  6
CONTINUOUS
 62
               7
100
AcDbCircle
 10
130.94999199999955
 20
272.19998850000081
 30
0.0
 40
5.0
100
AcDbArc
 50
269.99999999999937
 51
342.54239687627711
  0
LINE
  5
195
100
AcDbEntity
  8
0
  6
CONTINUOUS
 62
               7
100
AcDbLine
 10
130.94999199999955
 20
196.19998850000081
 30
0.0
 11
125.44999199999954
 21
196.19998850000081
 31
0.0
  0
ARC
  5
196
100
AcDbEntity
  8
0
  6
CONTINUOUS
 62
               7
100
AcDbCircle
 10
125.44999199999954
 20
203.69998850000081
 30
0.0
 40
7.5
100
AcDbArc
 50
222.81111075367181
 51
269.99999958863941
  0
ARC
  5
197
100
AcDbEntity
  8
0
  6
CONTINUOUS
 62
               7
100
AcDbCircle
 10
130.94999199999955
 20
191.19998850000081
 30
0.0
 40
5.0
100
AcDbArc
 50
17.45760312372207
 51
89.99999979431982
  0
LINE
  5
198
100
AcDbEntity
  8
0
  6
CONTINUOUS
 62
               7
100
AcDbLine
 10
135.71968800708427
 20
270.69998850000081
 30
0.0
 11
135.71968800708427
 21
192.69998850000081
 31
0.0
  0
CIRCLE
  5
199
100
AcDbEntity
  8
0
  6
CONTINUOUS
 62
               7
100
AcDbCircle
 10
-0.0000080000004459
 20
231.69997050000057
 30
0.0
 40
105.0
  0
CIRCLE
  5
19A
100
AcDbEntity
  8
0
  6
CONTINUOUS
 62
               7
100
AcDbCircle
 10
0.0000039999999786
 20
231.69997050000057
 30
0.0
 40
98.5
  0
ARC
  5
19B
100
AcDbEntity
  8
0
  6
CONTINUOUS
 62
               7
100
AcDbCircle
 10
0.0000039999999792
 20
231.69997050000057
 30
0.0
 40
51.499999999999993
100
AcDbArc
 50
140.25555539528992
 51
174.98888868893457
  0
ARC
  5
19C
100
AcDbEntity
  8
0
  6
CONTINUOUS
 62
               7
100
AcDbCircle
 10
0.0000039999999792
 20
231.69997050000057
 30
0.0
 40
51.499999999999993
100
AcDbArc
 50
95.01111100254488
 51
129.76666651838636
  0
ARC
  5
19D
100
AcDbEntity
  8
0
  6
CONTINUOUS
 62
               7
100
AcDbCircle
 10
-49.299996000000007
 20
236.19997050000057
 30
0.0
 40
2.0
100
AcDbArc
 50
174.78888868916309
 51
269.99999969147945
  0
ARC
  5
19E
100
AcDbEntity
  8
0
  6
CONTINUOUS
 62
               7
100
AcDbCircle
 10
0.0000039999999792
 20
231.69997050000057
 30
0.0
 40
34.0
100
AcDbArc
 50
142.19999983751251
 51
172.82222202474367
  0
ARC
  5
19F
100
AcDbEntity
  8
0
  6
CONTINUOUS
 62
               7
100
AcDbCircle
 10
0.0000039999999792
 20
231.69997050000057
 30
0.0
 40
34.0
100
AcDbArc
 50
97.177777666735764
 51
127.79999985396692
  0
ARC
  5
1A0
100
AcDbEntity
  8
0
  6
CONTINUOUS
 62
               7
100
AcDbCircle
 10
-22.074996000000024
 20
260.14997050000062
 30
0.0
 40
2.0
100
AcDbArc
 50
224.99999974289952
 51
307.81111075938497
  0
ARC
  5
1A1
100
AcDbEntity
  8
0
  6
CONTINUOUS
 62
               7
100
AcDbCircle
 10
-28.449996000000013
 20
253.77497050000062
 30
0.0
 40
2.0
100
AcDbArc
 50
322.18888852073371
 51
405.03333328187432
  0
ARC
  5
1A2
100
AcDbEntity
  8
0
  6
CONTINUOUS
 62
               7
100
AcDbCircle
 10
-35.724996000000019
 20
236.19997050000057
 30
0.0
 40
2.0
100
AcDbArc
 50
269.99999969147945
 51
352.82222181906326
  0
LINE
  5
1A3
100
AcDbEntity
  8
0
  6
CONTINUOUS
 62
               7
100
AcDbLine
 10
-36.624996000000017
 20
264.77497050000056
 30
0.0
 11
-27.024996000000019
 21
255.1999705000006
 31
0.0
  0
ARC
  5
1A4
100
AcDbEntity
  8
0
  6
CONTINUOUS
 62
               7
100
AcDbCircle
 10
-38.049996000000007
 20
263.34997050000061
 30
0.0
 40
2.0
100
AcDbArc
 50
45.033333281875151
 51
140.2444442841915
  0
LINE
  5
1A5
100
AcDbEntity
  8
0
  6
CONTINUOUS
 62
               7
100
AcDbLine
 10
-33.099996000000019
 20
268.32497050000063
 30
0.0
 11
-23.499996000000017
 21
258.72497050000061
 31
0.0
  0
ARC
  5
1A6
100
AcDbEntity
  8
0
  6
CONTINUOUS
 62
               7
100
AcDbCircle
 10
-31.674996000000011
 20
269.74997050000059
 30
0.0
 40
2.0
100
AcDbArc
 50
129.77777762948477
 51
224.99999974289952
  0
LINE
  5
1A7
100
AcDbEntity
  8
0
  6
CONTINUOUS
 62
               7
100
AcDbLine
 10
-35.724996000000019
 20
234.1999705000006
 30
0.0
 11
-49.299996000000007
 21
234.1999705000006
 31
0.0
  0
LINE
  5
1A8
100
AcDbEntity
  8
0
  6
CONTINUOUS
 62
               7
100
AcDbLine
 10
-2.4999960000000172
 20
267.42497050000065
 30
0.0
 11
-2.4999960000000172
 21
280.99997050000059
 31
0.0
  0
ARC
  5
1A9
100
AcDbEntity
  8
0
  6
CONTINUOUS
 62
               7
100
AcDbCircle
 10
-4.4999960000000208
 20
267.42497050000065
 30
0.0
 40
2.0
100
AcDbArc
 50
277.17777746105537
 51
359.99999958863924
  0
ARC
  5
1AA
100
AcDbEntity
  8
0
  6
CONTINUOUS
 62
               7
100
AcDbCircle
 10
-4.4999960000000208
 20
280.99997050000059
 30
0.0
 40
2.0
100
AcDbArc
 50
0.0
 51
95.211111002316343
  0
ARC
  5
1AB
100
AcDbEntity
  8
0
  6
CONTINUOUS
 62
               7
100
AcDbCircle
 10
0.0000039999999792
 20
231.69997050000057
 30
0.0
 40
30.0
100
AcDbArc
 50
0.0
 51
179.99999979431962
  0
ARC
  5
1AC
100
AcDbEntity
  8
0
  6
CONTINUOUS
 62
               7
100
AcDbCircle
 10
0.0000039999999792
 20
231.69997050000057
 30
0.0
 40
24.0
100
AcDbArc
 50
0.0
 51
179.99999979431962
  0
ARC
  5
1AD
100
AcDbEntity
  8
0
  6
CONTINUOUS
 62
               7
100
AcDbCircle
 10
0.0000039999999792
 20
231.69997050000057
 30
0.0
 40
22.5
100
AcDbArc
 50
0.0
 51
179.99999979431962
  0
LINE
  5
1AE
100
AcDbEntity
  8
0
  6
CONTINUOUS
 62
               7
100
AcDbLine
 10
-0.2999960000000144
 20
232.64997050000059
 30
0.0
 11
-6.3499960000000115
 21
251.22497050000058
 31
0.0
  0
LINE
  5
1AF
100
AcDbEntity
  8
0
  6
CONTINUOUS
 62
               7
100
AcDbLine
 10
0.8000039999999764
 20
232.29997050000063
 30
0.0
 11
16.600003999999995
 21
243.77497050000059
 31
0.0
  0
LINE
  5
1B0
100
AcDbEntity
  8
0
  6
CONTINUOUS
 62
               7
100
AcDbLine
 10
-0.9999960000000172
 20
231.69997050000057
 30
0.0
 11
-20.499996000000017
 21
231.69997050000057
 31
0.0
  0
ARC
  5
1B1
100
AcDbEntity
  8
0
  6
CONTINUOUS
 62
               7
100
AcDbCircle
 10
-21.499996000000014
 20
231.69997050000057
 30
0.0
 40
1.0
100
AcDbArc
 50
0.0
 51
179.99999979431962
  0
CIRCLE
  5
1B2
100
AcDbEntity
  8
0
  6
CONTINUOUS
 62
               7
100
AcDbCircle
 10
-6.6499960000000051
 20
252.14997050000059
 30
0.0
 40
1.0
  0
CIRCLE
  5
1B3
100
AcDbEntity
  8
0
  6
CONTINUOUS
 62
               7
100
AcDbCircle
 10
17.400003999999992
 20
244.34997050000058
 30
0.0
 40
1.0
  0
ARC
  5
1B4
100
AcDbEntity
  8
0
  6
CONTINUOUS
 62
               7
100
AcDbCircle
 10
0.0000039999999792
 20
231.69997050000057
 30
0.0
 40
58.999999999999993
100
AcDbArc
 50
0.0
 51
180.00000665639453
  0
ARC
  5
1B5
100
AcDbEntity
  8
0
  6
CONTINUOUS
 62
               7
100
AcDbCircle
 10
0.0000039999999792
 20
231.69997050000057
 30
0.0
 40
51.499999999999993
100
AcDbArc
 50
5.011111105385071
 51
39.74444439902971
  0
ARC
  5
1B6
100
AcDbEntity
  8
0
  6
CONTINUOUS
 62
               7
100
AcDbCircle
 10
0.0000039999999792
 20
231.69997050000057
 30
0.0
 40
51.499999999999993
100
AcDbArc
 50
50.233333275933269
 51
84.988888791774741
  0
ARC
  5
1B7
100
AcDbEntity
  8
0
  6
CONTINUOUS
 62
               7
100
AcDbCircle
 10
49.300003999999973
 20
236.19997050000057
 30
0.0
 40
2.0
100
AcDbArc
 50
269.99999969147945
 51
365.21111110515574
  0
ARC
  5
1B8
100
AcDbEntity
  8
0
  6
CONTINUOUS
 62
               7
100
AcDbCircle
 10
0.0000039999999792
 20
231.69997050000057
 30
0.0
 40
34.0
100
AcDbArc
 50
7.1777777695759557
 51
37.79999995680712
  0
ARC
  5
1B9
100
AcDbEntity
  8
0
  6
CONTINUOUS
 62
               7
100
AcDbCircle
 10
0.0000039999999792
 20
231.69997050000057
 30
0.0
 40
34.0
100
AcDbArc
 50
52.19999994035269
 51
82.822222127583856
  0
ARC
  5
1BA
100
AcDbEntity
  8
0
  6
CONTINUOUS
 62
               7
100
AcDbCircle
 10
22.075003999999982
 20
260.14997050000062
 30
0.0
 40
2.0
100
AcDbArc
 50
232.18888862357389
 51
314.99999964005934
  0
ARC
  5
1BB
100
AcDbEntity
  8
0
  6
CONTINUOUS
 62
               7
100
AcDbCircle
 10
28.450003999999982
 20
253.77497050000062
 30
0.0
 40
2.0
100
AcDbArc
 50
134.96666651244448
 51
217.81111086222518
  0
ARC
  5
1BC
100
AcDbEntity
  8
0
  6
CONTINUOUS
 62
               7
100
AcDbCircle
 10
35.725003999999998
 20
236.19997050000057
 30
0.0
 40
2.0
100
AcDbArc
 50
187.17777756389557
 51
269.99999969147945
  0
LINE
  5
1BD
100
AcDbEntity
  8
0
  6
CONTINUOUS
 62
               7
100
AcDbLine
 10
36.62500399999999
 20
264.77497050000056
 30
0.0
 11
27.025003999999978
 21
255.1999705000006
 31
0.0
  0
ARC
  5
1BE
100
AcDbEntity
  8
0
  6
CONTINUOUS
 62
               7
100
AcDbCircle
 10
38.050003999999973
 20
263.34997050000061
 30
0.0
 40
2.0
100
AcDbArc
 50
39.755555510128126
 51
134.96666651244448
  0
LINE
  5
1BF
100
AcDbEntity
  8
0
  6
CONTINUOUS
 62
               7
100
AcDbLine
 10
33.100003999999998
 20
268.32497050000063
 30
0.0
 11
23.500003999999986
 21
258.72497050000061
 31
0.0
  0
ARC
  5
1C0
100
AcDbEntity
  8
0
  6
CONTINUOUS
 62
               7
100
AcDbCircle
 10
31.675003999999969
 20
269.74997050000059
 30
0.0
 40
2.0
100
AcDbArc
 50
314.99999964005934
 51
410.22222216483408
  0
LINE
  5
1C1
100
AcDbEntity
  8
0
  6
CONTINUOUS
 62
               7
100
AcDbLine
 10
35.725003999999998
 20
234.1999705000006
 30
0.0
 11
49.300003999999973
 21
234.1999705000006
 31
0.0
  0
LINE
  5
1C2
100
AcDbEntity
  8
0
  6
CONTINUOUS
 62
               7
100
AcDbLine
 10
2.5000039999999863
 20
267.42497050000065
 30
0.0
 11
2.5000039999999863
 21
280.99997050000059
 31
0.0
  0
ARC
  5
1C3
100
AcDbEntity
  8
0
  6
CONTINUOUS
 62
               7
100
AcDbCircle
 10
4.5000039999999792
 20
267.42497050000065
 30
0.0
 40
2.0
100
AcDbArc
 50
179.99999979431962
 51
262.82222192190346
  0
ARC
  5
1C4
100
AcDbEntity
  8
0
  6
CONTINUOUS
 62
               7
100
AcDbCircle
 10
4.5000039999999792
 20
280.99997050000059
 30
0.0
 40
2.0
100
AcDbArc
 50
84.788888792003277
 51
179.99999979431962
  0
ARC
  5
1C5
100
AcDbEntity
  8
0
  6
CONTINUOUS
 62
               7
100
AcDbCircle
 10
0.0000039999999792
 20
231.69997050000057
 30
0.0
 40
1.0
100
AcDbArc
 50
0.0
 51
179.99999979431962
  0
ARC
  5
1C6
100
AcDbEntity
  8
0
  6
CONTINUOUS
 62
               7
100
AcDbCircle
 10
0.0000039999999792
 20
231.69997050000057
 30
0.0
 40
65.0
100
AcDbArc
 50
0.0
 51
179.99999979431962
  0
ARC
  5
1C7
100
AcDbEntity
  8
0
  6
CONTINUOUS
 62
               7
100
AcDbCircle
 10
0.0000040000000934
 20
231.69996962631933
 30
0.0
 40
51.499999999999979
100
AcDbArc
 50
185.01112377540966
 51
219.74445706905431
  0
ARC
  5
1C8
100
AcDbEntity
  8
0
  6
CONTINUOUS
 62
               7
100
AcDbCircle
 10
0.0000040000000934
 20
231.69996962631933
 30
0.0
 40
51.499999999999979
100
AcDbArc
 50
230.23334594595786
 51
264.98890146179934
  0
ARC
  5
1C9
100
AcDbEntity
  8
0
  6
CONTINUOUS
 62
               7
100
AcDbCircle
 10
-49.299995021051345
 20
227.19995890140711
 30
0.0
 40
1.9999999999999996
100
AcDbArc
 50
90.000012772864793
 51
185.21112377518114
  0
ARC
  5
1CA
100
AcDbEntity
  8
0
  6
CONTINUOUS
 62
               7
100
AcDbCircle
 10
0.0000040000000934
 20
231.69996962631933
 30
0.0
 40
33.999999999999993
100
AcDbArc
 50
187.17779043960056
 51
217.80001262683172
  0
ARC
  5
1CB
100
AcDbEntity
  8
0
  6
CONTINUOUS
 62
               7
100
AcDbCircle
 10
0.0000040000000934
 20
231.69996962631933
 30
0.0
 40
33.999999999999993
100
AcDbArc
 50
232.20001261037729
 51
262.82223479760847
  0
ARC
  5
1CC
100
AcDbEntity
  8
0
  6
CONTINUOUS
 62
               7
100
AcDbCircle
 10
-22.07498981087657
 20
203.24996482403924
 30
0.0
 40
1.9999999999999996
100
AcDbArc
 50
52.188901704959257
 51
135.0000127214447
  0
ARC
  5
1CD
100
AcDbEntity
  8
0
  6
CONTINUOUS
 62
               7
100
AcDbCircle
 10
-28.449991197718514
 20
209.62496343719698
 30
0.0
 40
1.9999999999999996
100
AcDbArc
 50
314.96667918246908
 51
397.81112394360969
  0
ARC
  5
1CE
100
AcDbEntity
  8
0
  6
CONTINUOUS
 62
               7
100
AcDbCircle
 10
-35.724995021051683
 20
227.199961854565
 30
0.0
 40
1.9999999999999996
100
AcDbArc
 50
7.177790645280961
 51
90.000012772864793
  0
LINE
  5
1CF
100
AcDbEntity
  8
0
  6
CONTINUOUS
 62
               7
100
AcDbLine
 10
-36.624988804735864
 20
198.62496165877621
 30
0.0
 11
-27.024990887718552
 21
208.19996374719702
 31
0.0
  0
ARC
  5
1D0
100
AcDbEntity
  8
0
  6
CONTINUOUS
 62
               7
100
AcDbCircle
 10
-38.049989114735816
 20
200.04996134877621
 30
0.0
 40
1.9999999999999996
100
AcDbArc
 50
219.75556818015272
 51
314.96667918246908
  0
LINE
  5
1D1
100
AcDbEntity
  8
0
  6
CONTINUOUS
 62
               7
100
AcDbLine
 10
-33.099988032455244
 20
195.07496242561837
 30
0.0
 11
-23.499990120876529
 21
204.67496451403923
 31
0.0
  0
ARC
  5
1D2
100
AcDbEntity
  8
0
  6
CONTINUOUS
 62
               7
100
AcDbCircle
 10
-31.674987722455271
 20
193.64996273561843
 30
0.0
 40
1.9999999999999996
100
AcDbArc
 50
135.0000127214447
 51
230.22223483485942
  0
LINE
  5
1D3
100
AcDbEntity
  8
0
  6
CONTINUOUS
 62
               7
100
AcDbLine
 10
-35.724995456139403
 20
229.19996185456495
 30
0.0
 11
-49.299995456139065
 21
229.19995890140706
 31
0.0
  0
LINE
  5
1D4
100
AcDbEntity
  8
0
  6
CONTINUOUS
 62
               7
100
AcDbLine
 10
-2.4999882282454489
 20
195.9749690824604
 30
0.0
 11
-2.4999852750875506
 21
182.39996908246081
 31
0.0
  0
ARC
  5
1D5
100
AcDbEntity
  8
0
  6
CONTINUOUS
 62
               7
100
AcDbCircle
 10
-4.499988228245404
 20
195.97496864737269
 30
0.0
 40
1.9999999999999996
100
AcDbArc
 50
0.000012875705011
 51
82.822235003288853
  0
ARC
  5
1D6
100
AcDbEntity
  8
0
  6
CONTINUOUS
 62
               7
100
AcDbCircle
 10
-4.4999852750875062
 20
182.3999686473731
 30
0.0
 40
1.9999999999999996
100
AcDbArc
 50
264.78890146202787
 51
360.00001246434425
  0
ARC
  5
1D7
100
AcDbEntity
  8
0
  6
CONTINUOUS
 62
               7
100
AcDbCircle
 10
0.0000040000000934
 20
231.69996962631933
 30
0.0
 40
29.999999999999993
100
AcDbArc
 50
180.0000126700246
 51
360.00001246434425
  0
ARC
  5
1D8
100
AcDbEntity
  8
0
  6
CONTINUOUS
 62
               7
100
AcDbCircle
 10
0.0000040000000934
 20
231.69996962631933
 30
0.0
 40
23.999999999999993
100
AcDbArc
 50
180.0000126700246
 51
360.00001246434425
  0
ARC
  5
1D9
100
AcDbEntity
  8
0
  6
CONTINUOUS
 62
               7
100
AcDbCircle
 10
0.0000040000000934
 20
231.69996962631933
 30
0.0
 40
22.499999999999996
100
AcDbArc
 50
180.0000126700246
 51
360.00001246434425
  0
LINE
  5
1DA
100
AcDbEntity
  8
0
  6
CONTINUOUS
 62
               7
100
AcDbLine
 10
-0.2999957933332261
 20
230.74996956105613
 30
0.0
 11
-6.3499917524558809
 21
212.17496824491627
 31
0.0
  0
LINE
  5
1DB
100
AcDbEntity
  8
0
  6
CONTINUOUS
 62
               7
100
AcDbLine
 10
0.8000041305263874
 20
231.09996980035436
 30
0.0
 11
16.600006626841818
 21
219.62497323754766
 31
0.0
  0
ARC
  5
1DC
100
AcDbEntity
  8
0
  6
CONTINUOUS
 62
               7
100
AcDbCircle
 10
-21.499995999999388
 20
231.69996494912633
 30
0.0
 40
0.9999999999999998
100
AcDbArc
 50
180.0000126700246
 51
360.00001246434425
  0
CIRCLE
  5
1DD
100
AcDbEntity
  8
0
  6
CONTINUOUS
 62
               7
100
AcDbCircle
 10
-6.6499915512277967
 20
211.24996817965311
 30
0.0
 40
0.9999999999999998
  0
CIRCLE
  5
1DE
100
AcDbEntity
  8
0
  6
CONTINUOUS
 62
               7
100
AcDbCircle
 10
17.400006751929517
 20
219.04997341158276
 30
0.0
 40
0.9999999999999998
  0
ARC
  5
1DF
100
AcDbEntity
  8
0
  6
CONTINUOUS
 62
               7
100
AcDbCircle
 10
0.0000040000000934
 20
231.69996962631933
 30
0.0
 40
58.999999999999979
100
AcDbArc
 50
180.00000580794969
 51
360.00001246434425
  0
ARC
  5
1E0
100
AcDbEntity
  8
0
  6
CONTINUOUS
 62
               7
100
AcDbCircle
 10
0.0000040000000934
 20
231.69996962631933
 30
0.0
 40
51.499999999999979
100
AcDbArc
 50
320.25556806531449
 51
354.98890135895914
  0
ARC
  5
1E1
100
AcDbEntity
  8
0
  6
CONTINUOUS
 62
               7
100
AcDbCircle
 10
0.0000040000000934
 20
231.69996962631933
 30
0.0
 40
51.499999999999979
100
AcDbArc
 50
275.01112367256951
 51
309.76667918841093
  0
ARC
  5
1E2
100
AcDbEntity
  8
0
  6
CONTINUOUS
 62
               7
100
AcDbCircle
 10
49.300004978946276
 20
227.19998035123169
 30
0.0
 40
1.9999999999999996
100
AcDbArc
 50
354.78890135918766
 51
450.00001277286401
  0
ARC
  5
1E3
100
AcDbEntity
  8
0
  6
CONTINUOUS
 62
               7
100
AcDbCircle
 10
0.0000040000000934
 20
231.69996962631933
 30
0.0
 40
33.999999999999993
100
AcDbArc
 50
322.20001250753711
 51
352.82223469476827
  0
ARC
  5
1E4
100
AcDbEntity
  8
0
  6
CONTINUOUS
 62
               7
100
AcDbCircle
 10
0.0000040000000934
 20
231.69996962631933
 30
0.0
 40
33.999999999999993
100
AcDbArc
 50
277.17779033676032
 51
307.80001252399148
  0
ARC
  5
1E5
100
AcDbEntity
  8
0
  6
CONTINUOUS
 62
               7
100
AcDbCircle
 10
22.075010189122384
 20
203.24997442860064
 30
0.0
 40
1.9999999999999996
100
AcDbArc
 50
45.000012824284909
 51
127.81112384077036
  0
ARC
  5
1E6
100
AcDbEntity
  8
0
  6
CONTINUOUS
 62
               7
100
AcDbCircle
 10
28.450008802280124
 20
209.62497581544261
 30
0.0
 40
1.9999999999999996
100
AcDbArc
 50
142.18890160211907
 51
225.03334595189975
  0
ARC
  5
1E7
100
AcDbEntity
  8
0
  6
CONTINUOUS
 62
               7
100
AcDbCircle
 10
35.725004978946629
 20
227.1999773980738
 30
0.0
 40
1.9999999999999996
100
AcDbArc
 50
90.000012772864793
 51
172.82223490044865
  0
LINE
  5
1E8
100
AcDbEntity
  8
0
  6
CONTINUOUS
 62
               7
100
AcDbLine
 10
36.625011195262395
 20
198.62497759386395
 30
0.0
 11
27.025009112280152
 21
208.19997550544264
 31
0.0
  0
ARC
  5
1E9
100
AcDbEntity
  8
0
  6
CONTINUOUS
 62
               7
100
AcDbCircle
 10
38.050010885262346
 20
200.04997790386392
 30
0.0
 40
1.9999999999999996
100
AcDbArc
 50
225.03334595189975
 51
320.2444569542161
  0
LINE
  5
1EA
100
AcDbEntity
  8
0
  6
CONTINUOUS
 62
               7
100
AcDbLine
 10
33.100011967543196
 20
195.07497682702189
 30
0.0
 11
23.500009879122352
 21
204.67497473860067
 31
0.0
  0
ARC
  5
1EB
100
AcDbEntity
  8
0
  6
CONTINUOUS
 62
               7
100
AcDbCircle
 10
31.675012277543196
 20
193.64997651702197
 30
0.0
 40
1.9999999999999996
100
AcDbArc
 50
309.77779029950938
 51
405.00001282428411
  0
LINE
  5
1EC
100
AcDbEntity
  8
0
  6
CONTINUOUS
 62
               7
100
AcDbLine
 10
35.725004543858908
 20
229.19997739807374
 30
0.0
 11
49.300004543858556
 21
229.19998035123163
 31
0.0
  0
LINE
  5
1ED
100
AcDbEntity
  8
0
  6
CONTINUOUS
 62
               7
100
AcDbLine
 10
2.5000117717544357
 20
195.97497017017969
 30
0.0
 11
2.5000147249123339
 21
182.3999701701801
 31
0.0
  0
ARC
  5
1EE
100
AcDbEntity
  8
0
  6
CONTINUOUS
 62
               7
100
AcDbCircle
 10
4.5000117717543811
 20
195.97497060526746
 30
0.0
 40
1.9999999999999996
100
AcDbArc
 50
97.177790542440746
 51
180.0000126700246
  0
ARC
  5
1EF
100
AcDbEntity
  8
0
  6
CONTINUOUS
 62
               7
100
AcDbCircle
 10
4.5000147249122788
 20
182.39997060526787
 30
0.0
 40
1.9999999999999996
100
AcDbArc
 50
180.0000126700246
 51
275.21112367234093
  0
ARC
  5
1F0
100
AcDbEntity
  8
0
  6
CONTINUOUS
 62
               7
100
AcDbCircle
 10
0.0000040000000934
 20
231.69996962631933
 30
0.0
 40
0.9999999999999998
100
AcDbArc
 50
180.0000126700246
 51
360.00001246434425
  0
ARC
  5
1F1
100
AcDbEntity
  8
0
  6
CONTINUOUS
 62
               7
100
AcDbCircle
 10
0.0000040000000934
 20
231.69996962631933
 30
0.0
 40
64.999999999999986
100
AcDbArc
 50
180.0000126700246
 51
360.00001246434425
  0
LINE
  5
1F2
100
AcDbEntity
  8
0
  6
DASHDOT
 62
               7
100
AcDbLine
 10
75.00000399999999
 20
-211.30002949999954
 30
0.0
 11
75.00000399999999
 21
-239.30002949999954
 31
0.0
  0
ARC
  5
1F3
100
AcDbEntity
  8
0
  6
DASHDOT
 62
               7
100
AcDbCircle
 10
37.50000399999999
 20
-239.30002949999954
 30
0.0
 40
37.5
100
AcDbArc
 50
179.99999979431962
 51
359.99999958863924
  0
ARC
  5
1F4
100
AcDbEntity
  8
0
  6
DASHDOT
 62
               7
100
AcDbCircle
 10
112.50000399999999
 20
-211.30002949999954
 30
0.0
 40
37.5
100
AcDbArc
 50
88.799999898531013
 51
179.99999979431962
  0
LINE
  5
1F5
100
AcDbEntity
  8
0
  6
DASHDOT
 62
               7
100
AcDbLine
 10
159.92497081773047
 20
-174.78686638089476
 30
0.0
 11
113.28700356394918
 21
-173.80788633874727
 31
0.0
  0
LINE
  5
1F6
100
AcDbEntity
  8
0
  6
DASHDOT
 62
               7
100
AcDbLine
 10
0.0000039999999899
 20
-239.30002949999954
 30
0.0
 11
0.0000039999999786
 21
76.310213601375608
 31
0.0
  0
LINE
  5
1F7
100
AcDbEntity
  8
0
  6
DIVIDE
 62
               7
100
AcDbLine
 10
30.150003999999996
 20
-178.30002949999954
 30
0.0
 11
30.150003999999996
 21
-108.30002949999954
 31
0.0
  0
LINE
  5
1F8
100
AcDbEntity
  8
0
  6
DIVIDE
 62
               7
100
AcDbLine
 10
-30.149996000000016
 20
-178.30002949999954
 30
0.0
 11
-30.149996000000016
 21
-108.30002949999954
 31
0.0
  0
LINE
  5
1F9
100
AcDbEntity
  8
0
  6
DASHED2
 62
               7
100
AcDbLine
 10
16.50000399999999
 20
-311.8000294999996
 30
0.0
 11
16.50000399999999
 21
-314.8000294999996
 31
0.0
  0
LINE
  5
1FA
100
AcDbEntity
  8
0
  6
DASHED2
 62
               7
100
AcDbLine
 10
16.50000399999999
 20
-314.8000294999996
 30
0.0
 11
58.50000399999999
 21
-314.8000294999996
 31
0.0
  0
LINE
  5
1FB
100
AcDbEntity
  8
0
  6
DASHED2
 62
               7
100
AcDbLine
 10
58.50000399999999
 20
-314.8000294999996
 30
0.0
 11
58.50000399999999
 21
-311.8000294999996
 31
0.0
  0
LINE
  5
1FC
100
AcDbEntity
  8
0
  6
DASHED2
 62
               7
100
AcDbLine
 10
58.50000399999999
 20
-314.8000294999996
 30
0.0
 11
58.50000399999999
 21
-317.8000294999996
 31
0.0
  0
LINE
  5
1FD
100
AcDbEntity
  8
0
  6
DASHED2
 62
               7
100
AcDbLine
 10
58.50000399999999
 20
-317.8000294999996
 30
0.0
 11
16.50000399999999
 21
-317.8000294999996
 31
0.0
  0
ARC
  5
1FE
100
AcDbEntity
  8
0
  6
DASHED2
 62
               7
100
AcDbCircle
 10
51.050004000000001
 20
-319.77502949999962
 30
0.0
 40
2.0
100
AcDbArc
 50
89.99999989715981
 51
175.1777775776076
  0
LINE
  5
1FF
100
AcDbEntity
  8
0
  6
DASHED2
 62
               7
100
AcDbLine
 10
16.50000399999999
 20
-317.8000294999996
 30
0.0
 11
16.50000399999999
 21
-314.8000294999996
 31
0.0
  0
LINE
  5
200
100
AcDbEntity
  8
0
  6
DASHED2
 62
               7
100
AcDbLine
 10
28.350003999999984
 20
-325.8000294999996
 30
0.0
 11
46.675004000000001
 21
-325.8000294999996
 31
0.0
  0
ARC
  5
201
100
AcDbEntity
  8
0
  6
DASHED2
 62
               7
100
AcDbCircle
 10
28.350003999999984
 20
-323.8000294999996
 30
0.0
 40
2.0
100
AcDbArc
 50
184.92222201091735
 51
269.99999969147945
  0
LINE
  5
202
100
AcDbEntity
  8
0
  6
DASHED2
 62
               7
100
AcDbLine
 10
48.675004000000001
 20
-323.97502949999955
 30
0.0
 11
49.050004000000001
 21
-319.60002949999955
 31
0.0
  0
ARC
  5
203
100
AcDbEntity
  8
0
  6
DASHED2
 62
               7
100
AcDbCircle
 10
46.675004000000001
 20
-323.8000294999996
 30
0.0
 40
2.0
100
AcDbArc
 50
269.99999969147945
 51
355.01111070545096
  0
LINE
  5
204
100
AcDbEntity
  8
0
  6
DASHED2
 62
               7
100
AcDbLine
 10
26.350003999999984
 20
-323.97502949999955
 30
0.0
 11
25.975003999999984
 21
-319.62502949999953
 31
0.0
  0
ARC
  5
205
100
AcDbEntity
  8
0
  6
DASHED2
 62
               7
100
AcDbCircle
 10
23.975003999999984
 20
-319.8000294999996
 30
0.0
 40
2.0
100
AcDbArc
 50
5.011111105385071
 51
89.99999989715981
  0
LINE
  5
206
100
AcDbEntity
  8
LAYER001
  6
CONTINUOUS
 62
               7
100
AcDbLine
 10
31.00000399999999
 20
1.6999820000002615
 30
0.0
 11
-30.99999600000001
 21
1.6999820000002615
 31
0.0
  0
LINE
  5
207
100
AcDbEntity
  8
LAYER001
  6
CONTINUOUS
 62
               7
100
AcDbLine
 10
-65.00000399999999
 20
51.699967000000413
 30
0.0
 11
65.00000399999999
 21
51.699974000000282
 31
0.0
  0
LINE
  5
208
100
AcDbEntity
  8
LAYER001
  6
CONTINUOUS
 62
               7
100
AcDbLine
 10
-31.99999600000001
 20
2.6999820000002615
 30
0.0
 11
-31.99999600000001
 21
11.385460000000364
 31
0.0
  0
LINE
  5
209
100
AcDbEntity
  8
LAYER001
  6
CONTINUOUS
 62
               7
100
AcDbLine
 10
32.00000399999999
 20
2.6999820000002615
 30
0.0
 11
32.00000399999999
 21
11.385468000000344
 31
0.0
  0
LINE
  5
20A
100
AcDbEntity
  8
LAYER001
  6
CONTINUOUS
 62
               7
100
AcDbLine
 10
-33.111239999999725
 20
13.716263000000424
 30
0.0
 11
-61.759163000000171
 21
36.930950000000337
 31
0.0
  0
LINE
  5
20B
100
AcDbEntity
  8
LAYER001
  6
CONTINUOUS
 62
               7
100
AcDbLine
 10
-33.49999600000001
 20
5.6364600000003406
 30
0.0
 11
-33.49999600000001
 21
14.031288000000302
 31
0.0
  0
LINE
  5
20C
100
AcDbEntity
  8
LAYER001
  6
CONTINUOUS
 62
               7
100
AcDbLine
 10
33.111250000000382
 20
13.716273000000399
 30
0.0
 11
61.759169999999813
 21
36.930951000000221
 31
0.0
  0
LINE
  5
20D
100
AcDbEntity
  8
LAYER001
  6
CONTINUOUS
 62
               7
100
AcDbLine
 10
33.50000399999999
 20
5.6364820000002851
 30
0.0
 11
33.50000399999999
 21
14.031298000000277
 31
0.0
  0
ARC
  5
20E
100
AcDbEntity
  8
LAYER001
  6
CONTINUOUS
 62
               7
100
AcDbCircle
 10
-34.99999600000001
 20
11.385460000000364
 30
0.0
 40
3.0
100
AcDbArc
 50
0.0
 51
50.980580999990529
  0
ARC
  5
20F
100
AcDbEntity
  8
LAYER001
  6
CONTINUOUS
 62
               7
100
AcDbCircle
 10
-33.00000399999999
 20
3.699967000000413
 30
0.0
 40
1.000005
100
AcDbArc
 50
0.0003440000003885
 51
75.522082999961754
  0
ARC
  5
210
100
AcDbEntity
  8
LAYER001
  6
CONTINUOUS
 62
               7
100
AcDbCircle
 10
-32.49999600000001
 20
5.6364600000003406
 30
0.0
 40
1.0
100
AcDbArc
 50
180.00001999996252
 51
255.52250399997277
  0
ARC
  5
211
100
AcDbEntity
  8
LAYER001
  6
CONTINUOUS
 62
               7
100
AcDbCircle
 10
-30.99999600000001
 20
2.6999820000002615
 30
0.0
 40
1.0
100
AcDbArc
 50
180.00001999996252
 51
269.99999999994731
  0
ARC
  5
212
100
AcDbEntity
  8
LAYER001
  6
CONTINUOUS
 62
               7
100
AcDbCircle
 10
35.00000399999999
 20
11.385468000000344
 30
0.0
 40
3.0
100
AcDbArc
 50
129.01938099997781
 51
180.00001999996687
  0
ARC
  5
213
100
AcDbEntity
  8
LAYER001
  6
CONTINUOUS
 62
               7
100
AcDbCircle
 10
33.00000399999999
 20
3.7000050000003171
 30
0.0
 40
0.999985
100
AcDbArc
 50
104.47770799999496
 51
180.0011659999625
  0
ARC
  5
214
100
AcDbEntity
  8
LAYER001
  6
CONTINUOUS
 62
               7
100
AcDbCircle
 10
31.00000399999999
 20
2.6999820000002615
 30
0.0
 40
1.0
100
AcDbArc
 50
269.99999999994731
 51
359.99998199993485
  0
ARC
  5
215
100
AcDbEntity
  8
LAYER001
  6
CONTINUOUS
 62
               7
100
AcDbCircle
 10
32.50000399999999
 20
5.6364820000002851
 30
0.0
 40
1.0
100
AcDbArc
 50
284.47749899995813
 51
359.99998199993485
  0
LINE
  5
216
100
AcDbEntity
  8
LAYER001
  6
CONTINUOUS
 62
               7
100
AcDbLine
 10
32.80514600000015
 20
14.031298000000277
 30
0.0
 11
-32.594854000000396
 21
14.031298000000277
 31
0.0
  0
ARC
  5
217
100
AcDbEntity
  8
LAYER001
  6
CONTINUOUS
 62
               7
100
AcDbCircle
 10
60.50000399999999
 20
38.484817000000419
 30
0.0
 40
2.0
100
AcDbArc
 50
309.01938099993538
 51
359.9999999999992
  0
ARC
  5
218
100
AcDbEntity
  8
LAYER001
  6
CONTINUOUS
 62
               7
100
AcDbCircle
 10
-60.49999600000001
 20
38.484816000000308
 30
0.0
 40
2.0
100
AcDbArc
 50
179.99999999996703
 51
230.98060999995329
  0
LINE
  5
219
100
AcDbEntity
  8
LAYER001
  6
CONTINUOUS
 62
               7
100
AcDbLine
 10
3.0000039999999899
 20
4.6999820000002615
 30
0.0
 11
-2.9999960000000101
 21
4.6999820000002615
 31
0.0
  0
LINE
  5
21A
100
AcDbEntity
  8
LAYER001
  6
CONTINUOUS
 62
               7
100
AcDbLine
 10
-3.9999960000000101
 20
14.031298000000277
 30
0.0
 11
-3.9999960000000101
 21
5.6999820000002615
 31
0.0
  0
LINE
  5
21B
100
AcDbEntity
  8
LAYER001
  6
CONTINUOUS
 62
               7
100
AcDbLine
 10
4.0000039999999899
 20
14.031298000000277
 30
0.0
 11
4.0000039999999899
 21
5.6999820000002615
 31
0.0
  0
ARC
  5
21C
100
AcDbEntity
  8
LAYER001
  6
CONTINUOUS
 62
               7
100
AcDbCircle
 10
3.0000039999999899
 20
5.6999820000002615
 30
0.0
 40
1.0
100
AcDbArc
 50
269.99999999994731
 51
359.9999999999992
  0
ARC
  5
21D
100
AcDbEntity
  8
LAYER001
  6
CONTINUOUS
 62
               7
100
AcDbCircle
 10
-2.9999960000000101
 20
5.6999820000002615
 30
0.0
 40
1.0
100
AcDbArc
 50
179.99999999996052
 51
269.99999999994731
  0
LINE
  5
21E
100
AcDbEntity
  8
LAYER001
  6
CONTINUOUS
 62
               7
100
AcDbLine
 10
-59.594854000000396
 20
36.930950000000337
 30
0.0
 11
60.205145999999786
 21
36.930950000000337
 31
0.0
  0
LINE
  5
21F
100
AcDbEntity
  8
LAYER001
  6
CONTINUOUS
 62
               7
100
AcDbLine
 10
-65.00000399999999
 20
51.699967000000413
 30
0.0
 11
-65.00000399999999
 21
49.699967000000413
 31
0.0
  0
ARC
  5
220
100
AcDbEntity
  8
LAYER001
  6
CONTINUOUS
 62
               7
100
AcDbCircle
 10
-64.50000399999999
 20
47.699967000000413
 30
0.0
 40
2.0
100
AcDbArc
 50
0.0
 51
89.999999999973738
  0
LINE
  5
221
100
AcDbEntity
  8
LAYER001
  6
CONTINUOUS
 62
               7
100
AcDbLine
 10
-62.49999600000001
 20
38.484816000000308
 30
0.0
 11
-62.49999600000001
 21
47.699967000000413
 31
0.0
  0
LINE
  5
222
100
AcDbEntity
  8
LAYER001
  6
CONTINUOUS
 62
               7
100
AcDbLine
 10
-65.00000399999999
 20
49.699967000000413
 30
0.0
 11
65.00000399999999
 21
49.699967000000413
 31
0.0
  0
ARC
  5
223
100
AcDbEntity
  8
LAYER001
  6
CONTINUOUS
 62
               7
100
AcDbCircle
 10
64.50001199999997
 20
47.699967000000413
 30
0.0
 40
2.0
100
AcDbArc
 50
89.999999999973738
 51
179.99999999996703
  0
LINE
  5
224
100
AcDbEntity
  8
LAYER001
  6
CONTINUOUS
 62
               7
100
AcDbLine
 10
65.00001199999997
 20
51.699967000000413
 30
0.0
 11
65.00001199999997
 21
49.699967000000413
 31
0.0
  0
LINE
  5
225
100
AcDbEntity
  8
LAYER001
  6
CONTINUOUS
 62
               7
100
AcDbLine
 10
62.50000399999999
 20
38.484817000000419
 30
0.0
 11
62.50000399999999
 21
47.699967000000413
 31
0.0
  0
LINE
  5
226
100
AcDbEntity
  8
LAYER001
  6
CONTINUOUS
 62
               7
100
AcDbLine
 10
-30.24999600000001
 20
1.6999820000002615
 30
0.0
 11
-30.24999600000001
 21
-48.300029499999539
 31
0.0
  0
LINE
  5
227
100
AcDbEntity
  8
LAYER001
  6
CONTINUOUS
 62
               7
100
AcDbLine
 10
30.25000399999999
 20
1.6999820000002615
 30
0.0
 11
30.25000399999999
 21
-48.300029499999539
 31
0.0
  0
CIRCLE
  5
228
100
AcDbEntity
  8
LAYER001
  6
CONTINUOUS
 62
               7
100
AcDbCircle
 10
-0.0000080000004459
 20
231.69997050000057
 30
0.0
 40
71.0
  0
LINE
  5
229
100
AcDbEntity
  8
LAYER001
  6
DASHDOT
 62
               7
100
AcDbLine
 10
169.49999199999957
 20
231.69998850000076
 30
0.0
 11
-115.50000800000045
 21
231.69995750000072
 31
0.0
  0
LINE
  5
22A
100
AcDbEntity
  8
LAYER001
  6
DASHDOT
 62
               7
100
AcDbLine
 10
-0.0000080000004459
 20
346.20000950000059
 30
0.0
 11
-0.0000080000004459
 21
115.20000950000059
 31
0.0
  0
ENDSEC
  0
SECTION
  2
OBJECTS
  0
DICTIONARY
  5
19
100
AcDbDictionary
  3
ACAD_GROUP
350
1A
  3
ACAD_MLINESTYLE
350
1B
  0
DICTIONARY
  5
1A
102
{ACAD_REACTORS
330
19
102
}
100
AcDbDictionary
  0
DICTIONARY
  5
1B
102
{ACAD_REACTORS
330
19
102
}
100
AcDbDictionary
  3
STANDARD
350
1C
  0
MLINESTYLE
  5
1C
102
{ACAD_REACTORS
330
1B
102
}
100
AcDbMlineStyle
  2
STANDARD
 70
               0
  3

 62
               0
 51
90.0
 52
90.0
 71
               2
 49
0.5
 62
             256
  6
BYLAYER
 49
-0.5
 62
             256
  6
BYLAYER
  0
ENDSEC
  0
EOF
