  0
SECTION
  2
HEADER
  9
$ACADVER
  1
AC1009
  9
$INSBASE
 10
0.0
 20
0.0
 30
0.0
  9
$EXTMIN
 10
-163.80000000000001
 20
-465.86038945999979
 30
0.0
  9
$EXTMAX
 10
163.80000000000001
 20
730.50706646000003
 30
0.0
  9
$LIMMIN
 10
-174.03750000000002
 20
-503.24687245749976
  9
$LIMMAX
 10
174.03750000000002
 20
767.89354945750006
  9
$ORTHOMODE
 70
               0
  9
$REGENMODE
 70
               1
  9
$FILLMODE
 70
               1
  9
$QTEXTMODE
 70
               0
  9
$MIRRTEXT
 70
               1
  9
$DRAGMODE
 70
               2
  9
$LTSCALE
 40
1.0
  9
$OSMODE
 70
               0
  9
$ATTMODE
 70
               1
  9
$TEXTSIZE
 40
0.2
  9
$TRACEWID
 40
0.05
  9
$TEXTSTYLE
  7
STANDARD
  9
$CLAYER
  8
0
  9
$CELTYPE
  6
CONTINUOUS
  9
$CECOLOR
 62
             256
  9
$DIMSCALE
 40
1.0
  9
$DIMASZ
 40
0.18
  9
$DIMEXO
 40
0.0625
  9
$DIMDLI
 40
0.38
  9
$DIMRND
 40
0.0
  9
$DIMDLE
 40
0.0
  9
$DIMEXE
 40
0.18
  9
$DIMTP
 40
0.0
  9
$DIMTM
 40
0.0
  9
$DIMTXT
 40
0.18
  9
$DIMCEN
 40
0.09
  9
$DIMTSZ
 40
0.0
  9
$DIMTOL
 70
               0
  9
$DIMLIM
 70
               0
  9
$DIMTIH
 70
               1
  9
$DIMTOH
 70
               1
  9
$DIMSE1
 70
               0
  9
$DIMSE2
 70
               0
  9
$DIMTAD
 70
               0
  9
$DIMZIN
 70
               0
  9
$DIMBLK
  1

  9
$DIMASO
 70
               1
  9
$DIMSHO
 70
               1
  9
$DIMPOST
  1

  9
$DIMAPOST
  1

  9
$DIMALT
 70
               0
  9
$DIMALTD
 70
               2
  9
$DIMALTF
 40
25.399999999999999
  9
$DIMLFAC
 40
1.0
  9
$DIMTOFL
 70
               0
  9
$DIMTVP
 40
0.0
  9
$DIMTIX
 70
               0
  9
$DIMSOXD
 70
               0
  9
$DIMSAH
 70
               0
  9
$DIMBLK1
  1

  9
$DIMBLK2
  1

  9
$DIMSTYLE
  2
STANDARD
  9
$DIMCLRD
 70
               0
  9
$DIMCLRE
 70
               0
  9
$DIMCLRT
 70
               0
  9
$DIMTFAC
 40
1.0
  9
$DIMGAP
 40
0.09
  9
$LUNITS
 70
               2
  9
$LUPREC
 70
               4
  9
$AXISMODE
 70
               0
  9
$AXISUNIT
 10
0.0
 20
0.0
  9
$SKETCHINC
 40
0.1
  9
$FILLETRAD
 40
0.0
  9
$AUNITS
 70
               0
  9
$AUPREC
 70
               0
  9
$MENU
  1
acad
  9
$ELEVATION
 40
0.0
  9
$PELEVATION
 40
0.0
  9
$THICKNESS
 40
0.0
  9
$LIMCHECK
 70
               0
  9
$BLIPMODE
 70
               1
  9
$CHAMFERA
 40
0.0
  9
$CHAMFERB
 40
0.0
  9
$SKPOLY
 70
               0
  9
$TDCREATE
 40
0.000000000
  9
$TDUPDATE
 40
0.000000000
  9
$TDINDWG
 40
0.0000000000
  9
$TDUSRTIMER
 40
0.0000000000
  9
$USRTIMER
 70
               1
  9
$ANGBASE
 50
0.0
  9
$ANGDIR
 70
               0
  9
$PDMODE
 70
               0
  9
$PDSIZE
 40
1.0
  9
$PLINEWID
 40
0.0
  9
$COORDS
 70
               1
  9
$SPLFRAME
 70
               0
  9
$SPLINETYPE
 70
               6
  9
$SPLINESEGS
 70
               8
  9
$ATTDIA
 70
               0
  9
$ATTREQ
 70
               1
  9
$HANDLING
 70
               1
  9
$HANDSEED
  5
246
  9
$SURFTAB1
 70
               6
  9
$SURFTAB2
 70
               6
  9
$SURFTYPE
 70
               6
  9
$SURFU
 70
               6
  9
$SURFV
 70
               6
  9
$UCSNAME
  2

  9
$UCSORG
 10
0.0
 20
0.0
 30
0.0
  9
$UCSXDIR
 10
1.0
 20
0.0
 30
0.0
  9
$UCSYDIR
 10
0.0
 20
1.0
 30
0.0
  9
$PUCSNAME
  2

  9
$PUCSORG
 10
0.0
 20
0.0
 30
0.0
  9
$PUCSXDIR
 10
1.0
 20
0.0
 30
0.0
  9
$PUCSYDIR
 10
0.0
 20
1.0
 30
0.0
  9
$USERI1
 70
               0
  9
$USERI2
 70
               0
  9
$USERI3
 70
               0
  9
$USERI4
 70
               0
  9
$USERI5
 70
               0
  9
$USERR1
 40
0.0
  9
$USERR2
 40
0.0
  9
$USERR3
 40
0.0
  9
$USERR4
 40
0.0
  9
$USERR5
 40
0.0
  9
$WORLDVIEW
 70
               1
  9
$SHADEDGE
 70
               3
  9
$SHADEDIF
 70
              70
  9
$TILEMODE
 70
               1
  9
$MAXACTVP
 70
              16
  9
$PINSBASE
 10
0.0
 20
0.0
 30
0.0
  9
$PLIMCHECK
 70
               0
  9
$PEXTMIN
 10
1.0000000000000000E+20
 20
1.0000000000000000E+20
 30
1.0000000000000000E+20
  9
$PEXTMAX
 10
-1.0000000000000000E+20
 20
-1.0000000000000000E+20
 30
-1.0000000000000000E+20
  9
$PLIMMIN
 10
0.0
 20
0.0
  9
$PLIMMAX
 10
12.0
 20
9.0
  9
$UNITMODE
 70
               0
  9
$VISRETAIN
 70
               0
  9
$PLINEGEN
 70
               1
  9
$PSLTSCALE
 70
               0
  9
$TREEDEPTH
 70
            3020
  9
$DWGCODEPAGE
  3
dos932
  0
ENDSEC
  0
SECTION
  2
TABLES
  0
TABLE
  2
VPORT
 70
               1
  0
VPORT
  2
*ACTIVE
 70
               0
 10
0.0
 20
0.0
 11
1.0
 21
1.0
 12
0.0
 22
132.32333850000015
 13
0.0
 23
0.0
 14
1.0
 24
1.0
 15
0.0
 25
0.0
 16
0.0
 26
0.0
 36
1.0
 17
0.0
 27
0.0
 37
0.0
 40
1271.1404219149999
 41
0.2738289129973679
 42
50.0
 43
0.0
 44
0.0
 50
0.0
 51
0.0
 71
               0
 72
             100
 73
               1
 74
               1
 75
               0
 76
               0
 77
               0
 78
               0
  0
ENDTAB
  0
TABLE
  2
LTYPE
 70
              26
  0
LTYPE
  2
CONTINUOUS
 70
               0
  3
Solid line
 72
              65
 73
               0
 40
0.0
  0
LTYPE
  2
HIDDENX2
 70
               0
  3
CADPAC FUSION LINETYPE
 72
              65
 73
               2
 40
95.120000000000005
 49
71.340000000000003
 49
-23.780000000000001
  0
LTYPE
  2
HIDDEN
 70
               0
  3
CADPAC FUSION LINETYPE
 72
              65
 73
               2
 40
71.340000000000003
 49
47.560000000000002
 49
-23.780000000000001
  0
LTYPE
  2
HIDDEN2
 70
               0
  3
CADPAC FUSION LINETYPE
 72
              65
 73
               2
 40
59.450000000000003
 49
35.670000000000002
 49
-23.780000000000001
  0
LTYPE
  2
DASHED
 70
               0
  3
CADPAC FUSION LINETYPE
 72
              65
 73
               2
 40
71.340000000000003
 49
47.560000000000002
 49
-23.780000000000001
  0
LTYPE
  2
DASHED2
 70
               0
  3
CADPAC FUSION LINETYPE
 72
              65
 73
               2
 40
53.505000000000003
 49
35.670000000000002
 49
-17.835000000000001
  0
LTYPE
  2
DASHEDX2
 70
               0
  3
CADPAC FUSION LINETYPE
 72
              65
 73
               2
 40
107.01000000000001
 49
71.340000000000003
 49
-35.670000000000002
  0
LTYPE
  2
DOTX2
 70
               0
  3
CADPAC FUSION LINETYPE
 72
              65
 73
               2
 40
29.725000000000001
 49
0.0
 49
-29.725000000000001
  0
LTYPE
  2
DOT
 70
               0
  3
CADPAC FUSION LINETYPE
 72
              65
 73
               2
 40
23.780000000000001
 49
0.0
 49
-23.780000000000001
  0
LTYPE
  2
DOTS
 70
               0
  3
CADPAC FUSION LINETYPE
 72
              65
 73
               2
 40
23.780000000000001
 49
0.0
 49
-23.780000000000001
  0
LTYPE
  2
DOT2
 70
               0
  3
CADPAC FUSION LINETYPE
 72
              65
 73
               2
 40
17.835000000000001
 49
0.0
 49
-17.835000000000001
  0
LTYPE
  2
CENTERX2
 70
               0
  3
CADPAC FUSION LINETYPE
 72
              65
 73
               4
 40
142.68000000000001
 49
59.450000000000003
 49
-29.725000000000001
 49
23.780000000000001
 49
-29.725000000000001
  0
LTYPE
  2
CENTER
 70
               0
  3
CADPAC FUSION LINETYPE
 72
              65
 73
               4
 40
109.38800000000001
 49
47.560000000000002
 49
-23.780000000000001
 49
14.268000000000001
 49
-23.780000000000001
  0
LTYPE
  2
CENTER2
 70
               0
  3
CADPAC FUSION LINETYPE
 72
              65
 73
               4
 40
76.096000000000004
 49
35.670000000000002
 49
-17.835000000000001
 49
4.7560000000000002
 49
-17.835000000000001
  0
LTYPE
  2
DASHDOTX2
 70
               0
  3
CADPAC FUSION LINETYPE
 72
              65
 73
               4
 40
118.90000000000001
 49
59.450000000000003
 49
-29.725000000000001
 49
0.0
 49
-29.725000000000001
  0
LTYPE
  2
DASHDOT
 70
               0
  3
CADPAC FUSION LINETYPE
 72
              65
 73
               4
 40
95.120000000000005
 49
47.560000000000002
 49
-23.780000000000001
 49
0.0
 49
-23.780000000000001
  0
LTYPE
  2
DASHDOT2
 70
               0
  3
CADPAC FUSION LINETYPE
 72
              65
 73
               4
 40
71.340000000000003
 49
35.670000000000002
 49
-17.835000000000001
 49
0.0
 49
-17.835000000000001
  0
LTYPE
  2
DIVIDEX2
 70
               0
  3
CADPAC FUSION LINETYPE
 72
              65
 73
               6
 40
148.625
 49
59.450000000000003
 49
-29.725000000000001
 49
0.0
 49
-29.725000000000001
 49
0.0
 49
-29.725000000000001
  0
LTYPE
  2
DIVIDE
 70
               0
  3
CADPAC FUSION LINETYPE
 72
              65
 73
               6
 40
118.90000000000001
 49
47.560000000000002
 49
-23.780000000000001
 49
0.0
 49
-23.780000000000001
 49
0.0
 49
-23.780000000000001
  0
LTYPE
  2
DIVIDE2
 70
               0
  3
CADPAC FUSION LINETYPE
 72
              65
 73
               6
 40
89.175000000000011
 49
35.670000000000002
 49
-17.835000000000001
 49
0.0
 49
-17.835000000000001
 49
0.0
 49
-17.835000000000001
  0
LTYPE
  2
BORDERX2
 70
               0
  3
CADPAC FUSION LINETYPE
 72
              65
 73
               6
 40
208.07500000000002
 49
59.450000000000003
 49
-29.725000000000001
 49
59.450000000000003
 49
-29.725000000000001
 49
0.0
 49
-29.725000000000001
  0
LTYPE
  2
BORDER
 70
               0
  3
CADPAC FUSION LINETYPE
 72
              65
 73
               6
 40
166.46000000000001
 49
47.560000000000002
 49
-23.780000000000001
 49
47.560000000000002
 49
-23.780000000000001
 49
0.0
 49
-23.780000000000001
  0
LTYPE
  2
BORDER2
 70
               0
  3
CADPAC FUSION LINETYPE
 72
              65
 73
               6
 40
124.845
 49
35.670000000000002
 49
-17.835000000000001
 49
35.670000000000002
 49
-17.835000000000001
 49
0.0
 49
-17.835000000000001
  0
LTYPE
  2
PHANTOMX2
 70
               0
  3
CADPAC FUSION LINETYPE
 72
              65
 73
               6
 40
178.35000000000002
 49
59.450000000000003
 49
-23.780000000000001
 49
23.780000000000001
 49
-23.780000000000001
 49
23.780000000000001
 49
-23.780000000000001
  0
LTYPE
  2
PHANTOM
 70
               0
  3
CADPAC FUSION LINETYPE
 72
              65
 73
               6
 40
147.43600000000001
 49
47.560000000000002
 49
-23.780000000000001
 49
14.268000000000001
 49
-23.780000000000001
 49
14.268000000000001
 49
-23.780000000000001
  0
LTYPE
  2
PHANTOM2
 70
               0
  3
CADPAC FUSION LINETYPE
 72
              65
 73
               6
 40
126.03400000000001
 49
35.670000000000002
 49
-23.780000000000001
 49
9.5120000000000005
 49
-23.780000000000001
 49
9.5120000000000005
 49
-23.780000000000001
  0
ENDTAB
  0
TABLE
  2
LAYER
 70
             256
  0
LAYER
  2
0
 70
               0
 62
               7
  6
CONTINUOUS
  0
LAYER
  2
LAYER001
 70
               0
 62
               7
  6
CONTINUOUS
  0
LAYER
  2
LAYER002
 70
               0
 62
               7
  6
CONTINUOUS
  0
LAYER
  2
LAYER003
 70
               0
 62
               7
  6
CONTINUOUS
  0
LAYER
  2
LAYER004
 70
               0
 62
               7
  6
CONTINUOUS
  0
LAYER
  2
LAYER005
 70
               0
 62
               7
  6
CONTINUOUS
  0
LAYER
  2
LAYER006
 70
               0
 62
               7
  6
CONTINUOUS
  0
LAYER
  2
LAYER007
 70
               0
 62
               7
  6
CONTINUOUS
  0
LAYER
  2
LAYER008
 70
               0
 62
               7
  6
CONTINUOUS
  0
LAYER
  2
LAYER009
 70
               0
 62
               7
  6
CONTINUOUS
  0
LAYER
  2
LAYER010
 70
               0
 62
               7
  6
CONTINUOUS
  0
LAYER
  2
LAYER011
 70
               0
 62
               7
  6
CONTINUOUS
  0
LAYER
  2
LAYER012
 70
               0
 62
               7
  6
CONTINUOUS
  0
LAYER
  2
LAYER013
 70
               0
 62
               7
  6
CONTINUOUS
  0
LAYER
  2
LAYER014
 70
               0
 62
               7
  6
CONTINUOUS
  0
LAYER
  2
LAYER015
 70
               0
 62
               7
  6
CONTINUOUS
  0
LAYER
  2
LAYER016
 70
               0
 62
               7
  6
CONTINUOUS
  0
LAYER
  2
LAYER017
 70
               0
 62
               7
  6
CONTINUOUS
  0
LAYER
  2
LAYER018
 70
               0
 62
               7
  6
CONTINUOUS
  0
LAYER
  2
LAYER019
 70
               0
 62
               7
  6
CONTINUOUS
  0
LAYER
  2
LAYER020
 70
               0
 62
               7
  6
CONTINUOUS
  0
LAYER
  2
LAYER021
 70
               0
 62
               7
  6
CONTINUOUS
  0
LAYER
  2
LAYER022
 70
               0
 62
               7
  6
CONTINUOUS
  0
LAYER
  2
LAYER023
 70
               0
 62
               7
  6
CONTINUOUS
  0
LAYER
  2
LAYER024
 70
               0
 62
               7
  6
CONTINUOUS
  0
LAYER
  2
LAYER025
 70
               0
 62
               7
  6
CONTINUOUS
  0
LAYER
  2
LAYER026
 70
               0
 62
               7
  6
CONTINUOUS
  0
LAYER
  2
LAYER027
 70
               0
 62
               7
  6
CONTINUOUS
  0
LAYER
  2
LAYER028
 70
               0
 62
               7
  6
CONTINUOUS
  0
LAYER
  2
LAYER029
 70
               0
 62
               7
  6
CONTINUOUS
  0
LAYER
  2
LAYER030
 70
               0
 62
               7
  6
CONTINUOUS
  0
LAYER
  2
LAYER031
 70
               0
 62
               7
  6
CONTINUOUS
  0
LAYER
  2
LAYER032
 70
               0
 62
               7
  6
CONTINUOUS
  0
LAYER
  2
LAYER033
 70
               0
 62
               7
  6
CONTINUOUS
  0
LAYER
  2
LAYER034
 70
               0
 62
               7
  6
CONTINUOUS
  0
LAYER
  2
LAYER035
 70
               0
 62
               7
  6
CONTINUOUS
  0
LAYER
  2
LAYER036
 70
               0
 62
               7
  6
CONTINUOUS
  0
LAYER
  2
LAYER037
 70
               0
 62
               7
  6
CONTINUOUS
  0
LAYER
  2
LAYER038
 70
               0
 62
               7
  6
CONTINUOUS
  0
LAYER
  2
LAYER039
 70
               0
 62
               7
  6
CONTINUOUS
  0
LAYER
  2
LAYER040
 70
               0
 62
               7
  6
CONTINUOUS
  0
LAYER
  2
LAYER041
 70
               0
 62
               7
  6
CONTINUOUS
  0
LAYER
  2
LAYER042
 70
               0
 62
               7
  6
CONTINUOUS
  0
LAYER
  2
LAYER043
 70
               0
 62
               7
  6
CONTINUOUS
  0
LAYER
  2
LAYER044
 70
               0
 62
               7
  6
CONTINUOUS
  0
LAYER
  2
LAYER045
 70
               0
 62
               7
  6
CONTINUOUS
  0
LAYER
  2
LAYER046
 70
               0
 62
               7
  6
CONTINUOUS
  0
LAYER
  2
LAYER047
 70
               0
 62
               7
  6
CONTINUOUS
  0
LAYER
  2
LAYER048
 70
               0
 62
               7
  6
CONTINUOUS
  0
LAYER
  2
LAYER049
 70
               0
 62
               7
  6
CONTINUOUS
  0
LAYER
  2
LAYER050
 70
               0
 62
               7
  6
CONTINUOUS
  0
LAYER
  2
LAYER051
 70
               0
 62
               7
  6
CONTINUOUS
  0
LAYER
  2
LAYER052
 70
               0
 62
               7
  6
CONTINUOUS
  0
LAYER
  2
LAYER053
 70
               0
 62
               7
  6
CONTINUOUS
  0
LAYER
  2
LAYER054
 70
               0
 62
               7
  6
CONTINUOUS
  0
LAYER
  2
LAYER055
 70
               0
 62
               7
  6
CONTINUOUS
  0
LAYER
  2
LAYER056
 70
               0
 62
               7
  6
CONTINUOUS
  0
LAYER
  2
LAYER057
 70
               0
 62
               7
  6
CONTINUOUS
  0
LAYER
  2
LAYER058
 70
               0
 62
               7
  6
CONTINUOUS
  0
LAYER
  2
LAYER059
 70
               0
 62
               7
  6
CONTINUOUS
  0
LAYER
  2
LAYER060
 70
               0
 62
               7
  6
CONTINUOUS
  0
LAYER
  2
LAYER061
 70
               0
 62
               7
  6
CONTINUOUS
  0
LAYER
  2
LAYER062
 70
               0
 62
               7
  6
CONTINUOUS
  0
LAYER
  2
LAYER063
 70
               0
 62
               7
  6
CONTINUOUS
  0
LAYER
  2
LAYER064
 70
               0
 62
               7
  6
CONTINUOUS
  0
LAYER
  2
LAYER065
 70
               0
 62
               7
  6
CONTINUOUS
  0
LAYER
  2
LAYER066
 70
               0
 62
               7
  6
CONTINUOUS
  0
LAYER
  2
LAYER067
 70
               0
 62
               7
  6
CONTINUOUS
  0
LAYER
  2
LAYER068
 70
               0
 62
               7
  6
CONTINUOUS
  0
LAYER
  2
LAYER069
 70
               0
 62
               7
  6
CONTINUOUS
  0
LAYER
  2
LAYER070
 70
               0
 62
               7
  6
CONTINUOUS
  0
LAYER
  2
LAYER071
 70
               0
 62
               7
  6
CONTINUOUS
  0
LAYER
  2
LAYER072
 70
               0
 62
               7
  6
CONTINUOUS
  0
LAYER
  2
LAYER073
 70
               0
 62
               7
  6
CONTINUOUS
  0
LAYER
  2
LAYER074
 70
               0
 62
               7
  6
CONTINUOUS
  0
LAYER
  2
LAYER075
 70
               0
 62
               7
  6
CONTINUOUS
  0
LAYER
  2
LAYER076
 70
               0
 62
               7
  6
CONTINUOUS
  0
LAYER
  2
LAYER077
 70
               0
 62
               7
  6
CONTINUOUS
  0
LAYER
  2
LAYER078
 70
               0
 62
               7
  6
CONTINUOUS
  0
LAYER
  2
LAYER079
 70
               0
 62
               7
  6
CONTINUOUS
  0
LAYER
  2
LAYER080
 70
               0
 62
               7
  6
CONTINUOUS
  0
LAYER
  2
LAYER081
 70
               0
 62
               7
  6
CONTINUOUS
  0
LAYER
  2
LAYER082
 70
               0
 62
               7
  6
CONTINUOUS
  0
LAYER
  2
LAYER083
 70
               0
 62
               7
  6
CONTINUOUS
  0
LAYER
  2
LAYER084
 70
               0
 62
               7
  6
CONTINUOUS
  0
LAYER
  2
LAYER085
 70
               0
 62
               7
  6
CONTINUOUS
  0
LAYER
  2
LAYER086
 70
               0
 62
               7
  6
CONTINUOUS
  0
LAYER
  2
LAYER087
 70
               0
 62
               7
  6
CONTINUOUS
  0
LAYER
  2
LAYER088
 70
               0
 62
               7
  6
CONTINUOUS
  0
LAYER
  2
LAYER089
 70
               0
 62
               7
  6
CONTINUOUS
  0
LAYER
  2
LAYER090
 70
               0
 62
               7
  6
CONTINUOUS
  0
LAYER
  2
LAYER091
 70
               0
 62
               7
  6
CONTINUOUS
  0
LAYER
  2
LAYER092
 70
               0
 62
               7
  6
CONTINUOUS
  0
LAYER
  2
LAYER093
 70
               0
 62
               7
  6
CONTINUOUS
  0
LAYER
  2
LAYER094
 70
               0
 62
               7
  6
CONTINUOUS
  0
LAYER
  2
LAYER095
 70
               0
 62
               7
  6
CONTINUOUS
  0
LAYER
  2
LAYER096
 70
               0
 62
               7
  6
CONTINUOUS
  0
LAYER
  2
LAYER097
 70
               0
 62
               7
  6
CONTINUOUS
  0
LAYER
  2
LAYER098
 70
               0
 62
               7
  6
CONTINUOUS
  0
LAYER
  2
LAYER099
 70
               0
 62
               7
  6
CONTINUOUS
  0
LAYER
  2
LAYER100
 70
               0
 62
               7
  6
CONTINUOUS
  0
LAYER
  2
LAYER101
 70
               0
 62
               7
  6
CONTINUOUS
  0
LAYER
  2
LAYER102
 70
               0
 62
               7
  6
CONTINUOUS
  0
LAYER
  2
LAYER103
 70
               0
 62
               7
  6
CONTINUOUS
  0
LAYER
  2
LAYER104
 70
               0
 62
               7
  6
CONTINUOUS
  0
LAYER
  2
LAYER105
 70
               0
 62
               7
  6
CONTINUOUS
  0
LAYER
  2
LAYER106
 70
               0
 62
               7
  6
CONTINUOUS
  0
LAYER
  2
LAYER107
 70
               0
 62
               7
  6
CONTINUOUS
  0
LAYER
  2
LAYER108
 70
               0
 62
               7
  6
CONTINUOUS
  0
LAYER
  2
LAYER109
 70
               0
 62
               7
  6
CONTINUOUS
  0
LAYER
  2
LAYER110
 70
               0
 62
               7
  6
CONTINUOUS
  0
LAYER
  2
LAYER111
 70
               0
 62
               7
  6
CONTINUOUS
  0
LAYER
  2
LAYER112
 70
               0
 62
               7
  6
CONTINUOUS
  0
LAYER
  2
LAYER113
 70
               0
 62
               7
  6
CONTINUOUS
  0
LAYER
  2
LAYER114
 70
               0
 62
               7
  6
CONTINUOUS
  0
LAYER
  2
LAYER115
 70
               0
 62
               7
  6
CONTINUOUS
  0
LAYER
  2
LAYER116
 70
               0
 62
               7
  6
CONTINUOUS
  0
LAYER
  2
LAYER117
 70
               0
 62
               7
  6
CONTINUOUS
  0
LAYER
  2
LAYER118
 70
               0
 62
               7
  6
CONTINUOUS
  0
LAYER
  2
LAYER119
 70
               0
 62
               7
  6
CONTINUOUS
  0
LAYER
  2
LAYER120
 70
               0
 62
               7
  6
CONTINUOUS
  0
LAYER
  2
LAYER121
 70
               0
 62
               7
  6
CONTINUOUS
  0
LAYER
  2
LAYER122
 70
               0
 62
               7
  6
CONTINUOUS
  0
LAYER
  2
LAYER123
 70
               0
 62
               7
  6
CONTINUOUS
  0
LAYER
  2
LAYER124
 70
               0
 62
               7
  6
CONTINUOUS
  0
LAYER
  2
LAYER125
 70
               0
 62
               7
  6
CONTINUOUS
  0
LAYER
  2
LAYER126
 70
               0
 62
               7
  6
CONTINUOUS
  0
LAYER
  2
LAYER127
 70
               0
 62
               7
  6
CONTINUOUS
  0
LAYER
  2
LAYER128
 70
               0
 62
               7
  6
CONTINUOUS
  0
LAYER
  2
LAYER129
 70
               0
 62
               7
  6
CONTINUOUS
  0
LAYER
  2
LAYER130
 70
               0
 62
               7
  6
CONTINUOUS
  0
LAYER
  2
LAYER131
 70
               0
 62
               7
  6
CONTINUOUS
  0
LAYER
  2
LAYER132
 70
               0
 62
               7
  6
CONTINUOUS
  0
LAYER
  2
LAYER133
 70
               0
 62
               7
  6
CONTINUOUS
  0
LAYER
  2
LAYER134
 70
               0
 62
               7
  6
CONTINUOUS
  0
LAYER
  2
LAYER135
 70
               0
 62
               7
  6
CONTINUOUS
  0
LAYER
  2
LAYER136
 70
               0
 62
               7
  6
CONTINUOUS
  0
LAYER
  2
LAYER137
 70
               0
 62
               7
  6
CONTINUOUS
  0
LAYER
  2
LAYER138
 70
               0
 62
               7
  6
CONTINUOUS
  0
LAYER
  2
LAYER139
 70
               0
 62
               7
  6
CONTINUOUS
  0
LAYER
  2
LAYER140
 70
               0
 62
               7
  6
CONTINUOUS
  0
LAYER
  2
LAYER141
 70
               0
 62
               7
  6
CONTINUOUS
  0
LAYER
  2
LAYER142
 70
               0
 62
               7
  6
CONTINUOUS
  0
LAYER
  2
LAYER143
 70
               0
 62
               7
  6
CONTINUOUS
  0
LAYER
  2
LAYER144
 70
               0
 62
               7
  6
CONTINUOUS
  0
LAYER
  2
LAYER145
 70
               0
 62
               7
  6
CONTINUOUS
  0
LAYER
  2
LAYER146
 70
               0
 62
               7
  6
CONTINUOUS
  0
LAYER
  2
LAYER147
 70
               0
 62
               7
  6
CONTINUOUS
  0
LAYER
  2
LAYER148
 70
               0
 62
               7
  6
CONTINUOUS
  0
LAYER
  2
LAYER149
 70
               0
 62
               7
  6
CONTINUOUS
  0
LAYER
  2
LAYER150
 70
               0
 62
               7
  6
CONTINUOUS
  0
LAYER
  2
LAYER151
 70
               0
 62
               7
  6
CONTINUOUS
  0
LAYER
  2
LAYER152
 70
               0
 62
               7
  6
CONTINUOUS
  0
LAYER
  2
LAYER153
 70
               0
 62
               7
  6
CONTINUOUS
  0
LAYER
  2
LAYER154
 70
               0
 62
               7
  6
CONTINUOUS
  0
LAYER
  2
LAYER155
 70
               0
 62
               7
  6
CONTINUOUS
  0
LAYER
  2
LAYER156
 70
               0
 62
               7
  6
CONTINUOUS
  0
LAYER
  2
LAYER157
 70
               0
 62
               7
  6
CONTINUOUS
  0
LAYER
  2
LAYER158
 70
               0
 62
               7
  6
CONTINUOUS
  0
LAYER
  2
LAYER159
 70
               0
 62
               7
  6
CONTINUOUS
  0
LAYER
  2
LAYER160
 70
               0
 62
               7
  6
CONTINUOUS
  0
LAYER
  2
LAYER161
 70
               0
 62
               7
  6
CONTINUOUS
  0
LAYER
  2
LAYER162
 70
               0
 62
               7
  6
CONTINUOUS
  0
LAYER
  2
LAYER163
 70
               0
 62
               7
  6
CONTINUOUS
  0
LAYER
  2
LAYER164
 70
               0
 62
               7
  6
CONTINUOUS
  0
LAYER
  2
LAYER165
 70
               0
 62
               7
  6
CONTINUOUS
  0
LAYER
  2
LAYER166
 70
               0
 62
               7
  6
CONTINUOUS
  0
LAYER
  2
LAYER167
 70
               0
 62
               7
  6
CONTINUOUS
  0
LAYER
  2
LAYER168
 70
               0
 62
               7
  6
CONTINUOUS
  0
LAYER
  2
LAYER169
 70
               0
 62
               7
  6
CONTINUOUS
  0
LAYER
  2
LAYER170
 70
               0
 62
               7
  6
CONTINUOUS
  0
LAYER
  2
LAYER171
 70
               0
 62
               7
  6
CONTINUOUS
  0
LAYER
  2
LAYER172
 70
               0
 62
               7
  6
CONTINUOUS
  0
LAYER
  2
LAYER173
 70
               0
 62
               7
  6
CONTINUOUS
  0
LAYER
  2
LAYER174
 70
               0
 62
               7
  6
CONTINUOUS
  0
LAYER
  2
LAYER175
 70
               0
 62
               7
  6
CONTINUOUS
  0
LAYER
  2
LAYER176
 70
               0
 62
               7
  6
CONTINUOUS
  0
LAYER
  2
LAYER177
 70
               0
 62
               7
  6
CONTINUOUS
  0
LAYER
  2
LAYER178
 70
               0
 62
               7
  6
CONTINUOUS
  0
LAYER
  2
LAYER179
 70
               0
 62
               7
  6
CONTINUOUS
  0
LAYER
  2
LAYER180
 70
               0
 62
               7
  6
CONTINUOUS
  0
LAYER
  2
LAYER181
 70
               0
 62
               7
  6
CONTINUOUS
  0
LAYER
  2
LAYER182
 70
               0
 62
               7
  6
CONTINUOUS
  0
LAYER
  2
LAYER183
 70
               0
 62
               7
  6
CONTINUOUS
  0
LAYER
  2
LAYER184
 70
               0
 62
               7
  6
CONTINUOUS
  0
LAYER
  2
LAYER185
 70
               0
 62
               7
  6
CONTINUOUS
  0
LAYER
  2
LAYER186
 70
               0
 62
               7
  6
CONTINUOUS
  0
LAYER
  2
LAYER187
 70
               0
 62
               7
  6
CONTINUOUS
  0
LAYER
  2
LAYER188
 70
               0
 62
               7
  6
CONTINUOUS
  0
LAYER
  2
LAYER189
 70
               0
 62
               7
  6
CONTINUOUS
  0
LAYER
  2
LAYER190
 70
               0
 62
               7
  6
CONTINUOUS
  0
LAYER
  2
LAYER191
 70
               0
 62
               7
  6
CONTINUOUS
  0
LAYER
  2
LAYER192
 70
               0
 62
               7
  6
CONTINUOUS
  0
LAYER
  2
LAYER193
 70
               0
 62
               7
  6
CONTINUOUS
  0
LAYER
  2
LAYER194
 70
               0
 62
               7
  6
CONTINUOUS
  0
LAYER
  2
LAYER195
 70
               0
 62
               7
  6
CONTINUOUS
  0
LAYER
  2
LAYER196
 70
               0
 62
               7
  6
CONTINUOUS
  0
LAYER
  2
LAYER197
 70
               0
 62
               7
  6
CONTINUOUS
  0
LAYER
  2
LAYER198
 70
               0
 62
               7
  6
CONTINUOUS
  0
LAYER
  2
LAYER199
 70
               0
 62
               7
  6
CONTINUOUS
  0
LAYER
  2
LAYER200
 70
               0
 62
               7
  6
CONTINUOUS
  0
LAYER
  2
LAYER201
 70
               0
 62
               7
  6
CONTINUOUS
  0
LAYER
  2
LAYER202
 70
               0
 62
               7
  6
CONTINUOUS
  0
LAYER
  2
LAYER203
 70
               0
 62
               7
  6
CONTINUOUS
  0
LAYER
  2
LAYER204
 70
               0
 62
               7
  6
CONTINUOUS
  0
LAYER
  2
LAYER205
 70
               0
 62
               7
  6
CONTINUOUS
  0
LAYER
  2
LAYER206
 70
               0
 62
               7
  6
CONTINUOUS
  0
LAYER
  2
LAYER207
 70
               0
 62
               7
  6
CONTINUOUS
  0
LAYER
  2
LAYER208
 70
               0
 62
               7
  6
CONTINUOUS
  0
LAYER
  2
LAYER209
 70
               0
 62
               7
  6
CONTINUOUS
  0
LAYER
  2
LAYER210
 70
               0
 62
               7
  6
CONTINUOUS
  0
LAYER
  2
LAYER211
 70
               0
 62
               7
  6
CONTINUOUS
  0
LAYER
  2
LAYER212
 70
               0
 62
               7
  6
CONTINUOUS
  0
LAYER
  2
LAYER213
 70
               0
 62
               7
  6
CONTINUOUS
  0
LAYER
  2
LAYER214
 70
               0
 62
               7
  6
CONTINUOUS
  0
LAYER
  2
LAYER215
 70
               0
 62
               7
  6
CONTINUOUS
  0
LAYER
  2
LAYER216
 70
               0
 62
               7
  6
CONTINUOUS
  0
LAYER
  2
LAYER217
 70
               0
 62
               7
  6
CONTINUOUS
  0
LAYER
  2
LAYER218
 70
               0
 62
               7
  6
CONTINUOUS
  0
LAYER
  2
LAYER219
 70
               0
 62
               7
  6
CONTINUOUS
  0
LAYER
  2
LAYER220
 70
               0
 62
               7
  6
CONTINUOUS
  0
LAYER
  2
LAYER221
 70
               0
 62
               7
  6
CONTINUOUS
  0
LAYER
  2
LAYER222
 70
               0
 62
               7
  6
CONTINUOUS
  0
LAYER
  2
LAYER223
 70
               0
 62
               7
  6
CONTINUOUS
  0
LAYER
  2
LAYER224
 70
               0
 62
               7
  6
CONTINUOUS
  0
LAYER
  2
LAYER225
 70
               0
 62
               7
  6
CONTINUOUS
  0
LAYER
  2
LAYER226
 70
               0
 62
               7
  6
CONTINUOUS
  0
LAYER
  2
LAYER227
 70
               0
 62
               7
  6
CONTINUOUS
  0
LAYER
  2
LAYER228
 70
               0
 62
               7
  6
CONTINUOUS
  0
LAYER
  2
LAYER229
 70
               0
 62
               7
  6
CONTINUOUS
  0
LAYER
  2
LAYER230
 70
               0
 62
               7
  6
CONTINUOUS
  0
LAYER
  2
LAYER231
 70
               0
 62
               7
  6
CONTINUOUS
  0
LAYER
  2
LAYER232
 70
               0
 62
               7
  6
CONTINUOUS
  0
LAYER
  2
LAYER233
 70
               0
 62
               7
  6
CONTINUOUS
  0
LAYER
  2
LAYER234
 70
               0
 62
               7
  6
CONTINUOUS
  0
LAYER
  2
LAYER235
 70
               0
 62
               7
  6
CONTINUOUS
  0
LAYER
  2
LAYER236
 70
               0
 62
               7
  6
CONTINUOUS
  0
LAYER
  2
LAYER237
 70
               0
 62
               7
  6
CONTINUOUS
  0
LAYER
  2
LAYER238
 70
               0
 62
               7
  6
CONTINUOUS
  0
LAYER
  2
LAYER239
 70
               0
 62
               7
  6
CONTINUOUS
  0
LAYER
  2
LAYER240
 70
               0
 62
               7
  6
CONTINUOUS
  0
LAYER
  2
LAYER241
 70
               0
 62
               7
  6
CONTINUOUS
  0
LAYER
  2
LAYER242
 70
               0
 62
               7
  6
CONTINUOUS
  0
LAYER
  2
LAYER243
 70
               0
 62
               7
  6
CONTINUOUS
  0
LAYER
  2
LAYER244
 70
               0
 62
               7
  6
CONTINUOUS
  0
LAYER
  2
LAYER245
 70
               0
 62
               7
  6
CONTINUOUS
  0
LAYER
  2
LAYER246
 70
               0
 62
               7
  6
CONTINUOUS
  0
LAYER
  2
LAYER247
 70
               0
 62
               7
  6
CONTINUOUS
  0
LAYER
  2
LAYER248
 70
               0
 62
               7
  6
CONTINUOUS
  0
LAYER
  2
LAYER249
 70
               0
 62
               7
  6
CONTINUOUS
  0
LAYER
  2
LAYER250
 70
               0
 62
               7
  6
CONTINUOUS
  0
LAYER
  2
LAYER251
 70
               0
 62
               7
  6
CONTINUOUS
  0
LAYER
  2
LAYER252
 70
               0
 62
               7
  6
CONTINUOUS
  0
LAYER
  2
LAYER253
 70
               0
 62
               7
  6
CONTINUOUS
  0
LAYER
  2
LAYER254
 70
               0
 62
               7
  6
CONTINUOUS
  0
LAYER
  2
LAYER255
 70
               0
 62
               7
  6
CONTINUOUS
  0
ENDTAB
  0
TABLE
  2
STYLE
 70
               1
  0
STYLE
  2
STANDARD
 70
               0
 40
0.0
 41
1.0
 50
0.0
 71
               0
 42
0.0
  3
txt
  4

  0
ENDTAB
  0
TABLE
  2
VIEW
 70
               0
  0
VIEW
  2
QQQQ
 70
               0
 40
1271.1404219149999
 10
0.0
 20
132.32333850000015
 41
348.07500000000005
 11
0.0
 21
0.0
 31
1.0
 12
100.0
 22
100.0
 32
0.0
 42
50.0
 43
0.0
 44
0.0
 50
0.0
 71
               0
  0
ENDTAB
  0
TABLE
  2
UCS
 70
               0
  0
ENDTAB
  0
TABLE
  2
APPID
 70
               1
  0
APPID
  2
ACAD
 70
               0
  0
ENDTAB
  0
TABLE
  2
DIMSTYLE
 70
               1
  0
DIMSTYLE
  2
STANDARD
 70
               0
  3

  4

  5

  6

  7

 40
1.0
 41
0.18
 42
0.0625
 43
0.38
 44
0.18
 45
0.0
 46
0.0
 47
0.0
 48
0.0
140
0.18
141
0.09
142
0.0
143
25.399999999999999
144
1.0
145
0.0
146
1.0
147
0.09
 71
               0
 72
               0
 73
               1
 74
               1
 75
               0
 76
               0
 77
               0
 78
               0
170
               0
171
               2
172
               0
173
               0
174
               0
175
               0
176
               0
177
               0
178
               0
  0
ENDTAB
  0
ENDSEC
  0
SECTION
  2
BLOCKS
  0
ENDSEC
  0
SECTION
  2
ENTITIES
  0
LINE
  8
LAYER001
  6
CONTINUOUS
 62
               7
  5
136
 10
-100.0
 20
-400.0
 30
0.0
 11
100.0
 21
-400.0
 31
0.0
  0
LINE
  8
LAYER001
  6
CONTINUOUS
 62
               7
  5
137
 10
-71.5
 20
-382.50677899999982
 30
0.0
 11
-71.5
 21
-375.49389999999994
 31
0.0
  0
LINE
  8
LAYER001
  6
CONTINUOUS
 62
               7
  5
138
 10
-97.261467000000266
 20
-391.17493400000012
 30
0.0
 11
-77.889909999999873
 21
-389.48014199999989
 31
0.0
  0
ARC
  8
LAYER001
  6
CONTINUOUS
 62
               7
  5
139
 10
-78.5
 20
-382.50677899999982
 30
0.0
 40
7.0
 50
274.99999999995049
 51
359.9999999999992
  0
ARC
  8
LAYER001
  6
CONTINUOUS
 62
               7
  5
13A
 10
-97.0
 20
-394.16351799999984
 30
0.0
 40
3.0
 50
94.999999999973681
 51
179.99999999996487
  0
LINE
  8
LAYER001
  6
CONTINUOUS
 62
               7
  5
13B
 10
-65.0
 20
-364.82853599999999
 30
0.0
 11
-65.0
 21
-341.21210900000005
 31
0.0
  0
ARC
  8
LAYER001
  6
CONTINUOUS
 62
               7
  5
13C
 10
-71.0
 20
-364.82853599999999
 30
0.0
 40
6.0
 50
297.27961299994416
 51
359.9999999999992
  0
ARC
  8
LAYER001
  6
CONTINUOUS
 62
               7
  5
13D
 10
-65.5
 20
-375.49389999999994
 30
0.0
 40
6.0
 50
117.27961299997567
 51
179.99999999996487
  0
LINE
  8
LAYER001
  6
CONTINUOUS
 62
               7
  5
13E
 10
87.0
 20
-389.0
 30
0.0
 11
87.0
 21
-376.0
 31
0.0
  0
ARC
  8
LAYER001
  6
CONTINUOUS
 62
               7
  5
13F
 10
90.0
 20
-389.0
 30
0.0
 40
3.0
 50
179.99999999996487
 51
213.8635089999517
  0
LINE
  8
LAYER001
  6
CONTINUOUS
 62
               7
  5
140
 10
65.0
 20
-364.82853599999999
 30
0.0
 11
65.0
 21
-341.21210900000005
 31
0.0
  0
LINE
  8
LAYER001
  6
CONTINUOUS
 62
               7
  5
141
 10
70.0
 20
-365.0
 30
0.0
 11
76.0
 21
-365.0
 31
0.0
  0
ARC
  8
LAYER001
  6
CONTINUOUS
 62
               7
  5
142
 10
76.0
 20
-376.0
 30
0.0
 40
11.0
 50
0.0
 51
143.41905399997199
  0
ARC
  8
LAYER001
  6
CONTINUOUS
 62
               7
  5
143
 10
70.0
 20
-360.0
 30
0.0
 40
5.0
 50
179.99999999996314
 51
269.99999999994731
  0
LINE
  8
LAYER001
  6
CONTINUOUS
 62
               7
  5
144
 10
137.5
 20
-322.93065699999988
 30
0.0
 11
137.5
 21
-327.06934300000012
 31
0.0
  0
LINE
  8
LAYER001
  6
CONTINUOUS
 62
               7
  5
145
 10
58.5
 20
-130.0
 30
0.0
 11
58.5
 21
-308.55847899999981
 31
0.0
  0
ARC
  8
LAYER001
  6
CONTINUOUS
 62
               7
  5
146
 10
68.5
 20
-308.55847899999981
 30
0.0
 40
10.0
 50
179.99999999996572
 51
267.97863499994924
  0
LINE
  8
LAYER001
  6
CONTINUOUS
 62
               7
  5
147
 10
-58.5
 20
-130.0
 30
0.0
 11
-58.5
 21
-308.55847899999981
 31
0.0
  0
ARC
  8
LAYER001
  6
CONTINUOUS
 62
               7
  5
148
 10
135.5
 20
-322.93065699999988
 30
0.0
 40
2.0
 50
0.0
 51
87.978634999980883
  0
ARC
  8
LAYER001
  6
CONTINUOUS
 62
               7
  5
149
 10
135.5
 20
-327.06934300000012
 30
0.0
 40
2.0
 50
272.0213649999402
 51
359.9999999999992
  0
LINE
  8
LAYER001
  6
CONTINUOUS
 62
               7
  5
14A
 10
68.14727800000037
 20
-318.55225699999983
 30
0.0
 11
135.57054400000015
 21
-320.93190199999981
 31
0.0
  0
ARC
  8
LAYER001
  6
CONTINUOUS
 62
               7
  5
14B
 10
75.0
 20
-341.21210900000005
 30
0.0
 40
10.0
 50
141.85153799997198
 51
179.99999999996572
  0
ARC
  8
LAYER001
  6
CONTINUOUS
 62
               7
  5
14C
 10
75.0
 20
-341.21210900000005
 30
0.0
 40
10.0
 50
92.021364999982183
 51
141.85153799997198
  0
LINE
  8
LAYER001
  6
CONTINUOUS
 62
               7
  5
14D
 10
74.64727800000037
 20
-331.21833100000003
 30
0.0
 11
135.57054400000015
 21
-329.06809800000019
 31
0.0
  0
LINE
  8
LAYER001
  6
CONTINUOUS
 62
               7
  5
14E
 10
-100.5060739999999
 20
-20.0
 30
0.0
 11
100.5060739999999
 21
-20.0
 31
0.0
  0
LINE
  8
LAYER001
  6
CONTINUOUS
 62
               7
  5
14F
 10
-93.815121999999974
 20
92.541197000000011
 30
0.0
 11
-97.507951999999932
 21
3.9132709999998951
 31
0.0
  0
LINE
  8
LAYER001
  6
CONTINUOUS
 62
               7
  5
150
 10
-100.5060739999999
 20
-20.0
 30
0.0
 11
-99.672739999999976
 21
0.0
 31
0.0
  0
ARC
  8
LAYER001
  6
CONTINUOUS
 62
               7
  5
151
 10
-102.5036170000003
 20
4.1214239999999336
 30
0.0
 40
5.0
 50
304.48395399993757
 51
357.61405599993304
  0
ARC
  8
LAYER001
  6
CONTINUOUS
 62
               7
  5
152
 10
-80.826391999999942
 20
92.0
 30
0.0
 40
13.0
 50
89.999999999983771
 51
177.61405599996522
  0
ARC
  8
LAYER001
  6
CONTINUOUS
 62
               7
  5
153
 10
102.5036170000003
 20
4.1214239999999336
 30
0.0
 40
5.0
 50
182.38594399996637
 51
235.51604599995997
  0
LINE
  8
LAYER001
  6
CONTINUOUS
 62
               7
  5
154
 10
100.5060739999999
 20
-20.0
 30
0.0
 11
99.672739999999976
 21
0.0
 31
0.0
  0
LINE
  8
LAYER001
  6
CONTINUOUS
 62
               7
  5
155
 10
93.815121999999974
 20
92.541197000000011
 30
0.0
 11
97.507951999999932
 21
3.9132709999998951
 31
0.0
  0
ARC
  8
LAYER001
  6
CONTINUOUS
 62
               7
  5
156
 10
80.826391999999942
 20
92.0
 30
0.0
 40
13.0
 50
2.3859440000001837
 51
89.999999999983771
  0
LINE
  8
LAYER001
  6
CONTINUOUS
 62
               7
  5
157
 10
-80.826391999999942
 20
105.0
 30
0.0
 11
80.826391999999942
 21
105.0
 31
0.0
  0
LINE
  8
LAYER001
  6
CONTINUOUS
 62
               7
  5
158
 10
58.5
 20
-20.0
 30
0.0
 11
57.0
 21
-25.0
 31
0.0
  0
LINE
  8
LAYER001
  6
CONTINUOUS
 62
               7
  5
159
 10
57.0
 20
-25.0
 30
0.0
 11
58.5
 21
-30.0
 31
0.0
  0
LINE
  8
LAYER001
  6
CONTINUOUS
 62
               7
  5
15A
 10
58.5
 20
-30.0
 30
0.0
 11
57.0
 21
-35.0
 31
0.0
  0
LINE
  8
LAYER001
  6
CONTINUOUS
 62
               7
  5
15B
 10
57.0
 20
-35.0
 30
0.0
 11
58.5
 21
-40.0
 31
0.0
  0
LINE
  8
LAYER001
  6
CONTINUOUS
 62
               7
  5
15C
 10
58.5
 20
-40.0
 30
0.0
 11
57.0
 21
-45.0
 31
0.0
  0
LINE
  8
LAYER001
  6
CONTINUOUS
 62
               7
  5
15D
 10
57.0
 20
-45.0
 30
0.0
 11
58.5
 21
-50.0
 31
0.0
  0
LINE
  8
LAYER001
  6
CONTINUOUS
 62
               7
  5
15E
 10
58.5
 20
-50.0
 30
0.0
 11
57.0
 21
-55.0
 31
0.0
  0
LINE
  8
LAYER001
  6
CONTINUOUS
 62
               7
  5
15F
 10
57.0
 20
-55.0
 30
0.0
 11
58.5
 21
-60.0
 31
0.0
  0
LINE
  8
LAYER001
  6
CONTINUOUS
 62
               7
  5
160
 10
-58.5
 20
-20.0
 30
0.0
 11
-57.0
 21
-25.0
 31
0.0
  0
LINE
  8
LAYER001
  6
CONTINUOUS
 62
               7
  5
161
 10
-57.0
 20
-25.0
 30
0.0
 11
-58.5
 21
-30.0
 31
0.0
  0
LINE
  8
LAYER001
  6
CONTINUOUS
 62
               7
  5
162
 10
-58.5
 20
-30.0
 30
0.0
 11
-57.0
 21
-35.0
 31
0.0
  0
LINE
  8
LAYER001
  6
CONTINUOUS
 62
               7
  5
163
 10
-57.0
 20
-35.0
 30
0.0
 11
-58.5
 21
-40.0
 31
0.0
  0
LINE
  8
LAYER001
  6
CONTINUOUS
 62
               7
  5
164
 10
-58.5
 20
-40.0
 30
0.0
 11
-57.0
 21
-45.0
 31
0.0
  0
LINE
  8
LAYER001
  6
CONTINUOUS
 62
               7
  5
165
 10
-57.0
 20
-45.0
 30
0.0
 11
-58.5
 21
-50.0
 31
0.0
  0
LINE
  8
LAYER001
  6
CONTINUOUS
 62
               7
  5
166
 10
-58.5
 20
-50.0
 30
0.0
 11
-57.0
 21
-55.0
 31
0.0
  0
LINE
  8
LAYER001
  6
CONTINUOUS
 62
               7
  5
167
 10
-57.0
 20
-55.0
 30
0.0
 11
-58.5
 21
-60.0
 31
0.0
  0
LINE
  8
LAYER001
  6
CONTINUOUS
 62
               7
  5
168
 10
-58.5
 20
-60.0
 30
0.0
 11
-57.0
 21
-65.0
 31
0.0
  0
LINE
  8
LAYER001
  6
CONTINUOUS
 62
               7
  5
169
 10
-57.0
 20
-65.0
 30
0.0
 11
-58.5
 21
-70.0
 31
0.0
  0
LINE
  8
LAYER001
  6
CONTINUOUS
 62
               7
  5
16A
 10
58.5
 20
-60.0
 30
0.0
 11
57.0
 21
-65.0
 31
0.0
  0
LINE
  8
LAYER001
  6
CONTINUOUS
 62
               7
  5
16B
 10
57.0
 20
-65.0
 30
0.0
 11
58.5
 21
-70.0
 31
0.0
  0
LINE
  8
LAYER001
  6
CONTINUOUS
 62
               7
  5
16C
 10
58.5
 20
-70.0
 30
0.0
 11
57.0
 21
-75.0
 31
0.0
  0
LINE
  8
LAYER001
  6
CONTINUOUS
 62
               7
  5
16D
 10
57.0
 20
-75.0
 30
0.0
 11
58.5
 21
-80.0
 31
0.0
  0
LINE
  8
LAYER001
  6
CONTINUOUS
 62
               7
  5
16E
 10
58.5
 20
-80.0
 30
0.0
 11
57.0
 21
-85.0
 31
0.0
  0
LINE
  8
LAYER001
  6
CONTINUOUS
 62
               7
  5
16F
 10
57.0
 20
-85.0
 30
0.0
 11
58.5
 21
-90.0
 31
0.0
  0
LINE
  8
LAYER001
  6
CONTINUOUS
 62
               7
  5
170
 10
58.5
 20
-90.0
 30
0.0
 11
57.0
 21
-95.0
 31
0.0
  0
LINE
  8
LAYER001
  6
CONTINUOUS
 62
               7
  5
171
 10
57.0
 20
-95.0
 30
0.0
 11
58.5
 21
-100.0
 31
0.0
  0
LINE
  8
LAYER001
  6
CONTINUOUS
 62
               7
  5
172
 10
-58.5
 20
-70.0
 30
0.0
 11
-57.0
 21
-75.0
 31
0.0
  0
LINE
  8
LAYER001
  6
CONTINUOUS
 62
               7
  5
173
 10
-57.0
 20
-75.0
 30
0.0
 11
-58.5
 21
-80.0
 31
0.0
  0
LINE
  8
LAYER001
  6
CONTINUOUS
 62
               7
  5
174
 10
-58.5
 20
-80.0
 30
0.0
 11
-57.0
 21
-85.0
 31
0.0
  0
LINE
  8
LAYER001
  6
CONTINUOUS
 62
               7
  5
175
 10
-57.0
 20
-85.0
 30
0.0
 11
-58.5
 21
-90.0
 31
0.0
  0
LINE
  8
LAYER001
  6
CONTINUOUS
 62
               7
  5
176
 10
-58.5
 20
-90.0
 30
0.0
 11
-57.0
 21
-95.0
 31
0.0
  0
LINE
  8
LAYER001
  6
CONTINUOUS
 62
               7
  5
177
 10
-57.0
 20
-95.0
 30
0.0
 11
-58.5
 21
-100.0
 31
0.0
  0
LINE
  8
LAYER001
  6
CONTINUOUS
 62
               7
  5
178
 10
100.0
 20
-400.0
 30
0.0
 11
100.0
 21
-394.16351799999984
 31
0.0
  0
LINE
  8
LAYER001
  6
CONTINUOUS
 62
               7
  5
179
 10
71.5
 20
-382.50677899999982
 30
0.0
 11
71.5
 21
-375.49389999999994
 31
0.0
  0
LINE
  8
LAYER001
  6
CONTINUOUS
 62
               7
  5
17A
 10
97.261467000000266
 20
-391.17493400000012
 30
0.0
 11
77.889909999999873
 21
-389.48014199999989
 31
0.0
  0
ARC
  8
LAYER001
  6
CONTINUOUS
 62
               7
  5
17B
 10
78.5
 20
-382.50677899999982
 30
0.0
 40
7.0
 50
179.99999999996612
 51
264.99999999995094
  0
ARC
  8
LAYER001
  6
CONTINUOUS
 62
               7
  5
17C
 10
97.0
 20
-394.16351799999984
 30
0.0
 40
3.0
 50
0.0
 51
84.999999999991331
  0
ARC
  8
LAYER001
  6
CONTINUOUS
 62
               7
  5
17D
 10
71.0
 20
-364.82853599999999
 30
0.0
 40
6.0
 50
179.99999999996487
 51
242.72038699995559
  0
ARC
  8
LAYER001
  6
CONTINUOUS
 62
               7
  5
17E
 10
65.5
 20
-375.49389999999994
 30
0.0
 40
6.0
 50
0.0
 51
62.720386999987085
  0
LINE
  8
LAYER001
  6
CONTINUOUS
 62
               7
  5
17F
 10
-65.0
 20
-370.16121800000019
 30
0.0
 11
-47.322479999999814
 21
-370.16121800000019
 31
0.0
  0
LINE
  8
LAYER001
  6
CONTINUOUS
 62
               7
  5
180
 10
-71.5
 20
-389.48014199999989
 30
0.0
 11
-49.0
 21
-389.48014199999989
 31
0.0
  0
LINE
  8
LAYER001
  6
CONTINUOUS
 62
               7
  5
181
 10
-95.261467000000266
 20
-391.17493400000012
 30
0.0
 11
95.261467000000266
 21
-391.17493400000012
 31
0.0
  0
LINE
  8
LAYER001
  6
CONTINUOUS
 62
               7
  5
182
 10
25.0
 20
-329.0
 30
0.0
 11
25.0
 21
-321.0
 31
0.0
  0
LINE
  8
LAYER001
  6
CONTINUOUS
 62
               7
  5
183
 10
-25.0
 20
-321.0
 30
0.0
 11
25.0
 21
-321.0
 31
0.0
  0
LINE
  8
LAYER001
  6
CONTINUOUS
 62
               7
  5
184
 10
40.871086000000105
 20
-318.15091799999982
 30
0.0
 11
-41.086355000000367
 21
-318.15091799999982
 31
0.0
  0
LINE
  8
LAYER001
  6
CONTINUOUS
 62
               7
  5
185
 10
-25.0
 20
-329.0
 30
0.0
 11
-25.0
 21
-321.0
 31
0.0
  0
LINE
  8
LAYER001
  6
CONTINUOUS
 62
               7
  5
186
 10
-43.184355000000323
 20
-331.52037199999995
 30
0.0
 11
-43.184355000000323
 21
-318.47962800000005
 31
0.0
  0
LINE
  8
LAYER001
  6
CONTINUOUS
 62
               7
  5
187
 10
25.0
 20
-321.0
 30
0.0
 11
41.086355000000367
 21
-318.47962800000005
 31
0.0
  0
ARC
  8
LAYER001
  6
CONTINUOUS
 62
               7
  5
188
 10
39.538462000000436
 20
-308.60015299999986
 30
0.0
 40
10.0
 50
278.90457499994579
 51
291.38230799994261
  0
ARC
  8
LAYER001
  6
CONTINUOUS
 62
               7
  5
189
 10
-39.538462000000436
 20
-308.60015299999986
 30
0.0
 40
10.0
 50
248.61769199995069
 51
261.09542499995274
  0
LINE
  8
LAYER001
  6
CONTINUOUS
 62
               7
  5
18A
 10
-25.0
 20
-321.0
 30
0.0
 11
-41.086355000000367
 21
-318.47962800000005
 31
0.0
  0
LINE
  8
LAYER001
  6
CONTINUOUS
 62
               7
  5
18B
 10
-25.0
 20
-329.0
 30
0.0
 11
25.0
 21
-329.0
 31
0.0
  0
ARC
  8
LAYER001
  6
CONTINUOUS
 62
               7
  5
18C
 10
39.538462000000436
 20
-341.39984700000014
 30
0.0
 40
10.0
 50
68.617691999984942
 51
81.095424999984857
  0
LINE
  8
LAYER001
  6
CONTINUOUS
 62
               7
  5
18D
 10
40.871086000000105
 20
-331.84908200000018
 30
0.0
 11
-41.086355000000367
 21
-331.84908200000018
 31
0.0
  0
LINE
  8
LAYER001
  6
CONTINUOUS
 62
               7
  5
18E
 10
25.0
 20
-329.0
 30
0.0
 11
41.086355000000367
 21
-331.52037199999995
 31
0.0
  0
ARC
  8
LAYER001
  6
CONTINUOUS
 62
               7
  5
18F
 10
-39.538462000000436
 20
-341.39984700000014
 30
0.0
 40
10.0
 50
98.904574999983055
 51
111.38230799997595
  0
LINE
  8
LAYER001
  6
CONTINUOUS
 62
               7
  5
190
 10
-25.0
 20
-329.0
 30
0.0
 11
-41.086355000000367
 21
-331.52037199999995
 31
0.0
  0
LINE
  8
LAYER001
  6
CONTINUOUS
 62
               7
  5
191
 10
43.184355000000323
 20
-331.52037199999995
 30
0.0
 11
43.184355000000323
 21
-318.15091799999982
 31
0.0
  0
ARC
  8
LAYER001
  6
CONTINUOUS
 62
               7
  5
192
 10
-68.5
 20
-308.55847899999981
 30
0.0
 40
10.0
 50
272.02136499995049
 51
359.9999999999992
  0
ARC
  8
LAYER001
  6
CONTINUOUS
 62
               7
  5
193
 10
-135.5
 20
-322.93065699999988
 30
0.0
 40
2.0
 50
92.021364999979667
 51
179.99999999996052
  0
ARC
  8
LAYER001
  6
CONTINUOUS
 62
               7
  5
194
 10
-135.5
 20
-327.06934300000012
 30
0.0
 40
2.0
 50
179.99999999996052
 51
267.97863499995447
  0
ARC
  8
LAYER001
  6
CONTINUOUS
 62
               7
  5
195
 10
-75.0
 20
-341.21210900000005
 30
0.0
 40
10.0
 50
0.0
 51
38.148461999994275
  0
ARC
  8
LAYER001
  6
CONTINUOUS
 62
               7
  5
196
 10
-75.0
 20
-341.21210900000005
 30
0.0
 40
10.0
 50
38.148461999994275
 51
87.978634999980883
  0
LINE
  8
LAYER001
  6
CONTINUOUS
 62
               7
  5
197
 10
-74.64727800000037
 20
-331.21833100000003
 30
0.0
 11
-135.57054400000015
 21
-329.06809800000019
 31
0.0
  0
LINE
  8
LAYER001
  6
CONTINUOUS
 62
               7
  5
198
 10
-137.5
 20
-322.93065699999988
 30
0.0
 11
-137.5
 21
-327.06934300000012
 31
0.0
  0
LINE
  8
LAYER001
  6
CONTINUOUS
 62
               7
  5
199
 10
-68.14727800000037
 20
-318.55225699999983
 30
0.0
 11
-135.57054400000015
 21
-320.93190199999981
 31
0.0
  0
LINE
  8
LAYER001
  6
CONTINUOUS
 62
               7
  5
19A
 10
95.584203999999772
 20
92.024938999999904
 30
0.0
 11
94.800360000000182
 21
92.024938999999904
 31
0.0
  0
LINE
  8
LAYER001
  6
CONTINUOUS
 62
               7
  5
19B
 10
95.584203999999772
 20
96.974999999999909
 30
0.0
 11
95.584203999999772
 21
75.025000000000091
 31
0.0
  0
LINE
  8
LAYER001
  6
CONTINUOUS
 62
               7
  5
19C
 10
95.584203999999772
 20
80.025000000000091
 30
0.0
 11
95.359258999999838
 21
80.025000000000091
 31
0.0
  0
LINE
  8
LAYER001
  6
CONTINUOUS
 62
               7
  5
19D
 10
95.584203999999772
 20
96.974999999999909
 30
0.0
 11
102.45837099999972
 21
96.974999999999909
 31
0.0
  0
LINE
  8
LAYER001
  6
CONTINUOUS
 62
               7
  5
19E
 10
95.584203999999772
 20
91.5
 30
0.0
 11
102.45837099999972
 21
91.5
 31
0.0
  0
LINE
  8
LAYER001
  6
CONTINUOUS
 62
               7
  5
19F
 10
103.58420399999977
 20
95.025000000000091
 30
0.0
 11
103.58420399999977
 21
77.025000000000091
 31
0.0
  0
LINE
  8
LAYER001
  6
CONTINUOUS
 62
               7
  5
1A0
 10
102.45837099999972
 20
96.974999999999909
 30
0.0
 11
103.58420399999977
 21
95.025000000000091
 31
0.0
  0
ARC
  8
LAYER001
  6
CONTINUOUS
 62
               7
  5
1A1
 10
99.693126999999549
 20
94.237500000000182
 30
0.0
 40
3.8910770000000001
 50
315.28887499994369
 51
375.28887499999558
  0
ARC
  8
LAYER001
  6
CONTINUOUS
 62
               7
  5
1A2
 10
89.708644999999706
 20
86.025000000000091
 30
0.0
 40
13.875559000000001
 50
336.76029899993642
 51
383.23970099999468
  0
LINE
  8
LAYER001
  6
CONTINUOUS
 62
               7
  5
1A3
 10
102.45837099999972
 20
75.074999999999818
 30
0.0
 11
103.58420399999977
 21
77.025000000000091
 31
0.0
  0
ARC
  8
LAYER001
  6
CONTINUOUS
 62
               7
  5
1A4
 10
99.693126999999549
 20
77.8125
 30
0.0
 40
3.8910770000000001
 50
344.71112499993473
 51
404.71112499999316
  0
LINE
  8
LAYER001
  6
CONTINUOUS
 62
               7
  5
1A5
 10
95.584203999999772
 20
75.074999999999818
 30
0.0
 11
102.45837099999972
 21
75.074999999999818
 31
0.0
  0
LINE
  8
LAYER001
  6
CONTINUOUS
 62
               7
  5
1A6
 10
95.584203999999772
 20
80.550000000000182
 30
0.0
 11
102.45837099999972
 21
80.550000000000182
 31
0.0
  0
LINE
  8
LAYER001
  6
CONTINUOUS
 62
               7
  5
1A7
 10
95.584203999999772
 20
92.025000000000091
 30
0.0
 11
93.836629999999786
 21
92.025000000000091
 31
0.0
  0
LINE
  8
LAYER001
  6
CONTINUOUS
 62
               7
  5
1A8
 10
95.584203999999772
 20
80.025000000000091
 30
0.0
 11
94.336629999999786
 21
80.025000000000091
 31
0.0
  0
LINE
  8
LAYER001
  6
CONTINUOUS
 62
               7
  5
1A9
 10
-55.151703000000452
 20
96.969654999999875
 30
0.0
 11
-45.651703000000452
 21
91.484828000000107
 31
0.0
  0
LINE
  8
LAYER001
  6
CONTINUOUS
 62
               7
  5
1AA
 10
-55.151703000000452
 20
96.969654999999875
 30
0.0
 11
-64.651703000000452
 21
91.484828000000107
 31
0.0
  0
LINE
  8
LAYER001
  6
CONTINUOUS
 62
               7
  5
1AB
 10
-55.151703000000452
 20
75.030345000000125
 30
0.0
 11
-45.651703000000452
 21
80.515171999999893
 31
0.0
  0
LINE
  8
LAYER001
  6
CONTINUOUS
 62
               7
  5
1AC
 10
-55.151703000000452
 20
75.030345000000125
 30
0.0
 11
-64.651703000000452
 21
80.515171999999893
 31
0.0
  0
LINE
  8
LAYER001
  6
CONTINUOUS
 62
               7
  5
1AD
 10
-64.651703000000452
 20
91.484828000000107
 30
0.0
 11
-64.651703000000452
 21
80.515171999999893
 31
0.0
  0
LINE
  8
LAYER001
  6
CONTINUOUS
 62
               7
  5
1AE
 10
-45.651703000000452
 20
91.484828000000107
 30
0.0
 11
-45.651703000000452
 21
80.515171999999893
 31
0.0
  0
CIRCLE
  8
LAYER001
  6
CONTINUOUS
 62
               7
  5
1AF
 10
-55.151703000000452
 20
86.0
 30
0.0
 40
9.5
  0
LINE
  8
LAYER001
  6
CONTINUOUS
 62
               7
  5
1B0
 10
97.507951999999932
 20
0.0
 30
0.0
 11
-97.507951999999932
 21
0.0
 31
0.0
  0
LINE
  8
LAYER001
  6
CONTINUOUS
 62
               7
  5
1B1
 10
-58.5
 20
-100.0
 30
0.0
 11
58.5
 21
-100.0
 31
0.0
  0
LINE
  8
LAYER001
  6
CONTINUOUS
 62
               7
  5
1B2
 10
-57.0
 20
-95.0
 30
0.0
 11
57.0
 21
-95.0
 31
0.0
  0
LINE
  8
LAYER001
  6
CONTINUOUS
 62
               7
  5
1B3
 10
-57.0
 20
-85.0
 30
0.0
 11
57.0
 21
-85.0
 31
0.0
  0
LINE
  8
LAYER001
  6
CONTINUOUS
 62
               7
  5
1B4
 10
-58.5
 20
-90.0
 30
0.0
 11
58.5
 21
-90.0
 31
0.0
  0
LINE
  8
LAYER001
  6
CONTINUOUS
 62
               7
  5
1B5
 10
-57.0
 20
-65.0
 30
0.0
 11
57.0
 21
-65.0
 31
0.0
  0
LINE
  8
LAYER001
  6
CONTINUOUS
 62
               7
  5
1B6
 10
-58.5
 20
-70.0
 30
0.0
 11
58.5
 21
-70.0
 31
0.0
  0
LINE
  8
LAYER001
  6
CONTINUOUS
 62
               7
  5
1B7
 10
-57.0
 20
-55.0
 30
0.0
 11
57.0
 21
-55.0
 31
0.0
  0
LINE
  8
LAYER001
  6
CONTINUOUS
 62
               7
  5
1B8
 10
-58.5
 20
-60.0
 30
0.0
 11
58.5
 21
-60.0
 31
0.0
  0
LINE
  8
LAYER001
  6
CONTINUOUS
 62
               7
  5
1B9
 10
-57.0
 20
-45.0
 30
0.0
 11
57.0
 21
-45.0
 31
0.0
  0
LINE
  8
LAYER001
  6
CONTINUOUS
 62
               7
  5
1BA
 10
-58.5
 20
-50.0
 30
0.0
 11
58.5
 21
-50.0
 31
0.0
  0
LINE
  8
LAYER001
  6
CONTINUOUS
 62
               7
  5
1BB
 10
-57.0
 20
-25.0
 30
0.0
 11
57.0
 21
-25.0
 31
0.0
  0
LINE
  8
LAYER001
  6
CONTINUOUS
 62
               7
  5
1BC
 10
-58.5
 20
-30.0
 30
0.0
 11
58.5
 21
-30.0
 31
0.0
  0
LINE
  8
LAYER001
  6
CONTINUOUS
 62
               7
  5
1BD
 10
-57.0
 20
-35.0
 30
0.0
 11
57.0
 21
-35.0
 31
0.0
  0
LINE
  8
LAYER001
  6
CONTINUOUS
 62
               7
  5
1BE
 10
-58.5
 20
-40.0
 30
0.0
 11
58.5
 21
-40.0
 31
0.0
  0
LINE
  8
LAYER001
  6
CONTINUOUS
 62
               7
  5
1BF
 10
-57.0
 20
-75.0
 30
0.0
 11
57.0
 21
-75.0
 31
0.0
  0
LINE
  8
LAYER001
  6
CONTINUOUS
 62
               7
  5
1C0
 10
-58.5
 20
-80.0
 30
0.0
 11
58.5
 21
-80.0
 31
0.0
  0
LINE
  8
LAYER001
  6
CONTINUOUS
 62
               7
  5
1C1
 10
58.5
 20
-100.0
 30
0.0
 11
57.0
 21
-105.0
 31
0.0
  0
LINE
  8
LAYER001
  6
CONTINUOUS
 62
               7
  5
1C2
 10
57.0
 20
-105.0
 30
0.0
 11
58.5
 21
-110.0
 31
0.0
  0
LINE
  8
LAYER001
  6
CONTINUOUS
 62
               7
  5
1C3
 10
58.5
 20
-110.0
 30
0.0
 11
57.0
 21
-115.0
 31
0.0
  0
LINE
  8
LAYER001
  6
CONTINUOUS
 62
               7
  5
1C4
 10
57.0
 20
-115.0
 30
0.0
 11
58.5
 21
-120.0
 31
0.0
  0
LINE
  8
LAYER001
  6
CONTINUOUS
 62
               7
  5
1C5
 10
58.5
 20
-120.0
 30
0.0
 11
57.0
 21
-125.0
 31
0.0
  0
LINE
  8
LAYER001
  6
CONTINUOUS
 62
               7
  5
1C6
 10
57.0
 20
-125.0
 30
0.0
 11
58.5
 21
-130.0
 31
0.0
  0
LINE
  8
LAYER001
  6
CONTINUOUS
 62
               7
  5
1C7
 10
-58.5
 20
-100.0
 30
0.0
 11
-57.0
 21
-105.0
 31
0.0
  0
LINE
  8
LAYER001
  6
CONTINUOUS
 62
               7
  5
1C8
 10
-57.0
 20
-105.0
 30
0.0
 11
-58.5
 21
-110.0
 31
0.0
  0
LINE
  8
LAYER001
  6
CONTINUOUS
 62
               7
  5
1C9
 10
-58.5
 20
-110.0
 30
0.0
 11
-57.0
 21
-115.0
 31
0.0
  0
LINE
  8
LAYER001
  6
CONTINUOUS
 62
               7
  5
1CA
 10
-57.0
 20
-115.0
 30
0.0
 11
-58.5
 21
-120.0
 31
0.0
  0
LINE
  8
LAYER001
  6
CONTINUOUS
 62
               7
  5
1CB
 10
-58.5
 20
-120.0
 30
0.0
 11
-57.0
 21
-125.0
 31
0.0
  0
LINE
  8
LAYER001
  6
CONTINUOUS
 62
               7
  5
1CC
 10
-57.0
 20
-125.0
 30
0.0
 11
-58.5
 21
-130.0
 31
0.0
  0
LINE
  8
LAYER001
  6
CONTINUOUS
 62
               7
  5
1CD
 10
-57.0
 20
-125.0
 30
0.0
 11
57.0
 21
-125.0
 31
0.0
  0
LINE
  8
LAYER001
  6
CONTINUOUS
 62
               7
  5
1CE
 10
-58.5
 20
-130.0
 30
0.0
 11
58.5
 21
-130.0
 31
0.0
  0
LINE
  8
LAYER001
  6
CONTINUOUS
 62
               7
  5
1CF
 10
-57.0
 20
-105.0
 30
0.0
 11
57.0
 21
-105.0
 31
0.0
  0
LINE
  8
LAYER001
  6
CONTINUOUS
 62
               7
  5
1D0
 10
-58.5
 20
-110.0
 30
0.0
 11
58.5
 21
-110.0
 31
0.0
  0
LINE
  8
LAYER001
  6
CONTINUOUS
 62
               7
  5
1D1
 10
-57.0
 20
-115.0
 30
0.0
 11
57.0
 21
-115.0
 31
0.0
  0
LINE
  8
LAYER001
  6
CONTINUOUS
 62
               7
  5
1D2
 10
-58.5
 20
-120.0
 30
0.0
 11
58.5
 21
-120.0
 31
0.0
  0
LINE
  8
LAYER001
  6
CONTINUOUS
 62
               7
  5
1D3
 10
-100.0
 20
-400.0
 30
0.0
 11
-100.0
 21
-394.16351799999984
 31
0.0
  0
LINE
  8
LAYER001
  6
CONTINUOUS
 62
               7
  5
1D4
 10
88.0
 20
-407.85332299999982
 30
0.0
 11
87.548334000000068
 21
-421.40329599999995
 31
0.0
  0
ARC
  8
LAYER001
  6
CONTINUOUS
 62
               7
  5
1D5
 10
86.049167000000125
 20
-421.35332299999982
 30
0.0
 40
1.5
 50
269.99999999996464
 51
358.09084799992331
  0
LINE
  8
LAYER001
  6
CONTINUOUS
 62
               7
  5
1D6
 10
86.049167000000125
 20
-422.85332299999982
 30
0.0
 11
-67.0
 21
-422.85332299999982
 31
0.0
  0
LINE
  8
LAYER001
  6
CONTINUOUS
 62
               7
  5
1D7
 10
-67.0
 20
-422.85332299999982
 30
0.0
 11
-75.0
 21
-417.85332299999982
 31
0.0
  0
LINE
  8
LAYER001
  6
CONTINUOUS
 62
               7
  5
1D8
 10
-75.0
 20
-417.85332299999982
 30
0.0
 11
-75.5
 21
-407.85332299999982
 31
0.0
  0
LINE
  8
LAYER001
  6
CONTINUOUS
 62
               7
  5
1D9
 10
88.0
 20
-407.85332299999982
 30
0.0
 11
-75.5
 21
-407.85332299999982
 31
0.0
  0
LINE
  8
LAYER001
  6
CONTINUOUS
 62
               7
  5
1DA
 10
-64.5
 20
-407.85332299999982
 30
0.0
 11
-64.5
 21
-400.0
 31
0.0
  0
LINE
  8
LAYER001
  6
CONTINUOUS
 62
               7
  5
1DB
 10
64.5
 20
-407.85332299999982
 30
0.0
 11
64.5
 21
-400.0
 31
0.0
  0
LINE
  8
LAYER001
  6
CONTINUOUS
 62
               7
  5
1DC
 10
-75.0
 20
-417.85332299999982
 30
0.0
 11
-49.757056000000375
 21
-417.85332299999982
 31
0.0
  0
LINE
  8
LAYER001
  6
CONTINUOUS
 62
               7
  5
1DD
 10
66.16830200000004
 20
-417.85332299999982
 30
0.0
 11
66.16830200000004
 21
-422.85332299999982
 31
0.0
  0
LINE
  8
LAYER001
  6
CONTINUOUS
 62
               7
  5
1DE
 10
-22.070807000000059
 20
-422.85332299999982
 30
0.0
 11
-22.070807000000059
 21
-417.85332299999982
 31
0.0
  0
LINE
  8
LAYER001
  6
CONTINUOUS
 62
               7
  5
1DF
 10
-49.757056000000375
 20
-417.85332299999982
 30
0.0
 11
-49.757056000000375
 21
-422.85332299999982
 31
0.0
  0
LINE
  8
LAYER001
  6
CONTINUOUS
 62
               7
  5
1E0
 10
-22.070807000000059
 20
-417.85332299999982
 30
0.0
 11
66.16830200000004
 21
-417.85332299999982
 31
0.0
  0
LINE
  8
LAYER001
  6
CONTINUOUS
 62
               7
  5
1E1
 10
84.795000000000073
 20
-422.85332299999982
 30
0.0
 11
84.795000000000073
 21
-428.14332299999978
 31
0.0
  0
LINE
  8
LAYER001
  6
CONTINUOUS
 62
               7
  5
1E2
 10
80.397500000000036
 20
-422.85332299999982
 30
0.0
 11
80.397500000000036
 21
-428.14332299999978
 31
0.0
  0
LINE
  8
LAYER001
  6
CONTINUOUS
 62
               7
  5
1E3
 10
69.127575999999863
 20
-429.25332299999991
 30
0.0
 11
82.872424000000137
 21
-429.25332299999991
 31
0.0
  0
LINE
  8
LAYER001
  6
CONTINUOUS
 62
               7
  5
1E4
 10
71.602499999999964
 20
-422.85332299999982
 30
0.0
 11
71.602499999999964
 21
-428.14332299999978
 31
0.0
  0
LINE
  8
LAYER001
  6
CONTINUOUS
 62
               7
  5
1E5
 10
82.872424000000137
 20
-429.25332299999991
 30
0.0
 11
84.795000000000073
 21
-428.14332299999978
 31
0.0
  0
ARC
  8
LAYER001
  6
CONTINUOUS
 62
               7
  5
1E6
 10
82.5962499999996
 20
-426.52061999999978
 30
0.0
 40
2.7327029999999999
 50
216.42776299995401
 51
276.4277629999529
  0
ARC
  8
LAYER001
  6
CONTINUOUS
 62
               7
  5
1E7
 10
76.0
 20
-419.98750999999993
 30
0.0
 40
9.2658140000000007
 50
241.66707799995461
 51
298.33292199994224
  0
ARC
  8
LAYER001
  6
CONTINUOUS
 62
               7
  5
1E8
 10
69.4037500000004
 20
-426.52061999999978
 30
0.0
 40
2.7327029999999999
 50
263.57223699995006
 51
323.57223699993045
  0
LINE
  8
LAYER001
  6
CONTINUOUS
 62
               7
  5
1E9
 10
69.127575999999863
 20
-429.25332299999991
 30
0.0
 11
67.204999999999927
 21
-428.14332299999978
 31
0.0
  0
LINE
  8
LAYER001
  6
CONTINUOUS
 62
               7
  5
1EA
 10
67.204999999999927
 20
-422.85332299999982
 30
0.0
 11
67.204999999999927
 21
-428.14332299999978
 31
0.0
  0
LINE
  8
LAYER001
  6
CONTINUOUS
 62
               7
  5
1EB
 10
-38.0
 20
-428.14332299999978
 30
0.0
 11
-38.0
 21
-422.85332299999982
 31
0.0
  0
LINE
  8
LAYER001
  6
CONTINUOUS
 62
               7
  5
1EC
 10
-43.694117000000006
 20
-429.25332299999991
 30
0.0
 11
-32.305882999999994
 21
-429.25332299999991
 31
0.0
  0
LINE
  8
LAYER001
  6
CONTINUOUS
 62
               7
  5
1ED
 10
-45.616692999999941
 20
-428.14332299999978
 30
0.0
 11
-45.616692999999941
 21
-422.85332299999982
 31
0.0
  0
LINE
  8
LAYER001
  6
CONTINUOUS
 62
               7
  5
1EE
 10
-30.383307000000059
 20
-422.85332299999982
 30
0.0
 11
-30.383307000000059
 21
-428.14332299999978
 31
0.0
  0
LINE
  8
LAYER001
  6
CONTINUOUS
 62
               7
  5
1EF
 10
-32.305882999999994
 20
-429.25332299999991
 30
0.0
 11
-30.383307000000059
 21
-428.14332299999978
 31
0.0
  0
ARC
  8
LAYER001
  6
CONTINUOUS
 62
               7
  5
1F0
 10
-34.19165299999986
 20
-422.16521300000022
 30
0.0
 40
7.0881100000000004
 50
237.50088299995636
 51
302.49911699994465
  0
LINE
  8
LAYER001
  6
CONTINUOUS
 62
               7
  5
1F1
 10
-43.694117000000006
 20
-429.25332299999991
 30
0.0
 11
-45.616692999999941
 21
-428.14332299999978
 31
0.0
  0
ARC
  8
LAYER001
  6
CONTINUOUS
 62
               7
  5
1F2
 10
-41.80834700000014
 20
-422.16521300000022
 30
0.0
 40
7.0881100000000004
 50
237.50088299995636
 51
302.49911699994465
  0
LINE
  8
LAYER001
  6
CONTINUOUS
 62
               7
  5
1F3
 10
-43.0
 20
-400.0
 30
0.0
 11
-43.0
 21
-407.85332299999982
 31
0.0
  0
LINE
  8
LAYER001
  6
CONTINUOUS
 62
               7
  5
1F4
 10
-33.0
 20
-400.0
 30
0.0
 11
-33.0
 21
-407.85332299999982
 31
0.0
  0
LINE
  8
LAYER001
  6
CONTINUOUS
 62
               7
  5
1F5
 10
71.0
 20
-400.0
 30
0.0
 11
71.0
 21
-407.85332299999982
 31
0.0
  0
LINE
  8
LAYER001
  6
CONTINUOUS
 62
               7
  5
1F6
 10
81.0
 20
-400.0
 30
0.0
 11
81.0
 21
-407.85332299999982
 31
0.0
  0
LINE
  8
LAYER001
  6
CONTINUOUS
 62
               7
  5
1F7
 10
-27.0
 20
-391.17493400000012
 30
0.0
 11
-27.0
 21
-376.0
 31
0.0
  0
ARC
  8
LAYER001
  6
CONTINUOUS
 62
               7
  5
1F8
 10
-38.0
 20
-376.0
 30
0.0
 40
11.0
 50
0.0
 51
179.99999999996643
  0
LINE
  8
LAYER001
  6
CONTINUOUS
 62
               7
  5
1F9
 10
-49.0
 20
-391.17493400000012
 30
0.0
 11
-49.0
 21
-376.0
 31
0.0
  0
LINE
  8
LAYER001
  6
CONTINUOUS
 62
               7
  5
1FA
 10
-27.0
 20
-389.48014199999989
 30
0.0
 11
71.5
 21
-389.48014199999989
 31
0.0
  0
LINE
  8
LAYER001
  6
CONTINUOUS
 62
               7
  5
1FB
 10
-28.677520000000186
 20
-370.16121800000019
 30
0.0
 11
65.0
 21
-370.16121800000019
 31
0.0
  0
LINE
  8
LAYER001
  6
CONTINUOUS
 62
               7
  5
1FC
 10
-36.257246000000123
 20
643.19555799999989
 30
0.0
 11
-27.552053999999771
 21
675.68377899999996
 31
0.0
  0
ARC
  8
LAYER001
  6
CONTINUOUS
 62
               7
  5
1FD
 10
-13.06316599999991
 20
671.80149299999994
 30
0.0
 40
15.0
 50
96.121551999982898
 51
164.99999999996894
  0
ARC
  8
LAYER001
  6
CONTINUOUS
 62
               7
  5
1FE
 10
13.06316599999991
 20
671.80149299999994
 30
0.0
 40
15.0
 50
14.999999999997774
 51
83.878447999985255
  0
ARC
  8
LAYER001
  6
CONTINUOUS
 62
               7
  5
1FF
 10
0.0
 20
550.0
 30
0.0
 40
137.5
 50
83.878447999984033
 51
96.121551999981619
  0
LINE
  8
LAYER001
  6
CONTINUOUS
 62
               7
  5
200
 10
36.257246000000123
 20
643.19555799999989
 30
0.0
 11
27.552053999999771
 21
675.68377899999996
 31
0.0
  0
CIRCLE
  8
LAYER001
  6
CONTINUOUS
 62
               7
  5
201
 10
0.0
 20
667.5
 30
0.0
 40
7.5
  0
LINE
  8
LAYER001
  6
CONTINUOUS
 62
               7
  5
202
 10
-93.195558000000347
 20
513.74275399999988
 30
0.0
 11
-125.68377899999996
 21
522.44794599999977
 31
0.0
  0
ARC
  8
LAYER001
  6
CONTINUOUS
 62
               7
  5
203
 10
-121.80149299999994
 20
536.93683400000009
 30
0.0
 40
15.0
 50
186.12155199996522
 51
254.99999999995106
  0
ARC
  8
LAYER001
  6
CONTINUOUS
 62
               7
  5
204
 10
-121.80149299999994
 20
563.06316599999991
 30
0.0
 40
15.0
 50
104.99999999997991
 51
173.87844799996759
  0
ARC
  8
LAYER001
  6
CONTINUOUS
 62
               7
  5
205
 10
0.0
 20
550.0
 30
0.0
 40
137.5
 50
173.87844799996671
 51
186.12155199996448
  0
LINE
  8
LAYER001
  6
CONTINUOUS
 62
               7
  5
206
 10
-93.195558000000347
 20
586.25724600000012
 30
0.0
 11
-125.68377899999996
 21
577.55205400000023
 31
0.0
  0
CIRCLE
  8
LAYER001
  6
CONTINUOUS
 62
               7
  5
207
 10
-117.5
 20
550.0
 30
0.0
 40
7.5
  0
LINE
  8
LAYER001
  6
CONTINUOUS
 62
               7
  5
208
 10
36.257246000000123
 20
456.80444200000011
 30
0.0
 11
27.552053999999771
 21
424.31622100000004
 31
0.0
  0
ARC
  8
LAYER001
  6
CONTINUOUS
 62
               7
  5
209
 10
13.06316599999991
 20
428.19850700000006
 30
0.0
 40
15.0
 50
276.1215519999476
 51
344.9999999999348
  0
ARC
  8
LAYER001
  6
CONTINUOUS
 62
               7
  5
20A
 10
-13.06316599999991
 20
428.19850700000006
 30
0.0
 40
15.0
 50
194.99999999996371
 51
263.87844799994974
  0
ARC
  8
LAYER001
  6
CONTINUOUS
 62
               7
  5
20B
 10
0.0
 20
550.0
 30
0.0
 40
137.5
 50
263.87844799994969
 51
276.12155199994726
  0
LINE
  8
LAYER001
  6
CONTINUOUS
 62
               7
  5
20C
 10
-36.257246000000123
 20
456.80444200000011
 30
0.0
 11
-27.552053999999771
 21
424.31622100000004
 31
0.0
  0
CIRCLE
  8
LAYER001
  6
CONTINUOUS
 62
               7
  5
20D
 10
0.0
 20
432.5
 30
0.0
 40
7.5
  0
LINE
  8
LAYER001
  6
CONTINUOUS
 62
               7
  5
20E
 10
93.195558000000347
 20
586.25724600000012
 30
0.0
 11
125.68377899999996
 21
577.55205400000023
 31
0.0
  0
ARC
  8
LAYER001
  6
CONTINUOUS
 62
               7
  5
20F
 10
121.80149299999994
 20
563.06316599999991
 30
0.0
 40
15.0
 50
6.1215519999988217
 51
74.999999999987253
  0
ARC
  8
LAYER001
  6
CONTINUOUS
 62
               7
  5
210
 10
121.80149299999994
 20
536.93683400000009
 30
0.0
 40
15.0
 50
284.99999999994702
 51
353.87844799993229
  0
ARC
  8
LAYER001
  6
CONTINUOUS
 62
               7
  5
211
 10
0.0
 20
550.0
 30
0.0
 40
137.5
 50
353.8784479999324
 51
366.12155199999796
  0
LINE
  8
LAYER001
  6
CONTINUOUS
 62
               7
  5
212
 10
93.195558000000347
 20
513.74275399999988
 30
0.0
 11
125.68377899999996
 21
522.44794599999977
 31
0.0
  0
LINE
  8
LAYER001
  6
CONTINUOUS
 62
               7
  5
213
 10
103.58420399999977
 20
557.53297100000009
 30
0.0
 11
103.58420399999977
 21
542.46702899999991
 31
0.0
  0
ARC
  8
LAYER001
  6
CONTINUOUS
 62
               7
  5
214
 10
93.036820000000262
 20
554.7414859999999
 30
0.0
 40
10.547383999999999
 50
333.28573599993751
 51
386.71426399999461
  0
ARC
  8
LAYER001
  6
CONTINUOUS
 62
               7
  5
215
 10
93.036820000000262
 20
545.2585140000001
 30
0.0
 40
10.547383999999999
 50
333.28573599993751
 51
386.71426399999461
  0
LINE
  8
LAYER001
  6
CONTINUOUS
 62
               7
  5
216
 10
102.45837099999972
 20
559.48297099999991
 30
0.0
 11
103.58420399999977
 21
557.53297100000009
 31
0.0
  0
LINE
  8
LAYER001
  6
CONTINUOUS
 62
               7
  5
217
 10
102.45837099999972
 20
540.51702900000009
 30
0.0
 11
103.58420399999977
 21
542.46702899999991
 31
0.0
  0
CIRCLE
  8
LAYER001
  6
CONTINUOUS
 62
               7
  5
218
 10
117.5
 20
550.0
 30
0.0
 40
7.5
  0
LINE
  8
LAYER001
  6
CONTINUOUS
 62
               7
  5
219
 10
100.05770399999983
 20
559.48297099999991
 30
0.0
 11
102.45837099999972
 21
559.48297099999991
 31
0.0
  0
LINE
  8
LAYER001
  6
CONTINUOUS
 62
               7
  5
21A
 10
100.05770399999983
 20
540.51702900000009
 30
0.0
 11
102.45837099999972
 21
540.51702900000009
 31
0.0
  0
LINE
  8
LAYER001
  6
CONTINUOUS
 62
               7
  5
21B
 10
-58.31584600000042
 20
635.94006600000012
 30
0.0
 11
-45.268356999999924
 21
643.47303800000009
 31
0.0
  0
ARC
  8
LAYER001
  6
CONTINUOUS
 62
               7
  5
21C
 10
-50.624657000000298
 20
628.20150700000022
 30
0.0
 40
10.547383999999999
 50
93.285735999982236
 51
146.71426399997165
  0
ARC
  8
LAYER001
  6
CONTINUOUS
 62
               7
  5
21D
 10
-42.412162999999964
 20
632.94299199999978
 30
0.0
 40
10.547383999999999
 50
93.285735999982236
 51
146.71426399997165
  0
LINE
  8
LAYER001
  6
CONTINUOUS
 62
               7
  5
21E
 10
-59.441678999999567
 20
633.99006599999984
 30
0.0
 11
-58.31584600000042
 21
635.94006600000012
 31
0.0
  0
LINE
  8
LAYER001
  6
CONTINUOUS
 62
               7
  5
21F
 10
-43.01669099999981
 20
643.47303800000009
 30
0.0
 11
-45.268356999999924
 21
643.47303800000009
 31
0.0
  0
LINE
  8
LAYER001
  6
CONTINUOUS
 62
               7
  5
220
 10
-58.241345999999794
 20
631.91102799999999
 30
0.0
 11
-59.441678999999567
 21
633.99006599999984
 31
0.0
  0
LINE
  8
LAYER001
  6
CONTINUOUS
 62
               7
  5
221
 10
-41.816358000000037
 20
641.39399899999989
 30
0.0
 11
-43.01669099999981
 21
643.47303800000009
 31
0.0
  0
LINE
  8
LAYER001
  6
CONTINUOUS
 62
               7
  5
222
 10
-50.253037000000404
 20
637.04081300000007
 30
0.0
 11
-51.229185000000143
 21
638.73155200000019
 31
0.0
  0
LINE
  8
LAYER001
  6
CONTINUOUS
 62
               7
  5
223
 10
-58.31584600000042
 20
464.05993399999988
 30
0.0
 11
-45.268356999999924
 21
456.52696199999991
 31
0.0
  0
ARC
  8
LAYER001
  6
CONTINUOUS
 62
               7
  5
224
 10
-50.624657000000298
 20
471.79849299999978
 30
0.0
 40
10.547383999999999
 50
213.28573599996105
 51
266.7142639999476
  0
ARC
  8
LAYER001
  6
CONTINUOUS
 62
               7
  5
225
 10
-42.412162999999964
 20
467.05700800000022
 30
0.0
 40
10.547383999999999
 50
213.28573599996105
 51
266.7142639999476
  0
LINE
  8
LAYER001
  6
CONTINUOUS
 62
               7
  5
226
 10
-59.441678999999567
 20
466.00993400000016
 30
0.0
 11
-58.31584600000042
 21
464.05993399999988
 31
0.0
  0
LINE
  8
LAYER001
  6
CONTINUOUS
 62
               7
  5
227
 10
-43.01669099999981
 20
456.52696199999991
 30
0.0
 11
-45.268356999999924
 21
456.52696199999991
 31
0.0
  0
LINE
  8
LAYER001
  6
CONTINUOUS
 62
               7
  5
228
 10
-58.241345999999794
 20
468.08897200000001
 30
0.0
 11
-59.441678999999567
 21
466.00993400000016
 31
0.0
  0
LINE
  8
LAYER001
  6
CONTINUOUS
 62
               7
  5
229
 10
-41.816358000000037
 20
458.60600100000011
 30
0.0
 11
-43.01669099999981
 21
456.52696199999991
 31
0.0
  0
LINE
  8
LAYER001
  6
CONTINUOUS
 62
               7
  5
22A
 10
-50.253037000000404
 20
462.95918699999993
 30
0.0
 11
-51.229185000000143
 21
461.26844799999981
 31
0.0
  0
LINE
  8
LAYER001
  6
CONTINUOUS
 62
               7
  5
22B
 10
-55.729343999999998
 20
156.0
 30
0.0
 11
55.729343
 21
156.0
 31
0.0
  0
LINE
  8
LAYER001
  6
CONTINUOUS
 62
               7
  5
22C
 10
-55.729343999999998
 20
156.0
 30
0.0
 11
-57.149448000000007
 21
110.81153499999999
 31
0.0
  0
LINE
  8
LAYER001
  6
CONTINUOUS
 62
               7
  5
22D
 10
-56.829262999999997
 20
121.0
 30
0.0
 11
56.829262525923269
 21
121.0
 31
0.0
  0
ARC
  8
LAYER001
  6
CONTINUOUS
 62
               7
  5
22E
 10
-63.146488000000005
 20
111.0
 30
0.0
 40
6.0
 50
269.99999999994833
 51
358.19999999993161
  0
LINE
  8
LAYER001
  6
CONTINUOUS
 62
               7
  5
22F
 10
55.729343
 20
156.0
 30
0.0
 11
57.149448000000007
 21
110.81153499999999
 31
0.0
  0
ARC
  8
LAYER001
  6
CONTINUOUS
 62
               7
  5
230
 10
63.146487000000008
 20
111.0
 30
0.0
 40
6.0
 50
181.79999999996534
 51
269.99999999994833
  0
ARC
  8
LAYER001
  6
CONTINUOUS
 62
               7
  5
231
 10
0.0
 20
550.0
 30
0.0
 40
100.506074
 50
0.0
 51
179.99999999996561
  0
ARC
  8
LAYER001
  6
CONTINUOUS
 62
               7
  5
232
 10
0.0
 20
550.0
 30
0.0
 40
99.672740000000005
 50
0.0
 51
179.99999999996558
  0
ARC
  8
LAYER001
  6
CONTINUOUS
 62
               7
  5
233
 10
0.0
 20
550.0
 30
0.0
 40
55.729343
 50
0.0
 51
179.99999999996561
  0
ARC
  8
LAYER001
  6
CONTINUOUS
 62
               7
  5
234
 10
0.0
 20
550.0
 30
0.0
 40
51.5
 50
0.0
 51
179.99999999996558
  0
ARC
  8
LAYER001
  6
CONTINUOUS
 62
               7
  5
235
 10
0.0
 20
550.0
 30
0.0
 40
48.5
 50
0.0
 51
179.99999999996564
  0
ARC
  8
LAYER001
  6
CONTINUOUS
 62
               7
  5
236
 10
0.0
 20
550.0
 30
0.0
 40
43.0
 50
0.0
 51
179.99999999996561
  0
ARC
  8
LAYER001
  6
CONTINUOUS
 62
               7
  5
237
 10
0.0
 20
550.0
 30
0.0
 40
93.296004999999994
 50
0.0
 51
179.99999999996561
  0
ARC
  8
LAYER001
  6
CONTINUOUS
 62
               7
  5
238
 10
0.0
 20
550.0
 30
0.0
 40
54.249628000000001
 50
0.0
 51
179.99999999996564
  0
ARC
  8
LAYER001
  6
CONTINUOUS
 62
               7
  5
239
 10
0.0
 20
550.0
 30
0.0
 40
100.506074
 50
180.00000000003359
 51
359.9999999999992
  0
ARC
  8
LAYER001
  6
CONTINUOUS
 62
               7
  5
23A
 10
0.0
 20
550.0
 30
0.0
 40
99.672740000000005
 50
180.00000000003362
 51
359.9999999999992
  0
ARC
  8
LAYER001
  6
CONTINUOUS
 62
               7
  5
23B
 10
0.0
 20
550.0
 30
0.0
 40
93.296004999999994
 50
180.00000000003359
 51
359.9999999999992
  0
ARC
  8
LAYER001
  6
CONTINUOUS
 62
               7
  5
23C
 10
0.0
 20
550.0
 30
0.0
 40
55.729343
 50
180.00000000003359
 51
359.9999999999992
  0
ARC
  8
LAYER001
  6
CONTINUOUS
 62
               7
  5
23D
 10
0.0
 20
550.0
 30
0.0
 40
51.5
 50
180.00000000003362
 51
359.9999999999992
  0
ARC
  8
LAYER001
  6
CONTINUOUS
 62
               7
  5
23E
 10
0.0
 20
550.0
 30
0.0
 40
48.5
 50
180.00000000003357
 51
359.9999999999992
  0
ARC
  8
LAYER001
  6
CONTINUOUS
 62
               7
  5
23F
 10
0.0
 20
550.0
 30
0.0
 40
43.0
 50
180.00000000003359
 51
359.9999999999992
  0
ARC
  8
LAYER001
  6
CONTINUOUS
 62
               7
  5
240
 10
0.0
 20
550.0
 30
0.0
 40
54.249628000000001
 50
180.00000000003357
 51
359.9999999999992
  0
LINE
  8
LAYER001
  6
DASHDOT
 62
               7
  5
241
 10
0.0
 20
-442.85332299999982
 30
0.0
 11
0.0
 21
251.0
 31
0.0
  0
LINE
  8
LAYER001
  6
DASHDOT
 62
               7
  5
242
 10
0.0
 20
392.5
 30
0.0
 11
0.0
 21
707.5
 31
0.0
  0
LINE
  8
LAYER001
  6
DASHDOT
 62
               7
  5
243
 10
-157.5
 20
550.0
 30
0.0
 11
157.5
 21
550.0
 31
0.0
  0
ENDSEC
  0
EOF
