  0
SECTION
  2
HEADER
  9
$ACADVER
  1
AC1009
  9
$INSBASE
 10
0.0
 20
0.0
 30
0.0
  9
$EXTMIN
 10
-909.83999481999967
 20
-995.79601972
 30
0.0
  9
$EXTMAX
 10
953.83999582000047
 20
1115.79601972
 30
0.0
  9
$LIMMIN
 10
-968.07999452749971
 20
-1061.7832709525001
  9
$LIMMAX
 10
1012.0799955275005
 20
1181.7832709525001
  9
$ORTHOMODE
 70
               0
  9
$REGENMODE
 70
               1
  9
$FILLMODE
 70
               1
  9
$QTEXTMODE
 70
               0
  9
$MIRRTEXT
 70
               1
  9
$DRAGMODE
 70
               2
  9
$LTSCALE
 40
1.0
  9
$OSMODE
 70
               0
  9
$ATTMODE
 70
               1
  9
$TEXTSIZE
 40
0.2
  9
$TRACEWID
 40
0.05
  9
$TEXTSTYLE
  7
STANDARD
  9
$CLAYER
  8
0
  9
$CELTYPE
  6
CONTINUOUS
  9
$CECOLOR
 62
             256
  9
$DIMSCALE
 40
1.0
  9
$DIMASZ
 40
0.18
  9
$DIMEXO
 40
0.0625
  9
$DIMDLI
 40
0.38
  9
$DIMRND
 40
0.0
  9
$DIMDLE
 40
0.0
  9
$DIMEXE
 40
0.18
  9
$DIMTP
 40
0.0
  9
$DIMTM
 40
0.0
  9
$DIMTXT
 40
0.18
  9
$DIMCEN
 40
0.09
  9
$DIMTSZ
 40
0.0
  9
$DIMTOL
 70
               0
  9
$DIMLIM
 70
               0
  9
$DIMTIH
 70
               1
  9
$DIMTOH
 70
               1
  9
$DIMSE1
 70
               0
  9
$DIMSE2
 70
               0
  9
$DIMTAD
 70
               0
  9
$DIMZIN
 70
               0
  9
$DIMBLK
  1

  9
$DIMASO
 70
               1
  9
$DIMSHO
 70
               1
  9
$DIMPOST
  1

  9
$DIMAPOST
  1

  9
$DIMALT
 70
               0
  9
$DIMALTD
 70
               2
  9
$DIMALTF
 40
25.399999999999999
  9
$DIMLFAC
 40
1.0
  9
$DIMTOFL
 70
               0
  9
$DIMTVP
 40
0.0
  9
$DIMTIX
 70
               0
  9
$DIMSOXD
 70
               0
  9
$DIMSAH
 70
               0
  9
$DIMBLK1
  1

  9
$DIMBLK2
  1

  9
$DIMSTYLE
  2
STANDARD
  9
$DIMCLRD
 70
               0
  9
$DIMCLRE
 70
               0
  9
$DIMCLRT
 70
               0
  9
$DIMTFAC
 40
1.0
  9
$DIMGAP
 40
0.09
  9
$LUNITS
 70
               2
  9
$LUPREC
 70
               4
  9
$AXISMODE
 70
               0
  9
$AXISUNIT
 10
0.0
 20
0.0
  9
$SKETCHINC
 40
0.1
  9
$FILLETRAD
 40
0.0
  9
$AUNITS
 70
               0
  9
$AUPREC
 70
               0
  9
$MENU
  1
acad
  9
$ELEVATION
 40
0.0
  9
$PELEVATION
 40
0.0
  9
$THICKNESS
 40
0.0
  9
$LIMCHECK
 70
               0
  9
$BLIPMODE
 70
               1
  9
$CHAMFERA
 40
0.0
  9
$CHAMFERB
 40
0.0
  9
$SKPOLY
 70
               0
  9
$TDCREATE
 40
0.000000000
  9
$TDUPDATE
 40
0.000000000
  9
$TDINDWG
 40
0.0000000000
  9
$TDUSRTIMER
 40
0.0000000000
  9
$USRTIMER
 70
               1
  9
$ANGBASE
 50
0.0
  9
$ANGDIR
 70
               0
  9
$PDMODE
 70
               0
  9
$PDSIZE
 40
1.0
  9
$PLINEWID
 40
0.0
  9
$COORDS
 70
               1
  9
$SPLFRAME
 70
               0
  9
$SPLINETYPE
 70
               6
  9
$SPLINESEGS
 70
               8
  9
$ATTDIA
 70
               0
  9
$ATTREQ
 70
               1
  9
$HANDLING
 70
               1
  9
$HANDSEED
  5
291
  9
$SURFTAB1
 70
               6
  9
$SURFTAB2
 70
               6
  9
$SURFTYPE
 70
               6
  9
$SURFU
 70
               6
  9
$SURFV
 70
               6
  9
$UCSNAME
  2

  9
$UCSORG
 10
0.0
 20
0.0
 30
0.0
  9
$UCSXDIR
 10
1.0
 20
0.0
 30
0.0
  9
$UCSYDIR
 10
0.0
 20
1.0
 30
0.0
  9
$PUCSNAME
  2

  9
$PUCSORG
 10
0.0
 20
0.0
 30
0.0
  9
$PUCSXDIR
 10
1.0
 20
0.0
 30
0.0
  9
$PUCSYDIR
 10
0.0
 20
1.0
 30
0.0
  9
$USERI1
 70
               0
  9
$USERI2
 70
               0
  9
$USERI3
 70
               0
  9
$USERI4
 70
               0
  9
$USERI5
 70
               0
  9
$USERR1
 40
0.0
  9
$USERR2
 40
0.0
  9
$USERR3
 40
0.0
  9
$USERR4
 40
0.0
  9
$USERR5
 40
0.0
  9
$WORLDVIEW
 70
               1
  9
$SHADEDGE
 70
               3
  9
$SHADEDIF
 70
              70
  9
$TILEMODE
 70
               1
  9
$MAXACTVP
 70
              16
  9
$PINSBASE
 10
0.0
 20
0.0
 30
0.0
  9
$PLIMCHECK
 70
               0
  9
$PEXTMIN
 10
1.0000000000000000E+20
 20
1.0000000000000000E+20
 30
1.0000000000000000E+20
  9
$PEXTMAX
 10
-1.0000000000000000E+20
 20
-1.0000000000000000E+20
 30
-1.0000000000000000E+20
  9
$PLIMMIN
 10
0.0
 20
0.0
  9
$PLIMMAX
 10
12.0
 20
9.0
  9
$UNITMODE
 70
               0
  9
$VISRETAIN
 70
               0
  9
$PLINEGEN
 70
               1
  9
$PSLTSCALE
 70
               0
  9
$TREEDEPTH
 70
            3020
  9
$DWGCODEPAGE
  3
dos932
  0
ENDSEC
  0
SECTION
  2
TABLES
  0
TABLE
  2
VPORT
 70
               1
  0
VPORT
  2
*ACTIVE
 70
               0
 10
0.0
 20
0.0
 11
1.0
 21
1.0
 12
22.000000500000397
 22
60.0
 13
0.0
 23
0.0
 14
1.0
 24
1.0
 15
0.0
 25
0.0
 16
0.0
 26
0.0
 36
1.0
 17
0.0
 27
0.0
 37
0.0
 40
2243.5665419050001
 41
0.8825947227638977
 42
50.0
 43
0.0
 44
0.0
 50
0.0
 51
0.0
 71
               0
 72
             100
 73
               1
 74
               1
 75
               0
 76
               0
 77
               0
 78
               0
  0
ENDTAB
  0
TABLE
  2
LTYPE
 70
              26
  0
LTYPE
  2
CONTINUOUS
 70
               0
  3
Solid line
 72
              65
 73
               0
 40
0.0
  0
LTYPE
  2
HIDDENX2
 70
               0
  3
CADPAC FUSION LINETYPE
 72
              65
 73
               2
 40
47.560000000000002
 49
35.670000000000002
 49
-11.890000000000001
  0
LTYPE
  2
HIDDEN
 70
               0
  3
CADPAC FUSION LINETYPE
 72
              65
 73
               2
 40
35.670000000000002
 49
23.780000000000001
 49
-11.890000000000001
  0
LTYPE
  2
HIDDEN2
 70
               0
  3
CADPAC FUSION LINETYPE
 72
              65
 73
               2
 40
29.725000000000001
 49
17.835000000000001
 49
-11.890000000000001
  0
LTYPE
  2
DASHED
 70
               0
  3
CADPAC FUSION LINETYPE
 72
              65
 73
               2
 40
35.670000000000002
 49
23.780000000000001
 49
-11.890000000000001
  0
LTYPE
  2
DASHED2
 70
               0
  3
CADPAC FUSION LINETYPE
 72
              65
 73
               2
 40
26.752500000000001
 49
17.835000000000001
 49
-8.9175000000000004
  0
LTYPE
  2
DASHEDX2
 70
               0
  3
CADPAC FUSION LINETYPE
 72
              65
 73
               2
 40
53.505000000000003
 49
35.670000000000002
 49
-17.835000000000001
  0
LTYPE
  2
DOTX2
 70
               0
  3
CADPAC FUSION LINETYPE
 72
              65
 73
               2
 40
14.862500000000001
 49
0.0
 49
-14.862500000000001
  0
LTYPE
  2
DOT
 70
               0
  3
CADPAC FUSION LINETYPE
 72
              65
 73
               2
 40
11.890000000000001
 49
0.0
 49
-11.890000000000001
  0
LTYPE
  2
DOTS
 70
               0
  3
CADPAC FUSION LINETYPE
 72
              65
 73
               2
 40
11.890000000000001
 49
0.0
 49
-11.890000000000001
  0
LTYPE
  2
DOT2
 70
               0
  3
CADPAC FUSION LINETYPE
 72
              65
 73
               2
 40
8.9175000000000004
 49
0.0
 49
-8.9175000000000004
  0
LTYPE
  2
CENTERX2
 70
               0
  3
CADPAC FUSION LINETYPE
 72
              65
 73
               4
 40
71.340000000000003
 49
29.725000000000001
 49
-14.862500000000001
 49
11.890000000000001
 49
-14.862500000000001
  0
LTYPE
  2
CENTER
 70
               0
  3
CADPAC FUSION LINETYPE
 72
              65
 73
               4
 40
54.694000000000003
 49
23.780000000000001
 49
-11.890000000000001
 49
7.1340000000000003
 49
-11.890000000000001
  0
LTYPE
  2
CENTER2
 70
               0
  3
CADPAC FUSION LINETYPE
 72
              65
 73
               4
 40
38.048000000000002
 49
17.835000000000001
 49
-8.9175000000000004
 49
2.3780000000000001
 49
-8.9175000000000004
  0
LTYPE
  2
DASHDOTX2
 70
               0
  3
CADPAC FUSION LINETYPE
 72
              65
 73
               4
 40
59.450000000000003
 49
29.725000000000001
 49
-14.862500000000001
 49
0.0
 49
-14.862500000000001
  0
LTYPE
  2
DASHDOT
 70
               0
  3
CADPAC FUSION LINETYPE
 72
              65
 73
               4
 40
47.560000000000002
 49
23.780000000000001
 49
-11.890000000000001
 49
0.0
 49
-11.890000000000001
  0
LTYPE
  2
DASHDOT2
 70
               0
  3
CADPAC FUSION LINETYPE
 72
              65
 73
               4
 40
35.670000000000002
 49
17.835000000000001
 49
-8.9175000000000004
 49
0.0
 49
-8.9175000000000004
  0
LTYPE
  2
DIVIDEX2
 70
               0
  3
CADPAC FUSION LINETYPE
 72
              65
 73
               6
 40
74.3125
 49
29.725000000000001
 49
-14.862500000000001
 49
0.0
 49
-14.862500000000001
 49
0.0
 49
-14.862500000000001
  0
LTYPE
  2
DIVIDE
 70
               0
  3
CADPAC FUSION LINETYPE
 72
              65
 73
               6
 40
59.450000000000003
 49
23.780000000000001
 49
-11.890000000000001
 49
0.0
 49
-11.890000000000001
 49
0.0
 49
-11.890000000000001
  0
LTYPE
  2
DIVIDE2
 70
               0
  3
CADPAC FUSION LINETYPE
 72
              65
 73
               6
 40
44.587500000000006
 49
17.835000000000001
 49
-8.9175000000000004
 49
0.0
 49
-8.9175000000000004
 49
0.0
 49
-8.9175000000000004
  0
LTYPE
  2
BORDERX2
 70
               0
  3
CADPAC FUSION LINETYPE
 72
              65
 73
               6
 40
104.03750000000001
 49
29.725000000000001
 49
-14.862500000000001
 49
29.725000000000001
 49
-14.862500000000001
 49
0.0
 49
-14.862500000000001
  0
LTYPE
  2
BORDER
 70
               0
  3
CADPAC FUSION LINETYPE
 72
              65
 73
               6
 40
83.230000000000004
 49
23.780000000000001
 49
-11.890000000000001
 49
23.780000000000001
 49
-11.890000000000001
 49
0.0
 49
-11.890000000000001
  0
LTYPE
  2
BORDER2
 70
               0
  3
CADPAC FUSION LINETYPE
 72
              65
 73
               6
 40
62.422499999999999
 49
17.835000000000001
 49
-8.9175000000000004
 49
17.835000000000001
 49
-8.9175000000000004
 49
0.0
 49
-8.9175000000000004
  0
LTYPE
  2
PHANTOMX2
 70
               0
  3
CADPAC FUSION LINETYPE
 72
              65
 73
               6
 40
89.175000000000011
 49
29.725000000000001
 49
-11.890000000000001
 49
11.890000000000001
 49
-11.890000000000001
 49
11.890000000000001
 49
-11.890000000000001
  0
LTYPE
  2
PHANTOM
 70
               0
  3
CADPAC FUSION LINETYPE
 72
              65
 73
               6
 40
73.718000000000004
 49
23.780000000000001
 49
-11.890000000000001
 49
7.1340000000000003
 49
-11.890000000000001
 49
7.1340000000000003
 49
-11.890000000000001
  0
LTYPE
  2
PHANTOM2
 70
               0
  3
CADPAC FUSION LINETYPE
 72
              65
 73
               6
 40
63.017000000000003
 49
17.835000000000001
 49
-11.890000000000001
 49
4.7560000000000002
 49
-11.890000000000001
 49
4.7560000000000002
 49
-11.890000000000001
  0
ENDTAB
  0
TABLE
  2
LAYER
 70
             256
  0
LAYER
  2
0
 70
               0
 62
               7
  6
CONTINUOUS
  0
LAYER
  2
LAYER001
 70
               0
 62
               7
  6
CONTINUOUS
  0
LAYER
  2
LAYER002
 70
               0
 62
               7
  6
CONTINUOUS
  0
LAYER
  2
LAYER003
 70
               0
 62
               7
  6
CONTINUOUS
  0
LAYER
  2
LAYER004
 70
               0
 62
               7
  6
CONTINUOUS
  0
LAYER
  2
LAYER005
 70
               0
 62
               7
  6
CONTINUOUS
  0
LAYER
  2
LAYER006
 70
               0
 62
               7
  6
CONTINUOUS
  0
LAYER
  2
LAYER007
 70
               0
 62
               7
  6
CONTINUOUS
  0
LAYER
  2
LAYER008
 70
               0
 62
               7
  6
CONTINUOUS
  0
LAYER
  2
LAYER009
 70
               0
 62
               7
  6
CONTINUOUS
  0
LAYER
  2
LAYER010
 70
               0
 62
               7
  6
CONTINUOUS
  0
LAYER
  2
LAYER011
 70
               0
 62
               7
  6
CONTINUOUS
  0
LAYER
  2
LAYER012
 70
               0
 62
               7
  6
CONTINUOUS
  0
LAYER
  2
LAYER013
 70
               0
 62
               7
  6
CONTINUOUS
  0
LAYER
  2
LAYER014
 70
               0
 62
               7
  6
CONTINUOUS
  0
LAYER
  2
LAYER015
 70
               0
 62
               7
  6
CONTINUOUS
  0
LAYER
  2
LAYER016
 70
               0
 62
               7
  6
CONTINUOUS
  0
LAYER
  2
LAYER017
 70
               0
 62
               7
  6
CONTINUOUS
  0
LAYER
  2
LAYER018
 70
               0
 62
               7
  6
CONTINUOUS
  0
LAYER
  2
LAYER019
 70
               0
 62
               7
  6
CONTINUOUS
  0
LAYER
  2
LAYER020
 70
               0
 62
               7
  6
CONTINUOUS
  0
LAYER
  2
LAYER021
 70
               0
 62
               7
  6
CONTINUOUS
  0
LAYER
  2
LAYER022
 70
               0
 62
               7
  6
CONTINUOUS
  0
LAYER
  2
LAYER023
 70
               0
 62
               7
  6
CONTINUOUS
  0
LAYER
  2
LAYER024
 70
               0
 62
               7
  6
CONTINUOUS
  0
LAYER
  2
LAYER025
 70
               0
 62
               7
  6
CONTINUOUS
  0
LAYER
  2
LAYER026
 70
               0
 62
               7
  6
CONTINUOUS
  0
LAYER
  2
LAYER027
 70
               0
 62
               7
  6
CONTINUOUS
  0
LAYER
  2
LAYER028
 70
               0
 62
               7
  6
CONTINUOUS
  0
LAYER
  2
LAYER029
 70
               0
 62
               7
  6
CONTINUOUS
  0
LAYER
  2
LAYER030
 70
               0
 62
               7
  6
CONTINUOUS
  0
LAYER
  2
LAYER031
 70
               0
 62
               7
  6
CONTINUOUS
  0
LAYER
  2
LAYER032
 70
               0
 62
               7
  6
CONTINUOUS
  0
LAYER
  2
LAYER033
 70
               0
 62
               7
  6
CONTINUOUS
  0
LAYER
  2
LAYER034
 70
               0
 62
               7
  6
CONTINUOUS
  0
LAYER
  2
LAYER035
 70
               0
 62
               7
  6
CONTINUOUS
  0
LAYER
  2
LAYER036
 70
               0
 62
               7
  6
CONTINUOUS
  0
LAYER
  2
LAYER037
 70
               0
 62
               7
  6
CONTINUOUS
  0
LAYER
  2
LAYER038
 70
               0
 62
               7
  6
CONTINUOUS
  0
LAYER
  2
LAYER039
 70
               0
 62
               7
  6
CONTINUOUS
  0
LAYER
  2
LAYER040
 70
               0
 62
               7
  6
CONTINUOUS
  0
LAYER
  2
LAYER041
 70
               0
 62
               7
  6
CONTINUOUS
  0
LAYER
  2
LAYER042
 70
               0
 62
               7
  6
CONTINUOUS
  0
LAYER
  2
LAYER043
 70
               0
 62
               7
  6
CONTINUOUS
  0
LAYER
  2
LAYER044
 70
               0
 62
               7
  6
CONTINUOUS
  0
LAYER
  2
LAYER045
 70
               0
 62
               7
  6
CONTINUOUS
  0
LAYER
  2
LAYER046
 70
               0
 62
               7
  6
CONTINUOUS
  0
LAYER
  2
LAYER047
 70
               0
 62
               7
  6
CONTINUOUS
  0
LAYER
  2
LAYER048
 70
               0
 62
               7
  6
CONTINUOUS
  0
LAYER
  2
LAYER049
 70
               0
 62
               7
  6
CONTINUOUS
  0
LAYER
  2
LAYER050
 70
               0
 62
               7
  6
CONTINUOUS
  0
LAYER
  2
LAYER051
 70
               0
 62
               7
  6
CONTINUOUS
  0
LAYER
  2
LAYER052
 70
               0
 62
               7
  6
CONTINUOUS
  0
LAYER
  2
LAYER053
 70
               0
 62
               7
  6
CONTINUOUS
  0
LAYER
  2
LAYER054
 70
               0
 62
               7
  6
CONTINUOUS
  0
LAYER
  2
LAYER055
 70
               0
 62
               7
  6
CONTINUOUS
  0
LAYER
  2
LAYER056
 70
               0
 62
               7
  6
CONTINUOUS
  0
LAYER
  2
LAYER057
 70
               0
 62
               7
  6
CONTINUOUS
  0
LAYER
  2
LAYER058
 70
               0
 62
               7
  6
CONTINUOUS
  0
LAYER
  2
LAYER059
 70
               0
 62
               7
  6
CONTINUOUS
  0
LAYER
  2
LAYER060
 70
               0
 62
               7
  6
CONTINUOUS
  0
LAYER
  2
LAYER061
 70
               0
 62
               7
  6
CONTINUOUS
  0
LAYER
  2
LAYER062
 70
               0
 62
               7
  6
CONTINUOUS
  0
LAYER
  2
LAYER063
 70
               0
 62
               7
  6
CONTINUOUS
  0
LAYER
  2
LAYER064
 70
               0
 62
               7
  6
CONTINUOUS
  0
LAYER
  2
LAYER065
 70
               0
 62
               7
  6
CONTINUOUS
  0
LAYER
  2
LAYER066
 70
               0
 62
               7
  6
CONTINUOUS
  0
LAYER
  2
LAYER067
 70
               0
 62
               7
  6
CONTINUOUS
  0
LAYER
  2
LAYER068
 70
               0
 62
               7
  6
CONTINUOUS
  0
LAYER
  2
LAYER069
 70
               0
 62
               7
  6
CONTINUOUS
  0
LAYER
  2
LAYER070
 70
               0
 62
               7
  6
CONTINUOUS
  0
LAYER
  2
LAYER071
 70
               0
 62
               7
  6
CONTINUOUS
  0
LAYER
  2
LAYER072
 70
               0
 62
               7
  6
CONTINUOUS
  0
LAYER
  2
LAYER073
 70
               0
 62
               7
  6
CONTINUOUS
  0
LAYER
  2
LAYER074
 70
               0
 62
               7
  6
CONTINUOUS
  0
LAYER
  2
LAYER075
 70
               0
 62
               7
  6
CONTINUOUS
  0
LAYER
  2
LAYER076
 70
               0
 62
               7
  6
CONTINUOUS
  0
LAYER
  2
LAYER077
 70
               0
 62
               7
  6
CONTINUOUS
  0
LAYER
  2
LAYER078
 70
               0
 62
               7
  6
CONTINUOUS
  0
LAYER
  2
LAYER079
 70
               0
 62
               7
  6
CONTINUOUS
  0
LAYER
  2
LAYER080
 70
               0
 62
               7
  6
CONTINUOUS
  0
LAYER
  2
LAYER081
 70
               0
 62
               7
  6
CONTINUOUS
  0
LAYER
  2
LAYER082
 70
               0
 62
               7
  6
CONTINUOUS
  0
LAYER
  2
LAYER083
 70
               0
 62
               7
  6
CONTINUOUS
  0
LAYER
  2
LAYER084
 70
               0
 62
               7
  6
CONTINUOUS
  0
LAYER
  2
LAYER085
 70
               0
 62
               7
  6
CONTINUOUS
  0
LAYER
  2
LAYER086
 70
               0
 62
               7
  6
CONTINUOUS
  0
LAYER
  2
LAYER087
 70
               0
 62
               7
  6
CONTINUOUS
  0
LAYER
  2
LAYER088
 70
               0
 62
               7
  6
CONTINUOUS
  0
LAYER
  2
LAYER089
 70
               0
 62
               7
  6
CONTINUOUS
  0
LAYER
  2
LAYER090
 70
               0
 62
               7
  6
CONTINUOUS
  0
LAYER
  2
LAYER091
 70
               0
 62
               7
  6
CONTINUOUS
  0
LAYER
  2
LAYER092
 70
               0
 62
               7
  6
CONTINUOUS
  0
LAYER
  2
LAYER093
 70
               0
 62
               7
  6
CONTINUOUS
  0
LAYER
  2
LAYER094
 70
               0
 62
               7
  6
CONTINUOUS
  0
LAYER
  2
LAYER095
 70
               0
 62
               7
  6
CONTINUOUS
  0
LAYER
  2
LAYER096
 70
               0
 62
               7
  6
CONTINUOUS
  0
LAYER
  2
LAYER097
 70
               0
 62
               7
  6
CONTINUOUS
  0
LAYER
  2
LAYER098
 70
               0
 62
               7
  6
CONTINUOUS
  0
LAYER
  2
LAYER099
 70
               0
 62
               7
  6
CONTINUOUS
  0
LAYER
  2
LAYER100
 70
               0
 62
               7
  6
CONTINUOUS
  0
LAYER
  2
LAYER101
 70
               0
 62
               7
  6
CONTINUOUS
  0
LAYER
  2
LAYER102
 70
               0
 62
               7
  6
CONTINUOUS
  0
LAYER
  2
LAYER103
 70
               0
 62
               7
  6
CONTINUOUS
  0
LAYER
  2
LAYER104
 70
               0
 62
               7
  6
CONTINUOUS
  0
LAYER
  2
LAYER105
 70
               0
 62
               7
  6
CONTINUOUS
  0
LAYER
  2
LAYER106
 70
               0
 62
               7
  6
CONTINUOUS
  0
LAYER
  2
LAYER107
 70
               0
 62
               7
  6
CONTINUOUS
  0
LAYER
  2
LAYER108
 70
               0
 62
               7
  6
CONTINUOUS
  0
LAYER
  2
LAYER109
 70
               0
 62
               7
  6
CONTINUOUS
  0
LAYER
  2
LAYER110
 70
               0
 62
               7
  6
CONTINUOUS
  0
LAYER
  2
LAYER111
 70
               0
 62
               7
  6
CONTINUOUS
  0
LAYER
  2
LAYER112
 70
               0
 62
               7
  6
CONTINUOUS
  0
LAYER
  2
LAYER113
 70
               0
 62
               7
  6
CONTINUOUS
  0
LAYER
  2
LAYER114
 70
               0
 62
               7
  6
CONTINUOUS
  0
LAYER
  2
LAYER115
 70
               0
 62
               7
  6
CONTINUOUS
  0
LAYER
  2
LAYER116
 70
               0
 62
               7
  6
CONTINUOUS
  0
LAYER
  2
LAYER117
 70
               0
 62
               7
  6
CONTINUOUS
  0
LAYER
  2
LAYER118
 70
               0
 62
               7
  6
CONTINUOUS
  0
LAYER
  2
LAYER119
 70
               0
 62
               7
  6
CONTINUOUS
  0
LAYER
  2
LAYER120
 70
               0
 62
               7
  6
CONTINUOUS
  0
LAYER
  2
LAYER121
 70
               0
 62
               7
  6
CONTINUOUS
  0
LAYER
  2
LAYER122
 70
               0
 62
               7
  6
CONTINUOUS
  0
LAYER
  2
LAYER123
 70
               0
 62
               7
  6
CONTINUOUS
  0
LAYER
  2
LAYER124
 70
               0
 62
               7
  6
CONTINUOUS
  0
LAYER
  2
LAYER125
 70
               0
 62
               7
  6
CONTINUOUS
  0
LAYER
  2
LAYER126
 70
               0
 62
               7
  6
CONTINUOUS
  0
LAYER
  2
LAYER127
 70
               0
 62
               7
  6
CONTINUOUS
  0
LAYER
  2
LAYER128
 70
               0
 62
               7
  6
CONTINUOUS
  0
LAYER
  2
LAYER129
 70
               0
 62
               7
  6
CONTINUOUS
  0
LAYER
  2
LAYER130
 70
               0
 62
               7
  6
CONTINUOUS
  0
LAYER
  2
LAYER131
 70
               0
 62
               7
  6
CONTINUOUS
  0
LAYER
  2
LAYER132
 70
               0
 62
               7
  6
CONTINUOUS
  0
LAYER
  2
LAYER133
 70
               0
 62
               7
  6
CONTINUOUS
  0
LAYER
  2
LAYER134
 70
               0
 62
               7
  6
CONTINUOUS
  0
LAYER
  2
LAYER135
 70
               0
 62
               7
  6
CONTINUOUS
  0
LAYER
  2
LAYER136
 70
               0
 62
               7
  6
CONTINUOUS
  0
LAYER
  2
LAYER137
 70
               0
 62
               7
  6
CONTINUOUS
  0
LAYER
  2
LAYER138
 70
               0
 62
               7
  6
CONTINUOUS
  0
LAYER
  2
LAYER139
 70
               0
 62
               7
  6
CONTINUOUS
  0
LAYER
  2
LAYER140
 70
               0
 62
               7
  6
CONTINUOUS
  0
LAYER
  2
LAYER141
 70
               0
 62
               7
  6
CONTINUOUS
  0
LAYER
  2
LAYER142
 70
               0
 62
               7
  6
CONTINUOUS
  0
LAYER
  2
LAYER143
 70
               0
 62
               7
  6
CONTINUOUS
  0
LAYER
  2
LAYER144
 70
               0
 62
               7
  6
CONTINUOUS
  0
LAYER
  2
LAYER145
 70
               0
 62
               7
  6
CONTINUOUS
  0
LAYER
  2
LAYER146
 70
               0
 62
               7
  6
CONTINUOUS
  0
LAYER
  2
LAYER147
 70
               0
 62
               7
  6
CONTINUOUS
  0
LAYER
  2
LAYER148
 70
               0
 62
               7
  6
CONTINUOUS
  0
LAYER
  2
LAYER149
 70
               0
 62
               7
  6
CONTINUOUS
  0
LAYER
  2
LAYER150
 70
               0
 62
               7
  6
CONTINUOUS
  0
LAYER
  2
LAYER151
 70
               0
 62
               7
  6
CONTINUOUS
  0
LAYER
  2
LAYER152
 70
               0
 62
               7
  6
CONTINUOUS
  0
LAYER
  2
LAYER153
 70
               0
 62
               7
  6
CONTINUOUS
  0
LAYER
  2
LAYER154
 70
               0
 62
               7
  6
CONTINUOUS
  0
LAYER
  2
LAYER155
 70
               0
 62
               7
  6
CONTINUOUS
  0
LAYER
  2
LAYER156
 70
               0
 62
               7
  6
CONTINUOUS
  0
LAYER
  2
LAYER157
 70
               0
 62
               7
  6
CONTINUOUS
  0
LAYER
  2
LAYER158
 70
               0
 62
               7
  6
CONTINUOUS
  0
LAYER
  2
LAYER159
 70
               0
 62
               7
  6
CONTINUOUS
  0
LAYER
  2
LAYER160
 70
               0
 62
               7
  6
CONTINUOUS
  0
LAYER
  2
LAYER161
 70
               0
 62
               7
  6
CONTINUOUS
  0
LAYER
  2
LAYER162
 70
               0
 62
               7
  6
CONTINUOUS
  0
LAYER
  2
LAYER163
 70
               0
 62
               7
  6
CONTINUOUS
  0
LAYER
  2
LAYER164
 70
               0
 62
               7
  6
CONTINUOUS
  0
LAYER
  2
LAYER165
 70
               0
 62
               7
  6
CONTINUOUS
  0
LAYER
  2
LAYER166
 70
               0
 62
               7
  6
CONTINUOUS
  0
LAYER
  2
LAYER167
 70
               0
 62
               7
  6
CONTINUOUS
  0
LAYER
  2
LAYER168
 70
               0
 62
               7
  6
CONTINUOUS
  0
LAYER
  2
LAYER169
 70
               0
 62
               7
  6
CONTINUOUS
  0
LAYER
  2
LAYER170
 70
               0
 62
               7
  6
CONTINUOUS
  0
LAYER
  2
LAYER171
 70
               0
 62
               7
  6
CONTINUOUS
  0
LAYER
  2
LAYER172
 70
               0
 62
               7
  6
CONTINUOUS
  0
LAYER
  2
LAYER173
 70
               0
 62
               7
  6
CONTINUOUS
  0
LAYER
  2
LAYER174
 70
               0
 62
               7
  6
CONTINUOUS
  0
LAYER
  2
LAYER175
 70
               0
 62
               7
  6
CONTINUOUS
  0
LAYER
  2
LAYER176
 70
               0
 62
               7
  6
CONTINUOUS
  0
LAYER
  2
LAYER177
 70
               0
 62
               7
  6
CONTINUOUS
  0
LAYER
  2
LAYER178
 70
               0
 62
               7
  6
CONTINUOUS
  0
LAYER
  2
LAYER179
 70
               0
 62
               7
  6
CONTINUOUS
  0
LAYER
  2
LAYER180
 70
               0
 62
               7
  6
CONTINUOUS
  0
LAYER
  2
LAYER181
 70
               0
 62
               7
  6
CONTINUOUS
  0
LAYER
  2
LAYER182
 70
               0
 62
               7
  6
CONTINUOUS
  0
LAYER
  2
LAYER183
 70
               0
 62
               7
  6
CONTINUOUS
  0
LAYER
  2
LAYER184
 70
               0
 62
               7
  6
CONTINUOUS
  0
LAYER
  2
LAYER185
 70
               0
 62
               7
  6
CONTINUOUS
  0
LAYER
  2
LAYER186
 70
               0
 62
               7
  6
CONTINUOUS
  0
LAYER
  2
LAYER187
 70
               0
 62
               7
  6
CONTINUOUS
  0
LAYER
  2
LAYER188
 70
               0
 62
               7
  6
CONTINUOUS
  0
LAYER
  2
LAYER189
 70
               0
 62
               7
  6
CONTINUOUS
  0
LAYER
  2
LAYER190
 70
               0
 62
               7
  6
CONTINUOUS
  0
LAYER
  2
LAYER191
 70
               0
 62
               7
  6
CONTINUOUS
  0
LAYER
  2
LAYER192
 70
               0
 62
               7
  6
CONTINUOUS
  0
LAYER
  2
LAYER193
 70
               0
 62
               7
  6
CONTINUOUS
  0
LAYER
  2
LAYER194
 70
               0
 62
               7
  6
CONTINUOUS
  0
LAYER
  2
LAYER195
 70
               0
 62
               7
  6
CONTINUOUS
  0
LAYER
  2
LAYER196
 70
               0
 62
               7
  6
CONTINUOUS
  0
LAYER
  2
LAYER197
 70
               0
 62
               7
  6
CONTINUOUS
  0
LAYER
  2
LAYER198
 70
               0
 62
               7
  6
CONTINUOUS
  0
LAYER
  2
LAYER199
 70
               0
 62
               7
  6
CONTINUOUS
  0
LAYER
  2
LAYER200
 70
               0
 62
               7
  6
CONTINUOUS
  0
LAYER
  2
LAYER201
 70
               0
 62
               7
  6
CONTINUOUS
  0
LAYER
  2
LAYER202
 70
               0
 62
               7
  6
CONTINUOUS
  0
LAYER
  2
LAYER203
 70
               0
 62
               7
  6
CONTINUOUS
  0
LAYER
  2
LAYER204
 70
               0
 62
               7
  6
CONTINUOUS
  0
LAYER
  2
LAYER205
 70
               0
 62
               7
  6
CONTINUOUS
  0
LAYER
  2
LAYER206
 70
               0
 62
               7
  6
CONTINUOUS
  0
LAYER
  2
LAYER207
 70
               0
 62
               7
  6
CONTINUOUS
  0
LAYER
  2
LAYER208
 70
               0
 62
               7
  6
CONTINUOUS
  0
LAYER
  2
LAYER209
 70
               0
 62
               7
  6
CONTINUOUS
  0
LAYER
  2
LAYER210
 70
               0
 62
               7
  6
CONTINUOUS
  0
LAYER
  2
LAYER211
 70
               0
 62
               7
  6
CONTINUOUS
  0
LAYER
  2
LAYER212
 70
               0
 62
               7
  6
CONTINUOUS
  0
LAYER
  2
LAYER213
 70
               0
 62
               7
  6
CONTINUOUS
  0
LAYER
  2
LAYER214
 70
               0
 62
               7
  6
CONTINUOUS
  0
LAYER
  2
LAYER215
 70
               0
 62
               7
  6
CONTINUOUS
  0
LAYER
  2
LAYER216
 70
               0
 62
               7
  6
CONTINUOUS
  0
LAYER
  2
LAYER217
 70
               0
 62
               7
  6
CONTINUOUS
  0
LAYER
  2
LAYER218
 70
               0
 62
               7
  6
CONTINUOUS
  0
LAYER
  2
LAYER219
 70
               0
 62
               7
  6
CONTINUOUS
  0
LAYER
  2
LAYER220
 70
               0
 62
               7
  6
CONTINUOUS
  0
LAYER
  2
LAYER221
 70
               0
 62
               7
  6
CONTINUOUS
  0
LAYER
  2
LAYER222
 70
               0
 62
               7
  6
CONTINUOUS
  0
LAYER
  2
LAYER223
 70
               0
 62
               7
  6
CONTINUOUS
  0
LAYER
  2
LAYER224
 70
               0
 62
               7
  6
CONTINUOUS
  0
LAYER
  2
LAYER225
 70
               0
 62
               7
  6
CONTINUOUS
  0
LAYER
  2
LAYER226
 70
               0
 62
               7
  6
CONTINUOUS
  0
LAYER
  2
LAYER227
 70
               0
 62
               7
  6
CONTINUOUS
  0
LAYER
  2
LAYER228
 70
               0
 62
               7
  6
CONTINUOUS
  0
LAYER
  2
LAYER229
 70
               0
 62
               7
  6
CONTINUOUS
  0
LAYER
  2
LAYER230
 70
               0
 62
               7
  6
CONTINUOUS
  0
LAYER
  2
LAYER231
 70
               0
 62
               7
  6
CONTINUOUS
  0
LAYER
  2
LAYER232
 70
               0
 62
               7
  6
CONTINUOUS
  0
LAYER
  2
LAYER233
 70
               0
 62
               7
  6
CONTINUOUS
  0
LAYER
  2
LAYER234
 70
               0
 62
               7
  6
CONTINUOUS
  0
LAYER
  2
LAYER235
 70
               0
 62
               7
  6
CONTINUOUS
  0
LAYER
  2
LAYER236
 70
               0
 62
               7
  6
CONTINUOUS
  0
LAYER
  2
LAYER237
 70
               0
 62
               7
  6
CONTINUOUS
  0
LAYER
  2
LAYER238
 70
               0
 62
               7
  6
CONTINUOUS
  0
LAYER
  2
LAYER239
 70
               0
 62
               7
  6
CONTINUOUS
  0
LAYER
  2
LAYER240
 70
               0
 62
               7
  6
CONTINUOUS
  0
LAYER
  2
LAYER241
 70
               0
 62
               7
  6
CONTINUOUS
  0
LAYER
  2
LAYER242
 70
               0
 62
               7
  6
CONTINUOUS
  0
LAYER
  2
LAYER243
 70
               0
 62
               7
  6
CONTINUOUS
  0
LAYER
  2
LAYER244
 70
               0
 62
               7
  6
CONTINUOUS
  0
LAYER
  2
LAYER245
 70
               0
 62
               7
  6
CONTINUOUS
  0
LAYER
  2
LAYER246
 70
               0
 62
               7
  6
CONTINUOUS
  0
LAYER
  2
LAYER247
 70
               0
 62
               7
  6
CONTINUOUS
  0
LAYER
  2
LAYER248
 70
               0
 62
               7
  6
CONTINUOUS
  0
LAYER
  2
LAYER249
 70
               0
 62
               7
  6
CONTINUOUS
  0
LAYER
  2
LAYER250
 70
               0
 62
               7
  6
CONTINUOUS
  0
LAYER
  2
LAYER251
 70
               0
 62
               7
  6
CONTINUOUS
  0
LAYER
  2
LAYER252
 70
               0
 62
               7
  6
CONTINUOUS
  0
LAYER
  2
LAYER253
 70
               0
 62
               7
  6
CONTINUOUS
  0
LAYER
  2
LAYER254
 70
               0
 62
               7
  6
CONTINUOUS
  0
LAYER
  2
LAYER255
 70
               0
 62
               7
  6
CONTINUOUS
  0
ENDTAB
  0
TABLE
  2
STYLE
 70
               1
  0
STYLE
  2
STANDARD
 70
               0
 40
0.0
 41
0.5285800000000001
 50
0.0
 71
               0
 42
80.0
  3
txt.shx
  4
bigfont.shx
  0
ENDTAB
  0
TABLE
  2
VIEW
 70
               0
  0
VIEW
  2
QQQQ
 70
               0
 40
2243.5665419050001
 10
22.000000500000397
 20
60.0
 41
1980.1599900550002
 11
0.0
 21
0.0
 31
1.0
 12
100.0
 22
100.0
 32
0.0
 42
50.0
 43
0.0
 44
0.0
 50
0.0
 71
               0
  0
ENDTAB
  0
TABLE
  2
UCS
 70
               0
  0
ENDTAB
  0
TABLE
  2
APPID
 70
               1
  0
APPID
  2
ACAD
 70
               0
  0
ENDTAB
  0
TABLE
  2
DIMSTYLE
 70
               1
  0
DIMSTYLE
  2
STANDARD
 70
               0
  3

  4

  5

  6

  7

 40
1.0
 41
0.18
 42
0.0625
 43
0.38
 44
0.18
 45
0.0
 46
0.0
 47
0.0
 48
0.0
140
0.18
141
0.09
142
0.0
143
25.399999999999999
144
1.0
145
0.0
146
1.0
147
0.09
 71
               0
 72
               0
 73
               1
 74
               1
 75
               0
 76
               0
 77
               0
 78
               0
170
               0
171
               2
172
               0
173
               0
174
               0
175
               0
176
               0
177
               0
178
               0
  0
ENDTAB
  0
ENDSEC
  0
SECTION
  2
BLOCKS
  0
ENDSEC
  0
SECTION
  2
ENTITIES
  0
TEXT
  8
LAYER001
 62
               3
  5
136
 10
516.00000500000078
 20
-955.18848049999997
 30
0.0
 40
80.0
  1
１００
 41
0.5285800000000001
 11
664.00240500000086
 21
-955.18848049999997
 31
0.0
 73
               1
  0
TEXT
  8
LAYER001
 62
               3
  5
137
 10
-873.99999499999967
 20
192.31151950000006
 30
0.0
 40
80.0
  1
１２５
 41
0.5285800000000001
 11
-725.99759499999959
 21
192.31151950000006
 31
0.0
 73
               1
  0
TEXT
  8
LAYER001
 62
               3
  5
138
 10
-857.99999599999956
 20
-955.18848049999997
 30
0.0
 40
80.0
  1
６５
 41
0.5265800000000001
 11
-710.55759599999953
 21
-955.18848049999997
 31
0.0
 73
               1
  0
TEXT
  8
LAYER001
 62
               3
  5
139
 10
-157.99999599999956
 20
-955.18848049999997
 30
0.0
 40
80.0
  1
８０
 41
0.5265800000000001
 11
-10.557595999999535
 21
-955.18848049999997
 31
0.0
 73
               1
  0
TEXT
  8
LAYER001
 62
               3
  5
13A
 10
526.00000500000078
 20
192.31151950000006
 30
0.0
 40
80.0
  1
１５０
 41
0.5285800000000001
 11
674.00240500000086
 21
192.31151950000006
 31
0.0
 73
               1
  0
LINE
  8
LAYER001
  6
DASHDOT
 62
               4
  5
13B
 10
-111.99818799999957
 20
-282.31333549999999
 30
0.0
 11
177.9981800000005
 21
-282.31332049999992
 31
0.0
  0
LINE
  8
LAYER001
  6
DASHDOT
 62
               4
  5
13C
 10
32.999996000000465
 20
-427.31151950000003
 30
0.0
 11
32.999996000000465
 21
-137.31515149999996
 31
0.0
  0
LINE
  8
LAYER001
  6
DASHDOT
 62
               4
  5
13D
 10
32.999996000000465
 20
-788.18848049999997
 30
0.0
 11
32.999996000000465
 21
-627.31151950000003
 31
0.0
  0
LINE
  8
LAYER001
  6
DASHDOT
 62
               4
  5
13E
 10
-806.99818799999957
 20
-287.31335050000007
 30
0.0
 11
-527.0018199999995
 21
-287.31333549999999
 31
0.0
  0
LINE
  8
LAYER001
  6
DASHDOT
 62
               4
  5
13F
 10
-667.00000399999954
 20
-427.31153449999988
 30
0.0
 11
-667.00000399999954
 21
-147.31516650000003
 31
0.0
  0
LINE
  8
LAYER001
  6
DASHDOT
 62
               4
  5
140
 10
-667.00000399999954
 20
-788.18848049999997
 30
0.0
 11
-667.00000399999954
 21
-627.31153449999988
 31
0.0
  0
LINE
  8
LAYER001
  6
DASHDOT
 62
               4
  5
141
 10
-837.00000399999954
 20
890.18847949999963
 30
0.0
 11
-497.00000399999954
 21
890.18849649999993
 31
0.0
  0
LINE
  8
LAYER001
  6
DASHDOT
 62
               4
  5
142
 10
-667.00000399999954
 20
720.18848049999997
 30
0.0
 11
-667.00000399999954
 21
1060.1884805
 31
0.0
  0
LINE
  8
LAYER001
  6
DASHDOT
 62
               4
  5
143
 10
-667.00000399999954
 20
359.31151950000003
 30
0.0
 11
-667.00000399999954
 21
520.18848049999997
 31
0.0
  0
LINE
  8
LAYER001
  6
DASHDOT
 62
               4
  5
144
 10
577.99999600000046
 20
-272.31151950000003
 30
0.0
 11
887.99999600000046
 21
-272.31150350000007
 31
0.0
  0
LINE
  8
LAYER001
  6
DASHDOT
 62
               4
  5
145
 10
732.99999600000046
 20
-427.31151950000003
 30
0.0
 11
732.99999600000046
 21
-117.31151950000003
 31
0.0
  0
LINE
  8
LAYER001
  6
DASHDOT
 62
               4
  5
146
 10
732.99999600000046
 20
-788.18848049999997
 30
0.0
 11
732.99999600000046
 21
-627.31151950000003
 31
0.0
  0
LINE
  8
LAYER001
  6
DASHDOT
 62
               4
  5
147
 10
547.99999600000046
 20
890.18847149999965
 30
0.0
 11
917.99999600000046
 21
890.18849049999972
 31
0.0
  0
LINE
  8
LAYER001
  6
DASHDOT
 62
               4
  5
148
 10
732.99999600000046
 20
705.18848049999997
 30
0.0
 11
732.99999600000046
 21
1075.1884805
 31
0.0
  0
LINE
  8
LAYER001
  6
DASHDOT
 62
               4
  5
149
 10
732.99999600000046
 20
359.31151950000003
 30
0.0
 11
732.99999600000046
 21
533.18848049999997
 31
0.0
  0
LINE
  8
LAYER001
  6
CONTINUOUS
 62
               4
  5
14A
 10
27.999996000000465
 20
-658.98846449999996
 30
0.0
 11
37.999996000000465
 21
-658.98846449999996
 31
0.0
  0
ARC
  8
LAYER001
  6
CONTINUOUS
 62
               4
  5
14B
 10
47.500026000000616
 20
-653.52276649999999
 30
0.0
 40
5.5
 50
307.41832799994387
 51
512.58053399996982
  0
LINE
  8
LAYER001
  6
CONTINUOUS
 62
               4
  5
14C
 10
42.61788500000057
 20
-650.99002150000001
 30
0.0
 11
37.999996000000465
 21
-658.98843450000004
 31
0.0
  0
LINE
  8
LAYER001
  6
CONTINUOUS
 62
               4
  5
14D
 10
36.999996000000465
 20
-647.98850149999998
 30
0.0
 11
36.999996000000465
 21
-658.98846449999996
 31
0.0
  0
LINE
  8
LAYER001
  6
CONTINUOUS
 62
               4
  5
14E
 10
28.999996000000465
 20
-647.98847049999995
 30
0.0
 11
28.999996000000465
 21
-658.98846449999996
 31
0.0
  0
LINE
  8
LAYER001
  6
CONTINUOUS
 62
               4
  5
14F
 10
23.382106000000022
 20
-650.99002150000001
 30
0.0
 11
27.999996000000465
 21
-658.98843450000004
 31
0.0
  0
ARC
  8
LAYER001
  6
CONTINUOUS
 62
               4
  5
150
 10
18.499996000000465
 20
-653.52276649999999
 30
0.0
 40
5.5
 50
27.419467999994922
 51
232.58167499995483
  0
LINE
  8
LAYER001
  6
CONTINUOUS
 62
               4
  5
151
 10
29.676963000000796
 20
-647.31151950000003
 30
0.0
 11
36.323013000000174
 21
-647.31151950000003
 31
0.0
  0
LINE
  8
LAYER001
  6
CONTINUOUS
 62
               4
  5
152
 10
28.999996000000465
 20
-647.98847049999995
 30
0.0
 11
29.676963000000796
 21
-647.31151950000003
 31
0.0
  0
LINE
  8
LAYER001
  6
CONTINUOUS
 62
               4
  5
153
 10
36.323013000000174
 20
-647.31151950000003
 30
0.0
 11
36.999996000000465
 21
-647.98850149999998
 31
0.0
  0
LINE
  8
LAYER001
  6
CONTINUOUS
 62
               4
  5
154
 10
15.158229000000574
 20
-657.89114449999988
 30
0.0
 11
25.999996000000465
 21
-666.98846449999996
 31
0.0
  0
LINE
  8
LAYER001
  6
CONTINUOUS
 62
               4
  5
155
 10
25.999996000000465
 20
-666.98846449999996
 30
0.0
 11
27.999996000000465
 21
-658.98846449999996
 31
0.0
  0
LINE
  8
LAYER001
  6
CONTINUOUS
 62
               4
  5
156
 10
37.999996000000465
 20
-658.98846449999996
 30
0.0
 11
39.999996000000465
 21
-666.98846449999996
 31
0.0
  0
LINE
  8
LAYER001
  6
CONTINUOUS
 62
               4
  5
157
 10
50.841793000000507
 20
-657.89114449999988
 30
0.0
 11
39.999996000000465
 21
-666.98846449999996
 31
0.0
  0
LINE
  8
LAYER001
  6
CONTINUOUS
 62
               4
  5
158
 10
114.99999600000046
 20
-695.68849550000004
 30
0.0
 11
114.99999600000046
 21
-706.68849550000004
 31
0.0
  0
LINE
  8
LAYER001
  6
CONTINUOUS
 62
               4
  5
159
 10
118.99999600000046
 20
-705.31349550000004
 30
0.0
 11
118.99999600000046
 21
-697.06349550000004
 31
0.0
  0
LINE
  8
LAYER001
  6
CONTINUOUS
 62
               4
  5
15A
 10
118.4995370000006
 20
-695.68849550000004
 30
0.0
 11
114.99999600000046
 21
-695.68849550000004
 31
0.0
  0
LINE
  8
LAYER001
  6
CONTINUOUS
 62
               4
  5
15B
 10
118.4995370000006
 20
-706.68849550000004
 30
0.0
 11
114.99999600000046
 21
-706.68849550000004
 31
0.0
  0
LINE
  8
LAYER001
  6
CONTINUOUS
 62
               4
  5
15C
 10
118.4995370000006
 20
-703.93849550000004
 30
0.0
 11
114.99999600000046
 21
-703.93849550000004
 31
0.0
  0
LINE
  8
LAYER001
  6
CONTINUOUS
 62
               4
  5
15D
 10
118.4995370000006
 20
-698.43849550000004
 30
0.0
 11
114.99999600000046
 21
-698.43849550000004
 31
0.0
  0
LINE
  8
LAYER001
  6
CONTINUOUS
 62
               4
  5
15E
 10
118.99999600000046
 20
-705.31349550000004
 30
0.0
 11
118.4995370000006
 21
-706.68849550000004
 31
0.0
  0
ARC
  8
LAYER001
  6
CONTINUOUS
 62
               4
  5
15F
 10
116.86087600000064
 20
-705.31349550000004
 30
0.0
 40
2.1391200000000001
 50
0.0
 51
39.999999999988646
  0
ARC
  8
LAYER001
  6
CONTINUOUS
 62
               4
  5
160
 10
111.19420400000035
 20
-701.18849550000004
 30
0.0
 40
7.8057920000000003
 50
339.37178999993358
 51
380.62820999999605
  0
LINE
  8
LAYER001
  6
CONTINUOUS
 62
               4
  5
161
 10
118.99999600000046
 20
-697.06349550000004
 30
0.0
 11
118.4995370000006
 21
-695.68849550000004
 31
0.0
  0
ARC
  8
LAYER001
  6
CONTINUOUS
 62
               4
  5
162
 10
116.86087600000064
 20
-697.06349550000004
 30
0.0
 40
2.1391200000000001
 50
319.99999999994191
 51
359.9999999999992
  0
LINE
  8
LAYER001
  6
CONTINUOUS
 62
               4
  5
163
 10
97.433329000000413
 20
-698.18849550000004
 30
0.0
 11
114.99999600000046
 21
-698.18849550000004
 31
0.0
  0
LINE
  8
LAYER001
  6
CONTINUOUS
 62
               4
  5
164
 10
97.233329000000595
 20
-704.18849550000004
 30
0.0
 11
114.99999600000046
 21
-704.18849550000004
 31
0.0
  0
CIRCLE
  8
LAYER001
  6
CONTINUOUS
 62
               4
  5
165
 10
32.999996000000465
 20
-282.31333549999999
 30
0.0
 40
5.0
  0
ARC
  8
LAYER001
  6
CONTINUOUS
 62
               4
  5
166
 10
14.500002000000677
 20
-282.31333449999988
 30
0.0
 40
1.500006
 50
89.999999999999801
 51
269.99999999996464
  0
LINE
  8
LAYER001
  6
CONTINUOUS
 62
               4
  5
167
 10
14.500002000000677
 20
-280.8133284999999
 30
0.0
 11
28.230302000000847
 21
-280.8133284999999
 31
0.0
  0
LINE
  8
LAYER001
  6
CONTINUOUS
 62
               4
  5
168
 10
14.500002000000677
 20
-283.81334049999987
 30
0.0
 11
28.230302000000847
 21
-283.81334149999998
 31
0.0
  0
ARC
  8
LAYER001
  6
CONTINUOUS
 62
               4
  5
169
 10
51.499990000000253
 20
-282.31333449999988
 30
0.0
 40
1.500006
 50
269.99999999996464
 51
449.99999999999898
  0
LINE
  8
LAYER001
  6
CONTINUOUS
 62
               4
  5
16A
 10
51.499990000000253
 20
-280.8133284999999
 30
0.0
 11
37.769690000000082
 21
-280.8133284999999
 31
0.0
  0
LINE
  8
LAYER001
  6
CONTINUOUS
 62
               4
  5
16B
 10
51.499990000000253
 20
-283.81334049999987
 30
0.0
 11
37.769690000000082
 21
-283.81334149999998
 31
0.0
  0
ARC
  8
LAYER001
  6
CONTINUOUS
 62
               4
  5
16C
 10
32.999996000000465
 20
-282.31333549999999
 30
0.0
 40
7.0
 50
12.373684999997836
 51
167.62631499996746
  0
ARC
  8
LAYER001
  6
CONTINUOUS
 62
               4
  5
16D
 10
32.999996000000465
 20
-282.31333549999999
 30
0.0
 40
7.0
 50
192.37367299996382
 51
347.62632699993384
  0
CIRCLE
  8
LAYER001
  6
CONTINUOUS
 62
               4
  5
16E
 10
32.999996000000465
 20
-282.31333549999999
 30
0.0
 40
4.0
  0
CIRCLE
  8
LAYER001
  6
CONTINUOUS
 62
               4
  5
16F
 10
-667.00000399999954
 20
-287.31335050000007
 30
0.0
 40
5.0
  0
ARC
  8
LAYER001
  6
CONTINUOUS
 62
               4
  5
170
 10
-685.49999799999932
 20
-287.31334949999996
 30
0.0
 40
1.500006
 50
89.999999999982435
 51
269.99999999994731
  0
LINE
  8
LAYER001
  6
CONTINUOUS
 62
               4
  5
171
 10
-685.49999799999932
 20
-285.81334349999997
 30
0.0
 11
-671.76969799999961
 21
-285.81334349999997
 31
0.0
  0
LINE
  8
LAYER001
  6
CONTINUOUS
 62
               4
  5
172
 10
-685.49999799999932
 20
-288.81335549999994
 30
0.0
 11
-671.76969799999961
 21
-288.81335650000005
 31
0.0
  0
ARC
  8
LAYER001
  6
CONTINUOUS
 62
               4
  5
173
 10
-648.50000999999975
 20
-287.31334949999996
 30
0.0
 40
1.500006
 50
269.99999999994731
 51
449.99999999998164
  0
LINE
  8
LAYER001
  6
CONTINUOUS
 62
               4
  5
174
 10
-648.50000999999975
 20
-285.81334349999997
 30
0.0
 11
-662.23030999999946
 21
-285.81334349999997
 31
0.0
  0
LINE
  8
LAYER001
  6
CONTINUOUS
 62
               4
  5
175
 10
-648.50000999999975
 20
-288.81335549999994
 30
0.0
 11
-662.23030999999946
 21
-288.81335650000005
 31
0.0
  0
ARC
  8
LAYER001
  6
CONTINUOUS
 62
               4
  5
176
 10
-667.00000399999954
 20
-287.31335050000007
 30
0.0
 40
7.0
 50
12.373684999997836
 51
167.62631499996746
  0
ARC
  8
LAYER001
  6
CONTINUOUS
 62
               4
  5
177
 10
-667.00000399999954
 20
-287.31335050000007
 30
0.0
 40
7.0
 50
192.37367299996299
 51
347.62632699993463
  0
CIRCLE
  8
LAYER001
  6
CONTINUOUS
 62
               4
  5
178
 10
-667.00000399999954
 20
-287.31335050000007
 30
0.0
 40
4.0
  0
LINE
  8
LAYER001
  6
CONTINUOUS
 62
               4
  5
179
 10
-585.00000399999954
 20
-695.68849550000004
 30
0.0
 11
-585.00000399999954
 21
-706.68849550000004
 31
0.0
  0
LINE
  8
LAYER001
  6
CONTINUOUS
 62
               4
  5
17A
 10
-581.00000399999954
 20
-705.31349550000004
 30
0.0
 11
-581.00000399999954
 21
-697.06349550000004
 31
0.0
  0
LINE
  8
LAYER001
  6
CONTINUOUS
 62
               4
  5
17B
 10
-581.5004629999994
 20
-695.68849550000004
 30
0.0
 11
-585.00000399999954
 21
-695.68849550000004
 31
0.0
  0
LINE
  8
LAYER001
  6
CONTINUOUS
 62
               4
  5
17C
 10
-581.5004629999994
 20
-706.68849550000004
 30
0.0
 11
-585.00000399999954
 21
-706.68849550000004
 31
0.0
  0
LINE
  8
LAYER001
  6
CONTINUOUS
 62
               4
  5
17D
 10
-581.5004629999994
 20
-703.93849550000004
 30
0.0
 11
-585.00000399999954
 21
-703.93849550000004
 31
0.0
  0
LINE
  8
LAYER001
  6
CONTINUOUS
 62
               4
  5
17E
 10
-581.5004629999994
 20
-698.43849550000004
 30
0.0
 11
-585.00000399999954
 21
-698.43849550000004
 31
0.0
  0
LINE
  8
LAYER001
  6
CONTINUOUS
 62
               4
  5
17F
 10
-581.00000399999954
 20
-705.31349550000004
 30
0.0
 11
-581.5004629999994
 21
-706.68849550000004
 31
0.0
  0
ARC
  8
LAYER001
  6
CONTINUOUS
 62
               4
  5
180
 10
-583.13912399999936
 20
-705.31349550000004
 30
0.0
 40
2.1391200000000001
 50
0.0
 51
39.999999999996476
  0
ARC
  8
LAYER001
  6
CONTINUOUS
 62
               4
  5
181
 10
-588.80579599999965
 20
-701.18849550000004
 30
0.0
 40
7.8057920000000003
 50
339.37178999993472
 51
380.62820999999605
  0
LINE
  8
LAYER001
  6
CONTINUOUS
 62
               4
  5
182
 10
-581.00000399999954
 20
-697.06349550000004
 30
0.0
 11
-581.5004629999994
 21
-695.68849550000004
 31
0.0
  0
ARC
  8
LAYER001
  6
CONTINUOUS
 62
               4
  5
183
 10
-583.13912399999936
 20
-697.06349550000004
 30
0.0
 40
2.1391200000000001
 50
319.99999999994191
 51
359.9999999999992
  0
LINE
  8
LAYER001
  6
CONTINUOUS
 62
               4
  5
184
 10
-602.56667099999959
 20
-698.18849550000004
 30
0.0
 11
-585.00000399999954
 21
-698.18849550000004
 31
0.0
  0
LINE
  8
LAYER001
  6
CONTINUOUS
 62
               4
  5
185
 10
-602.76667099999941
 20
-704.18849550000004
 30
0.0
 11
-585.00000399999954
 21
-704.18849550000004
 31
0.0
  0
LINE
  8
LAYER001
  6
CONTINUOUS
 62
               4
  5
186
 10
-672.00000399999954
 20
-658.98847950000004
 30
0.0
 11
-662.00000399999954
 21
-658.98847950000004
 31
0.0
  0
ARC
  8
LAYER001
  6
CONTINUOUS
 62
               4
  5
187
 10
-652.49997399999938
 20
-653.52278150000006
 30
0.0
 40
5.5
 50
307.41832799994012
 51
512.58053399996982
  0
LINE
  8
LAYER001
  6
CONTINUOUS
 62
               4
  5
188
 10
-657.38211499999943
 20
-650.99003649999986
 30
0.0
 11
-662.00000399999954
 21
-658.98844949999989
 31
0.0
  0
LINE
  8
LAYER001
  6
CONTINUOUS
 62
               4
  5
189
 10
-663.00000399999954
 20
-647.98851650000006
 30
0.0
 11
-663.00000399999954
 21
-658.98847950000004
 31
0.0
  0
LINE
  8
LAYER001
  6
CONTINUOUS
 62
               4
  5
18A
 10
-671.00000399999954
 20
-647.98848550000002
 30
0.0
 11
-671.00000399999954
 21
-658.98847950000004
 31
0.0
  0
LINE
  8
LAYER001
  6
CONTINUOUS
 62
               4
  5
18B
 10
-676.61789399999952
 20
-650.99003649999986
 30
0.0
 11
-672.00000399999954
 21
-658.98844949999989
 31
0.0
  0
ARC
  8
LAYER001
  6
CONTINUOUS
 62
               4
  5
18C
 10
-681.50000399999954
 20
-653.52278150000006
 30
0.0
 40
5.5
 50
27.419467999994922
 51
232.58167499995483
  0
LINE
  8
LAYER001
  6
CONTINUOUS
 62
               4
  5
18D
 10
-670.32303699999966
 20
-647.31153449999988
 30
0.0
 11
-663.67698699999937
 21
-647.31153449999988
 31
0.0
  0
LINE
  8
LAYER001
  6
CONTINUOUS
 62
               4
  5
18E
 10
-671.00000399999954
 20
-647.98848550000002
 30
0.0
 11
-670.32303699999966
 21
-647.31153449999988
 31
0.0
  0
LINE
  8
LAYER001
  6
CONTINUOUS
 62
               4
  5
18F
 10
-663.67698699999937
 20
-647.31153449999988
 30
0.0
 11
-663.00000399999954
 21
-647.98851650000006
 31
0.0
  0
LINE
  8
LAYER001
  6
CONTINUOUS
 62
               4
  5
190
 10
-684.84177099999943
 20
-657.89115949999996
 30
0.0
 11
-674.00000399999954
 21
-666.98847950000004
 31
0.0
  0
LINE
  8
LAYER001
  6
CONTINUOUS
 62
               4
  5
191
 10
-674.00000399999954
 20
-666.98847950000004
 30
0.0
 11
-672.00000399999954
 21
-658.98847950000004
 31
0.0
  0
LINE
  8
LAYER001
  6
CONTINUOUS
 62
               4
  5
192
 10
-662.00000399999954
 20
-658.98847950000004
 30
0.0
 11
-660.00000399999954
 21
-666.98847950000004
 31
0.0
  0
LINE
  8
LAYER001
  6
CONTINUOUS
 62
               4
  5
193
 10
-649.15820699999949
 20
-657.89115949999996
 30
0.0
 11
-660.00000399999954
 21
-666.98847950000004
 31
0.0
  0
CIRCLE
  8
LAYER001
  6
CONTINUOUS
 62
               4
  5
194
 10
-667.00000399999954
 20
890.18848049999997
 30
0.0
 40
5.0
  0
ARC
  8
LAYER001
  6
CONTINUOUS
 62
               4
  5
195
 10
-685.49999799999932
 20
890.18848150000031
 30
0.0
 40
1.500006
 50
89.999999999982435
 51
269.99999999994731
  0
LINE
  8
LAYER001
  6
CONTINUOUS
 62
               4
  5
196
 10
-685.49999799999932
 20
891.68848749999961
 30
0.0
 11
-671.76969799999961
 21
891.68848749999961
 31
0.0
  0
LINE
  8
LAYER001
  6
CONTINUOUS
 62
               4
  5
197
 10
-685.49999799999932
 20
888.6884755000001
 30
0.0
 11
-671.76969799999961
 21
888.68847449999976
 31
0.0
  0
ARC
  8
LAYER001
  6
CONTINUOUS
 62
               4
  5
198
 10
-648.50000999999975
 20
890.18848150000031
 30
0.0
 40
1.500006
 50
269.99999999994731
 51
449.99999999998164
  0
LINE
  8
LAYER001
  6
CONTINUOUS
 62
               4
  5
199
 10
-648.50000999999975
 20
891.68848749999961
 30
0.0
 11
-662.23030999999946
 21
891.68848749999961
 31
0.0
  0
LINE
  8
LAYER001
  6
CONTINUOUS
 62
               4
  5
19A
 10
-648.50000999999975
 20
888.6884755000001
 30
0.0
 11
-662.23030999999946
 21
888.68847449999976
 31
0.0
  0
ARC
  8
LAYER001
  6
CONTINUOUS
 62
               4
  5
19B
 10
-667.00000399999954
 20
890.18848049999997
 30
0.0
 40
7.0
 50
12.373684999997836
 51
167.6263149999711
  0
ARC
  8
LAYER001
  6
CONTINUOUS
 62
               4
  5
19C
 10
-667.00000399999954
 20
890.18848049999997
 30
0.0
 40
7.0
 50
192.37367299996299
 51
347.62632699993651
  0
CIRCLE
  8
LAYER001
  6
CONTINUOUS
 62
               4
  5
19D
 10
-667.00000399999954
 20
890.18848049999997
 30
0.0
 40
4.0
  0
LINE
  8
LAYER001
  6
CONTINUOUS
 62
               4
  5
19E
 10
-671.99999699999944
 20
488.51153549999981
 30
0.0
 11
-661.99999699999944
 21
488.51153549999981
 31
0.0
  0
ARC
  8
LAYER001
  6
CONTINUOUS
 62
               4
  5
19F
 10
-652.49996699999974
 20
493.97723350000024
 30
0.0
 40
5.5
 50
307.41832799994012
 51
512.58053399996982
  0
LINE
  8
LAYER001
  6
CONTINUOUS
 62
               4
  5
1A0
 10
-657.38210799999933
 20
496.50997850000022
 30
0.0
 11
-661.99999699999944
 21
488.51156549999996
 31
0.0
  0
LINE
  8
LAYER001
  6
CONTINUOUS
 62
               4
  5
1A1
 10
-662.99999699999944
 20
499.51149850000002
 30
0.0
 11
-662.99999699999944
 21
488.51153549999981
 31
0.0
  0
LINE
  8
LAYER001
  6
CONTINUOUS
 62
               4
  5
1A2
 10
-670.99999699999944
 20
499.51152950000005
 30
0.0
 11
-670.99999699999944
 21
488.51153549999981
 31
0.0
  0
LINE
  8
LAYER001
  6
CONTINUOUS
 62
               4
  5
1A3
 10
-676.61788699999943
 20
496.50997850000022
 30
0.0
 11
-671.99999699999944
 21
488.51156549999996
 31
0.0
  0
ARC
  8
LAYER001
  6
CONTINUOUS
 62
               4
  5
1A4
 10
-681.49999699999944
 20
493.97723350000024
 30
0.0
 40
5.5
 50
27.419467999992818
 51
232.58167499995625
  0
LINE
  8
LAYER001
  6
CONTINUOUS
 62
               4
  5
1A5
 10
-670.32302999999956
 20
500.18848049999997
 30
0.0
 11
-663.67697999999973
 21
500.18848049999997
 31
0.0
  0
LINE
  8
LAYER001
  6
CONTINUOUS
 62
               4
  5
1A6
 10
-670.99999699999944
 20
499.51152950000005
 30
0.0
 11
-670.32302999999956
 21
500.18848049999997
 31
0.0
  0
LINE
  8
LAYER001
  6
CONTINUOUS
 62
               4
  5
1A7
 10
-663.67697999999973
 20
500.18848049999997
 30
0.0
 11
-662.99999699999944
 21
499.51149850000002
 31
0.0
  0
LINE
  8
LAYER001
  6
CONTINUOUS
 62
               4
  5
1A8
 10
-684.84176399999933
 20
489.60885550000012
 30
0.0
 11
-673.99999699999944
 21
480.51153549999981
 31
0.0
  0
LINE
  8
LAYER001
  6
CONTINUOUS
 62
               4
  5
1A9
 10
-673.99999699999944
 20
480.51153549999981
 30
0.0
 11
-671.99999699999944
 21
488.51153549999981
 31
0.0
  0
LINE
  8
LAYER001
  6
CONTINUOUS
 62
               4
  5
1AA
 10
-661.99999699999944
 20
488.51153549999981
 30
0.0
 11
-659.99999699999944
 21
480.51153549999981
 31
0.0
  0
LINE
  8
LAYER001
  6
CONTINUOUS
 62
               4
  5
1AB
 10
-649.1581999999994
 20
489.60885550000012
 30
0.0
 11
-659.99999699999944
 21
480.51153549999981
 31
0.0
  0
CIRCLE
  8
LAYER001
  6
CONTINUOUS
 62
               4
  5
1AC
 10
732.99999600000046
 20
-272.31151950000003
 30
0.0
 40
5.0
  0
ARC
  8
LAYER001
  6
CONTINUOUS
 62
               4
  5
1AD
 10
714.50000200000068
 20
-272.31151849999992
 30
0.0
 40
1.500006
 50
89.999999999999801
 51
269.99999999996464
  0
LINE
  8
LAYER001
  6
CONTINUOUS
 62
               4
  5
1AE
 10
714.50000200000068
 20
-270.81151249999994
 30
0.0
 11
728.23030200000085
 21
-270.81151249999994
 31
0.0
  0
LINE
  8
LAYER001
  6
CONTINUOUS
 62
               4
  5
1AF
 10
714.50000200000068
 20
-273.8115244999999
 30
0.0
 11
728.23030200000085
 21
-273.81152550000002
 31
0.0
  0
ARC
  8
LAYER001
  6
CONTINUOUS
 62
               4
  5
1B0
 10
751.49999000000025
 20
-272.31151849999992
 30
0.0
 40
1.500006
 50
269.99999999996464
 51
449.99999999999898
  0
LINE
  8
LAYER001
  6
CONTINUOUS
 62
               4
  5
1B1
 10
751.49999000000025
 20
-270.81151249999994
 30
0.0
 11
737.76969000000008
 21
-270.81151249999994
 31
0.0
  0
LINE
  8
LAYER001
  6
CONTINUOUS
 62
               4
  5
1B2
 10
751.49999000000025
 20
-273.8115244999999
 30
0.0
 11
737.76969000000008
 21
-273.81152550000002
 31
0.0
  0
ARC
  8
LAYER001
  6
CONTINUOUS
 62
               4
  5
1B3
 10
732.99999600000046
 20
-272.31151950000003
 30
0.0
 40
7.0
 50
12.373684999997836
 51
167.62631499996746
  0
ARC
  8
LAYER001
  6
CONTINUOUS
 62
               4
  5
1B4
 10
732.99999600000046
 20
-272.31151950000003
 30
0.0
 40
7.0
 50
192.37367299996382
 51
347.62632699993384
  0
CIRCLE
  8
LAYER001
  6
CONTINUOUS
 62
               4
  5
1B5
 10
732.99999600000046
 20
-272.31151950000003
 30
0.0
 40
4.0
  0
LINE
  8
LAYER001
  6
CONTINUOUS
 62
               4
  5
1B6
 10
728.00000300000011
 20
-658.98846449999996
 30
0.0
 11
738.00000300000011
 21
-658.98846449999996
 31
0.0
  0
ARC
  8
LAYER001
  6
CONTINUOUS
 62
               4
  5
1B7
 10
747.50003300000026
 20
-653.52276649999999
 30
0.0
 40
5.5
 50
307.41832799994387
 51
512.58053399996982
  0
LINE
  8
LAYER001
  6
CONTINUOUS
 62
               4
  5
1B8
 10
742.61789200000021
 20
-650.99002150000001
 30
0.0
 11
738.00000300000011
 21
-658.98843450000004
 31
0.0
  0
LINE
  8
LAYER001
  6
CONTINUOUS
 62
               4
  5
1B9
 10
737.00000300000011
 20
-647.98850149999998
 30
0.0
 11
737.00000300000011
 21
-658.98846449999996
 31
0.0
  0
LINE
  8
LAYER001
  6
CONTINUOUS
 62
               4
  5
1BA
 10
729.00000300000011
 20
-647.98847049999995
 30
0.0
 11
729.00000300000011
 21
-658.98846449999996
 31
0.0
  0
LINE
  8
LAYER001
  6
CONTINUOUS
 62
               4
  5
1BB
 10
723.38211300000057
 20
-650.99002150000001
 30
0.0
 11
728.00000300000011
 21
-658.98843450000004
 31
0.0
  0
ARC
  8
LAYER001
  6
CONTINUOUS
 62
               4
  5
1BC
 10
718.50000300000011
 20
-653.52276649999999
 30
0.0
 40
5.5
 50
27.419467999994922
 51
232.58167499995483
  0
LINE
  8
LAYER001
  6
CONTINUOUS
 62
               4
  5
1BD
 10
729.67697000000044
 20
-647.31151950000003
 30
0.0
 11
736.32302000000072
 21
-647.31151950000003
 31
0.0
  0
LINE
  8
LAYER001
  6
CONTINUOUS
 62
               4
  5
1BE
 10
729.00000300000011
 20
-647.98847049999995
 30
0.0
 11
729.67697000000044
 21
-647.31151950000003
 31
0.0
  0
LINE
  8
LAYER001
  6
CONTINUOUS
 62
               4
  5
1BF
 10
736.32302000000072
 20
-647.31151950000003
 30
0.0
 11
737.00000300000011
 21
-647.98850149999998
 31
0.0
  0
LINE
  8
LAYER001
  6
CONTINUOUS
 62
               4
  5
1C0
 10
715.15823600000022
 20
-657.89114449999988
 30
0.0
 11
726.00000300000011
 21
-666.98846449999996
 31
0.0
  0
LINE
  8
LAYER001
  6
CONTINUOUS
 62
               4
  5
1C1
 10
726.00000300000011
 20
-666.98846449999996
 30
0.0
 11
728.00000300000011
 21
-658.98846449999996
 31
0.0
  0
LINE
  8
LAYER001
  6
CONTINUOUS
 62
               4
  5
1C2
 10
738.00000300000011
 20
-658.98846449999996
 30
0.0
 11
740.00000300000011
 21
-666.98846449999996
 31
0.0
  0
LINE
  8
LAYER001
  6
CONTINUOUS
 62
               4
  5
1C3
 10
750.84180000000015
 20
-657.89114449999988
 30
0.0
 11
740.00000300000011
 21
-666.98846449999996
 31
0.0
  0
LINE
  8
LAYER001
  6
CONTINUOUS
 62
               4
  5
1C4
 10
827.99999600000046
 20
-695.68848049999997
 30
0.0
 11
827.99999600000046
 21
-706.68848049999997
 31
0.0
  0
LINE
  8
LAYER001
  6
CONTINUOUS
 62
               4
  5
1C5
 10
831.99999600000046
 20
-705.31348049999997
 30
0.0
 11
831.99999600000046
 21
-697.06348049999997
 31
0.0
  0
LINE
  8
LAYER001
  6
CONTINUOUS
 62
               4
  5
1C6
 10
831.4995370000006
 20
-695.68848049999997
 30
0.0
 11
827.99999600000046
 21
-695.68848049999997
 31
0.0
  0
LINE
  8
LAYER001
  6
CONTINUOUS
 62
               4
  5
1C7
 10
831.4995370000006
 20
-706.68848049999997
 30
0.0
 11
827.99999600000046
 21
-706.68848049999997
 31
0.0
  0
LINE
  8
LAYER001
  6
CONTINUOUS
 62
               4
  5
1C8
 10
831.4995370000006
 20
-703.93848049999997
 30
0.0
 11
827.99999600000046
 21
-703.93848049999997
 31
0.0
  0
LINE
  8
LAYER001
  6
CONTINUOUS
 62
               4
  5
1C9
 10
831.4995370000006
 20
-698.43848049999997
 30
0.0
 11
827.99999600000046
 21
-698.43848049999997
 31
0.0
  0
LINE
  8
LAYER001
  6
CONTINUOUS
 62
               4
  5
1CA
 10
831.99999600000046
 20
-705.31348049999997
 30
0.0
 11
831.4995370000006
 21
-706.68848049999997
 31
0.0
  0
ARC
  8
LAYER001
  6
CONTINUOUS
 62
               4
  5
1CB
 10
829.86087600000064
 20
-705.31348049999997
 30
0.0
 40
2.1391200000000001
 50
0.0
 51
39.999999999988646
  0
ARC
  8
LAYER001
  6
CONTINUOUS
 62
               4
  5
1CC
 10
824.19420400000035
 20
-701.18848049999997
 30
0.0
 40
7.8057920000000003
 50
339.37178999993358
 51
380.62820999999605
  0
LINE
  8
LAYER001
  6
CONTINUOUS
 62
               4
  5
1CD
 10
831.99999600000046
 20
-697.06348049999997
 30
0.0
 11
831.4995370000006
 21
-695.68848049999997
 31
0.0
  0
ARC
  8
LAYER001
  6
CONTINUOUS
 62
               4
  5
1CE
 10
829.86087600000064
 20
-697.06348049999997
 30
0.0
 40
2.1391200000000001
 50
319.99999999994191
 51
359.9999999999992
  0
LINE
  8
LAYER001
  6
CONTINUOUS
 62
               4
  5
1CF
 10
810.43332900000041
 20
-698.18848049999997
 30
0.0
 11
827.99999600000046
 21
-698.18848049999997
 31
0.0
  0
LINE
  8
LAYER001
  6
CONTINUOUS
 62
               4
  5
1D0
 10
810.23332900000059
 20
-704.18848049999997
 30
0.0
 11
827.99999600000046
 21
-704.18848049999997
 31
0.0
  0
CIRCLE
  8
LAYER001
  6
CONTINUOUS
 62
               4
  5
1D1
 10
732.99999600000046
 20
890.18848049999997
 30
0.0
 40
5.0
  0
ARC
  8
LAYER001
  6
CONTINUOUS
 62
               4
  5
1D2
 10
714.50000200000068
 20
890.18848150000031
 30
0.0
 40
1.500006
 50
89.999999999999801
 51
269.99999999996464
  0
LINE
  8
LAYER001
  6
CONTINUOUS
 62
               4
  5
1D3
 10
714.50000200000068
 20
891.68848749999961
 30
0.0
 11
728.23030200000085
 21
891.68848749999961
 31
0.0
  0
LINE
  8
LAYER001
  6
CONTINUOUS
 62
               4
  5
1D4
 10
714.50000200000068
 20
888.6884755000001
 30
0.0
 11
728.23030200000085
 21
888.68847449999976
 31
0.0
  0
ARC
  8
LAYER001
  6
CONTINUOUS
 62
               4
  5
1D5
 10
751.49999000000025
 20
890.18848150000031
 30
0.0
 40
1.500006
 50
269.99999999996464
 51
449.99999999999898
  0
LINE
  8
LAYER001
  6
CONTINUOUS
 62
               4
  5
1D6
 10
751.49999000000025
 20
891.68848749999961
 30
0.0
 11
737.76969000000008
 21
891.68848749999961
 31
0.0
  0
LINE
  8
LAYER001
  6
CONTINUOUS
 62
               4
  5
1D7
 10
751.49999000000025
 20
888.6884755000001
 30
0.0
 11
737.76969000000008
 21
888.68847449999976
 31
0.0
  0
ARC
  8
LAYER001
  6
CONTINUOUS
 62
               4
  5
1D8
 10
732.99999600000046
 20
890.18848049999997
 30
0.0
 40
7.0
 50
12.373684999997836
 51
167.6263149999711
  0
ARC
  8
LAYER001
  6
CONTINUOUS
 62
               4
  5
1D9
 10
732.99999600000046
 20
890.18848049999997
 30
0.0
 40
7.0
 50
192.37367299996382
 51
347.62632699993566
  0
CIRCLE
  8
LAYER001
  6
CONTINUOUS
 62
               4
  5
1DA
 10
732.99999600000046
 20
890.18848049999997
 30
0.0
 40
4.0
  0
LINE
  8
LAYER001
  6
CONTINUOUS
 62
               4
  5
1DB
 10
728.00000300000011
 20
501.51153549999981
 30
0.0
 11
738.00000300000011
 21
501.51153549999981
 31
0.0
  0
ARC
  8
LAYER001
  6
CONTINUOUS
 62
               4
  5
1DC
 10
747.50003300000026
 20
506.97723350000024
 30
0.0
 40
5.5
 50
307.41832799994387
 51
512.58053399996982
  0
LINE
  8
LAYER001
  6
CONTINUOUS
 62
               4
  5
1DD
 10
742.61789200000021
 20
509.50997850000022
 30
0.0
 11
738.00000300000011
 21
501.51156549999996
 31
0.0
  0
LINE
  8
LAYER001
  6
CONTINUOUS
 62
               4
  5
1DE
 10
737.00000300000011
 20
512.51149850000002
 30
0.0
 11
737.00000300000011
 21
501.51153549999981
 31
0.0
  0
LINE
  8
LAYER001
  6
CONTINUOUS
 62
               4
  5
1DF
 10
729.00000300000011
 20
512.51152950000005
 30
0.0
 11
729.00000300000011
 21
501.51153549999981
 31
0.0
  0
LINE
  8
LAYER001
  6
CONTINUOUS
 62
               4
  5
1E0
 10
723.38211300000057
 20
509.50997850000022
 30
0.0
 11
728.00000300000011
 21
501.51156549999996
 31
0.0
  0
ARC
  8
LAYER001
  6
CONTINUOUS
 62
               4
  5
1E1
 10
718.50000300000011
 20
506.97723350000024
 30
0.0
 40
5.5
 50
27.419467999992818
 51
232.58167499995625
  0
LINE
  8
LAYER001
  6
CONTINUOUS
 62
               4
  5
1E2
 10
729.67697000000044
 20
513.18848049999997
 30
0.0
 11
736.32302000000072
 21
513.18848049999997
 31
0.0
  0
LINE
  8
LAYER001
  6
CONTINUOUS
 62
               4
  5
1E3
 10
729.00000300000011
 20
512.51152950000005
 30
0.0
 11
729.67697000000044
 21
513.18848049999997
 31
0.0
  0
LINE
  8
LAYER001
  6
CONTINUOUS
 62
               4
  5
1E4
 10
736.32302000000072
 20
513.18848049999997
 30
0.0
 11
737.00000300000011
 21
512.51149850000002
 31
0.0
  0
LINE
  8
LAYER001
  6
CONTINUOUS
 62
               4
  5
1E5
 10
715.15823600000022
 20
502.60885550000012
 30
0.0
 11
726.00000300000011
 21
493.51153549999981
 31
0.0
  0
LINE
  8
LAYER001
  6
CONTINUOUS
 62
               4
  5
1E6
 10
726.00000300000011
 20
493.51153549999981
 30
0.0
 11
728.00000300000011
 21
501.51153549999981
 31
0.0
  0
LINE
  8
LAYER001
  6
CONTINUOUS
 62
               4
  5
1E7
 10
738.00000300000011
 20
501.51153549999981
 30
0.0
 11
740.00000300000011
 21
493.51153549999981
 31
0.0
  0
LINE
  8
LAYER001
  6
CONTINUOUS
 62
               4
  5
1E8
 10
750.84180000000015
 20
502.60885550000012
 30
0.0
 11
740.00000300000011
 21
493.51153549999981
 31
0.0
  0
LINE
  8
LAYER001
  6
CONTINUOUS
 62
               3
  5
1E9
 10
157.82130400000005
 20
-679.02238949999992
 30
0.0
 11
157.0782250000002
 21
-669.10543549999988
 31
0.0
  0
ARC
  8
LAYER001
  6
CONTINUOUS
 62
               3
  5
1EA
 10
155.82821300000069
 20
-679.18848049999997
 30
0.0
 40
2.0
 50
269.99999999994731
 51
364.76364199999784
  0
ARC
  8
LAYER001
  6
CONTINUOUS
 62
               3
  5
1EB
 10
156.0816790000008
 20
-669.18848049999997
 30
0.0
 40
1.0
 50
4.7636420000051674
 51
89.999999999999801
  0
LINE
  8
LAYER001
  6
CONTINUOUS
 62
               3
  5
1EC
 10
-90.078054999999495
 20
-668.18848049999997
 30
0.0
 11
156.0816790000008
 21
-668.18848049999997
 31
0.0
  0
ARC
  8
LAYER001
  6
CONTINUOUS
 62
               3
  5
1ED
 10
99.934440000000905
 20
-683.18848049999997
 30
0.0
 40
2.0
 50
89.999999999973738
 51
178.090848999965
  0
LINE
  8
LAYER001
  6
CONTINUOUS
 62
               3
  5
1EE
 10
97.935550000000148
 20
-683.12185049999994
 30
0.0
 11
96.999996000000465
 21
-711.18849550000004
 31
0.0
  0
LINE
  8
LAYER001
  6
CONTINUOUS
 62
               3
  5
1EF
 10
-31.000003999999535
 20
-711.18849550000004
 30
0.0
 11
96.999996000000465
 21
-711.18849550000004
 31
0.0
  0
LINE
  8
LAYER001
  6
CONTINUOUS
 62
               3
  5
1F0
 10
-31.935557999999219
 20
-683.12185049999994
 30
0.0
 11
-31.000003999999535
 21
-711.18849550000004
 31
0.0
  0
ARC
  8
LAYER001
  6
CONTINUOUS
 62
               3
  5
1F1
 10
-38.153613999999834
 20
-683.18848049999997
 30
0.0
 40
2.0
 50
89.999999999973738
 51
175.42607899996622
  0
ARC
  8
LAYER001
  6
CONTINUOUS
 62
               3
  5
1F2
 10
-33.934447999999975
 20
-683.18848049999997
 30
0.0
 40
2.0
 50
1.9091510000020355
 51
89.999999999973738
  0
LINE
  8
LAYER001
  6
CONTINUOUS
 62
               3
  5
1F3
 10
-40.147244999999202
 20
-683.02899049999996
 30
0.0
 11
-41.852762999999868
 21
-699.34797049999997
 31
0.0
  0
LINE
  8
LAYER001
  6
CONTINUOUS
 62
               3
  5
1F4
 10
-43.846393999999236
 20
-701.18848049999997
 30
0.0
 11
-60.153613999999834
 21
-701.18848049999997
 31
0.0
  0
ARC
  8
LAYER001
  6
CONTINUOUS
 62
               3
  5
1F5
 10
-60.153613999999834
 20
-699.18848049999997
 30
0.0
 40
2.0
 50
184.57392099996804
 51
269.99999999994731
  0
ARC
  8
LAYER001
  6
CONTINUOUS
 62
               3
  5
1F6
 10
-43.846393999999236
 20
-699.18848049999997
 30
0.0
 40
2.0
 50
269.99999999994731
 51
355.4260789999334
  0
LINE
  8
LAYER001
  6
CONTINUOUS
 62
               3
  5
1F7
 10
-63.852762999999868
 20
-683.02899049999996
 30
0.0
 11
-62.147244999999202
 21
-699.34797049999997
 31
0.0
  0
ARC
  8
LAYER001
  6
CONTINUOUS
 62
               3
  5
1F8
 10
-65.846393999999236
 20
-683.18848049999997
 30
0.0
 40
2.0
 50
4.5739210000009063
 51
89.999999999973738
  0
ARC
  8
LAYER001
  6
CONTINUOUS
 62
               3
  5
1F9
 10
-89.824588999999378
 20
-679.18848049999997
 30
0.0
 40
2.0
 50
175.23635799996956
 51
269.99999999994731
  0
ARC
  8
LAYER001
  6
CONTINUOUS
 62
               3
  5
1FA
 10
-90.078054999999495
 20
-669.18848049999997
 30
0.0
 40
1.0
 50
89.999999999973738
 51
175.23635799996848
  0
LINE
  8
LAYER001
  6
CONTINUOUS
 62
               3
  5
1FB
 10
-91.817679999999655
 20
-679.02238949999992
 30
0.0
 11
-91.074600999999348
 21
-669.10543549999988
 31
0.0
  0
LINE
  8
LAYER001
  6
CONTINUOUS
 62
               3
  5
1FC
 10
-89.824588999999378
 20
-681.18848049999997
 30
0.0
 11
155.82821300000069
 21
-681.18848049999997
 31
0.0
  0
LINE
  8
LAYER001
  6
CONTINUOUS
 62
               3
  5
1FD
 10
-24.000003999999535
 20
-711.18849550000004
 30
0.0
 11
-24.000003999999535
 21
-768.18848049999997
 31
0.0
  0
LINE
  8
LAYER001
  6
CONTINUOUS
 62
               3
  5
1FE
 10
89.999996000000465
 20
-711.18849550000004
 30
0.0
 11
89.999996000000465
 21
-768.18848049999997
 31
0.0
  0
LINE
  8
LAYER001
  6
CONTINUOUS
 62
               3
  5
1FF
 10
-24.000003999999535
 20
-768.18848049999997
 30
0.0
 11
89.999996000000465
 21
-768.18848049999997
 31
0.0
  0
LINE
  8
LAYER001
  6
CONTINUOUS
 62
               3
  5
200
 10
-91.000003999999535
 20
-666.98848049999992
 30
0.0
 11
-91.000003999999535
 21
-668.18848049999997
 31
0.0
  0
LINE
  8
LAYER001
  6
CONTINUOUS
 62
               3
  5
201
 10
-91.000003999999535
 20
-666.98848049999992
 30
0.0
 11
156.99999600000046
 21
-666.98848049999992
 31
0.0
  0
LINE
  8
LAYER001
  6
CONTINUOUS
 62
               3
  5
202
 10
156.99999600000046
 20
-666.98848049999992
 30
0.0
 11
156.99999600000046
 21
-668.18848049999997
 31
0.0
  0
CIRCLE
  8
LAYER001
  6
CONTINUOUS
 62
               3
  5
203
 10
32.999996000000465
 20
-282.31333549999999
 30
0.0
 40
124.99818399999999
  0
CIRCLE
  8
LAYER001
  6
CONTINUOUS
 62
               3
  5
204
 10
32.999996000000465
 20
-282.31333549999999
 30
0.0
 40
123.99818399999999
  0
CIRCLE
  8
LAYER001
  6
CONTINUOUS
 62
               3
  5
205
 10
-667.00000399999954
 20
-287.31335050000007
 30
0.0
 40
119.99818399999999
  0
CIRCLE
  8
LAYER001
  6
CONTINUOUS
 62
               3
  5
206
 10
-667.00000399999954
 20
-287.31335050000007
 30
0.0
 40
118.99818399999999
  0
LINE
  8
LAYER001
  6
CONTINUOUS
 62
               3
  5
207
 10
-724.00000399999954
 20
-711.18849550000004
 30
0.0
 11
-724.00000399999954
 21
-768.18848049999997
 31
0.0
  0
LINE
  8
LAYER001
  6
CONTINUOUS
 62
               3
  5
208
 10
-610.00000399999954
 20
-711.18849550000004
 30
0.0
 11
-610.00000399999954
 21
-768.18848049999997
 31
0.0
  0
LINE
  8
LAYER001
  6
CONTINUOUS
 62
               3
  5
209
 10
-724.00000399999954
 20
-768.18848049999997
 30
0.0
 11
-610.00000399999954
 21
-768.18848049999997
 31
0.0
  0
LINE
  8
LAYER001
  6
CONTINUOUS
 62
               3
  5
20A
 10
-785.91981599999963
 20
-666.9884955
 30
0.0
 11
-548.08019199999944
 21
-666.9884955
 31
0.0
  0
LINE
  8
LAYER001
  6
CONTINUOUS
 62
               3
  5
20B
 10
-786.81837599999972
 20
-679.02299549999998
 30
0.0
 11
-786.07761199999959
 21
-669.10186550000003
 31
0.0
  0
ARC
  8
LAYER001
  6
CONTINUOUS
 62
               3
  5
20C
 10
-785.08137099999931
 20
-669.18849550000004
 30
0.0
 40
1.0
 50
89.999999999973738
 51
175.03025899996783
  0
ARC
  8
LAYER001
  6
CONTINUOUS
 62
               3
  5
20D
 10
-784.82523499999934
 20
-679.18849550000004
 30
0.0
 40
2.0
 50
175.25334299996805
 51
269.99999999994731
  0
LINE
  8
LAYER001
  6
CONTINUOUS
 62
               3
  5
20E
 10
-738.84639399999969
 20
-701.18849550000004
 30
0.0
 11
-755.15361399999938
 21
-701.18849550000004
 31
0.0
  0
LINE
  8
LAYER001
  6
CONTINUOUS
 62
               3
  5
20F
 10
-758.85276299999941
 20
-683.02900550000004
 30
0.0
 11
-757.14724499999966
 21
-699.34798550000005
 31
0.0
  0
LINE
  8
LAYER001
  6
CONTINUOUS
 62
               3
  5
210
 10
-735.10301499999969
 20
-682.6057965
 30
0.0
 11
-736.85276299999941
 21
-699.34798550000005
 31
0.0
  0
ARC
  8
LAYER001
  6
CONTINUOUS
 62
               3
  5
211
 10
-760.84639399999969
 20
-683.18849550000004
 30
0.0
 40
2.0
 50
4.5739210000009063
 51
89.99999999998677
  0
ARC
  8
LAYER001
  6
CONTINUOUS
 62
               3
  5
212
 10
-755.15361399999938
 20
-699.18849550000004
 30
0.0
 40
2.0
 50
184.57392099996804
 51
269.99999999994731
  0
ARC
  8
LAYER001
  6
CONTINUOUS
 62
               3
  5
213
 10
-738.84639399999969
 20
-699.18849550000004
 30
0.0
 40
2.0
 50
269.99999999994731
 51
355.42607899993232
  0
LINE
  8
LAYER001
  6
CONTINUOUS
 62
               3
  5
214
 10
-731.94903699999941
 20
-682.7175135
 30
0.0
 11
-731.00000399999954
 21
-711.18849550000004
 31
0.0
  0
ARC
  8
LAYER001
  6
CONTINUOUS
 62
               3
  5
215
 10
-733.52987099999973
 20
-682.77020749999997
 30
0.0
 40
1.581712
 50
1.9091520000025901
 51
174.03360199996368
  0
LINE
  8
LAYER001
  6
CONTINUOUS
 62
               3
  5
216
 10
-785.91981599999963
 20
-666.9884955
 30
0.0
 11
-785.91981599999963
 21
-668.18849550000004
 31
0.0
  0
LINE
  8
LAYER001
  6
CONTINUOUS
 62
               3
  5
217
 10
-784.82523499999934
 20
-681.18849550000004
 30
0.0
 11
-549.17964799999936
 21
-681.18849550000004
 31
0.0
  0
LINE
  8
LAYER001
  6
CONTINUOUS
 62
               3
  5
218
 10
-731.00000399999954
 20
-711.18849550000004
 30
0.0
 11
-603.00000399999954
 21
-711.18849550000004
 31
0.0
  0
LINE
  8
LAYER001
  6
CONTINUOUS
 62
               3
  5
219
 10
-602.0644499999994
 20
-683.12186550000001
 30
0.0
 11
-603.00000399999954
 21
-711.18849550000004
 31
0.0
  0
ARC
  8
LAYER001
  6
CONTINUOUS
 62
               3
  5
21A
 10
-600.06555999999955
 20
-683.18849550000004
 30
0.0
 40
2.0
 50
89.99999999998677
 51
178.09084799996927
  0
LINE
  8
LAYER001
  6
CONTINUOUS
 62
               3
  5
21B
 10
-547.18163199999935
 20
-679.02299549999998
 30
0.0
 11
-547.92239599999948
 21
-669.10186550000003
 31
0.0
  0
ARC
  8
LAYER001
  6
CONTINUOUS
 62
               3
  5
21C
 10
-548.91863699999976
 20
-669.18849550000004
 30
0.0
 40
1.0
 50
4.9697409999928395
 51
89.999999999973738
  0
ARC
  8
LAYER001
  6
CONTINUOUS
 62
               3
  5
21D
 10
-549.17477299999973
 20
-679.18849550000004
 30
0.0
 40
2.0
 50
269.99999999994731
 51
364.74665699999827
  0
LINE
  8
LAYER001
  6
CONTINUOUS
 62
               3
  5
21E
 10
-548.08019199999944
 20
-666.9884955
 30
0.0
 11
-548.08019199999944
 21
-668.18849550000004
 31
0.0
  0
LINE
  8
LAYER001
  6
CONTINUOUS
 62
               3
  5
21F
 10
-785.91981599999963
 20
-668.18849550000004
 30
0.0
 11
-548.08019199999944
 21
-668.18849550000004
 31
0.0
  0
LINE
  8
LAYER001
  6
CONTINUOUS
 62
               3
  5
220
 10
-756.50000399999954
 20
436.31580149999991
 30
0.0
 11
-577.50000399999954
 21
436.31580149999991
 31
0.0
  0
LINE
  8
LAYER001
  6
CONTINUOUS
 62
               3
  5
221
 10
-816.8201339999996
 20
468.47772149999992
 30
0.0
 11
-816.07942799999955
 21
478.39814949999982
 31
0.0
  0
LINE
  8
LAYER001
  6
CONTINUOUS
 62
               3
  5
222
 10
-517.18051899999955
 20
468.48548149999988
 30
0.0
 11
-517.92057999999952
 21
478.39814949999982
 31
0.0
  0
ARC
  8
LAYER001
  6
CONTINUOUS
 62
               3
  5
223
 10
-814.81854399999975
 20
468.31151950000003
 30
0.0
 40
2.0
 50
175.03025899996783
 51
269.99999999994731
  0
ARC
  8
LAYER001
  6
CONTINUOUS
 62
               3
  5
224
 10
-815.08318699999973
 20
478.31151950000003
 30
0.0
 40
1.0
 50
89.999999999973738
 51
175.03025899996783
  0
ARC
  8
LAYER001
  6
CONTINUOUS
 62
               3
  5
225
 10
-518.91682099999935
 20
478.31151950000003
 30
0.0
 40
1.0
 50
4.9697410000058184
 51
89.999999999973738
  0
ARC
  8
LAYER001
  6
CONTINUOUS
 62
               3
  5
226
 10
-519.18146399999932
 20
468.31151950000003
 30
0.0
 40
2.0
 50
269.99999999994731
 51
364.96879699999403
  0
LINE
  8
LAYER001
  6
CONTINUOUS
 62
               3
  5
227
 10
-778.84639399999969
 20
446.31151950000003
 30
0.0
 11
-795.15361399999938
 21
446.31151950000003
 31
0.0
  0
LINE
  8
LAYER001
  6
CONTINUOUS
 62
               3
  5
228
 10
-798.85276299999941
 20
464.47100950000004
 30
0.0
 11
-797.14724499999966
 21
448.15202950000003
 31
0.0
  0
LINE
  8
LAYER001
  6
CONTINUOUS
 62
               3
  5
229
 10
-775.14724499999966
 20
464.47100950000004
 30
0.0
 11
-776.85276299999941
 21
448.15202950000003
 31
0.0
  0
ARC
  8
LAYER001
  6
CONTINUOUS
 62
               3
  5
22A
 10
-800.84639399999969
 20
464.31151950000003
 30
0.0
 40
2.0
 50
4.5739210000009063
 51
89.99999999998677
  0
ARC
  8
LAYER001
  6
CONTINUOUS
 62
               3
  5
22B
 10
-795.15361399999938
 20
448.31151950000003
 30
0.0
 40
2.0
 50
184.57392099996153
 51
269.99999999994731
  0
ARC
  8
LAYER001
  6
CONTINUOUS
 62
               3
  5
22C
 10
-778.84639399999969
 20
448.31151950000003
 30
0.0
 40
2.0
 50
269.99999999994731
 51
355.42607899993232
  0
ARC
  8
LAYER001
  6
CONTINUOUS
 62
               3
  5
22D
 10
-773.15361399999938
 20
464.31151950000003
 30
0.0
 40
2.0
 50
89.99999999998677
 51
175.42607899997273
  0
LINE
  8
LAYER001
  6
CONTINUOUS
 62
               3
  5
22E
 10
-757.43554899999936
 20
464.37815850000015
 30
0.0
 11
-756.50000399999954
 21
436.31580149999991
 31
0.0
  0
ARC
  8
LAYER001
  6
CONTINUOUS
 62
               3
  5
22F
 10
-759.43443899999966
 20
464.31151950000003
 30
0.0
 40
2.0
 50
1.9094249999962625
 51
89.99999999998677
  0
LINE
  8
LAYER001
  6
CONTINUOUS
 62
               3
  5
230
 10
-576.56445899999972
 20
464.37815850000015
 30
0.0
 11
-577.50000399999954
 21
436.31580149999991
 31
0.0
  0
ARC
  8
LAYER001
  6
CONTINUOUS
 62
               3
  5
231
 10
-574.56556899999941
 20
464.31151950000003
 30
0.0
 40
2.0
 50
89.99999999998677
 51
178.09057499996428
  0
LINE
  8
LAYER001
  6
CONTINUOUS
 62
               3
  5
232
 10
-814.81854399999975
 20
466.31151950000003
 30
0.0
 11
-519.18146399999932
 21
466.31151950000003
 31
0.0
  0
LINE
  8
LAYER001
  6
CONTINUOUS
 62
               3
  5
233
 10
-749.50000399999954
 20
379.31151950000003
 30
0.0
 11
-584.50000399999954
 21
379.31151950000003
 31
0.0
  0
LINE
  8
LAYER001
  6
CONTINUOUS
 62
               3
  5
234
 10
-749.50000399999954
 20
436.31580149999991
 30
0.0
 11
-749.50000399999954
 21
379.31151950000003
 31
0.0
  0
LINE
  8
LAYER001
  6
CONTINUOUS
 62
               3
  5
235
 10
-584.50000399999954
 20
436.31580149999991
 30
0.0
 11
-584.50000399999954
 21
379.31151950000003
 31
0.0
  0
LINE
  8
LAYER001
  6
CONTINUOUS
 62
               3
  5
236
 10
-815.92163299999947
 20
480.51151949999985
 30
0.0
 11
-518.0783609999994
 21
480.51151949999985
 31
0.0
  0
LINE
  8
LAYER001
  6
CONTINUOUS
 62
               3
  5
237
 10
-518.0783609999994
 20
480.51151949999985
 30
0.0
 11
-518.0783609999994
 21
479.31151950000003
 31
0.0
  0
LINE
  8
LAYER001
  6
CONTINUOUS
 62
               3
  5
238
 10
-815.92163299999947
 20
479.31151950000003
 30
0.0
 11
-518.0783609999994
 21
479.31151950000003
 31
0.0
  0
LINE
  8
LAYER001
  6
CONTINUOUS
 62
               3
  5
239
 10
-815.92163299999947
 20
479.31151950000003
 30
0.0
 11
-815.92163299999947
 21
480.51151949999985
 31
0.0
  0
CIRCLE
  8
LAYER001
  6
CONTINUOUS
 62
               3
  5
23A
 10
-667.00000399999954
 20
890.18848049999997
 30
0.0
 40
150.0
  0
CIRCLE
  8
LAYER001
  6
CONTINUOUS
 62
               3
  5
23B
 10
-667.00000399999954
 20
890.18848049999997
 30
0.0
 40
149.0
  0
LINE
  8
LAYER001
  6
CONTINUOUS
 62
               3
  5
23C
 10
-559.50000399999954
 20
451.81580149999991
 30
0.0
 11
-559.50000399999954
 21
440.81580149999991
 31
0.0
  0
LINE
  8
LAYER001
  6
CONTINUOUS
 62
               3
  5
23D
 10
-555.50000399999954
 20
442.19080149999991
 30
0.0
 11
-555.50000399999954
 21
450.44080149999991
 31
0.0
  0
LINE
  8
LAYER001
  6
CONTINUOUS
 62
               3
  5
23E
 10
-556.0004629999994
 20
451.81580149999991
 30
0.0
 11
-559.50000399999954
 21
451.81580149999991
 31
0.0
  0
LINE
  8
LAYER001
  6
CONTINUOUS
 62
               3
  5
23F
 10
-556.0004629999994
 20
440.81580149999991
 30
0.0
 11
-559.50000399999954
 21
440.81580149999991
 31
0.0
  0
LINE
  8
LAYER001
  6
CONTINUOUS
 62
               3
  5
240
 10
-556.0004629999994
 20
443.56580149999991
 30
0.0
 11
-559.50000399999954
 21
443.56580149999991
 31
0.0
  0
LINE
  8
LAYER001
  6
CONTINUOUS
 62
               3
  5
241
 10
-556.0004629999994
 20
449.06580149999991
 30
0.0
 11
-559.50000399999954
 21
449.06580149999991
 31
0.0
  0
LINE
  8
LAYER001
  6
CONTINUOUS
 62
               3
  5
242
 10
-555.50000399999954
 20
442.19080149999991
 30
0.0
 11
-556.0004629999994
 21
440.81580149999991
 31
0.0
  0
ARC
  8
LAYER001
  6
CONTINUOUS
 62
               3
  5
243
 10
-557.63912399999936
 20
442.19080149999991
 30
0.0
 40
2.1391200000000001
 50
0.0
 51
39.999999999996476
  0
ARC
  8
LAYER001
  6
CONTINUOUS
 62
               3
  5
244
 10
-563.30579599999965
 20
446.31580149999991
 30
0.0
 40
7.8057920000000003
 50
339.37178999993472
 51
380.62820999999605
  0
LINE
  8
LAYER001
  6
CONTINUOUS
 62
               3
  5
245
 10
-555.50000399999954
 20
450.44080149999991
 30
0.0
 11
-556.0004629999994
 21
451.81580149999991
 31
0.0
  0
ARC
  8
LAYER001
  6
CONTINUOUS
 62
               3
  5
246
 10
-557.63912399999936
 20
450.44080149999991
 30
0.0
 40
2.1391200000000001
 50
319.99999999994191
 51
359.9999999999992
  0
LINE
  8
LAYER001
  6
CONTINUOUS
 62
               3
  5
247
 10
-577.06667099999959
 20
449.31580149999991
 30
0.0
 11
-559.50000399999954
 21
449.31580149999991
 31
0.0
  0
LINE
  8
LAYER001
  6
CONTINUOUS
 62
               3
  5
248
 10
-577.26667099999941
 20
443.31580149999991
 30
0.0
 11
-559.50000399999954
 21
443.31580149999991
 31
0.0
  0
LINE
  8
LAYER001
  6
CONTINUOUS
 62
               3
  5
249
 10
655.99999600000046
 20
-711.18848049999997
 30
0.0
 11
809.99999600000046
 21
-711.18848049999997
 31
0.0
  0
LINE
  8
LAYER001
  6
CONTINUOUS
 62
               3
  5
24A
 10
598.17980800000078
 20
-679.0229804999999
 30
0.0
 11
598.92025000000012
 21
-669.10573049999994
 31
0.0
  0
LINE
  8
LAYER001
  6
CONTINUOUS
 62
               3
  5
24B
 10
643.65360600000076
 20
-701.18848049999997
 30
0.0
 11
627.34638600000017
 21
-701.18848049999997
 31
0.0
  0
LINE
  8
LAYER001
  6
CONTINUOUS
 62
               3
  5
24C
 10
867.82018400000015
 20
-679.0229804999999
 30
0.0
 11
867.07974200000081
 21
-669.10573049999994
 31
0.0
  0
LINE
  8
LAYER001
  6
CONTINUOUS
 62
               3
  5
24D
 10
623.64723700000013
 20
-683.02899049999996
 30
0.0
 11
625.3527550000008
 21
-699.34797049999997
 31
0.0
  0
LINE
  8
LAYER001
  6
CONTINUOUS
 62
               3
  5
24E
 10
647.3527550000008
 20
-683.02899049999996
 30
0.0
 11
645.64723700000013
 21
-699.34797049999997
 31
0.0
  0
ARC
  8
LAYER001
  6
CONTINUOUS
 62
               3
  5
24F
 10
599.91682100000071
 20
-669.18848049999997
 30
0.0
 40
1.0
 50
89.999999999999801
 51
175.25334299996157
  0
ARC
  8
LAYER001
  6
CONTINUOUS
 62
               3
  5
250
 10
600.1729490000007
 20
-679.18848049999997
 30
0.0
 40
2.0
 50
175.25334299996805
 51
269.99999999994731
  0
ARC
  8
LAYER001
  6
CONTINUOUS
 62
               3
  5
251
 10
621.65360600000076
 20
-683.18848049999997
 30
0.0
 40
2.0
 50
4.5739210000009063
 51
89.999999999973738
  0
ARC
  8
LAYER001
  6
CONTINUOUS
 62
               3
  5
252
 10
627.34638600000017
 20
-699.18848049999997
 30
0.0
 40
2.0
 50
184.57392099996804
 51
269.99999999994731
  0
ARC
  8
LAYER001
  6
CONTINUOUS
 62
               3
  5
253
 10
643.65360600000076
 20
-699.18848049999997
 30
0.0
 40
2.0
 50
269.99999999994731
 51
355.4260789999334
  0
ARC
  8
LAYER001
  6
CONTINUOUS
 62
               3
  5
254
 10
649.34638600000017
 20
-683.18848049999997
 30
0.0
 40
2.0
 50
89.999999999973738
 51
175.42607899996622
  0
ARC
  8
LAYER001
  6
CONTINUOUS
 62
               3
  5
255
 10
866.08317100000022
 20
-669.18848049999997
 30
0.0
 40
1.0
 50
4.7466569999990842
 51
89.999999999999801
  0
ARC
  8
LAYER001
  6
CONTINUOUS
 62
               3
  5
256
 10
865.82704300000023
 20
-679.18848049999997
 30
0.0
 40
2.0
 50
269.99999999994731
 51
364.74665699999827
  0
LINE
  8
LAYER001
  6
CONTINUOUS
 62
               3
  5
257
 10
655.06444200000078
 20
-683.12185049999994
 30
0.0
 11
655.99999600000046
 21
-711.18848049999997
 31
0.0
  0
LINE
  8
LAYER001
  6
CONTINUOUS
 62
               3
  5
258
 10
810.93555000000015
 20
-683.12185049999994
 30
0.0
 11
809.99999600000046
 21
-711.18848049999997
 31
0.0
  0
ARC
  8
LAYER001
  6
CONTINUOUS
 62
               3
  5
259
 10
653.06555200000003
 20
-683.18848049999997
 30
0.0
 40
2.0
 50
1.9091519999978026
 51
89.999999999973738
  0
ARC
  8
LAYER001
  6
CONTINUOUS
 62
               3
  5
25A
 10
812.9344400000009
 20
-683.18848049999997
 30
0.0
 40
2.0
 50
89.999999999973738
 51
178.09084799996927
  0
LINE
  8
LAYER001
  6
CONTINUOUS
 62
               3
  5
25B
 10
600.1729490000007
 20
-681.18848049999997
 30
0.0
 11
865.82704300000023
 21
-681.18848049999997
 31
0.0
  0
LINE
  8
LAYER001
  6
CONTINUOUS
 62
               3
  5
25C
 10
599.07832900000085
 20
-666.98848049999992
 30
0.0
 11
866.92166300000008
 21
-666.98848049999992
 31
0.0
  0
LINE
  8
LAYER001
  6
CONTINUOUS
 62
               3
  5
25D
 10
599.07832900000085
 20
-668.18848049999997
 30
0.0
 11
866.92166300000008
 21
-668.18848049999997
 31
0.0
  0
LINE
  8
LAYER001
  6
CONTINUOUS
 62
               3
  5
25E
 10
866.92166300000008
 20
-668.18848049999997
 30
0.0
 11
866.92166300000008
 21
-666.98848049999992
 31
0.0
  0
LINE
  8
LAYER001
  6
CONTINUOUS
 62
               3
  5
25F
 10
599.07832900000085
 20
-668.18848049999997
 30
0.0
 11
599.07832900000085
 21
-666.98848049999992
 31
0.0
  0
LINE
  8
LAYER001
  6
CONTINUOUS
 62
               3
  5
260
 10
662.99999600000046
 20
-711.18848049999997
 30
0.0
 11
662.99999600000046
 21
-768.18848049999997
 31
0.0
  0
LINE
  8
LAYER001
  6
CONTINUOUS
 62
               3
  5
261
 10
802.99999600000046
 20
-711.18848049999997
 30
0.0
 11
802.99999600000046
 21
-768.18848049999997
 31
0.0
  0
LINE
  8
LAYER001
  6
CONTINUOUS
 62
               3
  5
262
 10
662.99999600000046
 20
-768.18848049999997
 30
0.0
 11
802.99999600000046
 21
-768.18848049999997
 31
0.0
  0
CIRCLE
  8
LAYER001
  6
CONTINUOUS
 62
               3
  5
263
 10
732.99999600000046
 20
-272.31151950000003
 30
0.0
 40
135.0
  0
CIRCLE
  8
LAYER001
  6
CONTINUOUS
 62
               3
  5
264
 10
732.99999600000046
 20
-272.31151950000003
 30
0.0
 40
134.0
  0
LINE
  8
LAYER001
  6
CONTINUOUS
 62
               3
  5
265
 10
617.99999600000046
 20
449.31580149999991
 30
0.0
 11
847.99999600000046
 21
449.31580149999991
 31
0.0
  0
LINE
  8
LAYER001
  6
CONTINUOUS
 62
               3
  5
266
 10
569.91681300000073
 20
492.31151950000003
 30
0.0
 11
896.0831790000002
 21
492.31151950000003
 31
0.0
  0
LINE
  8
LAYER001
  6
CONTINUOUS
 62
               3
  5
267
 10
568.17862200000036
 20
481.46106050000026
 30
0.0
 11
568.9205720000009
 21
491.39814949999982
 31
0.0
  0
LINE
  8
LAYER001
  6
CONTINUOUS
 62
               3
  5
268
 10
897.81948100000045
 20
481.48548149999988
 30
0.0
 11
897.07942000000003
 21
491.39814949999982
 31
0.0
  0
ARC
  8
LAYER001
  6
CONTINUOUS
 62
               3
  5
269
 10
570.18145600000025
 20
481.31151950000003
 30
0.0
 40
2.0
 50
175.03025899996783
 51
269.99999999994731
  0
ARC
  8
LAYER001
  6
CONTINUOUS
 62
               3
  5
26A
 10
569.91681300000073
 20
491.31151950000003
 30
0.0
 40
1.0
 50
89.999999999999801
 51
175.03025899997007
  0
ARC
  8
LAYER001
  6
CONTINUOUS
 62
               3
  5
26B
 10
896.0831790000002
 20
491.31151950000003
 30
0.0
 40
1.0
 50
4.9697410000035607
 51
89.999999999999801
  0
ARC
  8
LAYER001
  6
CONTINUOUS
 62
               3
  5
26C
 10
895.81853600000068
 20
481.31151950000003
 30
0.0
 40
2.0
 50
269.99999999994731
 51
364.96879699999522
  0
LINE
  8
LAYER001
  6
CONTINUOUS
 62
               3
  5
26D
 10
606.15360600000076
 20
459.31151950000003
 30
0.0
 11
589.84638600000017
 21
459.31151950000003
 31
0.0
  0
LINE
  8
LAYER001
  6
CONTINUOUS
 62
               3
  5
26E
 10
586.14723700000013
 20
477.47100950000004
 30
0.0
 11
587.8527550000008
 21
461.15202950000003
 31
0.0
  0
LINE
  8
LAYER001
  6
CONTINUOUS
 62
               3
  5
26F
 10
609.8527550000008
 20
477.47100950000004
 30
0.0
 11
608.14723700000013
 21
461.15202950000003
 31
0.0
  0
ARC
  8
LAYER001
  6
CONTINUOUS
 62
               3
  5
270
 10
584.15360600000076
 20
477.31151950000003
 30
0.0
 40
2.0
 50
4.5739210000009063
 51
89.999999999973738
  0
ARC
  8
LAYER001
  6
CONTINUOUS
 62
               3
  5
271
 10
589.84638600000017
 20
461.31151950000003
 30
0.0
 40
2.0
 50
184.57392099996153
 51
269.99999999994731
  0
ARC
  8
LAYER001
  6
CONTINUOUS
 62
               3
  5
272
 10
606.15360600000076
 20
461.31151950000003
 30
0.0
 40
2.0
 50
269.99999999994731
 51
355.4260789999334
  0
ARC
  8
LAYER001
  6
CONTINUOUS
 62
               3
  5
273
 10
611.84638600000017
 20
477.31151950000003
 30
0.0
 40
2.0
 50
89.999999999973738
 51
175.42607899997273
  0
LINE
  8
LAYER001
  6
CONTINUOUS
 62
               3
  5
274
 10
617.06445100000019
 20
477.37815850000015
 30
0.0
 11
617.99999600000046
 21
449.31580149999991
 31
0.0
  0
ARC
  8
LAYER001
  6
CONTINUOUS
 62
               3
  5
275
 10
615.06556100000034
 20
477.31151950000003
 30
0.0
 40
2.0
 50
1.9094249999962625
 51
89.999999999973738
  0
LINE
  8
LAYER001
  6
CONTINUOUS
 62
               3
  5
276
 10
848.93554100000074
 20
477.37815850000015
 30
0.0
 11
847.99999600000046
 21
449.31580149999991
 31
0.0
  0
ARC
  8
LAYER001
  6
CONTINUOUS
 62
               3
  5
277
 10
850.93443100000059
 20
477.31151950000003
 30
0.0
 40
2.0
 50
89.999999999973738
 51
178.09057499996428
  0
LINE
  8
LAYER001
  6
CONTINUOUS
 62
               3
  5
278
 10
897.82012600000053
 20
481.47772149999992
 30
0.0
 11
897.07942000000003
 21
491.39814949999982
 31
0.0
  0
CIRCLE
  8
LAYER001
  6
CONTINUOUS
 62
               3
  5
279
 10
732.99999600000046
 20
890.18848049999997
 30
0.0
 40
165.0
  0
CIRCLE
  8
LAYER001
  6
CONTINUOUS
 62
               3
  5
27A
 10
732.99999600000046
 20
890.18848049999997
 30
0.0
 40
164.0
  0
LINE
  8
LAYER001
  6
CONTINUOUS
 62
               3
  5
27B
 10
568.99999600000046
 20
493.51151949999985
 30
0.0
 11
896.99999600000046
 21
493.51151949999985
 31
0.0
  0
LINE
  8
LAYER001
  6
CONTINUOUS
 62
               3
  5
27C
 10
568.99999600000046
 20
493.51151949999985
 30
0.0
 11
568.99999600000046
 21
492.31151950000003
 31
0.0
  0
LINE
  8
LAYER001
  6
CONTINUOUS
 62
               3
  5
27D
 10
896.99999600000046
 20
493.51151949999985
 30
0.0
 11
896.99999600000046
 21
492.31151950000003
 31
0.0
  0
LINE
  8
LAYER001
  6
CONTINUOUS
 62
               3
  5
27E
 10
570.18145600000025
 20
479.31151950000003
 30
0.0
 11
895.81853600000068
 21
479.31151950000003
 31
0.0
  0
LINE
  8
LAYER001
  6
CONTINUOUS
 62
               3
  5
27F
 10
623.99999600000046
 20
449.31580149999991
 30
0.0
 11
623.99999600000046
 21
379.31151950000003
 31
0.0
  0
LINE
  8
LAYER001
  6
CONTINUOUS
 62
               3
  5
280
 10
841.99999600000046
 20
449.31580149999991
 30
0.0
 11
841.99999600000046
 21
379.31151950000003
 31
0.0
  0
LINE
  8
LAYER001
  6
CONTINUOUS
 62
               3
  5
281
 10
623.99999600000046
 20
379.31151950000003
 30
0.0
 11
841.99999600000046
 21
379.31151950000003
 31
0.0
  0
LINE
  8
LAYER001
  6
CONTINUOUS
 62
               3
  5
282
 10
865.99992700000075
 20
464.81185749999986
 30
0.0
 11
865.99992700000075
 21
453.81185749999986
 31
0.0
  0
LINE
  8
LAYER001
  6
CONTINUOUS
 62
               3
  5
283
 10
869.99992700000075
 20
455.18685749999986
 30
0.0
 11
869.99992700000075
 21
463.43685749999986
 31
0.0
  0
LINE
  8
LAYER001
  6
CONTINUOUS
 62
               3
  5
284
 10
869.49946800000089
 20
464.81185749999986
 30
0.0
 11
865.99992700000075
 21
464.81185749999986
 31
0.0
  0
LINE
  8
LAYER001
  6
CONTINUOUS
 62
               3
  5
285
 10
869.49946800000089
 20
453.81185749999986
 30
0.0
 11
865.99992700000075
 21
453.81185749999986
 31
0.0
  0
LINE
  8
LAYER001
  6
CONTINUOUS
 62
               3
  5
286
 10
869.49946800000089
 20
456.56185749999986
 30
0.0
 11
865.99992700000075
 21
456.56185749999986
 31
0.0
  0
LINE
  8
LAYER001
  6
CONTINUOUS
 62
               3
  5
287
 10
869.49946800000089
 20
462.06185749999986
 30
0.0
 11
865.99992700000075
 21
462.06185749999986
 31
0.0
  0
LINE
  8
LAYER001
  6
CONTINUOUS
 62
               3
  5
288
 10
869.99992700000075
 20
455.18685749999986
 30
0.0
 11
869.49946800000089
 21
453.81185749999986
 31
0.0
  0
ARC
  8
LAYER001
  6
CONTINUOUS
 62
               3
  5
289
 10
867.86080600000059
 20
455.18685749999986
 30
0.0
 40
2.1391200000000001
 50
0.0
 51
39.999999999988646
  0
ARC
  8
LAYER001
  6
CONTINUOUS
 62
               3
  5
28A
 10
862.1941340000003
 20
459.31185749999986
 30
0.0
 40
7.8057920000000003
 50
339.37178999993358
 51
380.62820999999605
  0
LINE
  8
LAYER001
  6
CONTINUOUS
 62
               3
  5
28B
 10
869.99992700000075
 20
463.43685749999986
 30
0.0
 11
869.49946800000089
 21
464.81185749999986
 31
0.0
  0
ARC
  8
LAYER001
  6
CONTINUOUS
 62
               3
  5
28C
 10
867.86080600000059
 20
463.43685749999986
 30
0.0
 40
2.1391200000000001
 50
319.99999999994191
 51
359.9999999999992
  0
LINE
  8
LAYER001
  6
CONTINUOUS
 62
               3
  5
28D
 10
848.4332600000007
 20
462.31185749999986
 30
0.0
 11
865.99992700000075
 21
462.31185749999986
 31
0.0
  0
LINE
  8
LAYER001
  6
CONTINUOUS
 62
               3
  5
28E
 10
848.23326000000088
 20
456.31185749999986
 30
0.0
 11
865.99992700000075
 21
456.31185749999986
 31
0.0
  0
ENDSEC
  0
EOF
