  0
SECTION
  2
HEADER
  9
$ACADVER
  1
AC1009
  9
$INSBASE
 10
0.0
 20
0.0
 30
0.0
  9
$EXTMIN
 10
-119.59999999999999
 20
-210.16941072896617
 30
0.0
  9
$EXTMAX
 10
119.59999999999999
 20
255.16939922896665
 30
0.0
  9
$LIMMIN
 10
-127.07499999999999
 20
-224.71124854015156
  9
$LIMMAX
 10
127.07499999999999
 20
269.71123704015207
  9
$ORTHOMODE
 70
               0
  9
$REGENMODE
 70
               1
  9
$FILLMODE
 70
               1
  9
$QTEXTMODE
 70
               0
  9
$MIRRTEXT
 70
               1
  9
$DRAGMODE
 70
               2
  9
$LTSCALE
 40
1.0
  9
$OSMODE
 70
               0
  9
$ATTMODE
 70
               1
  9
$TEXTSIZE
 40
0.2
  9
$TRACEWID
 40
0.05
  9
$TEXTSTYLE
  7
STANDARD
  9
$CLAYER
  8
0
  9
$CELTYPE
  6
CONTINUOUS
  9
$CECOLOR
 62
             256
  9
$DIMSCALE
 40
1.0
  9
$DIMASZ
 40
0.18
  9
$DIMEXO
 40
0.0625
  9
$DIMDLI
 40
0.38
  9
$DIMRND
 40
0.0
  9
$DIMDLE
 40
0.0
  9
$DIMEXE
 40
0.18
  9
$DIMTP
 40
0.0
  9
$DIMTM
 40
0.0
  9
$DIMTXT
 40
0.18
  9
$DIMCEN
 40
0.09
  9
$DIMTSZ
 40
0.0
  9
$DIMTOL
 70
               0
  9
$DIMLIM
 70
               0
  9
$DIMTIH
 70
               1
  9
$DIMTOH
 70
               1
  9
$DIMSE1
 70
               0
  9
$DIMSE2
 70
               0
  9
$DIMTAD
 70
               0
  9
$DIMZIN
 70
               0
  9
$DIMBLK
  1

  9
$DIMASO
 70
               1
  9
$DIMSHO
 70
               1
  9
$DIMPOST
  1

  9
$DIMAPOST
  1

  9
$DIMALT
 70
               0
  9
$DIMALTD
 70
               2
  9
$DIMALTF
 40
25.399999999999999
  9
$DIMLFAC
 40
1.0
  9
$DIMTOFL
 70
               0
  9
$DIMTVP
 40
0.0
  9
$DIMTIX
 70
               0
  9
$DIMSOXD
 70
               0
  9
$DIMSAH
 70
               0
  9
$DIMBLK1
  1

  9
$DIMBLK2
  1

  9
$DIMSTYLE
  2
STANDARD
  9
$DIMCLRD
 70
               0
  9
$DIMCLRE
 70
               0
  9
$DIMCLRT
 70
               0
  9
$DIMTFAC
 40
1.0
  9
$DIMGAP
 40
0.09
  9
$LUNITS
 70
               2
  9
$LUPREC
 70
               4
  9
$AXISMODE
 70
               0
  9
$AXISUNIT
 10
0.0
 20
0.0
  9
$SKETCHINC
 40
0.1
  9
$FILLETRAD
 40
0.0
  9
$AUNITS
 70
               0
  9
$AUPREC
 70
               0
  9
$MENU
  1
acad
  9
$ELEVATION
 40
0.0
  9
$PELEVATION
 40
0.0
  9
$THICKNESS
 40
0.0
  9
$LIMCHECK
 70
               0
  9
$BLIPMODE
 70
               1
  9
$CHAMFERA
 40
0.0
  9
$CHAMFERB
 40
0.0
  9
$SKPOLY
 70
               0
  9
$TDCREATE
 40
0.000000000
  9
$TDUPDATE
 40
0.000000000
  9
$TDINDWG
 40
0.0000000000
  9
$TDUSRTIMER
 40
0.0000000000
  9
$USRTIMER
 70
               1
  9
$ANGBASE
 50
0.0
  9
$ANGDIR
 70
               0
  9
$PDMODE
 70
               0
  9
$PDSIZE
 40
1.0
  9
$PLINEWID
 40
0.0
  9
$COORDS
 70
               1
  9
$SPLFRAME
 70
               0
  9
$SPLINETYPE
 70
               6
  9
$SPLINESEGS
 70
               8
  9
$ATTDIA
 70
               0
  9
$ATTREQ
 70
               1
  9
$HANDLING
 70
               1
  9
$HANDSEED
  5
192
  9
$SURFTAB1
 70
               6
  9
$SURFTAB2
 70
               6
  9
$SURFTYPE
 70
               6
  9
$SURFU
 70
               6
  9
$SURFV
 70
               6
  9
$UCSNAME
  2

  9
$UCSORG
 10
0.0
 20
0.0
 30
0.0
  9
$UCSXDIR
 10
1.0
 20
0.0
 30
0.0
  9
$UCSYDIR
 10
0.0
 20
1.0
 30
0.0
  9
$PUCSNAME
  2

  9
$PUCSORG
 10
0.0
 20
0.0
 30
0.0
  9
$PUCSXDIR
 10
1.0
 20
0.0
 30
0.0
  9
$PUCSYDIR
 10
0.0
 20
1.0
 30
0.0
  9
$USERI1
 70
               0
  9
$USERI2
 70
               0
  9
$USERI3
 70
               0
  9
$USERI4
 70
               0
  9
$USERI5
 70
               0
  9
$USERR1
 40
0.0
  9
$USERR2
 40
0.0
  9
$USERR3
 40
0.0
  9
$USERR4
 40
0.0
  9
$USERR5
 40
0.0
  9
$WORLDVIEW
 70
               1
  9
$SHADEDGE
 70
               3
  9
$SHADEDIF
 70
              70
  9
$TILEMODE
 70
               1
  9
$MAXACTVP
 70
              16
  9
$PINSBASE
 10
0.0
 20
0.0
 30
0.0
  9
$PLIMCHECK
 70
               0
  9
$PEXTMIN
 10
1.0000000000000000E+20
 20
1.0000000000000000E+20
 30
1.0000000000000000E+20
  9
$PEXTMAX
 10
-1.0000000000000000E+20
 20
-1.0000000000000000E+20
 30
-1.0000000000000000E+20
  9
$PLIMMIN
 10
0.0
 20
0.0
  9
$PLIMMAX
 10
12.0
 20
9.0
  9
$UNITMODE
 70
               0
  9
$VISRETAIN
 70
               0
  9
$PLINEGEN
 70
               1
  9
$PSLTSCALE
 70
               0
  9
$TREEDEPTH
 70
            3020
  9
$DWGCODEPAGE
  3
dos932
  0
ENDSEC
  0
SECTION
  2
TABLES
  0
TABLE
  2
VPORT
 70
               1
  0
VPORT
  2
*ACTIVE
 70
               0
 10
0.0
 20
0.0
 11
1.0
 21
1.0
 12
0.0
 22
22.499994250000256
 13
0.0
 23
0.0
 14
1.0
 24
1.0
 15
0.0
 25
0.0
 16
0.0
 26
0.0
 36
1.0
 17
0.0
 27
0.0
 37
0.0
 40
494.4224855803036
 41
0.5140340648174692
 42
50.0
 43
0.0
 44
0.0
 50
0.0
 51
0.0
 71
               0
 72
             100
 73
               1
 74
               1
 75
               0
 76
               0
 77
               0
 78
               0
  0
ENDTAB
  0
TABLE
  2
LTYPE
 70
              26
  0
LTYPE
  2
CONTINUOUS
 70
               0
  3
Solid line
 72
              65
 73
               0
 40
0.0
  0
LTYPE
  2
HIDDENX2
 70
               0
  3
CADPAC FUSION LINETYPE
 72
              65
 73
               2
 40
23.760000000000002
 49
17.82
 49
-5.9400000000000004
  0
LTYPE
  2
HIDDEN
 70
               0
  3
CADPAC FUSION LINETYPE
 72
              65
 73
               2
 40
17.82
 49
11.880000000000001
 49
-5.9400000000000004
  0
LTYPE
  2
HIDDEN2
 70
               0
  3
CADPAC FUSION LINETYPE
 72
              65
 73
               2
 40
14.850000000000001
 49
8.9100000000000001
 49
-5.9400000000000004
  0
LTYPE
  2
DASHED
 70
               0
  3
CADPAC FUSION LINETYPE
 72
              65
 73
               2
 40
17.82
 49
11.880000000000001
 49
-5.9400000000000004
  0
LTYPE
  2
DASHED2
 70
               0
  3
CADPAC FUSION LINETYPE
 72
              65
 73
               2
 40
13.365
 49
8.9100000000000001
 49
-4.4550000000000001
  0
LTYPE
  2
DASHEDX2
 70
               0
  3
CADPAC FUSION LINETYPE
 72
              65
 73
               2
 40
26.73
 49
17.82
 49
-8.9100000000000001
  0
LTYPE
  2
DOTX2
 70
               0
  3
CADPAC FUSION LINETYPE
 72
              65
 73
               2
 40
7.4250000000000007
 49
0.0
 49
-7.4250000000000007
  0
LTYPE
  2
DOT
 70
               0
  3
CADPAC FUSION LINETYPE
 72
              65
 73
               2
 40
5.9400000000000004
 49
0.0
 49
-5.9400000000000004
  0
LTYPE
  2
DOTS
 70
               0
  3
CADPAC FUSION LINETYPE
 72
              65
 73
               2
 40
5.9400000000000004
 49
0.0
 49
-5.9400000000000004
  0
LTYPE
  2
DOT2
 70
               0
  3
CADPAC FUSION LINETYPE
 72
              65
 73
               2
 40
4.4550000000000001
 49
0.0
 49
-4.4550000000000001
  0
LTYPE
  2
CENTERX2
 70
               0
  3
CADPAC FUSION LINETYPE
 72
              65
 73
               4
 40
35.640000000000001
 49
14.850000000000001
 49
-7.4250000000000007
 49
5.9400000000000004
 49
-7.4250000000000007
  0
LTYPE
  2
CENTER
 70
               0
  3
CADPAC FUSION LINETYPE
 72
              65
 73
               4
 40
27.324000000000002
 49
11.880000000000001
 49
-5.9400000000000004
 49
3.5640000000000001
 49
-5.9400000000000004
  0
LTYPE
  2
CENTER2
 70
               0
  3
CADPAC FUSION LINETYPE
 72
              65
 73
               4
 40
19.008000000000003
 49
8.9100000000000001
 49
-4.4550000000000001
 49
1.1880000000000002
 49
-4.4550000000000001
  0
LTYPE
  2
DASHDOTX2
 70
               0
  3
CADPAC FUSION LINETYPE
 72
              65
 73
               4
 40
29.700000000000003
 49
14.850000000000001
 49
-7.4250000000000007
 49
0.0
 49
-7.4250000000000007
  0
LTYPE
  2
DASHDOT
 70
               0
  3
CADPAC FUSION LINETYPE
 72
              65
 73
               4
 40
23.760000000000002
 49
11.880000000000001
 49
-5.9400000000000004
 49
0.0
 49
-5.9400000000000004
  0
LTYPE
  2
DASHDOT2
 70
               0
  3
CADPAC FUSION LINETYPE
 72
              65
 73
               4
 40
17.82
 49
8.9100000000000001
 49
-4.4550000000000001
 49
0.0
 49
-4.4550000000000001
  0
LTYPE
  2
DIVIDEX2
 70
               0
  3
CADPAC FUSION LINETYPE
 72
              65
 73
               6
 40
37.125
 49
14.850000000000001
 49
-7.4250000000000007
 49
0.0
 49
-7.4250000000000007
 49
0.0
 49
-7.4250000000000007
  0
LTYPE
  2
DIVIDE
 70
               0
  3
CADPAC FUSION LINETYPE
 72
              65
 73
               6
 40
29.700000000000003
 49
11.880000000000001
 49
-5.9400000000000004
 49
0.0
 49
-5.9400000000000004
 49
0.0
 49
-5.9400000000000004
  0
LTYPE
  2
DIVIDE2
 70
               0
  3
CADPAC FUSION LINETYPE
 72
              65
 73
               6
 40
22.274999999999999
 49
8.9100000000000001
 49
-4.4550000000000001
 49
0.0
 49
-4.4550000000000001
 49
0.0
 49
-4.4550000000000001
  0
LTYPE
  2
BORDERX2
 70
               0
  3
CADPAC FUSION LINETYPE
 72
              65
 73
               6
 40
51.975000000000009
 49
14.850000000000001
 49
-7.4250000000000007
 49
14.850000000000001
 49
-7.4250000000000007
 49
0.0
 49
-7.4250000000000007
  0
LTYPE
  2
BORDER
 70
               0
  3
CADPAC FUSION LINETYPE
 72
              65
 73
               6
 40
41.579999999999998
 49
11.880000000000001
 49
-5.9400000000000004
 49
11.880000000000001
 49
-5.9400000000000004
 49
0.0
 49
-5.9400000000000004
  0
LTYPE
  2
BORDER2
 70
               0
  3
CADPAC FUSION LINETYPE
 72
              65
 73
               6
 40
31.185000000000002
 49
8.9100000000000001
 49
-4.4550000000000001
 49
8.9100000000000001
 49
-4.4550000000000001
 49
0.0
 49
-4.4550000000000001
  0
LTYPE
  2
PHANTOMX2
 70
               0
  3
CADPAC FUSION LINETYPE
 72
              65
 73
               6
 40
44.550000000000004
 49
14.850000000000001
 49
-5.9400000000000004
 49
5.9400000000000004
 49
-5.9400000000000004
 49
5.9400000000000004
 49
-5.9400000000000004
  0
LTYPE
  2
PHANTOM
 70
               0
  3
CADPAC FUSION LINETYPE
 72
              65
 73
               6
 40
36.828000000000003
 49
11.880000000000001
 49
-5.9400000000000004
 49
3.5640000000000001
 49
-5.9400000000000004
 49
3.5640000000000001
 49
-5.9400000000000004
  0
LTYPE
  2
PHANTOM2
 70
               0
  3
CADPAC FUSION LINETYPE
 72
              65
 73
               6
 40
31.482000000000006
 49
8.9100000000000001
 49
-5.9400000000000004
 49
2.3760000000000003
 49
-5.9400000000000004
 49
2.3760000000000003
 49
-5.9400000000000004
  0
ENDTAB
  0
TABLE
  2
LAYER
 70
             256
  0
LAYER
  2
0
 70
               0
 62
               7
  6
CONTINUOUS
  0
LAYER
  2
LAYER001
 70
               0
 62
               7
  6
CONTINUOUS
  0
LAYER
  2
LAYER002
 70
               0
 62
               7
  6
CONTINUOUS
  0
LAYER
  2
LAYER003
 70
               0
 62
               7
  6
CONTINUOUS
  0
LAYER
  2
LAYER004
 70
               0
 62
               7
  6
CONTINUOUS
  0
LAYER
  2
LAYER005
 70
               0
 62
               7
  6
CONTINUOUS
  0
LAYER
  2
LAYER006
 70
               0
 62
               7
  6
CONTINUOUS
  0
LAYER
  2
LAYER007
 70
               0
 62
               7
  6
CONTINUOUS
  0
LAYER
  2
LAYER008
 70
               0
 62
               7
  6
CONTINUOUS
  0
LAYER
  2
LAYER009
 70
               0
 62
               7
  6
CONTINUOUS
  0
LAYER
  2
LAYER010
 70
               0
 62
               7
  6
CONTINUOUS
  0
LAYER
  2
LAYER011
 70
               0
 62
               7
  6
CONTINUOUS
  0
LAYER
  2
LAYER012
 70
               0
 62
               7
  6
CONTINUOUS
  0
LAYER
  2
LAYER013
 70
               0
 62
               7
  6
CONTINUOUS
  0
LAYER
  2
LAYER014
 70
               0
 62
               7
  6
CONTINUOUS
  0
LAYER
  2
LAYER015
 70
               0
 62
               7
  6
CONTINUOUS
  0
LAYER
  2
LAYER016
 70
               0
 62
               7
  6
CONTINUOUS
  0
LAYER
  2
LAYER017
 70
               0
 62
               7
  6
CONTINUOUS
  0
LAYER
  2
LAYER018
 70
               0
 62
               7
  6
CONTINUOUS
  0
LAYER
  2
LAYER019
 70
               0
 62
               7
  6
CONTINUOUS
  0
LAYER
  2
LAYER020
 70
               0
 62
               7
  6
CONTINUOUS
  0
LAYER
  2
LAYER021
 70
               0
 62
               7
  6
CONTINUOUS
  0
LAYER
  2
LAYER022
 70
               0
 62
               7
  6
CONTINUOUS
  0
LAYER
  2
LAYER023
 70
               0
 62
               7
  6
CONTINUOUS
  0
LAYER
  2
LAYER024
 70
               0
 62
               7
  6
CONTINUOUS
  0
LAYER
  2
LAYER025
 70
               0
 62
               7
  6
CONTINUOUS
  0
LAYER
  2
LAYER026
 70
               0
 62
               7
  6
CONTINUOUS
  0
LAYER
  2
LAYER027
 70
               0
 62
               7
  6
CONTINUOUS
  0
LAYER
  2
LAYER028
 70
               0
 62
               7
  6
CONTINUOUS
  0
LAYER
  2
LAYER029
 70
               0
 62
               7
  6
CONTINUOUS
  0
LAYER
  2
LAYER030
 70
               0
 62
               7
  6
CONTINUOUS
  0
LAYER
  2
LAYER031
 70
               0
 62
               7
  6
CONTINUOUS
  0
LAYER
  2
LAYER032
 70
               0
 62
               7
  6
CONTINUOUS
  0
LAYER
  2
LAYER033
 70
               0
 62
               7
  6
CONTINUOUS
  0
LAYER
  2
LAYER034
 70
               0
 62
               7
  6
CONTINUOUS
  0
LAYER
  2
LAYER035
 70
               0
 62
               7
  6
CONTINUOUS
  0
LAYER
  2
LAYER036
 70
               0
 62
               7
  6
CONTINUOUS
  0
LAYER
  2
LAYER037
 70
               0
 62
               7
  6
CONTINUOUS
  0
LAYER
  2
LAYER038
 70
               0
 62
               7
  6
CONTINUOUS
  0
LAYER
  2
LAYER039
 70
               0
 62
               7
  6
CONTINUOUS
  0
LAYER
  2
LAYER040
 70
               0
 62
               7
  6
CONTINUOUS
  0
LAYER
  2
LAYER041
 70
               0
 62
               7
  6
CONTINUOUS
  0
LAYER
  2
LAYER042
 70
               0
 62
               7
  6
CONTINUOUS
  0
LAYER
  2
LAYER043
 70
               0
 62
               7
  6
CONTINUOUS
  0
LAYER
  2
LAYER044
 70
               0
 62
               7
  6
CONTINUOUS
  0
LAYER
  2
LAYER045
 70
               0
 62
               7
  6
CONTINUOUS
  0
LAYER
  2
LAYER046
 70
               0
 62
               7
  6
CONTINUOUS
  0
LAYER
  2
LAYER047
 70
               0
 62
               7
  6
CONTINUOUS
  0
LAYER
  2
LAYER048
 70
               0
 62
               7
  6
CONTINUOUS
  0
LAYER
  2
LAYER049
 70
               0
 62
               7
  6
CONTINUOUS
  0
LAYER
  2
LAYER050
 70
               0
 62
               7
  6
CONTINUOUS
  0
LAYER
  2
LAYER051
 70
               0
 62
               7
  6
CONTINUOUS
  0
LAYER
  2
LAYER052
 70
               0
 62
               7
  6
CONTINUOUS
  0
LAYER
  2
LAYER053
 70
               0
 62
               7
  6
CONTINUOUS
  0
LAYER
  2
LAYER054
 70
               0
 62
               7
  6
CONTINUOUS
  0
LAYER
  2
LAYER055
 70
               0
 62
               7
  6
CONTINUOUS
  0
LAYER
  2
LAYER056
 70
               0
 62
               7
  6
CONTINUOUS
  0
LAYER
  2
LAYER057
 70
               0
 62
               7
  6
CONTINUOUS
  0
LAYER
  2
LAYER058
 70
               0
 62
               7
  6
CONTINUOUS
  0
LAYER
  2
LAYER059
 70
               0
 62
               7
  6
CONTINUOUS
  0
LAYER
  2
LAYER060
 70
               0
 62
               7
  6
CONTINUOUS
  0
LAYER
  2
LAYER061
 70
               0
 62
               7
  6
CONTINUOUS
  0
LAYER
  2
LAYER062
 70
               0
 62
               7
  6
CONTINUOUS
  0
LAYER
  2
LAYER063
 70
               0
 62
               7
  6
CONTINUOUS
  0
LAYER
  2
LAYER064
 70
               0
 62
               7
  6
CONTINUOUS
  0
LAYER
  2
LAYER065
 70
               0
 62
               7
  6
CONTINUOUS
  0
LAYER
  2
LAYER066
 70
               0
 62
               7
  6
CONTINUOUS
  0
LAYER
  2
LAYER067
 70
               0
 62
               7
  6
CONTINUOUS
  0
LAYER
  2
LAYER068
 70
               0
 62
               7
  6
CONTINUOUS
  0
LAYER
  2
LAYER069
 70
               0
 62
               7
  6
CONTINUOUS
  0
LAYER
  2
LAYER070
 70
               0
 62
               7
  6
CONTINUOUS
  0
LAYER
  2
LAYER071
 70
               0
 62
               7
  6
CONTINUOUS
  0
LAYER
  2
LAYER072
 70
               0
 62
               7
  6
CONTINUOUS
  0
LAYER
  2
LAYER073
 70
               0
 62
               7
  6
CONTINUOUS
  0
LAYER
  2
LAYER074
 70
               0
 62
               7
  6
CONTINUOUS
  0
LAYER
  2
LAYER075
 70
               0
 62
               7
  6
CONTINUOUS
  0
LAYER
  2
LAYER076
 70
               0
 62
               7
  6
CONTINUOUS
  0
LAYER
  2
LAYER077
 70
               0
 62
               7
  6
CONTINUOUS
  0
LAYER
  2
LAYER078
 70
               0
 62
               7
  6
CONTINUOUS
  0
LAYER
  2
LAYER079
 70
               0
 62
               7
  6
CONTINUOUS
  0
LAYER
  2
LAYER080
 70
               0
 62
               7
  6
CONTINUOUS
  0
LAYER
  2
LAYER081
 70
               0
 62
               7
  6
CONTINUOUS
  0
LAYER
  2
LAYER082
 70
               0
 62
               7
  6
CONTINUOUS
  0
LAYER
  2
LAYER083
 70
               0
 62
               7
  6
CONTINUOUS
  0
LAYER
  2
LAYER084
 70
               0
 62
               7
  6
CONTINUOUS
  0
LAYER
  2
LAYER085
 70
               0
 62
               7
  6
CONTINUOUS
  0
LAYER
  2
LAYER086
 70
               0
 62
               7
  6
CONTINUOUS
  0
LAYER
  2
LAYER087
 70
               0
 62
               7
  6
CONTINUOUS
  0
LAYER
  2
LAYER088
 70
               0
 62
               7
  6
CONTINUOUS
  0
LAYER
  2
LAYER089
 70
               0
 62
               7
  6
CONTINUOUS
  0
LAYER
  2
LAYER090
 70
               0
 62
               7
  6
CONTINUOUS
  0
LAYER
  2
LAYER091
 70
               0
 62
               7
  6
CONTINUOUS
  0
LAYER
  2
LAYER092
 70
               0
 62
               7
  6
CONTINUOUS
  0
LAYER
  2
LAYER093
 70
               0
 62
               7
  6
CONTINUOUS
  0
LAYER
  2
LAYER094
 70
               0
 62
               7
  6
CONTINUOUS
  0
LAYER
  2
LAYER095
 70
               0
 62
               7
  6
CONTINUOUS
  0
LAYER
  2
LAYER096
 70
               0
 62
               7
  6
CONTINUOUS
  0
LAYER
  2
LAYER097
 70
               0
 62
               7
  6
CONTINUOUS
  0
LAYER
  2
LAYER098
 70
               0
 62
               7
  6
CONTINUOUS
  0
LAYER
  2
LAYER099
 70
               0
 62
               7
  6
CONTINUOUS
  0
LAYER
  2
LAYER100
 70
               0
 62
               7
  6
CONTINUOUS
  0
LAYER
  2
LAYER101
 70
               0
 62
               7
  6
CONTINUOUS
  0
LAYER
  2
LAYER102
 70
               0
 62
               7
  6
CONTINUOUS
  0
LAYER
  2
LAYER103
 70
               0
 62
               7
  6
CONTINUOUS
  0
LAYER
  2
LAYER104
 70
               0
 62
               7
  6
CONTINUOUS
  0
LAYER
  2
LAYER105
 70
               0
 62
               7
  6
CONTINUOUS
  0
LAYER
  2
LAYER106
 70
               0
 62
               7
  6
CONTINUOUS
  0
LAYER
  2
LAYER107
 70
               0
 62
               7
  6
CONTINUOUS
  0
LAYER
  2
LAYER108
 70
               0
 62
               7
  6
CONTINUOUS
  0
LAYER
  2
LAYER109
 70
               0
 62
               7
  6
CONTINUOUS
  0
LAYER
  2
LAYER110
 70
               0
 62
               7
  6
CONTINUOUS
  0
LAYER
  2
LAYER111
 70
               0
 62
               7
  6
CONTINUOUS
  0
LAYER
  2
LAYER112
 70
               0
 62
               7
  6
CONTINUOUS
  0
LAYER
  2
LAYER113
 70
               0
 62
               7
  6
CONTINUOUS
  0
LAYER
  2
LAYER114
 70
               0
 62
               7
  6
CONTINUOUS
  0
LAYER
  2
LAYER115
 70
               0
 62
               7
  6
CONTINUOUS
  0
LAYER
  2
LAYER116
 70
               0
 62
               7
  6
CONTINUOUS
  0
LAYER
  2
LAYER117
 70
               0
 62
               7
  6
CONTINUOUS
  0
LAYER
  2
LAYER118
 70
               0
 62
               7
  6
CONTINUOUS
  0
LAYER
  2
LAYER119
 70
               0
 62
               7
  6
CONTINUOUS
  0
LAYER
  2
LAYER120
 70
               0
 62
               7
  6
CONTINUOUS
  0
LAYER
  2
LAYER121
 70
               0
 62
               7
  6
CONTINUOUS
  0
LAYER
  2
LAYER122
 70
               0
 62
               7
  6
CONTINUOUS
  0
LAYER
  2
LAYER123
 70
               0
 62
               7
  6
CONTINUOUS
  0
LAYER
  2
LAYER124
 70
               0
 62
               7
  6
CONTINUOUS
  0
LAYER
  2
LAYER125
 70
               0
 62
               7
  6
CONTINUOUS
  0
LAYER
  2
LAYER126
 70
               0
 62
               7
  6
CONTINUOUS
  0
LAYER
  2
LAYER127
 70
               0
 62
               7
  6
CONTINUOUS
  0
LAYER
  2
LAYER128
 70
               0
 62
               7
  6
CONTINUOUS
  0
LAYER
  2
LAYER129
 70
               0
 62
               7
  6
CONTINUOUS
  0
LAYER
  2
LAYER130
 70
               0
 62
               7
  6
CONTINUOUS
  0
LAYER
  2
LAYER131
 70
               0
 62
               7
  6
CONTINUOUS
  0
LAYER
  2
LAYER132
 70
               0
 62
               7
  6
CONTINUOUS
  0
LAYER
  2
LAYER133
 70
               0
 62
               7
  6
CONTINUOUS
  0
LAYER
  2
LAYER134
 70
               0
 62
               7
  6
CONTINUOUS
  0
LAYER
  2
LAYER135
 70
               0
 62
               7
  6
CONTINUOUS
  0
LAYER
  2
LAYER136
 70
               0
 62
               7
  6
CONTINUOUS
  0
LAYER
  2
LAYER137
 70
               0
 62
               7
  6
CONTINUOUS
  0
LAYER
  2
LAYER138
 70
               0
 62
               7
  6
CONTINUOUS
  0
LAYER
  2
LAYER139
 70
               0
 62
               7
  6
CONTINUOUS
  0
LAYER
  2
LAYER140
 70
               0
 62
               7
  6
CONTINUOUS
  0
LAYER
  2
LAYER141
 70
               0
 62
               7
  6
CONTINUOUS
  0
LAYER
  2
LAYER142
 70
               0
 62
               7
  6
CONTINUOUS
  0
LAYER
  2
LAYER143
 70
               0
 62
               7
  6
CONTINUOUS
  0
LAYER
  2
LAYER144
 70
               0
 62
               7
  6
CONTINUOUS
  0
LAYER
  2
LAYER145
 70
               0
 62
               7
  6
CONTINUOUS
  0
LAYER
  2
LAYER146
 70
               0
 62
               7
  6
CONTINUOUS
  0
LAYER
  2
LAYER147
 70
               0
 62
               7
  6
CONTINUOUS
  0
LAYER
  2
LAYER148
 70
               0
 62
               7
  6
CONTINUOUS
  0
LAYER
  2
LAYER149
 70
               0
 62
               7
  6
CONTINUOUS
  0
LAYER
  2
LAYER150
 70
               0
 62
               7
  6
CONTINUOUS
  0
LAYER
  2
LAYER151
 70
               0
 62
               7
  6
CONTINUOUS
  0
LAYER
  2
LAYER152
 70
               0
 62
               7
  6
CONTINUOUS
  0
LAYER
  2
LAYER153
 70
               0
 62
               7
  6
CONTINUOUS
  0
LAYER
  2
LAYER154
 70
               0
 62
               7
  6
CONTINUOUS
  0
LAYER
  2
LAYER155
 70
               0
 62
               7
  6
CONTINUOUS
  0
LAYER
  2
LAYER156
 70
               0
 62
               7
  6
CONTINUOUS
  0
LAYER
  2
LAYER157
 70
               0
 62
               7
  6
CONTINUOUS
  0
LAYER
  2
LAYER158
 70
               0
 62
               7
  6
CONTINUOUS
  0
LAYER
  2
LAYER159
 70
               0
 62
               7
  6
CONTINUOUS
  0
LAYER
  2
LAYER160
 70
               0
 62
               7
  6
CONTINUOUS
  0
LAYER
  2
LAYER161
 70
               0
 62
               7
  6
CONTINUOUS
  0
LAYER
  2
LAYER162
 70
               0
 62
               7
  6
CONTINUOUS
  0
LAYER
  2
LAYER163
 70
               0
 62
               7
  6
CONTINUOUS
  0
LAYER
  2
LAYER164
 70
               0
 62
               7
  6
CONTINUOUS
  0
LAYER
  2
LAYER165
 70
               0
 62
               7
  6
CONTINUOUS
  0
LAYER
  2
LAYER166
 70
               0
 62
               7
  6
CONTINUOUS
  0
LAYER
  2
LAYER167
 70
               0
 62
               7
  6
CONTINUOUS
  0
LAYER
  2
LAYER168
 70
               0
 62
               7
  6
CONTINUOUS
  0
LAYER
  2
LAYER169
 70
               0
 62
               7
  6
CONTINUOUS
  0
LAYER
  2
LAYER170
 70
               0
 62
               7
  6
CONTINUOUS
  0
LAYER
  2
LAYER171
 70
               0
 62
               7
  6
CONTINUOUS
  0
LAYER
  2
LAYER172
 70
               0
 62
               7
  6
CONTINUOUS
  0
LAYER
  2
LAYER173
 70
               0
 62
               7
  6
CONTINUOUS
  0
LAYER
  2
LAYER174
 70
               0
 62
               7
  6
CONTINUOUS
  0
LAYER
  2
LAYER175
 70
               0
 62
               7
  6
CONTINUOUS
  0
LAYER
  2
LAYER176
 70
               0
 62
               7
  6
CONTINUOUS
  0
LAYER
  2
LAYER177
 70
               0
 62
               7
  6
CONTINUOUS
  0
LAYER
  2
LAYER178
 70
               0
 62
               7
  6
CONTINUOUS
  0
LAYER
  2
LAYER179
 70
               0
 62
               7
  6
CONTINUOUS
  0
LAYER
  2
LAYER180
 70
               0
 62
               7
  6
CONTINUOUS
  0
LAYER
  2
LAYER181
 70
               0
 62
               7
  6
CONTINUOUS
  0
LAYER
  2
LAYER182
 70
               0
 62
               7
  6
CONTINUOUS
  0
LAYER
  2
LAYER183
 70
               0
 62
               7
  6
CONTINUOUS
  0
LAYER
  2
LAYER184
 70
               0
 62
               7
  6
CONTINUOUS
  0
LAYER
  2
LAYER185
 70
               0
 62
               7
  6
CONTINUOUS
  0
LAYER
  2
LAYER186
 70
               0
 62
               7
  6
CONTINUOUS
  0
LAYER
  2
LAYER187
 70
               0
 62
               7
  6
CONTINUOUS
  0
LAYER
  2
LAYER188
 70
               0
 62
               7
  6
CONTINUOUS
  0
LAYER
  2
LAYER189
 70
               0
 62
               7
  6
CONTINUOUS
  0
LAYER
  2
LAYER190
 70
               0
 62
               7
  6
CONTINUOUS
  0
LAYER
  2
LAYER191
 70
               0
 62
               7
  6
CONTINUOUS
  0
LAYER
  2
LAYER192
 70
               0
 62
               7
  6
CONTINUOUS
  0
LAYER
  2
LAYER193
 70
               0
 62
               7
  6
CONTINUOUS
  0
LAYER
  2
LAYER194
 70
               0
 62
               7
  6
CONTINUOUS
  0
LAYER
  2
LAYER195
 70
               0
 62
               7
  6
CONTINUOUS
  0
LAYER
  2
LAYER196
 70
               0
 62
               7
  6
CONTINUOUS
  0
LAYER
  2
LAYER197
 70
               0
 62
               7
  6
CONTINUOUS
  0
LAYER
  2
LAYER198
 70
               0
 62
               7
  6
CONTINUOUS
  0
LAYER
  2
LAYER199
 70
               0
 62
               7
  6
CONTINUOUS
  0
LAYER
  2
LAYER200
 70
               0
 62
               7
  6
CONTINUOUS
  0
LAYER
  2
LAYER201
 70
               0
 62
               7
  6
CONTINUOUS
  0
LAYER
  2
LAYER202
 70
               0
 62
               7
  6
CONTINUOUS
  0
LAYER
  2
LAYER203
 70
               0
 62
               7
  6
CONTINUOUS
  0
LAYER
  2
LAYER204
 70
               0
 62
               7
  6
CONTINUOUS
  0
LAYER
  2
LAYER205
 70
               0
 62
               7
  6
CONTINUOUS
  0
LAYER
  2
LAYER206
 70
               0
 62
               7
  6
CONTINUOUS
  0
LAYER
  2
LAYER207
 70
               0
 62
               7
  6
CONTINUOUS
  0
LAYER
  2
LAYER208
 70
               0
 62
               7
  6
CONTINUOUS
  0
LAYER
  2
LAYER209
 70
               0
 62
               7
  6
CONTINUOUS
  0
LAYER
  2
LAYER210
 70
               0
 62
               7
  6
CONTINUOUS
  0
LAYER
  2
LAYER211
 70
               0
 62
               7
  6
CONTINUOUS
  0
LAYER
  2
LAYER212
 70
               0
 62
               7
  6
CONTINUOUS
  0
LAYER
  2
LAYER213
 70
               0
 62
               7
  6
CONTINUOUS
  0
LAYER
  2
LAYER214
 70
               0
 62
               7
  6
CONTINUOUS
  0
LAYER
  2
LAYER215
 70
               0
 62
               7
  6
CONTINUOUS
  0
LAYER
  2
LAYER216
 70
               0
 62
               7
  6
CONTINUOUS
  0
LAYER
  2
LAYER217
 70
               0
 62
               7
  6
CONTINUOUS
  0
LAYER
  2
LAYER218
 70
               0
 62
               7
  6
CONTINUOUS
  0
LAYER
  2
LAYER219
 70
               0
 62
               7
  6
CONTINUOUS
  0
LAYER
  2
LAYER220
 70
               0
 62
               7
  6
CONTINUOUS
  0
LAYER
  2
LAYER221
 70
               0
 62
               7
  6
CONTINUOUS
  0
LAYER
  2
LAYER222
 70
               0
 62
               7
  6
CONTINUOUS
  0
LAYER
  2
LAYER223
 70
               0
 62
               7
  6
CONTINUOUS
  0
LAYER
  2
LAYER224
 70
               0
 62
               7
  6
CONTINUOUS
  0
LAYER
  2
LAYER225
 70
               0
 62
               7
  6
CONTINUOUS
  0
LAYER
  2
LAYER226
 70
               0
 62
               7
  6
CONTINUOUS
  0
LAYER
  2
LAYER227
 70
               0
 62
               7
  6
CONTINUOUS
  0
LAYER
  2
LAYER228
 70
               0
 62
               7
  6
CONTINUOUS
  0
LAYER
  2
LAYER229
 70
               0
 62
               7
  6
CONTINUOUS
  0
LAYER
  2
LAYER230
 70
               0
 62
               7
  6
CONTINUOUS
  0
LAYER
  2
LAYER231
 70
               0
 62
               7
  6
CONTINUOUS
  0
LAYER
  2
LAYER232
 70
               0
 62
               7
  6
CONTINUOUS
  0
LAYER
  2
LAYER233
 70
               0
 62
               7
  6
CONTINUOUS
  0
LAYER
  2
LAYER234
 70
               0
 62
               7
  6
CONTINUOUS
  0
LAYER
  2
LAYER235
 70
               0
 62
               7
  6
CONTINUOUS
  0
LAYER
  2
LAYER236
 70
               0
 62
               7
  6
CONTINUOUS
  0
LAYER
  2
LAYER237
 70
               0
 62
               7
  6
CONTINUOUS
  0
LAYER
  2
LAYER238
 70
               0
 62
               7
  6
CONTINUOUS
  0
LAYER
  2
LAYER239
 70
               0
 62
               7
  6
CONTINUOUS
  0
LAYER
  2
LAYER240
 70
               0
 62
               7
  6
CONTINUOUS
  0
LAYER
  2
LAYER241
 70
               0
 62
               7
  6
CONTINUOUS
  0
LAYER
  2
LAYER242
 70
               0
 62
               7
  6
CONTINUOUS
  0
LAYER
  2
LAYER243
 70
               0
 62
               7
  6
CONTINUOUS
  0
LAYER
  2
LAYER244
 70
               0
 62
               7
  6
CONTINUOUS
  0
LAYER
  2
LAYER245
 70
               0
 62
               7
  6
CONTINUOUS
  0
LAYER
  2
LAYER246
 70
               0
 62
               7
  6
CONTINUOUS
  0
LAYER
  2
LAYER247
 70
               0
 62
               7
  6
CONTINUOUS
  0
LAYER
  2
LAYER248
 70
               0
 62
               7
  6
CONTINUOUS
  0
LAYER
  2
LAYER249
 70
               0
 62
               7
  6
CONTINUOUS
  0
LAYER
  2
LAYER250
 70
               0
 62
               7
  6
CONTINUOUS
  0
LAYER
  2
LAYER251
 70
               0
 62
               7
  6
CONTINUOUS
  0
LAYER
  2
LAYER252
 70
               0
 62
               7
  6
CONTINUOUS
  0
LAYER
  2
LAYER253
 70
               0
 62
               7
  6
CONTINUOUS
  0
LAYER
  2
LAYER254
 70
               0
 62
               7
  6
CONTINUOUS
  0
LAYER
  2
LAYER255
 70
               0
 62
               7
  6
CONTINUOUS
  0
ENDTAB
  0
TABLE
  2
STYLE
 70
               1
  0
STYLE
  2
STANDARD
 70
               0
 40
0.0
 41
1.0
 50
0.0
 71
               0
 42
0.0
  3
txt
  4

  0
ENDTAB
  0
TABLE
  2
VIEW
 70
               0
  0
VIEW
  2
QQQQ
 70
               0
 40
494.4224855803036
 10
0.0
 20
22.499994250000256
 41
254.14999999999998
 11
0.0
 21
0.0
 31
1.0
 12
100.0
 22
100.0
 32
0.0
 42
50.0
 43
0.0
 44
0.0
 50
0.0
 71
               0
  0
ENDTAB
  0
TABLE
  2
UCS
 70
               0
  0
ENDTAB
  0
TABLE
  2
APPID
 70
               1
  0
APPID
  2
ACAD
 70
               0
  0
ENDTAB
  0
TABLE
  2
DIMSTYLE
 70
               1
  0
DIMSTYLE
  2
STANDARD
 70
               0
  3

  4

  5

  6

  7

 40
1.0
 41
0.18
 42
0.0625
 43
0.38
 44
0.18
 45
0.0
 46
0.0
 47
0.0
 48
0.0
140
0.18
141
0.09
142
0.0
143
25.399999999999999
144
1.0
145
0.0
146
1.0
147
0.09
 71
               0
 72
               0
 73
               1
 74
               1
 75
               0
 76
               0
 77
               0
 78
               0
170
               0
171
               2
172
               0
173
               0
174
               0
175
               0
176
               0
177
               0
178
               0
  0
ENDTAB
  0
ENDSEC
  0
SECTION
  2
BLOCKS
  0
ENDSEC
  0
SECTION
  2
ENTITIES
  0
LINE
  8
0
  6
CONTINUOUS
 62
               7
  5
136
 10
-66.999999999999417
 20
-26.220575960544487
 30
0.0
 11
-67.499999999999417
 21
-26.720575960544487
 31
0.0
  0
LINE
  8
0
  6
CONTINUOUS
 62
               7
  5
137
 10
-67.499999999999417
 20
-31.220575960544487
 30
0.0
 11
-67.499999999999417
 21
-26.720575960544487
 31
0.0
  0
LINE
  8
0
  6
CONTINUOUS
 62
               7
  5
138
 10
-67.499999999999417
 20
-31.220575960544487
 30
0.0
 11
-66.981530356051636
 21
-31.757466993632981
 31
0.0
  0
LINE
  8
0
  6
CONTINUOUS
 62
               7
  5
139
 10
-66.944041721509606
 20
-31.785664574891818
 30
0.0
 11
-66.888748412373261
 21
-31.787595459794623
 31
0.0
  0
ARC
  8
0
  6
CONTINUOUS
 62
               7
  5
13A
 10
-66.972507204459291
 20
-34.18613344464071
 30
0.0
 40
2.3999999999999999
 50
1.999999999999301
 51
87.999999999999375
  0
LINE
  8
0
  6
CONTINUOUS
 62
               7
  5
13B
 10
-62.636105953714235
 20
-36.285664574891818
 30
0.0
 11
-62.580812644577918
 21
-36.287595459794623
 31
0.0
  0
ARC
  8
0
  6
CONTINUOUS
 62
               7
  5
13C
 10
-62.56630696030922
 20
-34.286882920853678
 30
0.0
 40
2.0
 50
182.00000000001626
 51
267.99999999999898
  0
ARC
  8
0
  6
CONTINUOUS
 62
               7
  5
13D
 10
-62.66457143666392
 20
-38.686133444640426
 30
0.0
 40
2.3999999999999999
 50
2.0000000000035389
 51
87.999999999999829
  0
LINE
  8
0
  6
CONTINUOUS
 62
               7
  5
13E
 10
-60.065088614347417
 20
-44.356681914258637
 30
0.0
 11
-60.266033451818089
 21
-38.602374652554282
 31
0.0
  0
ARC
  8
0
  6
CONTINUOUS
 62
               7
  5
13F
 10
-58.066306960309248
 20
-44.286882920853621
 30
0.0
 40
2.0
 50
182.00000000000489
 51
268.00000000000063
  0
ARC
  8
0
  6
CONTINUOUS
 62
               7
  5
140
 10
-58.022871158916359
 20
-48.791142681806512
 30
0.0
 40
2.5
 50
2.0000000000140008
 51
88.000000000011823
  0
LINE
  8
0
  6
CONTINUOUS
 62
               7
  5
141
 10
-55.002467703345573
 20
-63.649910182512592
 30
0.0
 11
-55.524394091368549
 21
-48.703893940049646
 31
0.0
  0
LINE
  8
0
  6
CONTINUOUS
 62
               7
  5
142
 10
-64.57396921961346
 20
-34.102374652554737
 30
0.0
 11
-64.565088614347403
 21
-34.356681914259262
 31
0.0
  0
LINE
  8
0
  6
CONTINUOUS
 62
               7
  5
143
 10
-36.82346437628793
 20
-81.221064948394229
 30
0.0
 11
-37.340842187708603
 21
-70.765454994627476
 31
0.0
  0
ARC
  8
0
  6
CONTINUOUS
 62
               7
  5
144
 10
-40.33750248310686
 20
-70.906972039479228
 30
0.0
 40
3.0
 50
2.7037798548738965
 51
79.93294991303938
  0
ARC
  8
0
  6
CONTINUOUS
 62
               7
  5
145
 10
-53.003686049307362
 20
-63.580111189107548
 30
0.0
 40
2.0
 50
182.00000000000077
 51
259.93294991303941
  0
ARC
  8
0
  6
CONTINUOUS
 62
               7
  5
146
 10
-0.0000000000000009
 20
131.22057596054486
 30
0.0
 40
12.76
 50
0.0
 51
179.99999979431962
  0
ARC
  8
0
  6
CONTINUOUS
 62
               7
  5
147
 10
-0.0000000000000009
 20
131.22057596054486
 30
0.0
 40
12.5
 50
0.0
 51
179.99999979431962
  0
LINE
  8
0
  6
CONTINUOUS
 62
               7
  5
148
 10
-12.460000000000038
 20
132.22057596054486
 30
0.0
 11
12.459999999999978
 21
132.22057596054486
 31
0.0
  0
ARC
  8
0
  6
CONTINUOUS
 62
               7
  5
149
 10
-0.0000000000000009
 20
131.22057596054486
 30
0.0
 40
61.499999999999915
 50
0.0
 51
179.9999999999996
  0
ARC
  8
0
  6
CONTINUOUS
 62
               7
  5
14A
 10
-0.0000000000000009
 20
131.22057596054486
 30
0.0
 40
67.499999999999375
 50
0.0
 51
179.9999999999996
  0
LINE
  8
0
  6
CONTINUOUS
 62
               7
  5
14B
 10
-58.136105953714207
 20
-46.285664574891818
 30
0.0
 11
-57.93562241716063
 21
-46.29266561425873
 31
0.0
  0
LINE
  8
0
  6
CONTINUOUS
 62
               7
  5
14C
 10
-53.353287098575606
 20
-65.549318924810052
 30
0.0
 11
-39.813100909204515
 21
-67.953160435925525
 31
0.0
  0
LINE
  8
0
  6
CONTINUOUS
 62
               7
  5
14D
 10
66.999999999999403
 20
-26.220575960544487
 30
0.0
 11
67.499999999999403
 21
-26.720575960544487
 31
0.0
  0
LINE
  8
0
  6
CONTINUOUS
 62
               7
  5
14E
 10
67.499999999999403
 20
-31.220575960544487
 30
0.0
 11
67.499999999999403
 21
-26.720575960544487
 31
0.0
  0
LINE
  8
0
  6
CONTINUOUS
 62
               7
  5
14F
 10
67.499999999999403
 20
-31.220575960544487
 30
0.0
 11
66.981530356051621
 21
-31.757466993632981
 31
0.0
  0
LINE
  8
0
  6
CONTINUOUS
 62
               7
  5
150
 10
66.944041721509592
 20
-31.785664574891818
 30
0.0
 11
66.888748412373246
 21
-31.787595459794623
 31
0.0
  0
ARC
  8
0
  6
CONTINUOUS
 62
               7
  5
151
 10
66.972507204459276
 20
-34.18613344464071
 30
0.0
 40
2.3999999999999999
 50
92.000000000000227
 51
178.00000000000031
  0
LINE
  8
0
  6
CONTINUOUS
 62
               7
  5
152
 10
62.636105953714235
 20
-36.285664574891818
 30
0.0
 11
62.580812644577918
 21
-36.287595459794623
 31
0.0
  0
ARC
  8
0
  6
CONTINUOUS
 62
               7
  5
153
 10
62.56630696030922
 20
-34.286882920853678
 30
0.0
 40
2.0
 50
271.99999999999983
 51
357.99999999998255
  0
ARC
  8
0
  6
CONTINUOUS
 62
               7
  5
154
 10
62.66457143666392
 20
-38.686133444640426
 30
0.0
 40
2.3999999999999999
 50
91.999999999999787
 51
177.99999999999605
  0
LINE
  8
0
  6
CONTINUOUS
 62
               7
  5
155
 10
60.065088614347417
 20
-44.356681914258637
 30
0.0
 11
60.266033451818089
 21
-38.602374652554282
 31
0.0
  0
ARC
  8
0
  6
CONTINUOUS
 62
               7
  5
156
 10
58.066306960309248
 20
-44.286882920853621
 30
0.0
 40
2.0
 50
271.99999999999812
 51
357.99999999999386
  0
ARC
  8
0
  6
CONTINUOUS
 62
               7
  5
157
 10
58.022871158916359
 20
-48.791142681806512
 30
0.0
 40
2.5
 50
91.999999999987793
 51
177.99999999998562
  0
LINE
  8
0
  6
CONTINUOUS
 62
               7
  5
158
 10
55.002467703345573
 20
-63.649910182512592
 30
0.0
 11
55.524394091368549
 21
-48.703893940049646
 31
0.0
  0
LINE
  8
0
  6
CONTINUOUS
 62
               7
  5
159
 10
64.573969219613446
 20
-34.102374652554737
 30
0.0
 11
64.565088614347388
 21
-34.356681914259262
 31
0.0
  0
LINE
  8
0
  6
CONTINUOUS
 62
               7
  5
15A
 10
-36.823488573007644
 20
-81.220575960544636
 30
0.0
 11
36.813109931170899
 21
-81.220575960544579
 31
0.0
  0
LINE
  8
0
  6
CONTINUOUS
 62
               7
  5
15B
 10
36.82346437628793
 20
-81.221064948394229
 30
0.0
 11
37.340842187708603
 21
-70.765454994627476
 31
0.0
  0
ARC
  8
0
  6
CONTINUOUS
 62
               7
  5
15C
 10
40.33750248310686
 20
-70.906972039479228
 30
0.0
 40
3.0
 50
100.06705008696021
 51
177.29622014512569
  0
ARC
  8
0
  6
CONTINUOUS
 62
               7
  5
15D
 10
53.003686049307362
 20
-63.580111189107548
 30
0.0
 40
2.0
 50
280.0670500869594
 51
357.99999999999801
  0
LINE
  8
0
  6
CONTINUOUS
 62
               7
  5
15E
 10
58.136105953714207
 20
-46.285664574891818
 30
0.0
 11
57.93562241716063
 21
-46.29266561425873
 31
0.0
  0
LINE
  8
0
  6
CONTINUOUS
 62
               7
  5
15F
 10
56.136105953714207
 20
-46.29266561425873
 30
0.0
 11
-56.136105953714207
 21
-46.292665614258716
 31
0.0
  0
LINE
  8
0
  6
CONTINUOUS
 62
               7
  5
160
 10
51.353287098575606
 20
-65.549318924810052
 30
0.0
 11
-51.353287098575606
 21
-65.549318924810052
 31
0.0
  0
LINE
  8
0
  6
CONTINUOUS
 62
               7
  5
161
 10
53.353287098575606
 20
-65.549318924810052
 30
0.0
 11
39.813100909204515
 21
-67.953160435925525
 31
0.0
  0
LINE
  8
0
  6
CONTINUOUS
 62
               7
  5
162
 10
37.813100909204515
 20
-67.953160435925525
 30
0.0
 11
-37.813100909204515
 21
-67.953160435925525
 31
0.0
  0
ARC
  8
0
  6
CONTINUOUS
 62
               7
  5
163
 10
-0.0000000000000009
 20
131.22057596054486
 30
0.0
 40
12.76
 50
180.00000020567958
 51
359.9999999999992
  0
ARC
  8
0
  6
CONTINUOUS
 62
               7
  5
164
 10
-0.0000000000000009
 20
131.22057596054486
 30
0.0
 40
12.5
 50
180.00000020567958
 51
359.9999999999992
  0
LINE
  8
0
  6
CONTINUOUS
 62
               7
  5
165
 10
-12.460000000000038
 20
130.22057596054486
 30
0.0
 11
12.459999999999978
 21
130.22057596054486
 31
0.0
  0
ARC
  8
0
  6
CONTINUOUS
 62
               7
  5
166
 10
-0.0000000000000009
 20
131.22057596054486
 30
0.0
 40
61.499999999999915
 50
179.9999999999996
 51
359.9999999999992
  0
ARC
  8
0
  6
CONTINUOUS
 62
               7
  5
167
 10
-0.0000000000000009
 20
131.22057596054486
 30
0.0
 40
67.499999999999375
 50
179.9999999999996
 51
359.9999999999992
  0
CIRCLE
  8
0
  6
CONTINUOUS
 62
               7
  5
168
 10
-0.0000000000000003
 20
131.22057596054486
 30
0.0
 40
105.0
  0
CIRCLE
  8
0
  6
CONTINUOUS
 62
               7
  5
169
 10
-0.0000000000000009
 20
131.22057596054486
 30
0.0
 40
98.5
  0
CIRCLE
  8
0
  6
CONTINUOUS
 62
               7
  5
16A
 10
-0.000000000000008
 20
131.22057596054486
 30
0.0
 40
83.5
  0
LINE
  8
0
  6
CONTINUOUS
 62
               7
  5
16B
 10
-39.099329936079386
 20
-189.32525937303024
 30
0.0
 11
-40.558457216405969
 21
-161.48345229232552
 31
0.0
  0
LINE
  8
0
  6
CONTINUOUS
 62
               7
  5
16C
 10
-105.00000000000001
 20
-137.22058746054438
 30
0.0
 11
-105.00000000000001
 21
-142.22058746054438
 31
0.0
  0
LINE
  8
0
  6
CONTINUOUS
 62
               7
  5
16D
 10
-104.00000000000001
 20
-143.22058746054438
 30
0.0
 11
-98.500000000000014
 21
-143.22058746054438
 31
0.0
  0
LINE
  8
0
  6
CONTINUOUS
 62
               7
  5
16E
 10
-98.500000000000014
 20
-143.22058746054438
 30
0.0
 11
-83.500000000000014
 21
-151.88084149838878
 31
0.0
  0
LINE
  8
0
  6
CONTINUOUS
 62
               7
  5
16F
 10
-83.500000000000014
 20
-151.88084149838878
 30
0.0
 11
-45.923063645327517
 21
-155.83033665757361
 31
0.0
  0
ARC
  8
0
  6
CONTINUOUS
 62
               7
  5
170
 10
-37.102070866570244
 20
-189.22058746054438
 30
0.0
 40
2.0
 50
182.99999999999866
 51
269.99999999999937
  0
ARC
  8
0
  6
CONTINUOUS
 62
               7
  5
171
 10
-46.550234424933421
 20
-161.7974680297832
 30
0.0
 40
6.0
 50
3.0000000000001568
 51
83.999999999999844
  0
LINE
  8
0
  6
CONTINUOUS
 62
               7
  5
172
 10
-105.00000000000001
 20
-142.22058746054438
 30
0.0
 11
-104.00000000000001
 21
-143.22058746054438
 31
0.0
  0
LINE
  8
0
  6
CONTINUOUS
 62
               7
  5
173
 10
-37.102070866570244
 20
-191.22058746054438
 30
0.0
 11
37.102070866570216
 21
-191.22058746054438
 31
0.0
  0
LINE
  8
0
  6
CONTINUOUS
 62
               7
  5
174
 10
39.099329936079386
 20
-189.32525937303024
 30
0.0
 11
40.558457216405969
 21
-161.48345229232552
 31
0.0
  0
LINE
  8
0
  6
CONTINUOUS
 62
               7
  5
175
 10
104.99999999999999
 20
-137.22058746054438
 30
0.0
 11
104.99999999999999
 21
-142.22058746054438
 31
0.0
  0
LINE
  8
0
  6
CONTINUOUS
 62
               7
  5
176
 10
103.99999999999999
 20
-143.22058746054438
 30
0.0
 11
98.499999999999986
 21
-143.22058746054438
 31
0.0
  0
LINE
  8
0
  6
CONTINUOUS
 62
               7
  5
177
 10
98.499999999999986
 20
-143.22058746054438
 30
0.0
 11
83.499999999999986
 21
-151.88084149838878
 31
0.0
  0
LINE
  8
0
  6
CONTINUOUS
 62
               7
  5
178
 10
83.499999999999986
 20
-151.88084149838878
 30
0.0
 11
45.923063645327488
 21
-155.83033665757361
 31
0.0
  0
ARC
  8
0
  6
CONTINUOUS
 62
               7
  5
179
 10
37.102070866570216
 20
-189.22058746054438
 30
0.0
 40
2.0
 50
269.99999999999937
 51
357.00000000000011
  0
ARC
  8
0
  6
CONTINUOUS
 62
               7
  5
17A
 10
46.550234424933421
 20
-161.7974680297832
 30
0.0
 40
6.0
 50
95.999999999999758
 51
176.99999999999946
  0
LINE
  8
0
  6
CONTINUOUS
 62
               7
  5
17B
 10
104.99999999999999
 20
-142.22058746054438
 30
0.0
 11
103.99999999999999
 21
-143.22058746054438
 31
0.0
  0
LINE
  8
0
  6
CONTINUOUS
 62
               7
  5
17C
 10
83.499999999999986
 20
-151.88084149838878
 30
0.0
 11
-83.500000000000014
 21
-151.88084149838878
 31
0.0
  0
LINE
  8
0
  6
CONTINUOUS
 62
               7
  5
17D
 10
40.826651992700818
 20
-156.36599110692202
 30
0.0
 11
-40.826651992700846
 21
-156.36599110692202
 31
0.0
  0
ARC
  8
0
  6
CONTINUOUS
 62
               7
  5
17E
 10
-104.00000000000001
 20
-137.22058746054438
 30
0.0
 40
1.0
 50
89.999999999999801
 51
179.9999999999996
  0
ARC
  8
0
  6
CONTINUOUS
 62
               7
  5
17F
 10
103.99999999999999
 20
-137.22058746054438
 30
0.0
 40
1.0
 50
0.0
 51
89.999999999999801
  0
LINE
  8
0
  6
CONTINUOUS
 62
               7
  5
180
 10
-59.00000000617554
 20
-131.22058741024873
 30
0.0
 11
-58.386077195485498
 21
-136.22058746054438
 31
0.0
  0
LINE
  8
0
  6
CONTINUOUS
 62
               7
  5
181
 10
59.000000006175526
 20
-131.22058741024873
 30
0.0
 11
58.386077195485484
 21
-136.22058746054438
 31
0.0
  0
LINE
  8
0
  6
CONTINUOUS
 62
               7
  5
182
 10
60.636105953714235
 20
-36.285664574891818
 30
0.0
 11
-60.636105953714235
 21
-36.285664574891804
 31
0.0
  0
LINE
  8
0
  6
CONTINUOUS
 62
               7
  5
183
 10
66.888748412373246
 20
-31.787595459794623
 30
0.0
 11
-66.888748412381034
 21
-31.787595459794609
 31
0.0
  0
LINE
  8
0
  6
CONTINUOUS
 62
               7
  5
184
 10
67.499999999999403
 20
-31.220575960544487
 30
0.0
 11
-67.499999999999417
 21
-31.220575960544473
 31
0.0
  0
LINE
  8
0
  6
CONTINUOUS
 62
               7
  5
185
 10
-67.000000000000185
 20
-26.220575960545254
 30
0.0
 11
66.999999999999403
 21
-26.220575960544487
 31
0.0
  0
LINE
  8
0
  6
CONTINUOUS
 62
               7
  5
186
 10
67.499999999999403
 20
-26.720575960544487
 30
0.0
 11
-67.499999999999417
 21
-26.720575960544473
 31
0.0
  0
LINE
  8
0
  6
CONTINUOUS
 62
               7
  5
187
 10
-59.000000000000007
 20
-131.22058746054438
 30
0.0
 11
59.0
 21
-131.22058746054438
 31
0.0
  0
LINE
  8
0
  6
CONTINUOUS
 62
               7
  5
188
 10
-104.00000000000001
 20
-136.22058746054438
 30
0.0
 11
103.99999999999999
 21
-136.22058746054438
 31
0.0
  0
LINE
  8
0
  6
CONTINUOUS
 62
               7
  5
189
 10
98.499999999999986
 20
-143.22058746054438
 30
0.0
 11
-104.00000000000003
 21
-143.22058746054438
 31
0.0
  0
LINE
  8
0
  6
CONTINUOUS
 62
               7
  5
18A
 10
104.99999999999999
 20
-142.22058746054438
 30
0.0
 11
-105.00000000000003
 21
-142.22058746054438
 31
0.0
  0
LINE
  8
0
  6
DASHDOT
 62
               7
  5
18B
 10
-0.0000000000000003
 20
-16.22057596054487
 30
0.0
 11
-0.0000000000000003
 21
-201.22058746054438
 31
0.0
  0
LINE
  8
0
  6
DASHDOT
 62
               7
  5
18C
 10
0.0000000000000003
 20
16.22057596054487
 30
0.0
 11
0.0000000000000003
 21
246.22057596054486
 31
0.0
  0
LINE
  8
0
  6
DASHDOT
 62
               7
  5
18D
 10
-115.0
 20
131.22057596054486
 30
0.0
 11
115.0
 21
131.22057596054486
 31
0.0
  0
LINE
  8
LAYER001
  6
CONTINUOUS
 62
               7
  5
18E
 10
-30.25
 20
-81.220575960544579
 30
0.0
 11
-30.25
 21
-131.22058746054438
 31
0.0
  0
LINE
  8
LAYER001
  6
CONTINUOUS
 62
               7
  5
18F
 10
30.25
 20
-81.220575960544579
 30
0.0
 11
30.25
 21
-131.22058746054438
 31
0.0
  0
ENDSEC
  0
EOF
