  0
SECTION
  2
HEADER
  9
$ACADVER
  1
AC1009
  9
$INSBASE
 10
0.0
 20
0.0
 30
0.0
  9
$EXTMIN
 10
-297.1375930521092
 20
-359.89508684863523
 30
0.0
  9
$EXTMAX
 10
295.66240694789082
 20
458.58491315136484
 30
0.0
  9
$LIMMIN
 10
-315.66259305210917
 20
-385.47258684863522
  9
$LIMMAX
 10
314.18740694789079
 20
484.16241315136483
  9
$ORTHOMODE
 70
               0
  9
$REGENMODE
 70
               1
  9
$FILLMODE
 70
               1
  9
$QTEXTMODE
 70
               0
  9
$MIRRTEXT
 70
               1
  9
$DRAGMODE
 70
               2
  9
$LTSCALE
 40
1.0
  9
$OSMODE
 70
               0
  9
$ATTMODE
 70
               1
  9
$TEXTSIZE
 40
0.2
  9
$TRACEWID
 40
0.05
  9
$TEXTSTYLE
  7
STANDARD
  9
$CLAYER
  8
0
  9
$CELTYPE
  6
CONTINUOUS
  9
$CECOLOR
 62
             256
  9
$DIMSCALE
 40
1.0
  9
$DIMASZ
 40
0.18
  9
$DIMEXO
 40
0.0625
  9
$DIMDLI
 40
0.38
  9
$DIMRND
 40
0.0
  9
$DIMDLE
 40
0.0
  9
$DIMEXE
 40
0.18
  9
$DIMTP
 40
0.0
  9
$DIMTM
 40
0.0
  9
$DIMTXT
 40
0.18
  9
$DIMCEN
 40
0.09
  9
$DIMTSZ
 40
0.0
  9
$DIMTOL
 70
               0
  9
$DIMLIM
 70
               0
  9
$DIMTIH
 70
               1
  9
$DIMTOH
 70
               1
  9
$DIMSE1
 70
               0
  9
$DIMSE2
 70
               0
  9
$DIMTAD
 70
               0
  9
$DIMZIN
 70
               0
  9
$DIMBLK
  1

  9
$DIMASO
 70
               1
  9
$DIMSHO
 70
               1
  9
$DIMPOST
  1

  9
$DIMAPOST
  1

  9
$DIMALT
 70
               0
  9
$DIMALTD
 70
               2
  9
$DIMALTF
 40
25.399999999999999
  9
$DIMLFAC
 40
1.0
  9
$DIMTOFL
 70
               0
  9
$DIMTVP
 40
0.0
  9
$DIMTIX
 70
               0
  9
$DIMSOXD
 70
               0
  9
$DIMSAH
 70
               0
  9
$DIMBLK1
  1

  9
$DIMBLK2
  1

  9
$DIMSTYLE
  2
STANDARD
  9
$DIMCLRD
 70
               0
  9
$DIMCLRE
 70
               0
  9
$DIMCLRT
 70
               0
  9
$DIMTFAC
 40
1.0
  9
$DIMGAP
 40
0.09
  9
$LUNITS
 70
               2
  9
$LUPREC
 70
               4
  9
$AXISMODE
 70
               0
  9
$AXISUNIT
 10
0.0
 20
0.0
  9
$SKETCHINC
 40
0.1
  9
$FILLETRAD
 40
0.0
  9
$AUNITS
 70
               0
  9
$AUPREC
 70
               0
  9
$MENU
  1
acad
  9
$ELEVATION
 40
0.0
  9
$PELEVATION
 40
0.0
  9
$THICKNESS
 40
0.0
  9
$LIMCHECK
 70
               0
  9
$BLIPMODE
 70
               1
  9
$CHAMFERA
 40
0.0
  9
$CHAMFERB
 40
0.0
  9
$SKPOLY
 70
               0
  9
$TDCREATE
 40
0.000000000
  9
$TDUPDATE
 40
0.000000000
  9
$TDINDWG
 40
0.0000000000
  9
$TDUSRTIMER
 40
0.0000000000
  9
$USRTIMER
 70
               1
  9
$ANGBASE
 50
0.0
  9
$ANGDIR
 70
               0
  9
$PDMODE
 70
               0
  9
$PDSIZE
 40
1.0
  9
$PLINEWID
 40
0.0
  9
$COORDS
 70
               1
  9
$SPLFRAME
 70
               0
  9
$SPLINETYPE
 70
               6
  9
$SPLINESEGS
 70
               8
  9
$ATTDIA
 70
               0
  9
$ATTREQ
 70
               1
  9
$HANDLING
 70
               1
  9
$HANDSEED
  5
4BA
  9
$SURFTAB1
 70
               6
  9
$SURFTAB2
 70
               6
  9
$SURFTYPE
 70
               6
  9
$SURFU
 70
               6
  9
$SURFV
 70
               6
  9
$UCSNAME
  2

  9
$UCSORG
 10
0.0
 20
0.0
 30
0.0
  9
$UCSXDIR
 10
1.0
 20
0.0
 30
0.0
  9
$UCSYDIR
 10
0.0
 20
1.0
 30
0.0
  9
$PUCSNAME
  2

  9
$PUCSORG
 10
0.0
 20
0.0
 30
0.0
  9
$PUCSXDIR
 10
1.0
 20
0.0
 30
0.0
  9
$PUCSYDIR
 10
0.0
 20
1.0
 30
0.0
  9
$USERI1
 70
               0
  9
$USERI2
 70
               0
  9
$USERI3
 70
               0
  9
$USERI4
 70
               0
  9
$USERI5
 70
               0
  9
$USERR1
 40
0.0
  9
$USERR2
 40
0.0
  9
$USERR3
 40
0.0
  9
$USERR4
 40
0.0
  9
$USERR5
 40
0.0
  9
$WORLDVIEW
 70
               1
  9
$SHADEDGE
 70
               3
  9
$SHADEDIF
 70
              70
  9
$TILEMODE
 70
               1
  9
$MAXACTVP
 70
              16
  9
$PINSBASE
 10
0.0
 20
0.0
 30
0.0
  9
$PLIMCHECK
 70
               0
  9
$PEXTMIN
 10
1.0000000000000000E+20
 20
1.0000000000000000E+20
 30
1.0000000000000000E+20
  9
$PEXTMAX
 10
-1.0000000000000000E+20
 20
-1.0000000000000000E+20
 30
-1.0000000000000000E+20
  9
$PLIMMIN
 10
0.0
 20
0.0
  9
$PLIMMAX
 10
12.0
 20
9.0
  9
$UNITMODE
 70
               0
  9
$VISRETAIN
 70
               0
  9
$PLINEGEN
 70
               1
  9
$PSLTSCALE
 70
               0
  9
$TREEDEPTH
 70
            3020
  9
$DWGCODEPAGE
  3
dos932
  0
ENDSEC
  0
SECTION
  2
TABLES
  0
TABLE
  2
VPORT
 70
               1
  0
VPORT
  2
*ACTIVE
 70
               0
 10
0.0
 20
0.0
 11
1.0
 21
1.0
 12
-0.7375930521091902
 22
49.344913151364807
 13
0.0
 23
0.0
 14
1.0
 24
1.0
 15
0.0
 25
0.0
 16
0.0
 26
0.0
 36
1.0
 17
0.0
 27
0.0
 37
0.0
 40
869.63499999999999
 41
0.724269377382465
 42
50.0
 43
0.0
 44
0.0
 50
0.0
 51
0.0
 71
               0
 72
             100
 73
               1
 74
               1
 75
               0
 76
               0
 77
               0
 78
               0
  0
ENDTAB
  0
TABLE
  2
LTYPE
 70
              26
  0
LTYPE
  2
CONTINUOUS
 70
               0
  3
Solid line
 72
              65
 73
               0
 40
0.0
  0
LTYPE
  2
HIDDENX2
 70
               0
  3
CADPAC FUSION LINETYPE
 72
              65
 73
               2
 40
47.560000000000002
 49
35.670000000000002
 49
-11.890000000000001
  0
LTYPE
  2
HIDDEN
 70
               0
  3
CADPAC FUSION LINETYPE
 72
              65
 73
               2
 40
35.670000000000002
 49
23.780000000000001
 49
-11.890000000000001
  0
LTYPE
  2
HIDDEN2
 70
               0
  3
CADPAC FUSION LINETYPE
 72
              65
 73
               2
 40
29.725000000000001
 49
17.835000000000001
 49
-11.890000000000001
  0
LTYPE
  2
DASHED
 70
               0
  3
CADPAC FUSION LINETYPE
 72
              65
 73
               2
 40
35.670000000000002
 49
23.780000000000001
 49
-11.890000000000001
  0
LTYPE
  2
DASHED2
 70
               0
  3
CADPAC FUSION LINETYPE
 72
              65
 73
               2
 40
26.752500000000001
 49
17.835000000000001
 49
-8.9175000000000004
  0
LTYPE
  2
DASHEDX2
 70
               0
  3
CADPAC FUSION LINETYPE
 72
              65
 73
               2
 40
53.505000000000003
 49
35.670000000000002
 49
-17.835000000000001
  0
LTYPE
  2
DOTX2
 70
               0
  3
CADPAC FUSION LINETYPE
 72
              65
 73
               2
 40
14.862500000000001
 49
0.0
 49
-14.862500000000001
  0
LTYPE
  2
DOT
 70
               0
  3
CADPAC FUSION LINETYPE
 72
              65
 73
               2
 40
11.890000000000001
 49
0.0
 49
-11.890000000000001
  0
LTYPE
  2
DOTS
 70
               0
  3
CADPAC FUSION LINETYPE
 72
              65
 73
               2
 40
11.890000000000001
 49
0.0
 49
-11.890000000000001
  0
LTYPE
  2
DOT2
 70
               0
  3
CADPAC FUSION LINETYPE
 72
              65
 73
               2
 40
8.9175000000000004
 49
0.0
 49
-8.9175000000000004
  0
LTYPE
  2
CENTERX2
 70
               0
  3
CADPAC FUSION LINETYPE
 72
              65
 73
               4
 40
71.340000000000003
 49
29.725000000000001
 49
-14.862500000000001
 49
11.890000000000001
 49
-14.862500000000001
  0
LTYPE
  2
CENTER
 70
               0
  3
CADPAC FUSION LINETYPE
 72
              65
 73
               4
 40
54.694000000000003
 49
23.780000000000001
 49
-11.890000000000001
 49
7.1340000000000003
 49
-11.890000000000001
  0
LTYPE
  2
CENTER2
 70
               0
  3
CADPAC FUSION LINETYPE
 72
              65
 73
               4
 40
38.048000000000002
 49
17.835000000000001
 49
-8.9175000000000004
 49
2.3780000000000001
 49
-8.9175000000000004
  0
LTYPE
  2
DASHDOTX2
 70
               0
  3
CADPAC FUSION LINETYPE
 72
              65
 73
               4
 40
59.450000000000003
 49
29.725000000000001
 49
-14.862500000000001
 49
0.0
 49
-14.862500000000001
  0
LTYPE
  2
DASHDOT
 70
               0
  3
CADPAC FUSION LINETYPE
 72
              65
 73
               4
 40
47.560000000000002
 49
23.780000000000001
 49
-11.890000000000001
 49
0.0
 49
-11.890000000000001
  0
LTYPE
  2
DASHDOT2
 70
               0
  3
CADPAC FUSION LINETYPE
 72
              65
 73
               4
 40
35.670000000000002
 49
17.835000000000001
 49
-8.9175000000000004
 49
0.0
 49
-8.9175000000000004
  0
LTYPE
  2
DIVIDEX2
 70
               0
  3
CADPAC FUSION LINETYPE
 72
              65
 73
               6
 40
74.3125
 49
29.725000000000001
 49
-14.862500000000001
 49
0.0
 49
-14.862500000000001
 49
0.0
 49
-14.862500000000001
  0
LTYPE
  2
DIVIDE
 70
               0
  3
CADPAC FUSION LINETYPE
 72
              65
 73
               6
 40
59.450000000000003
 49
23.780000000000001
 49
-11.890000000000001
 49
0.0
 49
-11.890000000000001
 49
0.0
 49
-11.890000000000001
  0
LTYPE
  2
DIVIDE2
 70
               0
  3
CADPAC FUSION LINETYPE
 72
              65
 73
               6
 40
44.587500000000006
 49
17.835000000000001
 49
-8.9175000000000004
 49
0.0
 49
-8.9175000000000004
 49
0.0
 49
-8.9175000000000004
  0
LTYPE
  2
BORDERX2
 70
               0
  3
CADPAC FUSION LINETYPE
 72
              65
 73
               6
 40
104.03750000000001
 49
29.725000000000001
 49
-14.862500000000001
 49
29.725000000000001
 49
-14.862500000000001
 49
0.0
 49
-14.862500000000001
  0
LTYPE
  2
BORDER
 70
               0
  3
CADPAC FUSION LINETYPE
 72
              65
 73
               6
 40
83.230000000000004
 49
23.780000000000001
 49
-11.890000000000001
 49
23.780000000000001
 49
-11.890000000000001
 49
0.0
 49
-11.890000000000001
  0
LTYPE
  2
BORDER2
 70
               0
  3
CADPAC FUSION LINETYPE
 72
              65
 73
               6
 40
62.422499999999999
 49
17.835000000000001
 49
-8.9175000000000004
 49
17.835000000000001
 49
-8.9175000000000004
 49
0.0
 49
-8.9175000000000004
  0
LTYPE
  2
PHANTOMX2
 70
               0
  3
CADPAC FUSION LINETYPE
 72
              65
 73
               6
 40
89.175000000000011
 49
29.725000000000001
 49
-11.890000000000001
 49
11.890000000000001
 49
-11.890000000000001
 49
11.890000000000001
 49
-11.890000000000001
  0
LTYPE
  2
PHANTOM
 70
               0
  3
CADPAC FUSION LINETYPE
 72
              65
 73
               6
 40
73.718000000000004
 49
23.780000000000001
 49
-11.890000000000001
 49
7.1340000000000003
 49
-11.890000000000001
 49
7.1340000000000003
 49
-11.890000000000001
  0
LTYPE
  2
PHANTOM2
 70
               0
  3
CADPAC FUSION LINETYPE
 72
              65
 73
               6
 40
63.017000000000003
 49
17.835000000000001
 49
-11.890000000000001
 49
4.7560000000000002
 49
-11.890000000000001
 49
4.7560000000000002
 49
-11.890000000000001
  0
ENDTAB
  0
TABLE
  2
LAYER
 70
             256
  0
LAYER
  2
0
 70
               0
 62
               7
  6
CONTINUOUS
  0
LAYER
  2
LAYER001
 70
               0
 62
               7
  6
CONTINUOUS
  0
LAYER
  2
LAYER002
 70
               0
 62
               7
  6
CONTINUOUS
  0
LAYER
  2
LAYER003
 70
               0
 62
               7
  6
CONTINUOUS
  0
LAYER
  2
LAYER004
 70
               0
 62
               7
  6
CONTINUOUS
  0
LAYER
  2
LAYER005
 70
               0
 62
               7
  6
CONTINUOUS
  0
LAYER
  2
LAYER006
 70
               0
 62
               7
  6
CONTINUOUS
  0
LAYER
  2
LAYER007
 70
               0
 62
               7
  6
CONTINUOUS
  0
LAYER
  2
LAYER008
 70
               0
 62
               7
  6
CONTINUOUS
  0
LAYER
  2
LAYER009
 70
               0
 62
               7
  6
CONTINUOUS
  0
LAYER
  2
LAYER010
 70
               0
 62
               7
  6
CONTINUOUS
  0
LAYER
  2
LAYER011
 70
               0
 62
               7
  6
CONTINUOUS
  0
LAYER
  2
LAYER012
 70
               0
 62
               7
  6
CONTINUOUS
  0
LAYER
  2
LAYER013
 70
               0
 62
               7
  6
CONTINUOUS
  0
LAYER
  2
LAYER014
 70
               0
 62
               7
  6
CONTINUOUS
  0
LAYER
  2
LAYER015
 70
               0
 62
               7
  6
CONTINUOUS
  0
LAYER
  2
LAYER016
 70
               0
 62
               7
  6
CONTINUOUS
  0
LAYER
  2
LAYER017
 70
               0
 62
               7
  6
CONTINUOUS
  0
LAYER
  2
LAYER018
 70
               0
 62
               7
  6
CONTINUOUS
  0
LAYER
  2
LAYER019
 70
               0
 62
               7
  6
CONTINUOUS
  0
LAYER
  2
LAYER020
 70
               0
 62
               7
  6
CONTINUOUS
  0
LAYER
  2
LAYER021
 70
               0
 62
               7
  6
CONTINUOUS
  0
LAYER
  2
LAYER022
 70
               0
 62
               7
  6
CONTINUOUS
  0
LAYER
  2
LAYER023
 70
               0
 62
               7
  6
CONTINUOUS
  0
LAYER
  2
LAYER024
 70
               0
 62
               7
  6
CONTINUOUS
  0
LAYER
  2
LAYER025
 70
               0
 62
               7
  6
CONTINUOUS
  0
LAYER
  2
LAYER026
 70
               0
 62
               7
  6
CONTINUOUS
  0
LAYER
  2
LAYER027
 70
               0
 62
               7
  6
CONTINUOUS
  0
LAYER
  2
LAYER028
 70
               0
 62
               7
  6
CONTINUOUS
  0
LAYER
  2
LAYER029
 70
               0
 62
               7
  6
CONTINUOUS
  0
LAYER
  2
LAYER030
 70
               0
 62
               7
  6
CONTINUOUS
  0
LAYER
  2
LAYER031
 70
               0
 62
               7
  6
CONTINUOUS
  0
LAYER
  2
LAYER032
 70
               0
 62
               7
  6
CONTINUOUS
  0
LAYER
  2
LAYER033
 70
               0
 62
               7
  6
CONTINUOUS
  0
LAYER
  2
LAYER034
 70
               0
 62
               7
  6
CONTINUOUS
  0
LAYER
  2
LAYER035
 70
               0
 62
               7
  6
CONTINUOUS
  0
LAYER
  2
LAYER036
 70
               0
 62
               7
  6
CONTINUOUS
  0
LAYER
  2
LAYER037
 70
               0
 62
               7
  6
CONTINUOUS
  0
LAYER
  2
LAYER038
 70
               0
 62
               7
  6
CONTINUOUS
  0
LAYER
  2
LAYER039
 70
               0
 62
               7
  6
CONTINUOUS
  0
LAYER
  2
LAYER040
 70
               0
 62
               7
  6
CONTINUOUS
  0
LAYER
  2
LAYER041
 70
               0
 62
               7
  6
CONTINUOUS
  0
LAYER
  2
LAYER042
 70
               0
 62
               7
  6
CONTINUOUS
  0
LAYER
  2
LAYER043
 70
               0
 62
               7
  6
CONTINUOUS
  0
LAYER
  2
LAYER044
 70
               0
 62
               7
  6
CONTINUOUS
  0
LAYER
  2
LAYER045
 70
               0
 62
               7
  6
CONTINUOUS
  0
LAYER
  2
LAYER046
 70
               0
 62
               7
  6
CONTINUOUS
  0
LAYER
  2
LAYER047
 70
               0
 62
               7
  6
CONTINUOUS
  0
LAYER
  2
LAYER048
 70
               0
 62
               7
  6
CONTINUOUS
  0
LAYER
  2
LAYER049
 70
               0
 62
               7
  6
CONTINUOUS
  0
LAYER
  2
LAYER050
 70
               0
 62
               7
  6
CONTINUOUS
  0
LAYER
  2
LAYER051
 70
               0
 62
               7
  6
CONTINUOUS
  0
LAYER
  2
LAYER052
 70
               0
 62
               7
  6
CONTINUOUS
  0
LAYER
  2
LAYER053
 70
               0
 62
               7
  6
CONTINUOUS
  0
LAYER
  2
LAYER054
 70
               0
 62
               7
  6
CONTINUOUS
  0
LAYER
  2
LAYER055
 70
               0
 62
               7
  6
CONTINUOUS
  0
LAYER
  2
LAYER056
 70
               0
 62
               7
  6
CONTINUOUS
  0
LAYER
  2
LAYER057
 70
               0
 62
               7
  6
CONTINUOUS
  0
LAYER
  2
LAYER058
 70
               0
 62
               7
  6
CONTINUOUS
  0
LAYER
  2
LAYER059
 70
               0
 62
               7
  6
CONTINUOUS
  0
LAYER
  2
LAYER060
 70
               0
 62
               7
  6
CONTINUOUS
  0
LAYER
  2
LAYER061
 70
               0
 62
               7
  6
CONTINUOUS
  0
LAYER
  2
LAYER062
 70
               0
 62
               7
  6
CONTINUOUS
  0
LAYER
  2
LAYER063
 70
               0
 62
               7
  6
CONTINUOUS
  0
LAYER
  2
LAYER064
 70
               0
 62
               7
  6
CONTINUOUS
  0
LAYER
  2
LAYER065
 70
               0
 62
               7
  6
CONTINUOUS
  0
LAYER
  2
LAYER066
 70
               0
 62
               7
  6
CONTINUOUS
  0
LAYER
  2
LAYER067
 70
               0
 62
               7
  6
CONTINUOUS
  0
LAYER
  2
LAYER068
 70
               0
 62
               7
  6
CONTINUOUS
  0
LAYER
  2
LAYER069
 70
               0
 62
               7
  6
CONTINUOUS
  0
LAYER
  2
LAYER070
 70
               0
 62
               7
  6
CONTINUOUS
  0
LAYER
  2
LAYER071
 70
               0
 62
               7
  6
CONTINUOUS
  0
LAYER
  2
LAYER072
 70
               0
 62
               7
  6
CONTINUOUS
  0
LAYER
  2
LAYER073
 70
               0
 62
               7
  6
CONTINUOUS
  0
LAYER
  2
LAYER074
 70
               0
 62
               7
  6
CONTINUOUS
  0
LAYER
  2
LAYER075
 70
               0
 62
               7
  6
CONTINUOUS
  0
LAYER
  2
LAYER076
 70
               0
 62
               7
  6
CONTINUOUS
  0
LAYER
  2
LAYER077
 70
               0
 62
               7
  6
CONTINUOUS
  0
LAYER
  2
LAYER078
 70
               0
 62
               7
  6
CONTINUOUS
  0
LAYER
  2
LAYER079
 70
               0
 62
               7
  6
CONTINUOUS
  0
LAYER
  2
LAYER080
 70
               0
 62
               7
  6
CONTINUOUS
  0
LAYER
  2
LAYER081
 70
               0
 62
               7
  6
CONTINUOUS
  0
LAYER
  2
LAYER082
 70
               0
 62
               7
  6
CONTINUOUS
  0
LAYER
  2
LAYER083
 70
               0
 62
               7
  6
CONTINUOUS
  0
LAYER
  2
LAYER084
 70
               0
 62
               7
  6
CONTINUOUS
  0
LAYER
  2
LAYER085
 70
               0
 62
               7
  6
CONTINUOUS
  0
LAYER
  2
LAYER086
 70
               0
 62
               7
  6
CONTINUOUS
  0
LAYER
  2
LAYER087
 70
               0
 62
               7
  6
CONTINUOUS
  0
LAYER
  2
LAYER088
 70
               0
 62
               7
  6
CONTINUOUS
  0
LAYER
  2
LAYER089
 70
               0
 62
               7
  6
CONTINUOUS
  0
LAYER
  2
LAYER090
 70
               0
 62
               7
  6
CONTINUOUS
  0
LAYER
  2
LAYER091
 70
               0
 62
               7
  6
CONTINUOUS
  0
LAYER
  2
LAYER092
 70
               0
 62
               7
  6
CONTINUOUS
  0
LAYER
  2
LAYER093
 70
               0
 62
               7
  6
CONTINUOUS
  0
LAYER
  2
LAYER094
 70
               0
 62
               7
  6
CONTINUOUS
  0
LAYER
  2
LAYER095
 70
               0
 62
               7
  6
CONTINUOUS
  0
LAYER
  2
LAYER096
 70
               0
 62
               7
  6
CONTINUOUS
  0
LAYER
  2
LAYER097
 70
               0
 62
               7
  6
CONTINUOUS
  0
LAYER
  2
LAYER098
 70
               0
 62
               7
  6
CONTINUOUS
  0
LAYER
  2
LAYER099
 70
               0
 62
               7
  6
CONTINUOUS
  0
LAYER
  2
LAYER100
 70
               0
 62
               7
  6
CONTINUOUS
  0
LAYER
  2
LAYER101
 70
               0
 62
               7
  6
CONTINUOUS
  0
LAYER
  2
LAYER102
 70
               0
 62
               7
  6
CONTINUOUS
  0
LAYER
  2
LAYER103
 70
               0
 62
               7
  6
CONTINUOUS
  0
LAYER
  2
LAYER104
 70
               0
 62
               7
  6
CONTINUOUS
  0
LAYER
  2
LAYER105
 70
               0
 62
               7
  6
CONTINUOUS
  0
LAYER
  2
LAYER106
 70
               0
 62
               7
  6
CONTINUOUS
  0
LAYER
  2
LAYER107
 70
               0
 62
               7
  6
CONTINUOUS
  0
LAYER
  2
LAYER108
 70
               0
 62
               7
  6
CONTINUOUS
  0
LAYER
  2
LAYER109
 70
               0
 62
               7
  6
CONTINUOUS
  0
LAYER
  2
LAYER110
 70
               0
 62
               7
  6
CONTINUOUS
  0
LAYER
  2
LAYER111
 70
               0
 62
               7
  6
CONTINUOUS
  0
LAYER
  2
LAYER112
 70
               0
 62
               7
  6
CONTINUOUS
  0
LAYER
  2
LAYER113
 70
               0
 62
               7
  6
CONTINUOUS
  0
LAYER
  2
LAYER114
 70
               0
 62
               7
  6
CONTINUOUS
  0
LAYER
  2
LAYER115
 70
               0
 62
               7
  6
CONTINUOUS
  0
LAYER
  2
LAYER116
 70
               0
 62
               7
  6
CONTINUOUS
  0
LAYER
  2
LAYER117
 70
               0
 62
               7
  6
CONTINUOUS
  0
LAYER
  2
LAYER118
 70
               0
 62
               7
  6
CONTINUOUS
  0
LAYER
  2
LAYER119
 70
               0
 62
               7
  6
CONTINUOUS
  0
LAYER
  2
LAYER120
 70
               0
 62
               7
  6
CONTINUOUS
  0
LAYER
  2
LAYER121
 70
               0
 62
               7
  6
CONTINUOUS
  0
LAYER
  2
LAYER122
 70
               0
 62
               7
  6
CONTINUOUS
  0
LAYER
  2
LAYER123
 70
               0
 62
               7
  6
CONTINUOUS
  0
LAYER
  2
LAYER124
 70
               0
 62
               7
  6
CONTINUOUS
  0
LAYER
  2
LAYER125
 70
               0
 62
               7
  6
CONTINUOUS
  0
LAYER
  2
LAYER126
 70
               0
 62
               7
  6
CONTINUOUS
  0
LAYER
  2
LAYER127
 70
               0
 62
               7
  6
CONTINUOUS
  0
LAYER
  2
LAYER128
 70
               0
 62
               7
  6
CONTINUOUS
  0
LAYER
  2
LAYER129
 70
               0
 62
               7
  6
CONTINUOUS
  0
LAYER
  2
LAYER130
 70
               0
 62
               7
  6
CONTINUOUS
  0
LAYER
  2
LAYER131
 70
               0
 62
               7
  6
CONTINUOUS
  0
LAYER
  2
LAYER132
 70
               0
 62
               7
  6
CONTINUOUS
  0
LAYER
  2
LAYER133
 70
               0
 62
               7
  6
CONTINUOUS
  0
LAYER
  2
LAYER134
 70
               0
 62
               7
  6
CONTINUOUS
  0
LAYER
  2
LAYER135
 70
               0
 62
               7
  6
CONTINUOUS
  0
LAYER
  2
LAYER136
 70
               0
 62
               7
  6
CONTINUOUS
  0
LAYER
  2
LAYER137
 70
               0
 62
               7
  6
CONTINUOUS
  0
LAYER
  2
LAYER138
 70
               0
 62
               7
  6
CONTINUOUS
  0
LAYER
  2
LAYER139
 70
               0
 62
               7
  6
CONTINUOUS
  0
LAYER
  2
LAYER140
 70
               0
 62
               7
  6
CONTINUOUS
  0
LAYER
  2
LAYER141
 70
               0
 62
               7
  6
CONTINUOUS
  0
LAYER
  2
LAYER142
 70
               0
 62
               7
  6
CONTINUOUS
  0
LAYER
  2
LAYER143
 70
               0
 62
               7
  6
CONTINUOUS
  0
LAYER
  2
LAYER144
 70
               0
 62
               7
  6
CONTINUOUS
  0
LAYER
  2
LAYER145
 70
               0
 62
               7
  6
CONTINUOUS
  0
LAYER
  2
LAYER146
 70
               0
 62
               7
  6
CONTINUOUS
  0
LAYER
  2
LAYER147
 70
               0
 62
               7
  6
CONTINUOUS
  0
LAYER
  2
LAYER148
 70
               0
 62
               7
  6
CONTINUOUS
  0
LAYER
  2
LAYER149
 70
               0
 62
               7
  6
CONTINUOUS
  0
LAYER
  2
LAYER150
 70
               0
 62
               7
  6
CONTINUOUS
  0
LAYER
  2
LAYER151
 70
               0
 62
               7
  6
CONTINUOUS
  0
LAYER
  2
LAYER152
 70
               0
 62
               7
  6
CONTINUOUS
  0
LAYER
  2
LAYER153
 70
               0
 62
               7
  6
CONTINUOUS
  0
LAYER
  2
LAYER154
 70
               0
 62
               7
  6
CONTINUOUS
  0
LAYER
  2
LAYER155
 70
               0
 62
               7
  6
CONTINUOUS
  0
LAYER
  2
LAYER156
 70
               0
 62
               7
  6
CONTINUOUS
  0
LAYER
  2
LAYER157
 70
               0
 62
               7
  6
CONTINUOUS
  0
LAYER
  2
LAYER158
 70
               0
 62
               7
  6
CONTINUOUS
  0
LAYER
  2
LAYER159
 70
               0
 62
               7
  6
CONTINUOUS
  0
LAYER
  2
LAYER160
 70
               0
 62
               7
  6
CONTINUOUS
  0
LAYER
  2
LAYER161
 70
               0
 62
               7
  6
CONTINUOUS
  0
LAYER
  2
LAYER162
 70
               0
 62
               7
  6
CONTINUOUS
  0
LAYER
  2
LAYER163
 70
               0
 62
               7
  6
CONTINUOUS
  0
LAYER
  2
LAYER164
 70
               0
 62
               7
  6
CONTINUOUS
  0
LAYER
  2
LAYER165
 70
               0
 62
               7
  6
CONTINUOUS
  0
LAYER
  2
LAYER166
 70
               0
 62
               7
  6
CONTINUOUS
  0
LAYER
  2
LAYER167
 70
               0
 62
               7
  6
CONTINUOUS
  0
LAYER
  2
LAYER168
 70
               0
 62
               7
  6
CONTINUOUS
  0
LAYER
  2
LAYER169
 70
               0
 62
               7
  6
CONTINUOUS
  0
LAYER
  2
LAYER170
 70
               0
 62
               7
  6
CONTINUOUS
  0
LAYER
  2
LAYER171
 70
               0
 62
               7
  6
CONTINUOUS
  0
LAYER
  2
LAYER172
 70
               0
 62
               7
  6
CONTINUOUS
  0
LAYER
  2
LAYER173
 70
               0
 62
               7
  6
CONTINUOUS
  0
LAYER
  2
LAYER174
 70
               0
 62
               7
  6
CONTINUOUS
  0
LAYER
  2
LAYER175
 70
               0
 62
               7
  6
CONTINUOUS
  0
LAYER
  2
LAYER176
 70
               0
 62
               7
  6
CONTINUOUS
  0
LAYER
  2
LAYER177
 70
               0
 62
               7
  6
CONTINUOUS
  0
LAYER
  2
LAYER178
 70
               0
 62
               7
  6
CONTINUOUS
  0
LAYER
  2
LAYER179
 70
               0
 62
               7
  6
CONTINUOUS
  0
LAYER
  2
LAYER180
 70
               0
 62
               7
  6
CONTINUOUS
  0
LAYER
  2
LAYER181
 70
               0
 62
               7
  6
CONTINUOUS
  0
LAYER
  2
LAYER182
 70
               0
 62
               7
  6
CONTINUOUS
  0
LAYER
  2
LAYER183
 70
               0
 62
               7
  6
CONTINUOUS
  0
LAYER
  2
LAYER184
 70
               0
 62
               7
  6
CONTINUOUS
  0
LAYER
  2
LAYER185
 70
               0
 62
               7
  6
CONTINUOUS
  0
LAYER
  2
LAYER186
 70
               0
 62
               7
  6
CONTINUOUS
  0
LAYER
  2
LAYER187
 70
               0
 62
               7
  6
CONTINUOUS
  0
LAYER
  2
LAYER188
 70
               0
 62
               7
  6
CONTINUOUS
  0
LAYER
  2
LAYER189
 70
               0
 62
               7
  6
CONTINUOUS
  0
LAYER
  2
LAYER190
 70
               0
 62
               7
  6
CONTINUOUS
  0
LAYER
  2
LAYER191
 70
               0
 62
               7
  6
CONTINUOUS
  0
LAYER
  2
LAYER192
 70
               0
 62
               7
  6
CONTINUOUS
  0
LAYER
  2
LAYER193
 70
               0
 62
               7
  6
CONTINUOUS
  0
LAYER
  2
LAYER194
 70
               0
 62
               7
  6
CONTINUOUS
  0
LAYER
  2
LAYER195
 70
               0
 62
               7
  6
CONTINUOUS
  0
LAYER
  2
LAYER196
 70
               0
 62
               7
  6
CONTINUOUS
  0
LAYER
  2
LAYER197
 70
               0
 62
               7
  6
CONTINUOUS
  0
LAYER
  2
LAYER198
 70
               0
 62
               7
  6
CONTINUOUS
  0
LAYER
  2
LAYER199
 70
               0
 62
               7
  6
CONTINUOUS
  0
LAYER
  2
LAYER200
 70
               0
 62
               7
  6
CONTINUOUS
  0
LAYER
  2
LAYER201
 70
               0
 62
               7
  6
CONTINUOUS
  0
LAYER
  2
LAYER202
 70
               0
 62
               7
  6
CONTINUOUS
  0
LAYER
  2
LAYER203
 70
               0
 62
               7
  6
CONTINUOUS
  0
LAYER
  2
LAYER204
 70
               0
 62
               7
  6
CONTINUOUS
  0
LAYER
  2
LAYER205
 70
               0
 62
               7
  6
CONTINUOUS
  0
LAYER
  2
LAYER206
 70
               0
 62
               7
  6
CONTINUOUS
  0
LAYER
  2
LAYER207
 70
               0
 62
               7
  6
CONTINUOUS
  0
LAYER
  2
LAYER208
 70
               0
 62
               7
  6
CONTINUOUS
  0
LAYER
  2
LAYER209
 70
               0
 62
               7
  6
CONTINUOUS
  0
LAYER
  2
LAYER210
 70
               0
 62
               7
  6
CONTINUOUS
  0
LAYER
  2
LAYER211
 70
               0
 62
               7
  6
CONTINUOUS
  0
LAYER
  2
LAYER212
 70
               0
 62
               7
  6
CONTINUOUS
  0
LAYER
  2
LAYER213
 70
               0
 62
               7
  6
CONTINUOUS
  0
LAYER
  2
LAYER214
 70
               0
 62
               7
  6
CONTINUOUS
  0
LAYER
  2
LAYER215
 70
               0
 62
               7
  6
CONTINUOUS
  0
LAYER
  2
LAYER216
 70
               0
 62
               7
  6
CONTINUOUS
  0
LAYER
  2
LAYER217
 70
               0
 62
               7
  6
CONTINUOUS
  0
LAYER
  2
LAYER218
 70
               0
 62
               7
  6
CONTINUOUS
  0
LAYER
  2
LAYER219
 70
               0
 62
               7
  6
CONTINUOUS
  0
LAYER
  2
LAYER220
 70
               0
 62
               7
  6
CONTINUOUS
  0
LAYER
  2
LAYER221
 70
               0
 62
               7
  6
CONTINUOUS
  0
LAYER
  2
LAYER222
 70
               0
 62
               7
  6
CONTINUOUS
  0
LAYER
  2
LAYER223
 70
               0
 62
               7
  6
CONTINUOUS
  0
LAYER
  2
LAYER224
 70
               0
 62
               7
  6
CONTINUOUS
  0
LAYER
  2
LAYER225
 70
               0
 62
               7
  6
CONTINUOUS
  0
LAYER
  2
LAYER226
 70
               0
 62
               7
  6
CONTINUOUS
  0
LAYER
  2
LAYER227
 70
               0
 62
               7
  6
CONTINUOUS
  0
LAYER
  2
LAYER228
 70
               0
 62
               7
  6
CONTINUOUS
  0
LAYER
  2
LAYER229
 70
               0
 62
               7
  6
CONTINUOUS
  0
LAYER
  2
LAYER230
 70
               0
 62
               7
  6
CONTINUOUS
  0
LAYER
  2
LAYER231
 70
               0
 62
               7
  6
CONTINUOUS
  0
LAYER
  2
LAYER232
 70
               0
 62
               7
  6
CONTINUOUS
  0
LAYER
  2
LAYER233
 70
               0
 62
               7
  6
CONTINUOUS
  0
LAYER
  2
LAYER234
 70
               0
 62
               7
  6
CONTINUOUS
  0
LAYER
  2
LAYER235
 70
               0
 62
               7
  6
CONTINUOUS
  0
LAYER
  2
LAYER236
 70
               0
 62
               7
  6
CONTINUOUS
  0
LAYER
  2
LAYER237
 70
               0
 62
               7
  6
CONTINUOUS
  0
LAYER
  2
LAYER238
 70
               0
 62
               7
  6
CONTINUOUS
  0
LAYER
  2
LAYER239
 70
               0
 62
               7
  6
CONTINUOUS
  0
LAYER
  2
LAYER240
 70
               0
 62
               7
  6
CONTINUOUS
  0
LAYER
  2
LAYER241
 70
               0
 62
               7
  6
CONTINUOUS
  0
LAYER
  2
LAYER242
 70
               0
 62
               7
  6
CONTINUOUS
  0
LAYER
  2
LAYER243
 70
               0
 62
               7
  6
CONTINUOUS
  0
LAYER
  2
LAYER244
 70
               0
 62
               7
  6
CONTINUOUS
  0
LAYER
  2
LAYER245
 70
               0
 62
               7
  6
CONTINUOUS
  0
LAYER
  2
LAYER246
 70
               0
 62
               7
  6
CONTINUOUS
  0
LAYER
  2
LAYER247
 70
               0
 62
               7
  6
CONTINUOUS
  0
LAYER
  2
LAYER248
 70
               0
 62
               7
  6
CONTINUOUS
  0
LAYER
  2
LAYER249
 70
               0
 62
               7
  6
CONTINUOUS
  0
LAYER
  2
LAYER250
 70
               0
 62
               7
  6
CONTINUOUS
  0
LAYER
  2
LAYER251
 70
               0
 62
               7
  6
CONTINUOUS
  0
LAYER
  2
LAYER252
 70
               0
 62
               7
  6
CONTINUOUS
  0
LAYER
  2
LAYER253
 70
               0
 62
               7
  6
CONTINUOUS
  0
LAYER
  2
LAYER254
 70
               0
 62
               7
  6
CONTINUOUS
  0
LAYER
  2
LAYER255
 70
               0
 62
               7
  6
CONTINUOUS
  0
ENDTAB
  0
TABLE
  2
STYLE
 70
               1
  0
STYLE
  2
STANDARD
 70
               0
 40
0.0
 41
1.0
 50
0.0
 71
               0
 42
12.0
  3
MS Gothic.ttf
  4

  0
ENDTAB
  0
TABLE
  2
VIEW
 70
               0
  0
VIEW
  2
QQQQ
 70
               0
 40
869.63499999999999
 10
-0.7375930521091902
 20
49.344913151364807
 41
629.84999999999991
 11
0.0
 21
0.0
 31
1.0
 12
100.0
 22
100.0
 32
0.0
 42
50.0
 43
0.0
 44
0.0
 50
0.0
 71
               0
  0
ENDTAB
  0
TABLE
  2
UCS
 70
               0
  0
ENDTAB
  0
TABLE
  2
APPID
 70
               1
  0
APPID
  2
ACAD
 70
               0
  0
ENDTAB
  0
TABLE
  2
DIMSTYLE
 70
               1
  0
DIMSTYLE
  2
STANDARD
 70
               0
  3

  4

  5

  6

  7

 40
1.0
 41
0.18
 42
0.0625
 43
0.38
 44
0.18
 45
0.0
 46
0.0
 47
0.0
 48
0.0
140
0.18
141
0.09
142
0.0
143
25.399999999999999
144
1.0
145
0.0
146
1.0
147
0.09
 71
               0
 72
               0
 73
               1
 74
               1
 75
               0
 76
               0
 77
               0
 78
               0
170
               0
171
               2
172
               0
173
               0
174
               0
175
               0
176
               0
177
               0
178
               0
  0
ENDTAB
  0
ENDSEC
  0
SECTION
  2
BLOCKS
  0
ENDSEC
  0
SECTION
  2
ENTITIES
  0
LINE
  8
0
  6
CONTINUOUS
 62
               3
  5
136
 10
-240.73759305210919
 20
-82.155086848635165
 30
0.0
 11
239.26240694789081
 21
-82.155086848635165
 31
0.0
  0
LINE
  8
0
  6
CONTINUOUS
 62
               3
  5
137
 10
239.26240694789084
 20
397.84491315136484
 30
0.0
 11
-240.73759305210916
 21
397.84491315136484
 31
0.0
  0
LINE
  8
0
  6
CONTINUOUS
 62
               3
  5
138
 10
-240.73759305210916
 20
397.84491315136484
 30
0.0
 11
-240.73759305210919
 21
-82.155086848635165
 31
0.0
  0
LINE
  8
0
  6
CONTINUOUS
 62
               3
  5
139
 10
239.26240694789081
 20
-82.155086848635165
 30
0.0
 11
239.26240694789084
 21
397.84491315136484
 31
0.0
  0
LINE
  8
0
  6
CONTINUOUS
 62
               3
  5
13A
 10
-208.73759305210916
 20
368.84491315136484
 30
0.0
 11
-184.73759305210916
 21
368.84491315136484
 31
0.0
  0
LINE
  8
0
  6
CONTINUOUS
 62
               3
  5
13B
 10
-184.73759305210916
 20
338.84491315136484
 30
0.0
 11
-208.73759305210916
 21
338.84491315136484
 31
0.0
  0
LINE
  8
0
  6
CONTINUOUS
 62
               3
  5
13C
 10
-211.73759305210916
 20
341.84491315136484
 30
0.0
 11
-211.73759305210916
 21
365.84491315136484
 31
0.0
  0
LINE
  8
0
  6
CONTINUOUS
 62
               3
  5
13D
 10
-181.73759305210916
 20
365.84491315136484
 30
0.0
 11
-181.73759305210916
 21
341.84491315136484
 31
0.0
  0
ARC
  8
0
  6
CONTINUOUS
 62
               3
  5
13E
 10
-208.73759305210916
 20
365.84491315136484
 30
0.0
 40
3.0
 50
89.999999999999801
 51
179.9999999999996
  0
ARC
  8
0
  6
CONTINUOUS
 62
               3
  5
13F
 10
-208.73759305210916
 20
341.84491315136484
 30
0.0
 40
3.0
 50
179.9999999999996
 51
269.99999999999937
  0
ARC
  8
0
  6
CONTINUOUS
 62
               3
  5
140
 10
-184.73759305210916
 20
341.84491315136484
 30
0.0
 40
3.0
 50
269.99999999999937
 51
359.9999999999992
  0
ARC
  8
0
  6
CONTINUOUS
 62
               3
  5
141
 10
-184.73759305210916
 20
365.84491315136484
 30
0.0
 40
3.0
 50
0.0
 51
89.999999999999801
  0
LINE
  8
0
  6
CONTINUOUS
 62
               3
  5
142
 10
-159.73759305210916
 20
368.84491315136484
 30
0.0
 11
-135.73759305210916
 21
368.84491315136484
 31
0.0
  0
LINE
  8
0
  6
CONTINUOUS
 62
               3
  5
143
 10
-135.73759305210916
 20
338.84491315136484
 30
0.0
 11
-159.73759305210916
 21
338.84491315136484
 31
0.0
  0
LINE
  8
0
  6
CONTINUOUS
 62
               3
  5
144
 10
-162.73759305210916
 20
341.84491315136484
 30
0.0
 11
-162.73759305210916
 21
365.84491315136484
 31
0.0
  0
LINE
  8
0
  6
CONTINUOUS
 62
               3
  5
145
 10
-132.73759305210916
 20
365.84491315136484
 30
0.0
 11
-132.73759305210916
 21
341.84491315136484
 31
0.0
  0
ARC
  8
0
  6
CONTINUOUS
 62
               3
  5
146
 10
-159.73759305210916
 20
365.84491315136484
 30
0.0
 40
3.0
 50
89.999999999999801
 51
179.9999999999996
  0
ARC
  8
0
  6
CONTINUOUS
 62
               3
  5
147
 10
-159.73759305210916
 20
341.84491315136484
 30
0.0
 40
3.0
 50
179.9999999999996
 51
269.99999999999937
  0
ARC
  8
0
  6
CONTINUOUS
 62
               3
  5
148
 10
-135.73759305210916
 20
341.84491315136484
 30
0.0
 40
3.0
 50
269.99999999999937
 51
359.9999999999992
  0
ARC
  8
0
  6
CONTINUOUS
 62
               3
  5
149
 10
-135.73759305210916
 20
365.84491315136484
 30
0.0
 40
3.0
 50
0.0
 51
89.999999999999801
  0
LINE
  8
0
  6
CONTINUOUS
 62
               3
  5
14A
 10
-110.73759305210918
 20
368.84491315136484
 30
0.0
 11
-86.737593052109176
 21
368.84491315136484
 31
0.0
  0
LINE
  8
0
  6
CONTINUOUS
 62
               3
  5
14B
 10
-86.737593052109176
 20
338.84491315136484
 30
0.0
 11
-110.73759305210918
 21
338.84491315136484
 31
0.0
  0
LINE
  8
0
  6
CONTINUOUS
 62
               3
  5
14C
 10
-113.73759305210918
 20
341.84491315136484
 30
0.0
 11
-113.73759305210918
 21
365.84491315136484
 31
0.0
  0
LINE
  8
0
  6
CONTINUOUS
 62
               3
  5
14D
 10
-83.737593052109176
 20
365.84491315136484
 30
0.0
 11
-83.737593052109176
 21
341.84491315136484
 31
0.0
  0
ARC
  8
0
  6
CONTINUOUS
 62
               3
  5
14E
 10
-110.73759305210918
 20
365.84491315136484
 30
0.0
 40
3.0
 50
89.999999999999801
 51
179.9999999999996
  0
ARC
  8
0
  6
CONTINUOUS
 62
               3
  5
14F
 10
-110.73759305210918
 20
341.84491315136484
 30
0.0
 40
3.0
 50
179.9999999999996
 51
269.99999999999937
  0
ARC
  8
0
  6
CONTINUOUS
 62
               3
  5
150
 10
-86.737593052109176
 20
341.84491315136484
 30
0.0
 40
3.0
 50
269.99999999999937
 51
359.9999999999992
  0
ARC
  8
0
  6
CONTINUOUS
 62
               3
  5
151
 10
-86.737593052109176
 20
365.84491315136484
 30
0.0
 40
3.0
 50
0.0
 51
89.999999999999801
  0
LINE
  8
0
  6
CONTINUOUS
 62
               3
  5
152
 10
-61.737593052109169
 20
368.84491315136484
 30
0.0
 11
-37.737593052109169
 21
368.84491315136484
 31
0.0
  0
LINE
  8
0
  6
CONTINUOUS
 62
               3
  5
153
 10
-37.737593052109169
 20
338.84491315136484
 30
0.0
 11
-61.737593052109169
 21
338.84491315136484
 31
0.0
  0
LINE
  8
0
  6
CONTINUOUS
 62
               3
  5
154
 10
-64.737593052109176
 20
341.84491315136484
 30
0.0
 11
-64.737593052109176
 21
365.84491315136484
 31
0.0
  0
LINE
  8
0
  6
CONTINUOUS
 62
               3
  5
155
 10
-34.737593052109169
 20
365.84491315136484
 30
0.0
 11
-34.737593052109169
 21
341.84491315136484
 31
0.0
  0
ARC
  8
0
  6
CONTINUOUS
 62
               3
  5
156
 10
-61.737593052109169
 20
365.84491315136484
 30
0.0
 40
3.0
 50
89.999999999999801
 51
179.9999999999996
  0
ARC
  8
0
  6
CONTINUOUS
 62
               3
  5
157
 10
-61.737593052109169
 20
341.84491315136484
 30
0.0
 40
3.0
 50
179.9999999999996
 51
269.99999999999937
  0
ARC
  8
0
  6
CONTINUOUS
 62
               3
  5
158
 10
-37.737593052109169
 20
341.84491315136484
 30
0.0
 40
3.0
 50
269.99999999999937
 51
359.9999999999992
  0
ARC
  8
0
  6
CONTINUOUS
 62
               3
  5
159
 10
-37.737593052109169
 20
365.84491315136484
 30
0.0
 40
3.0
 50
0.0
 51
89.999999999999801
  0
LINE
  8
0
  6
CONTINUOUS
 62
               3
  5
15A
 10
11.262406947890831
 20
338.84491315136484
 30
0.0
 11
-12.737593052109169
 21
338.84491315136484
 31
0.0
  0
LINE
  8
0
  6
CONTINUOUS
 62
               3
  5
15B
 10
-15.737593052109169
 20
341.84491315136484
 30
0.0
 11
-15.737593052109169
 21
353.84491315136484
 31
0.0
  0
LINE
  8
0
  6
CONTINUOUS
 62
               3
  5
15C
 10
14.262406947890831
 20
353.84491315136484
 30
0.0
 11
14.262406947890831
 21
341.84491315136484
 31
0.0
  0
ARC
  8
0
  6
CONTINUOUS
 62
               3
  5
15D
 10
-12.737593052109169
 20
341.84491315136484
 30
0.0
 40
3.0
 50
179.9999999999996
 51
269.99999999999937
  0
ARC
  8
0
  6
CONTINUOUS
 62
               3
  5
15E
 10
11.262406947890831
 20
341.84491315136484
 30
0.0
 40
3.0
 50
269.99999999999937
 51
359.9999999999992
  0
LINE
  8
0
  6
CONTINUOUS
 62
               3
  5
15F
 10
36.262406947890831
 20
368.84491315136484
 30
0.0
 11
60.262406947890831
 21
368.84491315136484
 31
0.0
  0
LINE
  8
0
  6
CONTINUOUS
 62
               3
  5
160
 10
60.262406947890831
 20
338.84491315136484
 30
0.0
 11
36.262406947890831
 21
338.84491315136484
 31
0.0
  0
LINE
  8
0
  6
CONTINUOUS
 62
               3
  5
161
 10
33.262406947890831
 20
341.84491315136484
 30
0.0
 11
33.262406947890831
 21
365.84491315136484
 31
0.0
  0
LINE
  8
0
  6
CONTINUOUS
 62
               3
  5
162
 10
63.262406947890831
 20
365.84491315136484
 30
0.0
 11
63.262406947890831
 21
341.84491315136484
 31
0.0
  0
ARC
  8
0
  6
CONTINUOUS
 62
               3
  5
163
 10
36.262406947890831
 20
365.84491315136484
 30
0.0
 40
3.0
 50
89.999999999999801
 51
179.9999999999996
  0
ARC
  8
0
  6
CONTINUOUS
 62
               3
  5
164
 10
36.262406947890831
 20
341.84491315136484
 30
0.0
 40
3.0
 50
179.9999999999996
 51
269.99999999999937
  0
ARC
  8
0
  6
CONTINUOUS
 62
               3
  5
165
 10
60.262406947890831
 20
341.84491315136484
 30
0.0
 40
3.0
 50
269.99999999999937
 51
359.9999999999992
  0
ARC
  8
0
  6
CONTINUOUS
 62
               3
  5
166
 10
60.262406947890831
 20
365.84491315136484
 30
0.0
 40
3.0
 50
0.0
 51
89.999999999999801
  0
LINE
  8
0
  6
CONTINUOUS
 62
               3
  5
167
 10
85.262406947890824
 20
368.84491315136484
 30
0.0
 11
109.26240694789082
 21
368.84491315136484
 31
0.0
  0
LINE
  8
0
  6
CONTINUOUS
 62
               3
  5
168
 10
109.26240694789082
 20
338.84491315136484
 30
0.0
 11
85.262406947890824
 21
338.84491315136484
 31
0.0
  0
LINE
  8
0
  6
CONTINUOUS
 62
               3
  5
169
 10
82.262406947890824
 20
341.84491315136484
 30
0.0
 11
82.262406947890824
 21
365.84491315136484
 31
0.0
  0
LINE
  8
0
  6
CONTINUOUS
 62
               3
  5
16A
 10
112.26240694789082
 20
365.84491315136484
 30
0.0
 11
112.26240694789082
 21
341.84491315136484
 31
0.0
  0
ARC
  8
0
  6
CONTINUOUS
 62
               3
  5
16B
 10
85.262406947890824
 20
365.84491315136484
 30
0.0
 40
3.0
 50
89.999999999999801
 51
179.9999999999996
  0
ARC
  8
0
  6
CONTINUOUS
 62
               3
  5
16C
 10
85.262406947890824
 20
341.84491315136484
 30
0.0
 40
3.0
 50
179.9999999999996
 51
269.99999999999937
  0
ARC
  8
0
  6
CONTINUOUS
 62
               3
  5
16D
 10
109.26240694789082
 20
341.84491315136484
 30
0.0
 40
3.0
 50
269.99999999999937
 51
359.9999999999992
  0
ARC
  8
0
  6
CONTINUOUS
 62
               3
  5
16E
 10
109.26240694789082
 20
365.84491315136484
 30
0.0
 40
3.0
 50
0.0
 51
89.999999999999801
  0
LINE
  8
0
  6
CONTINUOUS
 62
               3
  5
16F
 10
134.26240694789084
 20
368.84491315136484
 30
0.0
 11
158.26240694789084
 21
368.84491315136484
 31
0.0
  0
LINE
  8
0
  6
CONTINUOUS
 62
               3
  5
170
 10
158.26240694789084
 20
338.84491315136484
 30
0.0
 11
134.26240694789084
 21
338.84491315136484
 31
0.0
  0
LINE
  8
0
  6
CONTINUOUS
 62
               3
  5
171
 10
131.26240694789084
 20
341.84491315136484
 30
0.0
 11
131.26240694789084
 21
365.84491315136484
 31
0.0
  0
LINE
  8
0
  6
CONTINUOUS
 62
               3
  5
172
 10
161.26240694789084
 20
365.84491315136484
 30
0.0
 11
161.26240694789084
 21
341.84491315136484
 31
0.0
  0
ARC
  8
0
  6
CONTINUOUS
 62
               3
  5
173
 10
134.26240694789084
 20
365.84491315136484
 30
0.0
 40
3.0
 50
89.999999999999801
 51
179.9999999999996
  0
ARC
  8
0
  6
CONTINUOUS
 62
               3
  5
174
 10
134.26240694789084
 20
341.84491315136484
 30
0.0
 40
3.0
 50
179.9999999999996
 51
269.99999999999937
  0
ARC
  8
0
  6
CONTINUOUS
 62
               3
  5
175
 10
158.26240694789084
 20
341.84491315136484
 30
0.0
 40
3.0
 50
269.99999999999937
 51
359.9999999999992
  0
ARC
  8
0
  6
CONTINUOUS
 62
               3
  5
176
 10
158.26240694789084
 20
365.84491315136484
 30
0.0
 40
3.0
 50
0.0
 51
89.999999999999801
  0
LINE
  8
0
  6
CONTINUOUS
 62
               3
  5
177
 10
183.26240694789078
 20
368.84491315136484
 30
0.0
 11
207.26240694789078
 21
368.84491315136484
 31
0.0
  0
LINE
  8
0
  6
CONTINUOUS
 62
               3
  5
178
 10
207.26240694789078
 20
338.84491315136484
 30
0.0
 11
183.26240694789078
 21
338.84491315136484
 31
0.0
  0
LINE
  8
0
  6
CONTINUOUS
 62
               3
  5
179
 10
180.26240694789078
 20
341.84491315136484
 30
0.0
 11
180.26240694789078
 21
365.84491315136484
 31
0.0
  0
LINE
  8
0
  6
CONTINUOUS
 62
               3
  5
17A
 10
210.26240694789078
 20
365.84491315136484
 30
0.0
 11
210.26240694789078
 21
341.84491315136484
 31
0.0
  0
ARC
  8
0
  6
CONTINUOUS
 62
               3
  5
17B
 10
183.26240694789078
 20
365.84491315136484
 30
0.0
 40
3.0
 50
89.999999999999801
 51
179.9999999999996
  0
ARC
  8
0
  6
CONTINUOUS
 62
               3
  5
17C
 10
183.26240694789078
 20
341.84491315136484
 30
0.0
 40
3.0
 50
179.9999999999996
 51
269.99999999999937
  0
ARC
  8
0
  6
CONTINUOUS
 62
               3
  5
17D
 10
207.26240694789078
 20
341.84491315136484
 30
0.0
 40
3.0
 50
269.99999999999937
 51
359.9999999999992
  0
ARC
  8
0
  6
CONTINUOUS
 62
               3
  5
17E
 10
207.26240694789078
 20
365.84491315136484
 30
0.0
 40
3.0
 50
0.0
 51
89.999999999999801
  0
LINE
  8
0
  6
CONTINUOUS
 62
               3
  5
17F
 10
-208.73759305210916
 20
319.84491315136484
 30
0.0
 11
-184.73759305210916
 21
319.84491315136484
 31
0.0
  0
LINE
  8
0
  6
CONTINUOUS
 62
               3
  5
180
 10
-184.73759305210916
 20
289.84491315136484
 30
0.0
 11
-208.73759305210916
 21
289.84491315136484
 31
0.0
  0
LINE
  8
0
  6
CONTINUOUS
 62
               3
  5
181
 10
-211.73759305210916
 20
292.84491315136484
 30
0.0
 11
-211.73759305210916
 21
316.84491315136484
 31
0.0
  0
LINE
  8
0
  6
CONTINUOUS
 62
               3
  5
182
 10
-181.73759305210916
 20
316.84491315136484
 30
0.0
 11
-181.73759305210916
 21
292.84491315136484
 31
0.0
  0
ARC
  8
0
  6
CONTINUOUS
 62
               3
  5
183
 10
-208.73759305210916
 20
316.84491315136484
 30
0.0
 40
3.0
 50
89.999999999999801
 51
179.9999999999996
  0
ARC
  8
0
  6
CONTINUOUS
 62
               3
  5
184
 10
-208.73759305210916
 20
292.84491315136484
 30
0.0
 40
3.0
 50
179.9999999999996
 51
269.99999999999937
  0
ARC
  8
0
  6
CONTINUOUS
 62
               3
  5
185
 10
-184.73759305210916
 20
292.84491315136484
 30
0.0
 40
3.0
 50
269.99999999999937
 51
359.9999999999992
  0
ARC
  8
0
  6
CONTINUOUS
 62
               3
  5
186
 10
-184.73759305210916
 20
316.84491315136484
 30
0.0
 40
3.0
 50
0.0
 51
89.999999999999801
  0
LINE
  8
0
  6
CONTINUOUS
 62
               3
  5
187
 10
-159.73759305210916
 20
319.84491315136484
 30
0.0
 11
-135.73759305210916
 21
319.84491315136484
 31
0.0
  0
LINE
  8
0
  6
CONTINUOUS
 62
               3
  5
188
 10
-135.73759305210916
 20
289.84491315136484
 30
0.0
 11
-159.73759305210916
 21
289.84491315136484
 31
0.0
  0
LINE
  8
0
  6
CONTINUOUS
 62
               3
  5
189
 10
-162.73759305210916
 20
292.84491315136484
 30
0.0
 11
-162.73759305210916
 21
316.84491315136484
 31
0.0
  0
LINE
  8
0
  6
CONTINUOUS
 62
               3
  5
18A
 10
-132.73759305210916
 20
316.84491315136484
 30
0.0
 11
-132.73759305210916
 21
292.84491315136484
 31
0.0
  0
ARC
  8
0
  6
CONTINUOUS
 62
               3
  5
18B
 10
-159.73759305210916
 20
316.84491315136484
 30
0.0
 40
3.0
 50
89.999999999999801
 51
179.9999999999996
  0
ARC
  8
0
  6
CONTINUOUS
 62
               3
  5
18C
 10
-159.73759305210916
 20
292.84491315136484
 30
0.0
 40
3.0
 50
179.9999999999996
 51
269.99999999999937
  0
ARC
  8
0
  6
CONTINUOUS
 62
               3
  5
18D
 10
-135.73759305210916
 20
292.84491315136484
 30
0.0
 40
3.0
 50
269.99999999999937
 51
359.9999999999992
  0
ARC
  8
0
  6
CONTINUOUS
 62
               3
  5
18E
 10
-135.73759305210916
 20
316.84491315136484
 30
0.0
 40
3.0
 50
0.0
 51
89.999999999999801
  0
LINE
  8
0
  6
CONTINUOUS
 62
               3
  5
18F
 10
-110.73759305210918
 20
319.84491315136484
 30
0.0
 11
-86.737593052109176
 21
319.84491315136484
 31
0.0
  0
LINE
  8
0
  6
CONTINUOUS
 62
               3
  5
190
 10
-86.737593052109176
 20
289.84491315136484
 30
0.0
 11
-110.73759305210918
 21
289.84491315136484
 31
0.0
  0
LINE
  8
0
  6
CONTINUOUS
 62
               3
  5
191
 10
-113.73759305210918
 20
292.84491315136484
 30
0.0
 11
-113.73759305210918
 21
316.84491315136484
 31
0.0
  0
LINE
  8
0
  6
CONTINUOUS
 62
               3
  5
192
 10
-83.737593052109176
 20
316.84491315136484
 30
0.0
 11
-83.737593052109176
 21
292.84491315136484
 31
0.0
  0
ARC
  8
0
  6
CONTINUOUS
 62
               3
  5
193
 10
-110.73759305210918
 20
316.84491315136484
 30
0.0
 40
3.0
 50
89.999999999999801
 51
179.9999999999996
  0
ARC
  8
0
  6
CONTINUOUS
 62
               3
  5
194
 10
-110.73759305210918
 20
292.84491315136484
 30
0.0
 40
3.0
 50
179.9999999999996
 51
269.99999999999937
  0
ARC
  8
0
  6
CONTINUOUS
 62
               3
  5
195
 10
-86.737593052109176
 20
292.84491315136484
 30
0.0
 40
3.0
 50
269.99999999999937
 51
359.9999999999992
  0
ARC
  8
0
  6
CONTINUOUS
 62
               3
  5
196
 10
-86.737593052109176
 20
316.84491315136484
 30
0.0
 40
3.0
 50
0.0
 51
89.999999999999801
  0
LINE
  8
0
  6
CONTINUOUS
 62
               3
  5
197
 10
-61.737593052109169
 20
319.84491315136484
 30
0.0
 11
-37.737593052109169
 21
319.84491315136484
 31
0.0
  0
LINE
  8
0
  6
CONTINUOUS
 62
               3
  5
198
 10
-37.737593052109169
 20
289.84491315136484
 30
0.0
 11
-61.737593052109169
 21
289.84491315136484
 31
0.0
  0
LINE
  8
0
  6
CONTINUOUS
 62
               3
  5
199
 10
-64.737593052109176
 20
292.84491315136484
 30
0.0
 11
-64.737593052109176
 21
316.84491315136484
 31
0.0
  0
LINE
  8
0
  6
CONTINUOUS
 62
               3
  5
19A
 10
-34.737593052109169
 20
316.84491315136484
 30
0.0
 11
-34.737593052109169
 21
292.84491315136484
 31
0.0
  0
ARC
  8
0
  6
CONTINUOUS
 62
               3
  5
19B
 10
-61.737593052109169
 20
316.84491315136484
 30
0.0
 40
3.0
 50
89.999999999999801
 51
179.9999999999996
  0
ARC
  8
0
  6
CONTINUOUS
 62
               3
  5
19C
 10
-61.737593052109169
 20
292.84491315136484
 30
0.0
 40
3.0
 50
179.9999999999996
 51
269.99999999999937
  0
ARC
  8
0
  6
CONTINUOUS
 62
               3
  5
19D
 10
-37.737593052109169
 20
292.84491315136484
 30
0.0
 40
3.0
 50
269.99999999999937
 51
359.9999999999992
  0
ARC
  8
0
  6
CONTINUOUS
 62
               3
  5
19E
 10
-37.737593052109169
 20
316.84491315136484
 30
0.0
 40
3.0
 50
0.0
 51
89.999999999999801
  0
LINE
  8
0
  6
CONTINUOUS
 62
               3
  5
19F
 10
-12.737593052109169
 20
319.84491315136484
 30
0.0
 11
11.262406947890831
 21
319.84491315136484
 31
0.0
  0
LINE
  8
0
  6
CONTINUOUS
 62
               3
  5
1A0
 10
11.262406947890831
 20
289.84491315136484
 30
0.0
 11
-12.737593052109169
 21
289.84491315136484
 31
0.0
  0
LINE
  8
0
  6
CONTINUOUS
 62
               3
  5
1A1
 10
-15.737593052109169
 20
292.84491315136484
 30
0.0
 11
-15.737593052109169
 21
316.84491315136484
 31
0.0
  0
LINE
  8
0
  6
CONTINUOUS
 62
               3
  5
1A2
 10
14.262406947890831
 20
316.84491315136484
 30
0.0
 11
14.262406947890831
 21
292.84491315136484
 31
0.0
  0
ARC
  8
0
  6
CONTINUOUS
 62
               3
  5
1A3
 10
-12.737593052109169
 20
316.84491315136484
 30
0.0
 40
3.0
 50
89.999999999999801
 51
179.9999999999996
  0
ARC
  8
0
  6
CONTINUOUS
 62
               3
  5
1A4
 10
-12.737593052109169
 20
292.84491315136484
 30
0.0
 40
3.0
 50
179.9999999999996
 51
269.99999999999937
  0
ARC
  8
0
  6
CONTINUOUS
 62
               3
  5
1A5
 10
11.262406947890831
 20
292.84491315136484
 30
0.0
 40
3.0
 50
269.99999999999937
 51
359.9999999999992
  0
ARC
  8
0
  6
CONTINUOUS
 62
               3
  5
1A6
 10
11.262406947890831
 20
316.84491315136484
 30
0.0
 40
3.0
 50
0.0
 51
89.999999999999801
  0
LINE
  8
0
  6
CONTINUOUS
 62
               3
  5
1A7
 10
36.262406947890831
 20
319.84491315136484
 30
0.0
 11
60.262406947890831
 21
319.84491315136484
 31
0.0
  0
LINE
  8
0
  6
CONTINUOUS
 62
               3
  5
1A8
 10
60.262406947890831
 20
289.84491315136484
 30
0.0
 11
36.262406947890831
 21
289.84491315136484
 31
0.0
  0
LINE
  8
0
  6
CONTINUOUS
 62
               3
  5
1A9
 10
33.262406947890831
 20
292.84491315136484
 30
0.0
 11
33.262406947890831
 21
316.84491315136484
 31
0.0
  0
LINE
  8
0
  6
CONTINUOUS
 62
               3
  5
1AA
 10
63.262406947890831
 20
316.84491315136484
 30
0.0
 11
63.262406947890831
 21
292.84491315136484
 31
0.0
  0
ARC
  8
0
  6
CONTINUOUS
 62
               3
  5
1AB
 10
36.262406947890831
 20
316.84491315136484
 30
0.0
 40
3.0
 50
89.999999999999801
 51
179.9999999999996
  0
ARC
  8
0
  6
CONTINUOUS
 62
               3
  5
1AC
 10
36.262406947890831
 20
292.84491315136484
 30
0.0
 40
3.0
 50
179.9999999999996
 51
269.99999999999937
  0
ARC
  8
0
  6
CONTINUOUS
 62
               3
  5
1AD
 10
60.262406947890831
 20
292.84491315136484
 30
0.0
 40
3.0
 50
269.99999999999937
 51
359.9999999999992
  0
ARC
  8
0
  6
CONTINUOUS
 62
               3
  5
1AE
 10
60.262406947890831
 20
316.84491315136484
 30
0.0
 40
3.0
 50
0.0
 51
89.999999999999801
  0
LINE
  8
0
  6
CONTINUOUS
 62
               3
  5
1AF
 10
85.262406947890824
 20
319.84491315136484
 30
0.0
 11
109.26240694789082
 21
319.84491315136484
 31
0.0
  0
LINE
  8
0
  6
CONTINUOUS
 62
               3
  5
1B0
 10
109.26240694789082
 20
289.84491315136484
 30
0.0
 11
85.262406947890824
 21
289.84491315136484
 31
0.0
  0
LINE
  8
0
  6
CONTINUOUS
 62
               3
  5
1B1
 10
82.262406947890824
 20
292.84491315136484
 30
0.0
 11
82.262406947890824
 21
316.84491315136484
 31
0.0
  0
LINE
  8
0
  6
CONTINUOUS
 62
               3
  5
1B2
 10
112.26240694789082
 20
316.84491315136484
 30
0.0
 11
112.26240694789082
 21
292.84491315136484
 31
0.0
  0
ARC
  8
0
  6
CONTINUOUS
 62
               3
  5
1B3
 10
85.262406947890824
 20
316.84491315136484
 30
0.0
 40
3.0
 50
89.999999999999801
 51
179.9999999999996
  0
ARC
  8
0
  6
CONTINUOUS
 62
               3
  5
1B4
 10
85.262406947890824
 20
292.84491315136484
 30
0.0
 40
3.0
 50
179.9999999999996
 51
269.99999999999937
  0
ARC
  8
0
  6
CONTINUOUS
 62
               3
  5
1B5
 10
109.26240694789082
 20
292.84491315136484
 30
0.0
 40
3.0
 50
269.99999999999937
 51
359.9999999999992
  0
ARC
  8
0
  6
CONTINUOUS
 62
               3
  5
1B6
 10
109.26240694789082
 20
316.84491315136484
 30
0.0
 40
3.0
 50
0.0
 51
89.999999999999801
  0
LINE
  8
0
  6
CONTINUOUS
 62
               3
  5
1B7
 10
134.26240694789084
 20
319.84491315136484
 30
0.0
 11
158.26240694789084
 21
319.84491315136484
 31
0.0
  0
LINE
  8
0
  6
CONTINUOUS
 62
               3
  5
1B8
 10
158.26240694789084
 20
289.84491315136484
 30
0.0
 11
134.26240694789084
 21
289.84491315136484
 31
0.0
  0
LINE
  8
0
  6
CONTINUOUS
 62
               3
  5
1B9
 10
131.26240694789084
 20
292.84491315136484
 30
0.0
 11
131.26240694789084
 21
316.84491315136484
 31
0.0
  0
LINE
  8
0
  6
CONTINUOUS
 62
               3
  5
1BA
 10
161.26240694789084
 20
316.84491315136484
 30
0.0
 11
161.26240694789084
 21
292.84491315136484
 31
0.0
  0
ARC
  8
0
  6
CONTINUOUS
 62
               3
  5
1BB
 10
134.26240694789084
 20
316.84491315136484
 30
0.0
 40
3.0
 50
89.999999999999801
 51
179.9999999999996
  0
ARC
  8
0
  6
CONTINUOUS
 62
               3
  5
1BC
 10
134.26240694789084
 20
292.84491315136484
 30
0.0
 40
3.0
 50
179.9999999999996
 51
269.99999999999937
  0
ARC
  8
0
  6
CONTINUOUS
 62
               3
  5
1BD
 10
158.26240694789084
 20
292.84491315136484
 30
0.0
 40
3.0
 50
269.99999999999937
 51
359.9999999999992
  0
ARC
  8
0
  6
CONTINUOUS
 62
               3
  5
1BE
 10
158.26240694789084
 20
316.84491315136484
 30
0.0
 40
3.0
 50
0.0
 51
89.999999999999801
  0
LINE
  8
0
  6
CONTINUOUS
 62
               3
  5
1BF
 10
183.26240694789078
 20
319.84491315136484
 30
0.0
 11
207.26240694789078
 21
319.84491315136484
 31
0.0
  0
LINE
  8
0
  6
CONTINUOUS
 62
               3
  5
1C0
 10
207.26240694789078
 20
289.84491315136484
 30
0.0
 11
183.26240694789078
 21
289.84491315136484
 31
0.0
  0
LINE
  8
0
  6
CONTINUOUS
 62
               3
  5
1C1
 10
180.26240694789078
 20
292.84491315136484
 30
0.0
 11
180.26240694789078
 21
316.84491315136484
 31
0.0
  0
LINE
  8
0
  6
CONTINUOUS
 62
               3
  5
1C2
 10
210.26240694789078
 20
316.84491315136484
 30
0.0
 11
210.26240694789078
 21
292.84491315136484
 31
0.0
  0
ARC
  8
0
  6
CONTINUOUS
 62
               3
  5
1C3
 10
183.26240694789078
 20
316.84491315136484
 30
0.0
 40
3.0
 50
89.999999999999801
 51
179.9999999999996
  0
ARC
  8
0
  6
CONTINUOUS
 62
               3
  5
1C4
 10
183.26240694789078
 20
292.84491315136484
 30
0.0
 40
3.0
 50
179.9999999999996
 51
269.99999999999937
  0
ARC
  8
0
  6
CONTINUOUS
 62
               3
  5
1C5
 10
207.26240694789078
 20
292.84491315136484
 30
0.0
 40
3.0
 50
269.99999999999937
 51
359.9999999999992
  0
ARC
  8
0
  6
CONTINUOUS
 62
               3
  5
1C6
 10
207.26240694789078
 20
316.84491315136484
 30
0.0
 40
3.0
 50
0.0
 51
89.999999999999801
  0
LINE
  8
0
  6
CONTINUOUS
 62
               3
  5
1C7
 10
-208.73759305210916
 20
270.84491315136484
 30
0.0
 11
-184.73759305210916
 21
270.84491315136484
 31
0.0
  0
LINE
  8
0
  6
CONTINUOUS
 62
               3
  5
1C8
 10
-184.73759305210916
 20
240.84491315136484
 30
0.0
 11
-208.73759305210916
 21
240.84491315136484
 31
0.0
  0
LINE
  8
0
  6
CONTINUOUS
 62
               3
  5
1C9
 10
-211.73759305210916
 20
243.84491315136484
 30
0.0
 11
-211.73759305210916
 21
267.84491315136484
 31
0.0
  0
LINE
  8
0
  6
CONTINUOUS
 62
               3
  5
1CA
 10
-181.73759305210916
 20
267.84491315136484
 30
0.0
 11
-181.73759305210916
 21
243.84491315136484
 31
0.0
  0
ARC
  8
0
  6
CONTINUOUS
 62
               3
  5
1CB
 10
-208.73759305210916
 20
267.84491315136484
 30
0.0
 40
3.0
 50
89.999999999999801
 51
179.9999999999996
  0
ARC
  8
0
  6
CONTINUOUS
 62
               3
  5
1CC
 10
-208.73759305210916
 20
243.84491315136484
 30
0.0
 40
3.0
 50
179.9999999999996
 51
269.99999999999937
  0
ARC
  8
0
  6
CONTINUOUS
 62
               3
  5
1CD
 10
-184.73759305210916
 20
243.84491315136484
 30
0.0
 40
3.0
 50
269.99999999999937
 51
359.9999999999992
  0
ARC
  8
0
  6
CONTINUOUS
 62
               3
  5
1CE
 10
-184.73759305210916
 20
267.84491315136484
 30
0.0
 40
3.0
 50
0.0
 51
89.999999999999801
  0
LINE
  8
0
  6
CONTINUOUS
 62
               3
  5
1CF
 10
-159.73759305210916
 20
270.84491315136484
 30
0.0
 11
-135.73759305210916
 21
270.84491315136484
 31
0.0
  0
LINE
  8
0
  6
CONTINUOUS
 62
               3
  5
1D0
 10
-135.73759305210916
 20
240.84491315136484
 30
0.0
 11
-159.73759305210916
 21
240.84491315136484
 31
0.0
  0
LINE
  8
0
  6
CONTINUOUS
 62
               3
  5
1D1
 10
-162.73759305210916
 20
243.84491315136484
 30
0.0
 11
-162.73759305210916
 21
267.84491315136484
 31
0.0
  0
LINE
  8
0
  6
CONTINUOUS
 62
               3
  5
1D2
 10
-132.73759305210916
 20
267.84491315136484
 30
0.0
 11
-132.73759305210916
 21
243.84491315136484
 31
0.0
  0
ARC
  8
0
  6
CONTINUOUS
 62
               3
  5
1D3
 10
-159.73759305210916
 20
267.84491315136484
 30
0.0
 40
3.0
 50
89.999999999999801
 51
179.9999999999996
  0
ARC
  8
0
  6
CONTINUOUS
 62
               3
  5
1D4
 10
-159.73759305210916
 20
243.84491315136484
 30
0.0
 40
3.0
 50
179.9999999999996
 51
269.99999999999937
  0
ARC
  8
0
  6
CONTINUOUS
 62
               3
  5
1D5
 10
-135.73759305210916
 20
243.84491315136484
 30
0.0
 40
3.0
 50
269.99999999999937
 51
359.9999999999992
  0
ARC
  8
0
  6
CONTINUOUS
 62
               3
  5
1D6
 10
-135.73759305210916
 20
267.84491315136484
 30
0.0
 40
3.0
 50
0.0
 51
89.999999999999801
  0
LINE
  8
0
  6
CONTINUOUS
 62
               3
  5
1D7
 10
-110.73759305210918
 20
270.84491315136484
 30
0.0
 11
-86.737593052109176
 21
270.84491315136484
 31
0.0
  0
LINE
  8
0
  6
CONTINUOUS
 62
               3
  5
1D8
 10
-86.737593052109176
 20
240.84491315136484
 30
0.0
 11
-110.73759305210918
 21
240.84491315136484
 31
0.0
  0
LINE
  8
0
  6
CONTINUOUS
 62
               3
  5
1D9
 10
-113.73759305210918
 20
243.84491315136484
 30
0.0
 11
-113.73759305210918
 21
267.84491315136484
 31
0.0
  0
LINE
  8
0
  6
CONTINUOUS
 62
               3
  5
1DA
 10
-83.737593052109176
 20
267.84491315136484
 30
0.0
 11
-83.737593052109176
 21
243.84491315136484
 31
0.0
  0
ARC
  8
0
  6
CONTINUOUS
 62
               3
  5
1DB
 10
-110.73759305210918
 20
267.84491315136484
 30
0.0
 40
3.0
 50
89.999999999999801
 51
179.9999999999996
  0
ARC
  8
0
  6
CONTINUOUS
 62
               3
  5
1DC
 10
-110.73759305210918
 20
243.84491315136484
 30
0.0
 40
3.0
 50
179.9999999999996
 51
269.99999999999937
  0
ARC
  8
0
  6
CONTINUOUS
 62
               3
  5
1DD
 10
-86.737593052109176
 20
243.84491315136484
 30
0.0
 40
3.0
 50
269.99999999999937
 51
359.9999999999992
  0
ARC
  8
0
  6
CONTINUOUS
 62
               3
  5
1DE
 10
-86.737593052109176
 20
267.84491315136484
 30
0.0
 40
3.0
 50
0.0
 51
89.999999999999801
  0
LINE
  8
0
  6
CONTINUOUS
 62
               3
  5
1DF
 10
-61.737593052109169
 20
270.84491315136484
 30
0.0
 11
-37.737593052109169
 21
270.84491315136484
 31
0.0
  0
LINE
  8
0
  6
CONTINUOUS
 62
               3
  5
1E0
 10
-37.737593052109169
 20
240.84491315136484
 30
0.0
 11
-61.737593052109169
 21
240.84491315136484
 31
0.0
  0
LINE
  8
0
  6
CONTINUOUS
 62
               3
  5
1E1
 10
-64.737593052109176
 20
243.84491315136484
 30
0.0
 11
-64.737593052109176
 21
267.84491315136484
 31
0.0
  0
LINE
  8
0
  6
CONTINUOUS
 62
               3
  5
1E2
 10
-34.737593052109169
 20
267.84491315136484
 30
0.0
 11
-34.737593052109169
 21
243.84491315136484
 31
0.0
  0
ARC
  8
0
  6
CONTINUOUS
 62
               3
  5
1E3
 10
-61.737593052109169
 20
267.84491315136484
 30
0.0
 40
3.0
 50
89.999999999999801
 51
179.9999999999996
  0
ARC
  8
0
  6
CONTINUOUS
 62
               3
  5
1E4
 10
-61.737593052109169
 20
243.84491315136484
 30
0.0
 40
3.0
 50
179.9999999999996
 51
269.99999999999937
  0
ARC
  8
0
  6
CONTINUOUS
 62
               3
  5
1E5
 10
-37.737593052109169
 20
243.84491315136484
 30
0.0
 40
3.0
 50
269.99999999999937
 51
359.9999999999992
  0
ARC
  8
0
  6
CONTINUOUS
 62
               3
  5
1E6
 10
-37.737593052109169
 20
267.84491315136484
 30
0.0
 40
3.0
 50
0.0
 51
89.999999999999801
  0
LINE
  8
0
  6
CONTINUOUS
 62
               3
  5
1E7
 10
-12.737593052109169
 20
270.84491315136484
 30
0.0
 11
11.262406947890831
 21
270.84491315136484
 31
0.0
  0
LINE
  8
0
  6
CONTINUOUS
 62
               3
  5
1E8
 10
11.262406947890831
 20
240.84491315136484
 30
0.0
 11
-12.737593052109169
 21
240.84491315136484
 31
0.0
  0
LINE
  8
0
  6
CONTINUOUS
 62
               3
  5
1E9
 10
-15.737593052109169
 20
243.84491315136484
 30
0.0
 11
-15.737593052109169
 21
267.84491315136484
 31
0.0
  0
LINE
  8
0
  6
CONTINUOUS
 62
               3
  5
1EA
 10
14.262406947890831
 20
267.84491315136484
 30
0.0
 11
14.262406947890831
 21
243.84491315136484
 31
0.0
  0
ARC
  8
0
  6
CONTINUOUS
 62
               3
  5
1EB
 10
-12.737593052109169
 20
267.84491315136484
 30
0.0
 40
3.0
 50
89.999999999999801
 51
179.9999999999996
  0
ARC
  8
0
  6
CONTINUOUS
 62
               3
  5
1EC
 10
-12.737593052109169
 20
243.84491315136484
 30
0.0
 40
3.0
 50
179.9999999999996
 51
269.99999999999937
  0
ARC
  8
0
  6
CONTINUOUS
 62
               3
  5
1ED
 10
11.262406947890831
 20
243.84491315136484
 30
0.0
 40
3.0
 50
269.99999999999937
 51
359.9999999999992
  0
ARC
  8
0
  6
CONTINUOUS
 62
               3
  5
1EE
 10
11.262406947890831
 20
267.84491315136484
 30
0.0
 40
3.0
 50
0.0
 51
89.999999999999801
  0
LINE
  8
0
  6
CONTINUOUS
 62
               3
  5
1EF
 10
36.262406947890831
 20
270.84491315136484
 30
0.0
 11
60.262406947890831
 21
270.84491315136484
 31
0.0
  0
LINE
  8
0
  6
CONTINUOUS
 62
               3
  5
1F0
 10
60.262406947890831
 20
240.84491315136484
 30
0.0
 11
36.262406947890831
 21
240.84491315136484
 31
0.0
  0
LINE
  8
0
  6
CONTINUOUS
 62
               3
  5
1F1
 10
33.262406947890831
 20
243.84491315136484
 30
0.0
 11
33.262406947890831
 21
267.84491315136484
 31
0.0
  0
LINE
  8
0
  6
CONTINUOUS
 62
               3
  5
1F2
 10
63.262406947890831
 20
267.84491315136484
 30
0.0
 11
63.262406947890831
 21
243.84491315136484
 31
0.0
  0
ARC
  8
0
  6
CONTINUOUS
 62
               3
  5
1F3
 10
36.262406947890831
 20
267.84491315136484
 30
0.0
 40
3.0
 50
89.999999999999801
 51
179.9999999999996
  0
ARC
  8
0
  6
CONTINUOUS
 62
               3
  5
1F4
 10
36.262406947890831
 20
243.84491315136484
 30
0.0
 40
3.0
 50
179.9999999999996
 51
269.99999999999937
  0
ARC
  8
0
  6
CONTINUOUS
 62
               3
  5
1F5
 10
60.262406947890831
 20
243.84491315136484
 30
0.0
 40
3.0
 50
269.99999999999937
 51
359.9999999999992
  0
ARC
  8
0
  6
CONTINUOUS
 62
               3
  5
1F6
 10
60.262406947890831
 20
267.84491315136484
 30
0.0
 40
3.0
 50
0.0
 51
89.999999999999801
  0
LINE
  8
0
  6
CONTINUOUS
 62
               3
  5
1F7
 10
85.262406947890824
 20
270.84491315136484
 30
0.0
 11
109.26240694789082
 21
270.84491315136484
 31
0.0
  0
LINE
  8
0
  6
CONTINUOUS
 62
               3
  5
1F8
 10
109.26240694789082
 20
240.84491315136484
 30
0.0
 11
85.262406947890824
 21
240.84491315136484
 31
0.0
  0
LINE
  8
0
  6
CONTINUOUS
 62
               3
  5
1F9
 10
82.262406947890824
 20
243.84491315136484
 30
0.0
 11
82.262406947890824
 21
267.84491315136484
 31
0.0
  0
LINE
  8
0
  6
CONTINUOUS
 62
               3
  5
1FA
 10
112.26240694789082
 20
267.84491315136484
 30
0.0
 11
112.26240694789082
 21
243.84491315136484
 31
0.0
  0
ARC
  8
0
  6
CONTINUOUS
 62
               3
  5
1FB
 10
85.262406947890824
 20
267.84491315136484
 30
0.0
 40
3.0
 50
89.999999999999801
 51
179.9999999999996
  0
ARC
  8
0
  6
CONTINUOUS
 62
               3
  5
1FC
 10
85.262406947890824
 20
243.84491315136484
 30
0.0
 40
3.0
 50
179.9999999999996
 51
269.99999999999937
  0
ARC
  8
0
  6
CONTINUOUS
 62
               3
  5
1FD
 10
109.26240694789082
 20
243.84491315136484
 30
0.0
 40
3.0
 50
269.99999999999937
 51
359.9999999999992
  0
ARC
  8
0
  6
CONTINUOUS
 62
               3
  5
1FE
 10
109.26240694789082
 20
267.84491315136484
 30
0.0
 40
3.0
 50
0.0
 51
89.999999999999801
  0
LINE
  8
0
  6
CONTINUOUS
 62
               3
  5
1FF
 10
134.26240694789084
 20
270.84491315136484
 30
0.0
 11
158.26240694789084
 21
270.84491315136484
 31
0.0
  0
LINE
  8
0
  6
CONTINUOUS
 62
               3
  5
200
 10
158.26240694789084
 20
240.84491315136484
 30
0.0
 11
134.26240694789084
 21
240.84491315136484
 31
0.0
  0
LINE
  8
0
  6
CONTINUOUS
 62
               3
  5
201
 10
131.26240694789084
 20
243.84491315136484
 30
0.0
 11
131.26240694789084
 21
267.84491315136484
 31
0.0
  0
LINE
  8
0
  6
CONTINUOUS
 62
               3
  5
202
 10
161.26240694789084
 20
267.84491315136484
 30
0.0
 11
161.26240694789084
 21
243.84491315136484
 31
0.0
  0
ARC
  8
0
  6
CONTINUOUS
 62
               3
  5
203
 10
134.26240694789084
 20
267.84491315136484
 30
0.0
 40
3.0
 50
89.999999999999801
 51
179.9999999999996
  0
ARC
  8
0
  6
CONTINUOUS
 62
               3
  5
204
 10
134.26240694789084
 20
243.84491315136484
 30
0.0
 40
3.0
 50
179.9999999999996
 51
269.99999999999937
  0
ARC
  8
0
  6
CONTINUOUS
 62
               3
  5
205
 10
158.26240694789084
 20
243.84491315136484
 30
0.0
 40
3.0
 50
269.99999999999937
 51
359.9999999999992
  0
ARC
  8
0
  6
CONTINUOUS
 62
               3
  5
206
 10
158.26240694789084
 20
267.84491315136484
 30
0.0
 40
3.0
 50
0.0
 51
89.999999999999801
  0
LINE
  8
0
  6
CONTINUOUS
 62
               3
  5
207
 10
183.26240694789078
 20
270.84491315136484
 30
0.0
 11
207.26240694789078
 21
270.84491315136484
 31
0.0
  0
LINE
  8
0
  6
CONTINUOUS
 62
               3
  5
208
 10
207.26240694789078
 20
240.84491315136484
 30
0.0
 11
183.26240694789078
 21
240.84491315136484
 31
0.0
  0
LINE
  8
0
  6
CONTINUOUS
 62
               3
  5
209
 10
180.26240694789078
 20
243.84491315136484
 30
0.0
 11
180.26240694789078
 21
267.84491315136484
 31
0.0
  0
LINE
  8
0
  6
CONTINUOUS
 62
               3
  5
20A
 10
210.26240694789078
 20
267.84491315136484
 30
0.0
 11
210.26240694789078
 21
243.84491315136484
 31
0.0
  0
ARC
  8
0
  6
CONTINUOUS
 62
               3
  5
20B
 10
183.26240694789078
 20
267.84491315136484
 30
0.0
 40
3.0
 50
89.999999999999801
 51
179.9999999999996
  0
ARC
  8
0
  6
CONTINUOUS
 62
               3
  5
20C
 10
183.26240694789078
 20
243.84491315136484
 30
0.0
 40
3.0
 50
179.9999999999996
 51
269.99999999999937
  0
ARC
  8
0
  6
CONTINUOUS
 62
               3
  5
20D
 10
207.26240694789078
 20
243.84491315136484
 30
0.0
 40
3.0
 50
269.99999999999937
 51
359.9999999999992
  0
ARC
  8
0
  6
CONTINUOUS
 62
               3
  5
20E
 10
207.26240694789078
 20
267.84491315136484
 30
0.0
 40
3.0
 50
0.0
 51
89.999999999999801
  0
LINE
  8
0
  6
CONTINUOUS
 62
               3
  5
20F
 10
-208.73759305210916
 20
221.84491315136484
 30
0.0
 11
-184.73759305210916
 21
221.84491315136484
 31
0.0
  0
LINE
  8
0
  6
CONTINUOUS
 62
               3
  5
210
 10
-184.73759305210916
 20
191.84491315136484
 30
0.0
 11
-208.73759305210916
 21
191.84491315136484
 31
0.0
  0
LINE
  8
0
  6
CONTINUOUS
 62
               3
  5
211
 10
-211.73759305210916
 20
194.84491315136484
 30
0.0
 11
-211.73759305210916
 21
218.84491315136484
 31
0.0
  0
LINE
  8
0
  6
CONTINUOUS
 62
               3
  5
212
 10
-181.73759305210916
 20
218.84491315136484
 30
0.0
 11
-181.73759305210916
 21
194.84491315136484
 31
0.0
  0
ARC
  8
0
  6
CONTINUOUS
 62
               3
  5
213
 10
-208.73759305210916
 20
218.84491315136484
 30
0.0
 40
3.0
 50
89.999999999999801
 51
179.9999999999996
  0
ARC
  8
0
  6
CONTINUOUS
 62
               3
  5
214
 10
-208.73759305210916
 20
194.84491315136484
 30
0.0
 40
3.0
 50
179.9999999999996
 51
269.99999999999937
  0
ARC
  8
0
  6
CONTINUOUS
 62
               3
  5
215
 10
-184.73759305210916
 20
194.84491315136484
 30
0.0
 40
3.0
 50
269.99999999999937
 51
359.9999999999992
  0
ARC
  8
0
  6
CONTINUOUS
 62
               3
  5
216
 10
-184.73759305210916
 20
218.84491315136484
 30
0.0
 40
3.0
 50
0.0
 51
89.999999999999801
  0
LINE
  8
0
  6
CONTINUOUS
 62
               3
  5
217
 10
-159.73759305210916
 20
221.84491315136484
 30
0.0
 11
-135.73759305210916
 21
221.84491315136484
 31
0.0
  0
LINE
  8
0
  6
CONTINUOUS
 62
               3
  5
218
 10
-135.73759305210916
 20
191.84491315136484
 30
0.0
 11
-159.73759305210916
 21
191.84491315136484
 31
0.0
  0
LINE
  8
0
  6
CONTINUOUS
 62
               3
  5
219
 10
-162.73759305210916
 20
194.84491315136484
 30
0.0
 11
-162.73759305210916
 21
218.84491315136484
 31
0.0
  0
LINE
  8
0
  6
CONTINUOUS
 62
               3
  5
21A
 10
-132.73759305210916
 20
218.84491315136484
 30
0.0
 11
-132.73759305210916
 21
194.84491315136484
 31
0.0
  0
ARC
  8
0
  6
CONTINUOUS
 62
               3
  5
21B
 10
-159.73759305210916
 20
218.84491315136484
 30
0.0
 40
3.0
 50
89.999999999999801
 51
179.9999999999996
  0
ARC
  8
0
  6
CONTINUOUS
 62
               3
  5
21C
 10
-159.73759305210916
 20
194.84491315136484
 30
0.0
 40
3.0
 50
179.9999999999996
 51
269.99999999999937
  0
ARC
  8
0
  6
CONTINUOUS
 62
               3
  5
21D
 10
-135.73759305210916
 20
194.84491315136484
 30
0.0
 40
3.0
 50
269.99999999999937
 51
359.9999999999992
  0
ARC
  8
0
  6
CONTINUOUS
 62
               3
  5
21E
 10
-135.73759305210916
 20
218.84491315136484
 30
0.0
 40
3.0
 50
0.0
 51
89.999999999999801
  0
LINE
  8
0
  6
CONTINUOUS
 62
               3
  5
21F
 10
-110.73759305210918
 20
221.84491315136484
 30
0.0
 11
-86.737593052109176
 21
221.84491315136484
 31
0.0
  0
LINE
  8
0
  6
CONTINUOUS
 62
               3
  5
220
 10
-86.737593052109176
 20
191.84491315136484
 30
0.0
 11
-110.73759305210918
 21
191.84491315136484
 31
0.0
  0
LINE
  8
0
  6
CONTINUOUS
 62
               3
  5
221
 10
-113.73759305210918
 20
194.84491315136484
 30
0.0
 11
-113.73759305210918
 21
218.84491315136484
 31
0.0
  0
LINE
  8
0
  6
CONTINUOUS
 62
               3
  5
222
 10
-83.737593052109176
 20
218.84491315136484
 30
0.0
 11
-83.737593052109176
 21
194.84491315136484
 31
0.0
  0
ARC
  8
0
  6
CONTINUOUS
 62
               3
  5
223
 10
-110.73759305210918
 20
218.84491315136484
 30
0.0
 40
3.0
 50
89.999999999999801
 51
179.9999999999996
  0
ARC
  8
0
  6
CONTINUOUS
 62
               3
  5
224
 10
-110.73759305210918
 20
194.84491315136484
 30
0.0
 40
3.0
 50
179.9999999999996
 51
269.99999999999937
  0
ARC
  8
0
  6
CONTINUOUS
 62
               3
  5
225
 10
-86.737593052109176
 20
194.84491315136484
 30
0.0
 40
3.0
 50
269.99999999999937
 51
359.9999999999992
  0
ARC
  8
0
  6
CONTINUOUS
 62
               3
  5
226
 10
-86.737593052109176
 20
218.84491315136484
 30
0.0
 40
3.0
 50
0.0
 51
89.999999999999801
  0
LINE
  8
0
  6
CONTINUOUS
 62
               3
  5
227
 10
-61.737593052109169
 20
221.84491315136484
 30
0.0
 11
-37.737593052109169
 21
221.84491315136484
 31
0.0
  0
LINE
  8
0
  6
CONTINUOUS
 62
               3
  5
228
 10
-37.737593052109169
 20
191.84491315136484
 30
0.0
 11
-61.737593052109169
 21
191.84491315136484
 31
0.0
  0
LINE
  8
0
  6
CONTINUOUS
 62
               3
  5
229
 10
-64.737593052109176
 20
194.84491315136484
 30
0.0
 11
-64.737593052109176
 21
218.84491315136484
 31
0.0
  0
LINE
  8
0
  6
CONTINUOUS
 62
               3
  5
22A
 10
-34.737593052109169
 20
218.84491315136484
 30
0.0
 11
-34.737593052109169
 21
194.84491315136484
 31
0.0
  0
ARC
  8
0
  6
CONTINUOUS
 62
               3
  5
22B
 10
-61.737593052109169
 20
218.84491315136484
 30
0.0
 40
3.0
 50
89.999999999999801
 51
179.9999999999996
  0
ARC
  8
0
  6
CONTINUOUS
 62
               3
  5
22C
 10
-61.737593052109169
 20
194.84491315136484
 30
0.0
 40
3.0
 50
179.9999999999996
 51
269.99999999999937
  0
ARC
  8
0
  6
CONTINUOUS
 62
               3
  5
22D
 10
-37.737593052109169
 20
194.84491315136484
 30
0.0
 40
3.0
 50
269.99999999999937
 51
359.9999999999992
  0
ARC
  8
0
  6
CONTINUOUS
 62
               3
  5
22E
 10
-37.737593052109169
 20
218.84491315136484
 30
0.0
 40
3.0
 50
0.0
 51
89.999999999999801
  0
LINE
  8
0
  6
CONTINUOUS
 62
               3
  5
22F
 10
-12.737593052109169
 20
221.84491315136484
 30
0.0
 11
11.262406947890831
 21
221.84491315136484
 31
0.0
  0
LINE
  8
0
  6
CONTINUOUS
 62
               3
  5
230
 10
11.262406947890831
 20
191.84491315136484
 30
0.0
 11
-12.737593052109169
 21
191.84491315136484
 31
0.0
  0
LINE
  8
0
  6
CONTINUOUS
 62
               3
  5
231
 10
-15.737593052109169
 20
194.84491315136484
 30
0.0
 11
-15.737593052109169
 21
218.84491315136484
 31
0.0
  0
LINE
  8
0
  6
CONTINUOUS
 62
               3
  5
232
 10
14.262406947890831
 20
218.84491315136484
 30
0.0
 11
14.262406947890831
 21
194.84491315136484
 31
0.0
  0
ARC
  8
0
  6
CONTINUOUS
 62
               3
  5
233
 10
-12.737593052109169
 20
218.84491315136484
 30
0.0
 40
3.0
 50
89.999999999999801
 51
179.9999999999996
  0
ARC
  8
0
  6
CONTINUOUS
 62
               3
  5
234
 10
-12.737593052109169
 20
194.84491315136484
 30
0.0
 40
3.0
 50
179.9999999999996
 51
269.99999999999937
  0
ARC
  8
0
  6
CONTINUOUS
 62
               3
  5
235
 10
11.262406947890831
 20
194.84491315136484
 30
0.0
 40
3.0
 50
269.99999999999937
 51
359.9999999999992
  0
ARC
  8
0
  6
CONTINUOUS
 62
               3
  5
236
 10
11.262406947890831
 20
218.84491315136484
 30
0.0
 40
3.0
 50
0.0
 51
89.999999999999801
  0
LINE
  8
0
  6
CONTINUOUS
 62
               3
  5
237
 10
36.262406947890831
 20
221.84491315136484
 30
0.0
 11
60.262406947890831
 21
221.84491315136484
 31
0.0
  0
LINE
  8
0
  6
CONTINUOUS
 62
               3
  5
238
 10
60.262406947890831
 20
191.84491315136484
 30
0.0
 11
36.262406947890831
 21
191.84491315136484
 31
0.0
  0
LINE
  8
0
  6
CONTINUOUS
 62
               3
  5
239
 10
33.262406947890831
 20
194.84491315136484
 30
0.0
 11
33.262406947890831
 21
218.84491315136484
 31
0.0
  0
LINE
  8
0
  6
CONTINUOUS
 62
               3
  5
23A
 10
63.262406947890831
 20
218.84491315136484
 30
0.0
 11
63.262406947890831
 21
194.84491315136484
 31
0.0
  0
ARC
  8
0
  6
CONTINUOUS
 62
               3
  5
23B
 10
36.262406947890831
 20
218.84491315136484
 30
0.0
 40
3.0
 50
89.999999999999801
 51
179.9999999999996
  0
ARC
  8
0
  6
CONTINUOUS
 62
               3
  5
23C
 10
36.262406947890831
 20
194.84491315136484
 30
0.0
 40
3.0
 50
179.9999999999996
 51
269.99999999999937
  0
ARC
  8
0
  6
CONTINUOUS
 62
               3
  5
23D
 10
60.262406947890831
 20
194.84491315136484
 30
0.0
 40
3.0
 50
269.99999999999937
 51
359.9999999999992
  0
ARC
  8
0
  6
CONTINUOUS
 62
               3
  5
23E
 10
60.262406947890831
 20
218.84491315136484
 30
0.0
 40
3.0
 50
0.0
 51
89.999999999999801
  0
LINE
  8
0
  6
CONTINUOUS
 62
               3
  5
23F
 10
85.262406947890824
 20
221.84491315136484
 30
0.0
 11
109.26240694789082
 21
221.84491315136484
 31
0.0
  0
LINE
  8
0
  6
CONTINUOUS
 62
               3
  5
240
 10
109.26240694789082
 20
191.84491315136484
 30
0.0
 11
85.262406947890824
 21
191.84491315136484
 31
0.0
  0
LINE
  8
0
  6
CONTINUOUS
 62
               3
  5
241
 10
82.262406947890824
 20
194.84491315136484
 30
0.0
 11
82.262406947890824
 21
218.84491315136484
 31
0.0
  0
LINE
  8
0
  6
CONTINUOUS
 62
               3
  5
242
 10
112.26240694789082
 20
218.84491315136484
 30
0.0
 11
112.26240694789082
 21
194.84491315136484
 31
0.0
  0
ARC
  8
0
  6
CONTINUOUS
 62
               3
  5
243
 10
85.262406947890824
 20
218.84491315136484
 30
0.0
 40
3.0
 50
89.999999999999801
 51
179.9999999999996
  0
ARC
  8
0
  6
CONTINUOUS
 62
               3
  5
244
 10
85.262406947890824
 20
194.84491315136484
 30
0.0
 40
3.0
 50
179.9999999999996
 51
269.99999999999937
  0
ARC
  8
0
  6
CONTINUOUS
 62
               3
  5
245
 10
109.26240694789082
 20
194.84491315136484
 30
0.0
 40
3.0
 50
269.99999999999937
 51
359.9999999999992
  0
ARC
  8
0
  6
CONTINUOUS
 62
               3
  5
246
 10
109.26240694789082
 20
218.84491315136484
 30
0.0
 40
3.0
 50
0.0
 51
89.999999999999801
  0
LINE
  8
0
  6
CONTINUOUS
 62
               3
  5
247
 10
134.26240694789084
 20
221.84491315136484
 30
0.0
 11
158.26240694789084
 21
221.84491315136484
 31
0.0
  0
LINE
  8
0
  6
CONTINUOUS
 62
               3
  5
248
 10
158.26240694789084
 20
191.84491315136484
 30
0.0
 11
134.26240694789084
 21
191.84491315136484
 31
0.0
  0
LINE
  8
0
  6
CONTINUOUS
 62
               3
  5
249
 10
131.26240694789084
 20
194.84491315136484
 30
0.0
 11
131.26240694789084
 21
218.84491315136484
 31
0.0
  0
LINE
  8
0
  6
CONTINUOUS
 62
               3
  5
24A
 10
161.26240694789084
 20
218.84491315136484
 30
0.0
 11
161.26240694789084
 21
194.84491315136484
 31
0.0
  0
ARC
  8
0
  6
CONTINUOUS
 62
               3
  5
24B
 10
134.26240694789084
 20
218.84491315136484
 30
0.0
 40
3.0
 50
89.999999999999801
 51
179.9999999999996
  0
ARC
  8
0
  6
CONTINUOUS
 62
               3
  5
24C
 10
134.26240694789084
 20
194.84491315136484
 30
0.0
 40
3.0
 50
179.9999999999996
 51
269.99999999999937
  0
ARC
  8
0
  6
CONTINUOUS
 62
               3
  5
24D
 10
158.26240694789084
 20
194.84491315136484
 30
0.0
 40
3.0
 50
269.99999999999937
 51
359.9999999999992
  0
ARC
  8
0
  6
CONTINUOUS
 62
               3
  5
24E
 10
158.26240694789084
 20
218.84491315136484
 30
0.0
 40
3.0
 50
0.0
 51
89.999999999999801
  0
LINE
  8
0
  6
CONTINUOUS
 62
               3
  5
24F
 10
183.26240694789078
 20
221.84491315136484
 30
0.0
 11
207.26240694789078
 21
221.84491315136484
 31
0.0
  0
LINE
  8
0
  6
CONTINUOUS
 62
               3
  5
250
 10
207.26240694789078
 20
191.84491315136484
 30
0.0
 11
183.26240694789078
 21
191.84491315136484
 31
0.0
  0
LINE
  8
0
  6
CONTINUOUS
 62
               3
  5
251
 10
180.26240694789078
 20
194.84491315136484
 30
0.0
 11
180.26240694789078
 21
218.84491315136484
 31
0.0
  0
LINE
  8
0
  6
CONTINUOUS
 62
               3
  5
252
 10
210.26240694789078
 20
218.84491315136484
 30
0.0
 11
210.26240694789078
 21
194.84491315136484
 31
0.0
  0
ARC
  8
0
  6
CONTINUOUS
 62
               3
  5
253
 10
183.26240694789078
 20
218.84491315136484
 30
0.0
 40
3.0
 50
89.999999999999801
 51
179.9999999999996
  0
ARC
  8
0
  6
CONTINUOUS
 62
               3
  5
254
 10
183.26240694789078
 20
194.84491315136484
 30
0.0
 40
3.0
 50
179.9999999999996
 51
269.99999999999937
  0
ARC
  8
0
  6
CONTINUOUS
 62
               3
  5
255
 10
207.26240694789078
 20
194.84491315136484
 30
0.0
 40
3.0
 50
269.99999999999937
 51
359.9999999999992
  0
ARC
  8
0
  6
CONTINUOUS
 62
               3
  5
256
 10
207.26240694789078
 20
218.84491315136484
 30
0.0
 40
3.0
 50
0.0
 51
89.999999999999801
  0
LINE
  8
0
  6
CONTINUOUS
 62
               3
  5
257
 10
-208.73759305210916
 20
172.84491315136484
 30
0.0
 11
-184.73759305210916
 21
172.84491315136484
 31
0.0
  0
LINE
  8
0
  6
CONTINUOUS
 62
               3
  5
258
 10
-184.73759305210916
 20
142.84491315136484
 30
0.0
 11
-208.73759305210916
 21
142.84491315136484
 31
0.0
  0
LINE
  8
0
  6
CONTINUOUS
 62
               3
  5
259
 10
-211.73759305210916
 20
145.84491315136484
 30
0.0
 11
-211.73759305210916
 21
169.84491315136484
 31
0.0
  0
LINE
  8
0
  6
CONTINUOUS
 62
               3
  5
25A
 10
-181.73759305210916
 20
169.84491315136484
 30
0.0
 11
-181.73759305210916
 21
145.84491315136484
 31
0.0
  0
ARC
  8
0
  6
CONTINUOUS
 62
               3
  5
25B
 10
-208.73759305210916
 20
169.84491315136484
 30
0.0
 40
3.0
 50
89.999999999999801
 51
179.9999999999996
  0
ARC
  8
0
  6
CONTINUOUS
 62
               3
  5
25C
 10
-208.73759305210916
 20
145.84491315136484
 30
0.0
 40
3.0
 50
179.9999999999996
 51
269.99999999999937
  0
ARC
  8
0
  6
CONTINUOUS
 62
               3
  5
25D
 10
-184.73759305210916
 20
145.84491315136484
 30
0.0
 40
3.0
 50
269.99999999999937
 51
359.9999999999992
  0
ARC
  8
0
  6
CONTINUOUS
 62
               3
  5
25E
 10
-184.73759305210916
 20
169.84491315136484
 30
0.0
 40
3.0
 50
0.0
 51
89.999999999999801
  0
LINE
  8
0
  6
CONTINUOUS
 62
               3
  5
25F
 10
-159.73759305210916
 20
172.84491315136484
 30
0.0
 11
-135.73759305210916
 21
172.84491315136484
 31
0.0
  0
LINE
  8
0
  6
CONTINUOUS
 62
               3
  5
260
 10
-135.73759305210916
 20
142.84491315136484
 30
0.0
 11
-159.73759305210916
 21
142.84491315136484
 31
0.0
  0
LINE
  8
0
  6
CONTINUOUS
 62
               3
  5
261
 10
-162.73759305210916
 20
145.84491315136484
 30
0.0
 11
-162.73759305210916
 21
169.84491315136484
 31
0.0
  0
LINE
  8
0
  6
CONTINUOUS
 62
               3
  5
262
 10
-132.73759305210916
 20
169.84491315136484
 30
0.0
 11
-132.73759305210916
 21
145.84491315136484
 31
0.0
  0
ARC
  8
0
  6
CONTINUOUS
 62
               3
  5
263
 10
-159.73759305210916
 20
169.84491315136484
 30
0.0
 40
3.0
 50
89.999999999999801
 51
179.9999999999996
  0
ARC
  8
0
  6
CONTINUOUS
 62
               3
  5
264
 10
-159.73759305210916
 20
145.84491315136484
 30
0.0
 40
3.0
 50
179.9999999999996
 51
269.99999999999937
  0
ARC
  8
0
  6
CONTINUOUS
 62
               3
  5
265
 10
-135.73759305210916
 20
145.84491315136484
 30
0.0
 40
3.0
 50
269.99999999999937
 51
359.9999999999992
  0
ARC
  8
0
  6
CONTINUOUS
 62
               3
  5
266
 10
-135.73759305210916
 20
169.84491315136484
 30
0.0
 40
3.0
 50
0.0
 51
89.999999999999801
  0
LINE
  8
0
  6
CONTINUOUS
 62
               3
  5
267
 10
-110.73759305210918
 20
172.84491315136484
 30
0.0
 11
-86.737593052109176
 21
172.84491315136484
 31
0.0
  0
LINE
  8
0
  6
CONTINUOUS
 62
               3
  5
268
 10
-86.737593052109176
 20
142.84491315136484
 30
0.0
 11
-110.73759305210918
 21
142.84491315136484
 31
0.0
  0
LINE
  8
0
  6
CONTINUOUS
 62
               3
  5
269
 10
-113.73759305210918
 20
145.84491315136484
 30
0.0
 11
-113.73759305210918
 21
169.84491315136484
 31
0.0
  0
LINE
  8
0
  6
CONTINUOUS
 62
               3
  5
26A
 10
-83.737593052109176
 20
169.84491315136484
 30
0.0
 11
-83.737593052109176
 21
145.84491315136484
 31
0.0
  0
ARC
  8
0
  6
CONTINUOUS
 62
               3
  5
26B
 10
-110.73759305210918
 20
169.84491315136484
 30
0.0
 40
3.0
 50
89.999999999999801
 51
179.9999999999996
  0
ARC
  8
0
  6
CONTINUOUS
 62
               3
  5
26C
 10
-110.73759305210918
 20
145.84491315136484
 30
0.0
 40
3.0
 50
179.9999999999996
 51
269.99999999999937
  0
ARC
  8
0
  6
CONTINUOUS
 62
               3
  5
26D
 10
-86.737593052109176
 20
145.84491315136484
 30
0.0
 40
3.0
 50
269.99999999999937
 51
359.9999999999992
  0
ARC
  8
0
  6
CONTINUOUS
 62
               3
  5
26E
 10
-86.737593052109176
 20
169.84491315136484
 30
0.0
 40
3.0
 50
0.0
 51
89.999999999999801
  0
LINE
  8
0
  6
CONTINUOUS
 62
               3
  5
26F
 10
-61.737593052109169
 20
172.84491315136484
 30
0.0
 11
-37.737593052109169
 21
172.84491315136484
 31
0.0
  0
LINE
  8
0
  6
CONTINUOUS
 62
               3
  5
270
 10
-37.737593052109169
 20
142.84491315136484
 30
0.0
 11
-61.737593052109169
 21
142.84491315136484
 31
0.0
  0
LINE
  8
0
  6
CONTINUOUS
 62
               3
  5
271
 10
-64.737593052109176
 20
145.84491315136484
 30
0.0
 11
-64.737593052109176
 21
169.84491315136484
 31
0.0
  0
LINE
  8
0
  6
CONTINUOUS
 62
               3
  5
272
 10
-34.737593052109169
 20
169.84491315136484
 30
0.0
 11
-34.737593052109169
 21
145.84491315136484
 31
0.0
  0
ARC
  8
0
  6
CONTINUOUS
 62
               3
  5
273
 10
-61.737593052109169
 20
169.84491315136484
 30
0.0
 40
3.0
 50
89.999999999999801
 51
179.9999999999996
  0
ARC
  8
0
  6
CONTINUOUS
 62
               3
  5
274
 10
-61.737593052109169
 20
145.84491315136484
 30
0.0
 40
3.0
 50
179.9999999999996
 51
269.99999999999937
  0
ARC
  8
0
  6
CONTINUOUS
 62
               3
  5
275
 10
-37.737593052109169
 20
145.84491315136484
 30
0.0
 40
3.0
 50
269.99999999999937
 51
359.9999999999992
  0
ARC
  8
0
  6
CONTINUOUS
 62
               3
  5
276
 10
-37.737593052109169
 20
169.84491315136484
 30
0.0
 40
3.0
 50
0.0
 51
89.999999999999801
  0
LINE
  8
0
  6
CONTINUOUS
 62
               3
  5
277
 10
-12.737593052109169
 20
172.84491315136484
 30
0.0
 11
11.262406947890831
 21
172.84491315136484
 31
0.0
  0
LINE
  8
0
  6
CONTINUOUS
 62
               3
  5
278
 10
11.262406947890831
 20
142.84491315136484
 30
0.0
 11
-12.737593052109169
 21
142.84491315136484
 31
0.0
  0
LINE
  8
0
  6
CONTINUOUS
 62
               3
  5
279
 10
-15.737593052109169
 20
145.84491315136484
 30
0.0
 11
-15.737593052109169
 21
169.84491315136484
 31
0.0
  0
LINE
  8
0
  6
CONTINUOUS
 62
               3
  5
27A
 10
14.262406947890831
 20
169.84491315136484
 30
0.0
 11
14.262406947890831
 21
145.84491315136484
 31
0.0
  0
ARC
  8
0
  6
CONTINUOUS
 62
               3
  5
27B
 10
-12.737593052109169
 20
169.84491315136484
 30
0.0
 40
3.0
 50
89.999999999999801
 51
179.9999999999996
  0
ARC
  8
0
  6
CONTINUOUS
 62
               3
  5
27C
 10
-12.737593052109169
 20
145.84491315136484
 30
0.0
 40
3.0
 50
179.9999999999996
 51
269.99999999999937
  0
ARC
  8
0
  6
CONTINUOUS
 62
               3
  5
27D
 10
11.262406947890831
 20
145.84491315136484
 30
0.0
 40
3.0
 50
269.99999999999937
 51
359.9999999999992
  0
ARC
  8
0
  6
CONTINUOUS
 62
               3
  5
27E
 10
11.262406947890831
 20
169.84491315136484
 30
0.0
 40
3.0
 50
0.0
 51
89.999999999999801
  0
LINE
  8
0
  6
CONTINUOUS
 62
               3
  5
27F
 10
36.262406947890831
 20
172.84491315136484
 30
0.0
 11
60.262406947890831
 21
172.84491315136484
 31
0.0
  0
LINE
  8
0
  6
CONTINUOUS
 62
               3
  5
280
 10
60.262406947890831
 20
142.84491315136484
 30
0.0
 11
36.262406947890831
 21
142.84491315136484
 31
0.0
  0
LINE
  8
0
  6
CONTINUOUS
 62
               3
  5
281
 10
33.262406947890831
 20
145.84491315136484
 30
0.0
 11
33.262406947890831
 21
169.84491315136484
 31
0.0
  0
LINE
  8
0
  6
CONTINUOUS
 62
               3
  5
282
 10
63.262406947890831
 20
169.84491315136484
 30
0.0
 11
63.262406947890831
 21
145.84491315136484
 31
0.0
  0
ARC
  8
0
  6
CONTINUOUS
 62
               3
  5
283
 10
36.262406947890831
 20
169.84491315136484
 30
0.0
 40
3.0
 50
89.999999999999801
 51
179.9999999999996
  0
ARC
  8
0
  6
CONTINUOUS
 62
               3
  5
284
 10
36.262406947890831
 20
145.84491315136484
 30
0.0
 40
3.0
 50
179.9999999999996
 51
269.99999999999937
  0
ARC
  8
0
  6
CONTINUOUS
 62
               3
  5
285
 10
60.262406947890831
 20
145.84491315136484
 30
0.0
 40
3.0
 50
269.99999999999937
 51
359.9999999999992
  0
ARC
  8
0
  6
CONTINUOUS
 62
               3
  5
286
 10
60.262406947890831
 20
169.84491315136484
 30
0.0
 40
3.0
 50
0.0
 51
89.999999999999801
  0
LINE
  8
0
  6
CONTINUOUS
 62
               3
  5
287
 10
85.262406947890824
 20
172.84491315136484
 30
0.0
 11
109.26240694789082
 21
172.84491315136484
 31
0.0
  0
LINE
  8
0
  6
CONTINUOUS
 62
               3
  5
288
 10
109.26240694789082
 20
142.84491315136484
 30
0.0
 11
85.262406947890824
 21
142.84491315136484
 31
0.0
  0
LINE
  8
0
  6
CONTINUOUS
 62
               3
  5
289
 10
82.262406947890824
 20
145.84491315136484
 30
0.0
 11
82.262406947890824
 21
169.84491315136484
 31
0.0
  0
LINE
  8
0
  6
CONTINUOUS
 62
               3
  5
28A
 10
112.26240694789082
 20
169.84491315136484
 30
0.0
 11
112.26240694789082
 21
145.84491315136484
 31
0.0
  0
ARC
  8
0
  6
CONTINUOUS
 62
               3
  5
28B
 10
85.262406947890824
 20
169.84491315136484
 30
0.0
 40
3.0
 50
89.999999999999801
 51
179.9999999999996
  0
ARC
  8
0
  6
CONTINUOUS
 62
               3
  5
28C
 10
85.262406947890824
 20
145.84491315136484
 30
0.0
 40
3.0
 50
179.9999999999996
 51
269.99999999999937
  0
ARC
  8
0
  6
CONTINUOUS
 62
               3
  5
28D
 10
109.26240694789082
 20
145.84491315136484
 30
0.0
 40
3.0
 50
269.99999999999937
 51
359.9999999999992
  0
ARC
  8
0
  6
CONTINUOUS
 62
               3
  5
28E
 10
109.26240694789082
 20
169.84491315136484
 30
0.0
 40
3.0
 50
0.0
 51
89.999999999999801
  0
LINE
  8
0
  6
CONTINUOUS
 62
               3
  5
28F
 10
134.26240694789084
 20
172.84491315136484
 30
0.0
 11
148.76240694789084
 21
172.84491315136484
 31
0.0
  0
LINE
  8
0
  6
CONTINUOUS
 62
               3
  5
290
 10
148.76240694789084
 20
142.84491315136484
 30
0.0
 11
134.26240694789084
 21
142.84491315136484
 31
0.0
  0
LINE
  8
0
  6
CONTINUOUS
 62
               3
  5
291
 10
131.26240694789084
 20
145.84491315136484
 30
0.0
 11
131.26240694789084
 21
169.84491315136484
 31
0.0
  0
LINE
  8
0
  6
CONTINUOUS
 62
               3
  5
292
 10
151.76240694789084
 20
169.84491315136484
 30
0.0
 11
151.76240694789084
 21
145.84491315136484
 31
0.0
  0
ARC
  8
0
  6
CONTINUOUS
 62
               3
  5
293
 10
134.26240694789084
 20
169.84491315136484
 30
0.0
 40
3.0
 50
89.999999999999801
 51
179.9999999999996
  0
ARC
  8
0
  6
CONTINUOUS
 62
               3
  5
294
 10
134.26240694789084
 20
145.84491315136484
 30
0.0
 40
3.0
 50
179.9999999999996
 51
269.99999999999937
  0
ARC
  8
0
  6
CONTINUOUS
 62
               3
  5
295
 10
148.76240694789084
 20
145.84491315136484
 30
0.0
 40
3.0
 50
269.99999999999937
 51
359.9999999999992
  0
ARC
  8
0
  6
CONTINUOUS
 62
               3
  5
296
 10
148.76240694789084
 20
169.84491315136484
 30
0.0
 40
3.0
 50
0.0
 51
89.999999999999801
  0
LINE
  8
0
  6
CONTINUOUS
 62
               3
  5
297
 10
192.76240694789078
 20
172.84491315136484
 30
0.0
 11
207.26240694789078
 21
172.84491315136484
 31
0.0
  0
LINE
  8
0
  6
CONTINUOUS
 62
               3
  5
298
 10
207.26240694789078
 20
142.84491315136484
 30
0.0
 11
192.76240694789078
 21
142.84491315136484
 31
0.0
  0
LINE
  8
0
  6
CONTINUOUS
 62
               3
  5
299
 10
189.76240694789078
 20
145.84491315136484
 30
0.0
 11
189.76240694789078
 21
169.84491315136484
 31
0.0
  0
LINE
  8
0
  6
CONTINUOUS
 62
               3
  5
29A
 10
210.26240694789078
 20
169.84491315136484
 30
0.0
 11
210.26240694789078
 21
145.84491315136484
 31
0.0
  0
ARC
  8
0
  6
CONTINUOUS
 62
               3
  5
29B
 10
192.76240694789078
 20
169.84491315136484
 30
0.0
 40
3.0
 50
89.999999999999801
 51
179.9999999999996
  0
ARC
  8
0
  6
CONTINUOUS
 62
               3
  5
29C
 10
192.76240694789078
 20
145.84491315136484
 30
0.0
 40
3.0
 50
179.9999999999996
 51
269.99999999999937
  0
ARC
  8
0
  6
CONTINUOUS
 62
               3
  5
29D
 10
207.26240694789078
 20
145.84491315136484
 30
0.0
 40
3.0
 50
269.99999999999937
 51
359.9999999999992
  0
ARC
  8
0
  6
CONTINUOUS
 62
               3
  5
29E
 10
207.26240694789078
 20
169.84491315136484
 30
0.0
 40
3.0
 50
0.0
 51
89.999999999999801
  0
LINE
  8
0
  6
CONTINUOUS
 62
               3
  5
29F
 10
-208.73759305210916
 20
123.84491315136484
 30
0.0
 11
-184.73759305210916
 21
123.84491315136484
 31
0.0
  0
LINE
  8
0
  6
CONTINUOUS
 62
               3
  5
2A0
 10
-184.73759305210916
 20
93.844913151364835
 30
0.0
 11
-208.73759305210916
 21
93.844913151364835
 31
0.0
  0
LINE
  8
0
  6
CONTINUOUS
 62
               3
  5
2A1
 10
-211.73759305210916
 20
96.844913151364835
 30
0.0
 11
-211.73759305210916
 21
120.84491315136484
 31
0.0
  0
LINE
  8
0
  6
CONTINUOUS
 62
               3
  5
2A2
 10
-181.73759305210916
 20
120.84491315136484
 30
0.0
 11
-181.73759305210916
 21
96.844913151364835
 31
0.0
  0
ARC
  8
0
  6
CONTINUOUS
 62
               3
  5
2A3
 10
-208.73759305210916
 20
120.84491315136484
 30
0.0
 40
3.0
 50
89.999999999999801
 51
179.9999999999996
  0
ARC
  8
0
  6
CONTINUOUS
 62
               3
  5
2A4
 10
-208.73759305210916
 20
96.844913151364835
 30
0.0
 40
3.0
 50
179.9999999999996
 51
269.99999999999937
  0
ARC
  8
0
  6
CONTINUOUS
 62
               3
  5
2A5
 10
-184.73759305210916
 20
96.844913151364835
 30
0.0
 40
3.0
 50
269.99999999999937
 51
359.9999999999992
  0
ARC
  8
0
  6
CONTINUOUS
 62
               3
  5
2A6
 10
-184.73759305210916
 20
120.84491315136484
 30
0.0
 40
3.0
 50
0.0
 51
89.999999999999801
  0
LINE
  8
0
  6
CONTINUOUS
 62
               3
  5
2A7
 10
-159.73759305210916
 20
123.84491315136484
 30
0.0
 11
-135.73759305210916
 21
123.84491315136484
 31
0.0
  0
LINE
  8
0
  6
CONTINUOUS
 62
               3
  5
2A8
 10
-135.73759305210916
 20
93.844913151364835
 30
0.0
 11
-159.73759305210916
 21
93.844913151364835
 31
0.0
  0
LINE
  8
0
  6
CONTINUOUS
 62
               3
  5
2A9
 10
-162.73759305210916
 20
96.844913151364835
 30
0.0
 11
-162.73759305210916
 21
120.84491315136484
 31
0.0
  0
LINE
  8
0
  6
CONTINUOUS
 62
               3
  5
2AA
 10
-132.73759305210916
 20
120.84491315136484
 30
0.0
 11
-132.73759305210916
 21
96.844913151364835
 31
0.0
  0
ARC
  8
0
  6
CONTINUOUS
 62
               3
  5
2AB
 10
-159.73759305210916
 20
120.84491315136484
 30
0.0
 40
3.0
 50
89.999999999999801
 51
179.9999999999996
  0
ARC
  8
0
  6
CONTINUOUS
 62
               3
  5
2AC
 10
-159.73759305210916
 20
96.844913151364835
 30
0.0
 40
3.0
 50
179.9999999999996
 51
269.99999999999937
  0
ARC
  8
0
  6
CONTINUOUS
 62
               3
  5
2AD
 10
-135.73759305210916
 20
96.844913151364835
 30
0.0
 40
3.0
 50
269.99999999999937
 51
359.9999999999992
  0
ARC
  8
0
  6
CONTINUOUS
 62
               3
  5
2AE
 10
-135.73759305210916
 20
120.84491315136484
 30
0.0
 40
3.0
 50
0.0
 51
89.999999999999801
  0
LINE
  8
0
  6
CONTINUOUS
 62
               3
  5
2AF
 10
-110.73759305210918
 20
123.84491315136484
 30
0.0
 11
-86.737593052109176
 21
123.84491315136484
 31
0.0
  0
LINE
  8
0
  6
CONTINUOUS
 62
               3
  5
2B0
 10
-86.737593052109176
 20
93.844913151364835
 30
0.0
 11
-110.73759305210918
 21
93.844913151364835
 31
0.0
  0
LINE
  8
0
  6
CONTINUOUS
 62
               3
  5
2B1
 10
-113.73759305210918
 20
96.844913151364835
 30
0.0
 11
-113.73759305210918
 21
120.84491315136484
 31
0.0
  0
LINE
  8
0
  6
CONTINUOUS
 62
               3
  5
2B2
 10
-83.737593052109176
 20
120.84491315136484
 30
0.0
 11
-83.737593052109176
 21
96.844913151364835
 31
0.0
  0
ARC
  8
0
  6
CONTINUOUS
 62
               3
  5
2B3
 10
-110.73759305210918
 20
120.84491315136484
 30
0.0
 40
3.0
 50
89.999999999999801
 51
179.9999999999996
  0
ARC
  8
0
  6
CONTINUOUS
 62
               3
  5
2B4
 10
-110.73759305210918
 20
96.844913151364835
 30
0.0
 40
3.0
 50
179.9999999999996
 51
269.99999999999937
  0
ARC
  8
0
  6
CONTINUOUS
 62
               3
  5
2B5
 10
-86.737593052109176
 20
96.844913151364835
 30
0.0
 40
3.0
 50
269.99999999999937
 51
359.9999999999992
  0
ARC
  8
0
  6
CONTINUOUS
 62
               3
  5
2B6
 10
-86.737593052109176
 20
120.84491315136484
 30
0.0
 40
3.0
 50
0.0
 51
89.999999999999801
  0
LINE
  8
0
  6
CONTINUOUS
 62
               3
  5
2B7
 10
-61.737593052109169
 20
123.84491315136484
 30
0.0
 11
-37.737593052109169
 21
123.84491315136484
 31
0.0
  0
LINE
  8
0
  6
CONTINUOUS
 62
               3
  5
2B8
 10
-37.737593052109169
 20
93.844913151364835
 30
0.0
 11
-61.737593052109169
 21
93.844913151364835
 31
0.0
  0
LINE
  8
0
  6
CONTINUOUS
 62
               3
  5
2B9
 10
-64.737593052109176
 20
96.844913151364835
 30
0.0
 11
-64.737593052109176
 21
120.84491315136484
 31
0.0
  0
LINE
  8
0
  6
CONTINUOUS
 62
               3
  5
2BA
 10
-34.737593052109169
 20
120.84491315136484
 30
0.0
 11
-34.737593052109169
 21
96.844913151364835
 31
0.0
  0
ARC
  8
0
  6
CONTINUOUS
 62
               3
  5
2BB
 10
-61.737593052109169
 20
120.84491315136484
 30
0.0
 40
3.0
 50
89.999999999999801
 51
179.9999999999996
  0
ARC
  8
0
  6
CONTINUOUS
 62
               3
  5
2BC
 10
-61.737593052109169
 20
96.844913151364835
 30
0.0
 40
3.0
 50
179.9999999999996
 51
269.99999999999937
  0
ARC
  8
0
  6
CONTINUOUS
 62
               3
  5
2BD
 10
-37.737593052109169
 20
96.844913151364835
 30
0.0
 40
3.0
 50
269.99999999999937
 51
359.9999999999992
  0
ARC
  8
0
  6
CONTINUOUS
 62
               3
  5
2BE
 10
-37.737593052109169
 20
120.84491315136484
 30
0.0
 40
3.0
 50
0.0
 51
89.999999999999801
  0
LINE
  8
0
  6
CONTINUOUS
 62
               3
  5
2BF
 10
-12.737593052109169
 20
123.84491315136484
 30
0.0
 11
11.262406947890831
 21
123.84491315136484
 31
0.0
  0
LINE
  8
0
  6
CONTINUOUS
 62
               3
  5
2C0
 10
11.262406947890831
 20
93.844913151364835
 30
0.0
 11
-12.737593052109169
 21
93.844913151364835
 31
0.0
  0
LINE
  8
0
  6
CONTINUOUS
 62
               3
  5
2C1
 10
-15.737593052109169
 20
96.844913151364835
 30
0.0
 11
-15.737593052109169
 21
120.84491315136484
 31
0.0
  0
LINE
  8
0
  6
CONTINUOUS
 62
               3
  5
2C2
 10
14.262406947890831
 20
120.84491315136484
 30
0.0
 11
14.262406947890831
 21
96.844913151364835
 31
0.0
  0
ARC
  8
0
  6
CONTINUOUS
 62
               3
  5
2C3
 10
-12.737593052109169
 20
120.84491315136484
 30
0.0
 40
3.0
 50
89.999999999999801
 51
179.9999999999996
  0
ARC
  8
0
  6
CONTINUOUS
 62
               3
  5
2C4
 10
-12.737593052109169
 20
96.844913151364835
 30
0.0
 40
3.0
 50
179.9999999999996
 51
269.99999999999937
  0
ARC
  8
0
  6
CONTINUOUS
 62
               3
  5
2C5
 10
11.262406947890831
 20
96.844913151364835
 30
0.0
 40
3.0
 50
269.99999999999937
 51
359.9999999999992
  0
ARC
  8
0
  6
CONTINUOUS
 62
               3
  5
2C6
 10
11.262406947890831
 20
120.84491315136484
 30
0.0
 40
3.0
 50
0.0
 51
89.999999999999801
  0
LINE
  8
0
  6
CONTINUOUS
 62
               3
  5
2C7
 10
36.262406947890831
 20
123.84491315136484
 30
0.0
 11
60.262406947890831
 21
123.84491315136484
 31
0.0
  0
LINE
  8
0
  6
CONTINUOUS
 62
               3
  5
2C8
 10
60.262406947890831
 20
93.844913151364835
 30
0.0
 11
36.262406947890831
 21
93.844913151364835
 31
0.0
  0
LINE
  8
0
  6
CONTINUOUS
 62
               3
  5
2C9
 10
33.262406947890831
 20
96.844913151364835
 30
0.0
 11
33.262406947890831
 21
120.84491315136484
 31
0.0
  0
LINE
  8
0
  6
CONTINUOUS
 62
               3
  5
2CA
 10
63.262406947890831
 20
120.84491315136484
 30
0.0
 11
63.262406947890831
 21
96.844913151364835
 31
0.0
  0
ARC
  8
0
  6
CONTINUOUS
 62
               3
  5
2CB
 10
36.262406947890831
 20
120.84491315136484
 30
0.0
 40
3.0
 50
89.999999999999801
 51
179.9999999999996
  0
ARC
  8
0
  6
CONTINUOUS
 62
               3
  5
2CC
 10
36.262406947890831
 20
96.844913151364835
 30
0.0
 40
3.0
 50
179.9999999999996
 51
269.99999999999937
  0
ARC
  8
0
  6
CONTINUOUS
 62
               3
  5
2CD
 10
60.262406947890831
 20
96.844913151364835
 30
0.0
 40
3.0
 50
269.99999999999937
 51
359.9999999999992
  0
ARC
  8
0
  6
CONTINUOUS
 62
               3
  5
2CE
 10
60.262406947890831
 20
120.84491315136484
 30
0.0
 40
3.0
 50
0.0
 51
89.999999999999801
  0
LINE
  8
0
  6
CONTINUOUS
 62
               3
  5
2CF
 10
85.262406947890824
 20
123.84491315136484
 30
0.0
 11
109.26240694789082
 21
123.84491315136484
 31
0.0
  0
LINE
  8
0
  6
CONTINUOUS
 62
               3
  5
2D0
 10
109.26240694789082
 20
93.844913151364835
 30
0.0
 11
85.262406947890824
 21
93.844913151364835
 31
0.0
  0
LINE
  8
0
  6
CONTINUOUS
 62
               3
  5
2D1
 10
82.262406947890824
 20
96.844913151364835
 30
0.0
 11
82.262406947890824
 21
120.84491315136484
 31
0.0
  0
LINE
  8
0
  6
CONTINUOUS
 62
               3
  5
2D2
 10
112.26240694789082
 20
120.84491315136484
 30
0.0
 11
112.26240694789082
 21
96.844913151364835
 31
0.0
  0
ARC
  8
0
  6
CONTINUOUS
 62
               3
  5
2D3
 10
85.262406947890824
 20
120.84491315136484
 30
0.0
 40
3.0
 50
89.999999999999801
 51
179.9999999999996
  0
ARC
  8
0
  6
CONTINUOUS
 62
               3
  5
2D4
 10
85.262406947890824
 20
96.844913151364835
 30
0.0
 40
3.0
 50
179.9999999999996
 51
269.99999999999937
  0
ARC
  8
0
  6
CONTINUOUS
 62
               3
  5
2D5
 10
109.26240694789082
 20
96.844913151364835
 30
0.0
 40
3.0
 50
269.99999999999937
 51
359.9999999999992
  0
ARC
  8
0
  6
CONTINUOUS
 62
               3
  5
2D6
 10
109.26240694789082
 20
120.84491315136484
 30
0.0
 40
3.0
 50
0.0
 51
89.999999999999801
  0
LINE
  8
0
  6
CONTINUOUS
 62
               3
  5
2D7
 10
134.26240694789084
 20
123.84491315136484
 30
0.0
 11
158.26240694789084
 21
123.84491315136484
 31
0.0
  0
LINE
  8
0
  6
CONTINUOUS
 62
               3
  5
2D8
 10
158.26240694789084
 20
93.844913151364835
 30
0.0
 11
134.26240694789084
 21
93.844913151364835
 31
0.0
  0
LINE
  8
0
  6
CONTINUOUS
 62
               3
  5
2D9
 10
131.26240694789084
 20
96.844913151364835
 30
0.0
 11
131.26240694789084
 21
120.84491315136484
 31
0.0
  0
LINE
  8
0
  6
CONTINUOUS
 62
               3
  5
2DA
 10
161.26240694789084
 20
120.84491315136484
 30
0.0
 11
161.26240694789084
 21
96.844913151364835
 31
0.0
  0
ARC
  8
0
  6
CONTINUOUS
 62
               3
  5
2DB
 10
134.26240694789084
 20
120.84491315136484
 30
0.0
 40
3.0
 50
89.999999999999801
 51
179.9999999999996
  0
ARC
  8
0
  6
CONTINUOUS
 62
               3
  5
2DC
 10
134.26240694789084
 20
96.844913151364835
 30
0.0
 40
3.0
 50
179.9999999999996
 51
269.99999999999937
  0
ARC
  8
0
  6
CONTINUOUS
 62
               3
  5
2DD
 10
158.26240694789084
 20
96.844913151364835
 30
0.0
 40
3.0
 50
269.99999999999937
 51
359.9999999999992
  0
ARC
  8
0
  6
CONTINUOUS
 62
               3
  5
2DE
 10
158.26240694789084
 20
120.84491315136484
 30
0.0
 40
3.0
 50
0.0
 51
89.999999999999801
  0
LINE
  8
0
  6
CONTINUOUS
 62
               3
  5
2DF
 10
183.26240694789078
 20
123.84491315136484
 30
0.0
 11
207.26240694789078
 21
123.84491315136484
 31
0.0
  0
LINE
  8
0
  6
CONTINUOUS
 62
               3
  5
2E0
 10
207.26240694789078
 20
93.844913151364835
 30
0.0
 11
183.26240694789078
 21
93.844913151364835
 31
0.0
  0
LINE
  8
0
  6
CONTINUOUS
 62
               3
  5
2E1
 10
180.26240694789078
 20
96.844913151364835
 30
0.0
 11
180.26240694789078
 21
120.84491315136484
 31
0.0
  0
LINE
  8
0
  6
CONTINUOUS
 62
               3
  5
2E2
 10
210.26240694789078
 20
120.84491315136484
 30
0.0
 11
210.26240694789078
 21
96.844913151364835
 31
0.0
  0
ARC
  8
0
  6
CONTINUOUS
 62
               3
  5
2E3
 10
183.26240694789078
 20
120.84491315136484
 30
0.0
 40
3.0
 50
89.999999999999801
 51
179.9999999999996
  0
ARC
  8
0
  6
CONTINUOUS
 62
               3
  5
2E4
 10
183.26240694789078
 20
96.844913151364835
 30
0.0
 40
3.0
 50
179.9999999999996
 51
269.99999999999937
  0
ARC
  8
0
  6
CONTINUOUS
 62
               3
  5
2E5
 10
207.26240694789078
 20
96.844913151364835
 30
0.0
 40
3.0
 50
269.99999999999937
 51
359.9999999999992
  0
ARC
  8
0
  6
CONTINUOUS
 62
               3
  5
2E6
 10
207.26240694789078
 20
120.84491315136484
 30
0.0
 40
3.0
 50
0.0
 51
89.999999999999801
  0
LINE
  8
0
  6
CONTINUOUS
 62
               3
  5
2E7
 10
-208.73759305210916
 20
74.844913151364835
 30
0.0
 11
-184.73759305210916
 21
74.844913151364835
 31
0.0
  0
LINE
  8
0
  6
CONTINUOUS
 62
               3
  5
2E8
 10
-184.73759305210916
 20
44.844913151364835
 30
0.0
 11
-208.73759305210916
 21
44.844913151364835
 31
0.0
  0
LINE
  8
0
  6
CONTINUOUS
 62
               3
  5
2E9
 10
-211.73759305210916
 20
47.844913151364835
 30
0.0
 11
-211.73759305210916
 21
71.844913151364835
 31
0.0
  0
LINE
  8
0
  6
CONTINUOUS
 62
               3
  5
2EA
 10
-181.73759305210916
 20
71.844913151364835
 30
0.0
 11
-181.73759305210916
 21
47.844913151364835
 31
0.0
  0
ARC
  8
0
  6
CONTINUOUS
 62
               3
  5
2EB
 10
-208.73759305210916
 20
71.844913151364835
 30
0.0
 40
3.0
 50
89.999999999999801
 51
179.9999999999996
  0
ARC
  8
0
  6
CONTINUOUS
 62
               3
  5
2EC
 10
-208.73759305210916
 20
47.844913151364835
 30
0.0
 40
3.0
 50
179.9999999999996
 51
269.99999999999937
  0
ARC
  8
0
  6
CONTINUOUS
 62
               3
  5
2ED
 10
-184.73759305210916
 20
47.844913151364835
 30
0.0
 40
3.0
 50
269.99999999999937
 51
359.9999999999992
  0
ARC
  8
0
  6
CONTINUOUS
 62
               3
  5
2EE
 10
-184.73759305210916
 20
71.844913151364835
 30
0.0
 40
3.0
 50
0.0
 51
89.999999999999801
  0
LINE
  8
0
  6
CONTINUOUS
 62
               3
  5
2EF
 10
-159.73759305210916
 20
74.844913151364835
 30
0.0
 11
-135.73759305210916
 21
74.844913151364835
 31
0.0
  0
LINE
  8
0
  6
CONTINUOUS
 62
               3
  5
2F0
 10
-135.73759305210916
 20
44.844913151364835
 30
0.0
 11
-159.73759305210916
 21
44.844913151364835
 31
0.0
  0
LINE
  8
0
  6
CONTINUOUS
 62
               3
  5
2F1
 10
-162.73759305210916
 20
47.844913151364835
 30
0.0
 11
-162.73759305210916
 21
71.844913151364835
 31
0.0
  0
LINE
  8
0
  6
CONTINUOUS
 62
               3
  5
2F2
 10
-132.73759305210916
 20
71.844913151364835
 30
0.0
 11
-132.73759305210916
 21
47.844913151364835
 31
0.0
  0
ARC
  8
0
  6
CONTINUOUS
 62
               3
  5
2F3
 10
-159.73759305210916
 20
71.844913151364835
 30
0.0
 40
3.0
 50
89.999999999999801
 51
179.9999999999996
  0
ARC
  8
0
  6
CONTINUOUS
 62
               3
  5
2F4
 10
-159.73759305210916
 20
47.844913151364835
 30
0.0
 40
3.0
 50
179.9999999999996
 51
269.99999999999937
  0
ARC
  8
0
  6
CONTINUOUS
 62
               3
  5
2F5
 10
-135.73759305210916
 20
47.844913151364835
 30
0.0
 40
3.0
 50
269.99999999999937
 51
359.9999999999992
  0
ARC
  8
0
  6
CONTINUOUS
 62
               3
  5
2F6
 10
-135.73759305210916
 20
71.844913151364835
 30
0.0
 40
3.0
 50
0.0
 51
89.999999999999801
  0
LINE
  8
0
  6
CONTINUOUS
 62
               3
  5
2F7
 10
-110.73759305210918
 20
74.844913151364835
 30
0.0
 11
-86.737593052109176
 21
74.844913151364835
 31
0.0
  0
LINE
  8
0
  6
CONTINUOUS
 62
               3
  5
2F8
 10
-86.737593052109176
 20
44.844913151364835
 30
0.0
 11
-110.73759305210918
 21
44.844913151364835
 31
0.0
  0
LINE
  8
0
  6
CONTINUOUS
 62
               3
  5
2F9
 10
-113.73759305210918
 20
47.844913151364835
 30
0.0
 11
-113.73759305210918
 21
71.844913151364835
 31
0.0
  0
LINE
  8
0
  6
CONTINUOUS
 62
               3
  5
2FA
 10
-83.737593052109176
 20
71.844913151364835
 30
0.0
 11
-83.737593052109176
 21
47.844913151364835
 31
0.0
  0
ARC
  8
0
  6
CONTINUOUS
 62
               3
  5
2FB
 10
-110.73759305210918
 20
71.844913151364835
 30
0.0
 40
3.0
 50
89.999999999999801
 51
179.9999999999996
  0
ARC
  8
0
  6
CONTINUOUS
 62
               3
  5
2FC
 10
-110.73759305210918
 20
47.844913151364835
 30
0.0
 40
3.0
 50
179.9999999999996
 51
269.99999999999937
  0
ARC
  8
0
  6
CONTINUOUS
 62
               3
  5
2FD
 10
-86.737593052109176
 20
47.844913151364835
 30
0.0
 40
3.0
 50
269.99999999999937
 51
359.9999999999992
  0
ARC
  8
0
  6
CONTINUOUS
 62
               3
  5
2FE
 10
-86.737593052109176
 20
71.844913151364835
 30
0.0
 40
3.0
 50
0.0
 51
89.999999999999801
  0
LINE
  8
0
  6
CONTINUOUS
 62
               3
  5
2FF
 10
-61.737593052109169
 20
74.844913151364835
 30
0.0
 11
-37.737593052109169
 21
74.844913151364835
 31
0.0
  0
LINE
  8
0
  6
CONTINUOUS
 62
               3
  5
300
 10
-37.737593052109169
 20
44.844913151364835
 30
0.0
 11
-61.737593052109169
 21
44.844913151364835
 31
0.0
  0
LINE
  8
0
  6
CONTINUOUS
 62
               3
  5
301
 10
-64.737593052109176
 20
47.844913151364835
 30
0.0
 11
-64.737593052109176
 21
71.844913151364835
 31
0.0
  0
LINE
  8
0
  6
CONTINUOUS
 62
               3
  5
302
 10
-34.737593052109169
 20
71.844913151364835
 30
0.0
 11
-34.737593052109169
 21
47.844913151364835
 31
0.0
  0
ARC
  8
0
  6
CONTINUOUS
 62
               3
  5
303
 10
-61.737593052109169
 20
71.844913151364835
 30
0.0
 40
3.0
 50
89.999999999999801
 51
179.9999999999996
  0
ARC
  8
0
  6
CONTINUOUS
 62
               3
  5
304
 10
-61.737593052109169
 20
47.844913151364835
 30
0.0
 40
3.0
 50
179.9999999999996
 51
269.99999999999937
  0
ARC
  8
0
  6
CONTINUOUS
 62
               3
  5
305
 10
-37.737593052109169
 20
47.844913151364835
 30
0.0
 40
3.0
 50
269.99999999999937
 51
359.9999999999992
  0
ARC
  8
0
  6
CONTINUOUS
 62
               3
  5
306
 10
-37.737593052109169
 20
71.844913151364835
 30
0.0
 40
3.0
 50
0.0
 51
89.999999999999801
  0
LINE
  8
0
  6
CONTINUOUS
 62
               3
  5
307
 10
-12.737593052109169
 20
74.844913151364835
 30
0.0
 11
11.262406947890831
 21
74.844913151364835
 31
0.0
  0
LINE
  8
0
  6
CONTINUOUS
 62
               3
  5
308
 10
11.262406947890831
 20
44.844913151364835
 30
0.0
 11
-12.737593052109169
 21
44.844913151364835
 31
0.0
  0
LINE
  8
0
  6
CONTINUOUS
 62
               3
  5
309
 10
-15.737593052109169
 20
47.844913151364835
 30
0.0
 11
-15.737593052109169
 21
71.844913151364835
 31
0.0
  0
LINE
  8
0
  6
CONTINUOUS
 62
               3
  5
30A
 10
14.262406947890831
 20
71.844913151364835
 30
0.0
 11
14.262406947890831
 21
47.844913151364835
 31
0.0
  0
ARC
  8
0
  6
CONTINUOUS
 62
               3
  5
30B
 10
-12.737593052109169
 20
71.844913151364835
 30
0.0
 40
3.0
 50
89.999999999999801
 51
179.9999999999996
  0
ARC
  8
0
  6
CONTINUOUS
 62
               3
  5
30C
 10
-12.737593052109169
 20
47.844913151364835
 30
0.0
 40
3.0
 50
179.9999999999996
 51
269.99999999999937
  0
ARC
  8
0
  6
CONTINUOUS
 62
               3
  5
30D
 10
11.262406947890831
 20
47.844913151364835
 30
0.0
 40
3.0
 50
269.99999999999937
 51
359.9999999999992
  0
ARC
  8
0
  6
CONTINUOUS
 62
               3
  5
30E
 10
11.262406947890831
 20
71.844913151364835
 30
0.0
 40
3.0
 50
0.0
 51
89.999999999999801
  0
LINE
  8
0
  6
CONTINUOUS
 62
               3
  5
30F
 10
36.262406947890831
 20
74.844913151364835
 30
0.0
 11
60.262406947890831
 21
74.844913151364835
 31
0.0
  0
LINE
  8
0
  6
CONTINUOUS
 62
               3
  5
310
 10
60.262406947890831
 20
44.844913151364835
 30
0.0
 11
36.262406947890831
 21
44.844913151364835
 31
0.0
  0
LINE
  8
0
  6
CONTINUOUS
 62
               3
  5
311
 10
33.262406947890831
 20
47.844913151364835
 30
0.0
 11
33.262406947890831
 21
71.844913151364835
 31
0.0
  0
LINE
  8
0
  6
CONTINUOUS
 62
               3
  5
312
 10
63.262406947890831
 20
71.844913151364835
 30
0.0
 11
63.262406947890831
 21
47.844913151364835
 31
0.0
  0
ARC
  8
0
  6
CONTINUOUS
 62
               3
  5
313
 10
36.262406947890831
 20
71.844913151364835
 30
0.0
 40
3.0
 50
89.999999999999801
 51
179.9999999999996
  0
ARC
  8
0
  6
CONTINUOUS
 62
               3
  5
314
 10
36.262406947890831
 20
47.844913151364835
 30
0.0
 40
3.0
 50
179.9999999999996
 51
269.99999999999937
  0
ARC
  8
0
  6
CONTINUOUS
 62
               3
  5
315
 10
60.262406947890831
 20
47.844913151364835
 30
0.0
 40
3.0
 50
269.99999999999937
 51
359.9999999999992
  0
ARC
  8
0
  6
CONTINUOUS
 62
               3
  5
316
 10
60.262406947890831
 20
71.844913151364835
 30
0.0
 40
3.0
 50
0.0
 51
89.999999999999801
  0
LINE
  8
0
  6
CONTINUOUS
 62
               3
  5
317
 10
85.262406947890824
 20
74.844913151364835
 30
0.0
 11
109.26240694789082
 21
74.844913151364835
 31
0.0
  0
LINE
  8
0
  6
CONTINUOUS
 62
               3
  5
318
 10
109.26240694789082
 20
44.844913151364835
 30
0.0
 11
85.262406947890824
 21
44.844913151364835
 31
0.0
  0
LINE
  8
0
  6
CONTINUOUS
 62
               3
  5
319
 10
82.262406947890824
 20
47.844913151364835
 30
0.0
 11
82.262406947890824
 21
71.844913151364835
 31
0.0
  0
LINE
  8
0
  6
CONTINUOUS
 62
               3
  5
31A
 10
112.26240694789082
 20
71.844913151364835
 30
0.0
 11
112.26240694789082
 21
47.844913151364835
 31
0.0
  0
ARC
  8
0
  6
CONTINUOUS
 62
               3
  5
31B
 10
85.262406947890824
 20
71.844913151364835
 30
0.0
 40
3.0
 50
89.999999999999801
 51
179.9999999999996
  0
ARC
  8
0
  6
CONTINUOUS
 62
               3
  5
31C
 10
85.262406947890824
 20
47.844913151364835
 30
0.0
 40
3.0
 50
179.9999999999996
 51
269.99999999999937
  0
ARC
  8
0
  6
CONTINUOUS
 62
               3
  5
31D
 10
109.26240694789082
 20
47.844913151364835
 30
0.0
 40
3.0
 50
269.99999999999937
 51
359.9999999999992
  0
ARC
  8
0
  6
CONTINUOUS
 62
               3
  5
31E
 10
109.26240694789082
 20
71.844913151364835
 30
0.0
 40
3.0
 50
0.0
 51
89.999999999999801
  0
LINE
  8
0
  6
CONTINUOUS
 62
               3
  5
31F
 10
134.26240694789084
 20
74.844913151364835
 30
0.0
 11
158.26240694789084
 21
74.844913151364835
 31
0.0
  0
LINE
  8
0
  6
CONTINUOUS
 62
               3
  5
320
 10
158.26240694789084
 20
44.844913151364835
 30
0.0
 11
134.26240694789084
 21
44.844913151364835
 31
0.0
  0
LINE
  8
0
  6
CONTINUOUS
 62
               3
  5
321
 10
131.26240694789084
 20
47.844913151364835
 30
0.0
 11
131.26240694789084
 21
71.844913151364835
 31
0.0
  0
LINE
  8
0
  6
CONTINUOUS
 62
               3
  5
322
 10
161.26240694789084
 20
71.844913151364835
 30
0.0
 11
161.26240694789084
 21
47.844913151364835
 31
0.0
  0
ARC
  8
0
  6
CONTINUOUS
 62
               3
  5
323
 10
134.26240694789084
 20
71.844913151364835
 30
0.0
 40
3.0
 50
89.999999999999801
 51
179.9999999999996
  0
ARC
  8
0
  6
CONTINUOUS
 62
               3
  5
324
 10
134.26240694789084
 20
47.844913151364835
 30
0.0
 40
3.0
 50
179.9999999999996
 51
269.99999999999937
  0
ARC
  8
0
  6
CONTINUOUS
 62
               3
  5
325
 10
158.26240694789084
 20
47.844913151364835
 30
0.0
 40
3.0
 50
269.99999999999937
 51
359.9999999999992
  0
ARC
  8
0
  6
CONTINUOUS
 62
               3
  5
326
 10
158.26240694789084
 20
71.844913151364835
 30
0.0
 40
3.0
 50
0.0
 51
89.999999999999801
  0
LINE
  8
0
  6
CONTINUOUS
 62
               3
  5
327
 10
183.26240694789078
 20
74.844913151364835
 30
0.0
 11
207.26240694789078
 21
74.844913151364835
 31
0.0
  0
LINE
  8
0
  6
CONTINUOUS
 62
               3
  5
328
 10
207.26240694789078
 20
44.844913151364835
 30
0.0
 11
183.26240694789078
 21
44.844913151364835
 31
0.0
  0
LINE
  8
0
  6
CONTINUOUS
 62
               3
  5
329
 10
180.26240694789078
 20
47.844913151364835
 30
0.0
 11
180.26240694789078
 21
71.844913151364835
 31
0.0
  0
LINE
  8
0
  6
CONTINUOUS
 62
               3
  5
32A
 10
210.26240694789078
 20
71.844913151364835
 30
0.0
 11
210.26240694789078
 21
47.844913151364835
 31
0.0
  0
ARC
  8
0
  6
CONTINUOUS
 62
               3
  5
32B
 10
183.26240694789078
 20
71.844913151364835
 30
0.0
 40
3.0
 50
89.999999999999801
 51
179.9999999999996
  0
ARC
  8
0
  6
CONTINUOUS
 62
               3
  5
32C
 10
183.26240694789078
 20
47.844913151364835
 30
0.0
 40
3.0
 50
179.9999999999996
 51
269.99999999999937
  0
ARC
  8
0
  6
CONTINUOUS
 62
               3
  5
32D
 10
207.26240694789078
 20
47.844913151364835
 30
0.0
 40
3.0
 50
269.99999999999937
 51
359.9999999999992
  0
ARC
  8
0
  6
CONTINUOUS
 62
               3
  5
32E
 10
207.26240694789078
 20
71.844913151364835
 30
0.0
 40
3.0
 50
0.0
 51
89.999999999999801
  0
LINE
  8
0
  6
CONTINUOUS
 62
               3
  5
32F
 10
-208.73759305210916
 20
25.844913151364835
 30
0.0
 11
-184.73759305210916
 21
25.844913151364835
 31
0.0
  0
LINE
  8
0
  6
CONTINUOUS
 62
               3
  5
330
 10
-184.73759305210916
 20
-4.1550868486351646
 30
0.0
 11
-208.73759305210916
 21
-4.1550868486351646
 31
0.0
  0
LINE
  8
0
  6
CONTINUOUS
 62
               3
  5
331
 10
-211.73759305210916
 20
-1.1550868486351646
 30
0.0
 11
-211.73759305210916
 21
22.844913151364835
 31
0.0
  0
LINE
  8
0
  6
CONTINUOUS
 62
               3
  5
332
 10
-181.73759305210916
 20
22.844913151364835
 30
0.0
 11
-181.73759305210916
 21
-1.1550868486351646
 31
0.0
  0
ARC
  8
0
  6
CONTINUOUS
 62
               3
  5
333
 10
-208.73759305210916
 20
22.844913151364835
 30
0.0
 40
3.0
 50
89.999999999999801
 51
179.9999999999996
  0
ARC
  8
0
  6
CONTINUOUS
 62
               3
  5
334
 10
-208.73759305210916
 20
-1.1550868486351646
 30
0.0
 40
3.0
 50
179.9999999999996
 51
269.99999999999937
  0
ARC
  8
0
  6
CONTINUOUS
 62
               3
  5
335
 10
-184.73759305210916
 20
-1.1550868486351646
 30
0.0
 40
3.0
 50
269.99999999999937
 51
359.9999999999992
  0
ARC
  8
0
  6
CONTINUOUS
 62
               3
  5
336
 10
-184.73759305210916
 20
22.844913151364835
 30
0.0
 40
3.0
 50
0.0
 51
89.999999999999801
  0
LINE
  8
0
  6
CONTINUOUS
 62
               3
  5
337
 10
-159.73759305210916
 20
25.844913151364835
 30
0.0
 11
-135.73759305210916
 21
25.844913151364835
 31
0.0
  0
LINE
  8
0
  6
CONTINUOUS
 62
               3
  5
338
 10
-135.73759305210916
 20
-4.1550868486351646
 30
0.0
 11
-159.73759305210916
 21
-4.1550868486351646
 31
0.0
  0
LINE
  8
0
  6
CONTINUOUS
 62
               3
  5
339
 10
-162.73759305210916
 20
-1.1550868486351646
 30
0.0
 11
-162.73759305210916
 21
22.844913151364835
 31
0.0
  0
LINE
  8
0
  6
CONTINUOUS
 62
               3
  5
33A
 10
-132.73759305210916
 20
22.844913151364835
 30
0.0
 11
-132.73759305210916
 21
-1.1550868486351646
 31
0.0
  0
ARC
  8
0
  6
CONTINUOUS
 62
               3
  5
33B
 10
-159.73759305210916
 20
22.844913151364835
 30
0.0
 40
3.0
 50
89.999999999999801
 51
179.9999999999996
  0
ARC
  8
0
  6
CONTINUOUS
 62
               3
  5
33C
 10
-159.73759305210916
 20
-1.1550868486351646
 30
0.0
 40
3.0
 50
179.9999999999996
 51
269.99999999999937
  0
ARC
  8
0
  6
CONTINUOUS
 62
               3
  5
33D
 10
-135.73759305210916
 20
-1.1550868486351646
 30
0.0
 40
3.0
 50
269.99999999999937
 51
359.9999999999992
  0
ARC
  8
0
  6
CONTINUOUS
 62
               3
  5
33E
 10
-135.73759305210916
 20
22.844913151364835
 30
0.0
 40
3.0
 50
0.0
 51
89.999999999999801
  0
LINE
  8
0
  6
CONTINUOUS
 62
               3
  5
33F
 10
-110.73759305210918
 20
25.844913151364835
 30
0.0
 11
-86.737593052109176
 21
25.844913151364835
 31
0.0
  0
LINE
  8
0
  6
CONTINUOUS
 62
               3
  5
340
 10
-86.737593052109176
 20
-4.1550868486351646
 30
0.0
 11
-110.73759305210918
 21
-4.1550868486351646
 31
0.0
  0
LINE
  8
0
  6
CONTINUOUS
 62
               3
  5
341
 10
-113.73759305210918
 20
-1.1550868486351646
 30
0.0
 11
-113.73759305210918
 21
22.844913151364835
 31
0.0
  0
LINE
  8
0
  6
CONTINUOUS
 62
               3
  5
342
 10
-83.737593052109176
 20
22.844913151364835
 30
0.0
 11
-83.737593052109176
 21
-1.1550868486351646
 31
0.0
  0
ARC
  8
0
  6
CONTINUOUS
 62
               3
  5
343
 10
-110.73759305210918
 20
22.844913151364835
 30
0.0
 40
3.0
 50
89.999999999999801
 51
179.9999999999996
  0
ARC
  8
0
  6
CONTINUOUS
 62
               3
  5
344
 10
-110.73759305210918
 20
-1.1550868486351646
 30
0.0
 40
3.0
 50
179.9999999999996
 51
269.99999999999937
  0
ARC
  8
0
  6
CONTINUOUS
 62
               3
  5
345
 10
-86.737593052109176
 20
-1.1550868486351646
 30
0.0
 40
3.0
 50
269.99999999999937
 51
359.9999999999992
  0
ARC
  8
0
  6
CONTINUOUS
 62
               3
  5
346
 10
-86.737593052109176
 20
22.844913151364835
 30
0.0
 40
3.0
 50
0.0
 51
89.999999999999801
  0
LINE
  8
0
  6
CONTINUOUS
 62
               3
  5
347
 10
-61.737593052109169
 20
25.844913151364835
 30
0.0
 11
-37.737593052109169
 21
25.844913151364835
 31
0.0
  0
LINE
  8
0
  6
CONTINUOUS
 62
               3
  5
348
 10
-37.737593052109169
 20
-4.1550868486351646
 30
0.0
 11
-61.737593052109169
 21
-4.1550868486351646
 31
0.0
  0
LINE
  8
0
  6
CONTINUOUS
 62
               3
  5
349
 10
-64.737593052109176
 20
-1.1550868486351646
 30
0.0
 11
-64.737593052109176
 21
22.844913151364835
 31
0.0
  0
LINE
  8
0
  6
CONTINUOUS
 62
               3
  5
34A
 10
-34.737593052109169
 20
22.844913151364835
 30
0.0
 11
-34.737593052109169
 21
-1.1550868486351646
 31
0.0
  0
ARC
  8
0
  6
CONTINUOUS
 62
               3
  5
34B
 10
-61.737593052109169
 20
22.844913151364835
 30
0.0
 40
3.0
 50
89.999999999999801
 51
179.9999999999996
  0
ARC
  8
0
  6
CONTINUOUS
 62
               3
  5
34C
 10
-61.737593052109169
 20
-1.1550868486351646
 30
0.0
 40
3.0
 50
179.9999999999996
 51
269.99999999999937
  0
ARC
  8
0
  6
CONTINUOUS
 62
               3
  5
34D
 10
-37.737593052109169
 20
-1.1550868486351646
 30
0.0
 40
3.0
 50
269.99999999999937
 51
359.9999999999992
  0
ARC
  8
0
  6
CONTINUOUS
 62
               3
  5
34E
 10
-37.737593052109169
 20
22.844913151364835
 30
0.0
 40
3.0
 50
0.0
 51
89.999999999999801
  0
LINE
  8
0
  6
CONTINUOUS
 62
               3
  5
34F
 10
36.262406947890831
 20
25.844913151364835
 30
0.0
 11
60.262406947890831
 21
25.844913151364835
 31
0.0
  0
LINE
  8
0
  6
CONTINUOUS
 62
               3
  5
350
 10
60.262406947890831
 20
-4.1550868486351646
 30
0.0
 11
36.262406947890831
 21
-4.1550868486351646
 31
0.0
  0
LINE
  8
0
  6
CONTINUOUS
 62
               3
  5
351
 10
33.262406947890831
 20
-1.1550868486351646
 30
0.0
 11
33.262406947890831
 21
22.844913151364835
 31
0.0
  0
LINE
  8
0
  6
CONTINUOUS
 62
               3
  5
352
 10
63.262406947890831
 20
22.844913151364835
 30
0.0
 11
63.262406947890831
 21
-1.1550868486351646
 31
0.0
  0
ARC
  8
0
  6
CONTINUOUS
 62
               3
  5
353
 10
36.262406947890831
 20
22.844913151364835
 30
0.0
 40
3.0
 50
89.999999999999801
 51
179.9999999999996
  0
ARC
  8
0
  6
CONTINUOUS
 62
               3
  5
354
 10
36.262406947890831
 20
-1.1550868486351646
 30
0.0
 40
3.0
 50
179.9999999999996
 51
269.99999999999937
  0
ARC
  8
0
  6
CONTINUOUS
 62
               3
  5
355
 10
60.262406947890831
 20
-1.1550868486351646
 30
0.0
 40
3.0
 50
269.99999999999937
 51
359.9999999999992
  0
ARC
  8
0
  6
CONTINUOUS
 62
               3
  5
356
 10
60.262406947890831
 20
22.844913151364835
 30
0.0
 40
3.0
 50
0.0
 51
89.999999999999801
  0
LINE
  8
0
  6
CONTINUOUS
 62
               3
  5
357
 10
85.262406947890824
 20
25.844913151364835
 30
0.0
 11
109.26240694789082
 21
25.844913151364835
 31
0.0
  0
LINE
  8
0
  6
CONTINUOUS
 62
               3
  5
358
 10
109.26240694789082
 20
-4.1550868486351646
 30
0.0
 11
85.262406947890824
 21
-4.1550868486351646
 31
0.0
  0
LINE
  8
0
  6
CONTINUOUS
 62
               3
  5
359
 10
82.262406947890824
 20
-1.1550868486351646
 30
0.0
 11
82.262406947890824
 21
22.844913151364835
 31
0.0
  0
LINE
  8
0
  6
CONTINUOUS
 62
               3
  5
35A
 10
112.26240694789082
 20
22.844913151364835
 30
0.0
 11
112.26240694789082
 21
-1.1550868486351646
 31
0.0
  0
ARC
  8
0
  6
CONTINUOUS
 62
               3
  5
35B
 10
85.262406947890824
 20
22.844913151364835
 30
0.0
 40
3.0
 50
89.999999999999801
 51
179.9999999999996
  0
ARC
  8
0
  6
CONTINUOUS
 62
               3
  5
35C
 10
85.262406947890824
 20
-1.1550868486351646
 30
0.0
 40
3.0
 50
179.9999999999996
 51
269.99999999999937
  0
ARC
  8
0
  6
CONTINUOUS
 62
               3
  5
35D
 10
109.26240694789082
 20
-1.1550868486351646
 30
0.0
 40
3.0
 50
269.99999999999937
 51
359.9999999999992
  0
ARC
  8
0
  6
CONTINUOUS
 62
               3
  5
35E
 10
109.26240694789082
 20
22.844913151364835
 30
0.0
 40
3.0
 50
0.0
 51
89.999999999999801
  0
LINE
  8
0
  6
CONTINUOUS
 62
               3
  5
35F
 10
134.26240694789084
 20
25.844913151364835
 30
0.0
 11
158.26240694789084
 21
25.844913151364835
 31
0.0
  0
LINE
  8
0
  6
CONTINUOUS
 62
               3
  5
360
 10
158.26240694789084
 20
-4.1550868486351646
 30
0.0
 11
134.26240694789084
 21
-4.1550868486351646
 31
0.0
  0
LINE
  8
0
  6
CONTINUOUS
 62
               3
  5
361
 10
131.26240694789084
 20
-1.1550868486351646
 30
0.0
 11
131.26240694789084
 21
22.844913151364835
 31
0.0
  0
LINE
  8
0
  6
CONTINUOUS
 62
               3
  5
362
 10
161.26240694789084
 20
22.844913151364835
 30
0.0
 11
161.26240694789084
 21
-1.1550868486351646
 31
0.0
  0
ARC
  8
0
  6
CONTINUOUS
 62
               3
  5
363
 10
134.26240694789084
 20
22.844913151364835
 30
0.0
 40
3.0
 50
89.999999999999801
 51
179.9999999999996
  0
ARC
  8
0
  6
CONTINUOUS
 62
               3
  5
364
 10
134.26240694789084
 20
-1.1550868486351646
 30
0.0
 40
3.0
 50
179.9999999999996
 51
269.99999999999937
  0
ARC
  8
0
  6
CONTINUOUS
 62
               3
  5
365
 10
158.26240694789084
 20
-1.1550868486351646
 30
0.0
 40
3.0
 50
269.99999999999937
 51
359.9999999999992
  0
ARC
  8
0
  6
CONTINUOUS
 62
               3
  5
366
 10
158.26240694789084
 20
22.844913151364835
 30
0.0
 40
3.0
 50
0.0
 51
89.999999999999801
  0
LINE
  8
0
  6
CONTINUOUS
 62
               3
  5
367
 10
183.26240694789078
 20
25.844913151364835
 30
0.0
 11
207.26240694789078
 21
25.844913151364835
 31
0.0
  0
LINE
  8
0
  6
CONTINUOUS
 62
               3
  5
368
 10
207.26240694789078
 20
-4.1550868486351646
 30
0.0
 11
183.26240694789078
 21
-4.1550868486351646
 31
0.0
  0
LINE
  8
0
  6
CONTINUOUS
 62
               3
  5
369
 10
180.26240694789078
 20
-1.1550868486351646
 30
0.0
 11
180.26240694789078
 21
22.844913151364835
 31
0.0
  0
LINE
  8
0
  6
CONTINUOUS
 62
               3
  5
36A
 10
210.26240694789078
 20
22.844913151364835
 30
0.0
 11
210.26240694789078
 21
-1.1550868486351646
 31
0.0
  0
ARC
  8
0
  6
CONTINUOUS
 62
               3
  5
36B
 10
183.26240694789078
 20
22.844913151364835
 30
0.0
 40
3.0
 50
89.999999999999801
 51
179.9999999999996
  0
ARC
  8
0
  6
CONTINUOUS
 62
               3
  5
36C
 10
183.26240694789078
 20
-1.1550868486351646
 30
0.0
 40
3.0
 50
179.9999999999996
 51
269.99999999999937
  0
ARC
  8
0
  6
CONTINUOUS
 62
               3
  5
36D
 10
207.26240694789078
 20
-1.1550868486351646
 30
0.0
 40
3.0
 50
269.99999999999937
 51
359.9999999999992
  0
ARC
  8
0
  6
CONTINUOUS
 62
               3
  5
36E
 10
207.26240694789078
 20
22.844913151364835
 30
0.0
 40
3.0
 50
0.0
 51
89.999999999999801
  0
LINE
  8
0
  6
CONTINUOUS
 62
               3
  5
36F
 10
-208.73759305210916
 20
-23.155086848635165
 30
0.0
 11
-184.73759305210916
 21
-23.155086848635165
 31
0.0
  0
LINE
  8
0
  6
CONTINUOUS
 62
               3
  5
370
 10
-184.73759305210916
 20
-53.155086848635165
 30
0.0
 11
-208.73759305210916
 21
-53.155086848635165
 31
0.0
  0
LINE
  8
0
  6
CONTINUOUS
 62
               3
  5
371
 10
-211.73759305210916
 20
-50.155086848635165
 30
0.0
 11
-211.73759305210916
 21
-26.155086848635165
 31
0.0
  0
LINE
  8
0
  6
CONTINUOUS
 62
               3
  5
372
 10
-181.73759305210916
 20
-26.155086848635165
 30
0.0
 11
-181.73759305210916
 21
-50.155086848635165
 31
0.0
  0
ARC
  8
0
  6
CONTINUOUS
 62
               3
  5
373
 10
-208.73759305210916
 20
-26.155086848635165
 30
0.0
 40
3.0
 50
89.999999999999801
 51
179.9999999999996
  0
ARC
  8
0
  6
CONTINUOUS
 62
               3
  5
374
 10
-208.73759305210916
 20
-50.155086848635165
 30
0.0
 40
3.0
 50
179.9999999999996
 51
269.99999999999937
  0
ARC
  8
0
  6
CONTINUOUS
 62
               3
  5
375
 10
-184.73759305210916
 20
-50.155086848635165
 30
0.0
 40
3.0
 50
269.99999999999937
 51
359.9999999999992
  0
ARC
  8
0
  6
CONTINUOUS
 62
               3
  5
376
 10
-184.73759305210916
 20
-26.155086848635165
 30
0.0
 40
3.0
 50
0.0
 51
89.999999999999801
  0
LINE
  8
0
  6
CONTINUOUS
 62
               3
  5
377
 10
-159.73759305210916
 20
-23.155086848635165
 30
0.0
 11
-135.73759305210916
 21
-23.155086848635165
 31
0.0
  0
LINE
  8
0
  6
CONTINUOUS
 62
               3
  5
378
 10
-135.73759305210916
 20
-53.155086848635165
 30
0.0
 11
-159.73759305210916
 21
-53.155086848635165
 31
0.0
  0
LINE
  8
0
  6
CONTINUOUS
 62
               3
  5
379
 10
-162.73759305210916
 20
-50.155086848635165
 30
0.0
 11
-162.73759305210916
 21
-26.155086848635165
 31
0.0
  0
LINE
  8
0
  6
CONTINUOUS
 62
               3
  5
37A
 10
-132.73759305210916
 20
-26.155086848635165
 30
0.0
 11
-132.73759305210916
 21
-50.155086848635165
 31
0.0
  0
ARC
  8
0
  6
CONTINUOUS
 62
               3
  5
37B
 10
-159.73759305210916
 20
-26.155086848635165
 30
0.0
 40
3.0
 50
89.999999999999801
 51
179.9999999999996
  0
ARC
  8
0
  6
CONTINUOUS
 62
               3
  5
37C
 10
-159.73759305210916
 20
-50.155086848635165
 30
0.0
 40
3.0
 50
179.9999999999996
 51
269.99999999999937
  0
ARC
  8
0
  6
CONTINUOUS
 62
               3
  5
37D
 10
-135.73759305210916
 20
-50.155086848635165
 30
0.0
 40
3.0
 50
269.99999999999937
 51
359.9999999999992
  0
ARC
  8
0
  6
CONTINUOUS
 62
               3
  5
37E
 10
-135.73759305210916
 20
-26.155086848635165
 30
0.0
 40
3.0
 50
0.0
 51
89.999999999999801
  0
LINE
  8
0
  6
CONTINUOUS
 62
               3
  5
37F
 10
-110.73759305210918
 20
-23.155086848635165
 30
0.0
 11
-86.737593052109176
 21
-23.155086848635165
 31
0.0
  0
LINE
  8
0
  6
CONTINUOUS
 62
               3
  5
380
 10
-86.737593052109176
 20
-53.155086848635165
 30
0.0
 11
-110.73759305210918
 21
-53.155086848635165
 31
0.0
  0
LINE
  8
0
  6
CONTINUOUS
 62
               3
  5
381
 10
-113.73759305210918
 20
-50.155086848635165
 30
0.0
 11
-113.73759305210918
 21
-26.155086848635165
 31
0.0
  0
LINE
  8
0
  6
CONTINUOUS
 62
               3
  5
382
 10
-83.737593052109176
 20
-26.155086848635165
 30
0.0
 11
-83.737593052109176
 21
-50.155086848635165
 31
0.0
  0
ARC
  8
0
  6
CONTINUOUS
 62
               3
  5
383
 10
-110.73759305210918
 20
-26.155086848635165
 30
0.0
 40
3.0
 50
89.999999999999801
 51
179.9999999999996
  0
ARC
  8
0
  6
CONTINUOUS
 62
               3
  5
384
 10
-110.73759305210918
 20
-50.155086848635165
 30
0.0
 40
3.0
 50
179.9999999999996
 51
269.99999999999937
  0
ARC
  8
0
  6
CONTINUOUS
 62
               3
  5
385
 10
-86.737593052109176
 20
-50.155086848635165
 30
0.0
 40
3.0
 50
269.99999999999937
 51
359.9999999999992
  0
ARC
  8
0
  6
CONTINUOUS
 62
               3
  5
386
 10
-86.737593052109176
 20
-26.155086848635165
 30
0.0
 40
3.0
 50
0.0
 51
89.999999999999801
  0
LINE
  8
0
  6
CONTINUOUS
 62
               3
  5
387
 10
-61.737593052109169
 20
-23.155086848635165
 30
0.0
 11
-37.737593052109169
 21
-23.155086848635165
 31
0.0
  0
LINE
  8
0
  6
CONTINUOUS
 62
               3
  5
388
 10
-37.737593052109169
 20
-53.155086848635165
 30
0.0
 11
-61.737593052109169
 21
-53.155086848635165
 31
0.0
  0
LINE
  8
0
  6
CONTINUOUS
 62
               3
  5
389
 10
-64.737593052109176
 20
-50.155086848635165
 30
0.0
 11
-64.737593052109176
 21
-26.155086848635165
 31
0.0
  0
LINE
  8
0
  6
CONTINUOUS
 62
               3
  5
38A
 10
-34.737593052109169
 20
-26.155086848635165
 30
0.0
 11
-34.737593052109169
 21
-50.155086848635165
 31
0.0
  0
ARC
  8
0
  6
CONTINUOUS
 62
               3
  5
38B
 10
-61.737593052109169
 20
-26.155086848635165
 30
0.0
 40
3.0
 50
89.999999999999801
 51
179.9999999999996
  0
ARC
  8
0
  6
CONTINUOUS
 62
               3
  5
38C
 10
-61.737593052109169
 20
-50.155086848635165
 30
0.0
 40
3.0
 50
179.9999999999996
 51
269.99999999999937
  0
ARC
  8
0
  6
CONTINUOUS
 62
               3
  5
38D
 10
-37.737593052109169
 20
-50.155086848635165
 30
0.0
 40
3.0
 50
269.99999999999937
 51
359.9999999999992
  0
ARC
  8
0
  6
CONTINUOUS
 62
               3
  5
38E
 10
-37.737593052109169
 20
-26.155086848635165
 30
0.0
 40
3.0
 50
0.0
 51
89.999999999999801
  0
LINE
  8
0
  6
CONTINUOUS
 62
               3
  5
38F
 10
36.262406947890831
 20
-23.155086848635165
 30
0.0
 11
60.262406947890831
 21
-23.155086848635165
 31
0.0
  0
LINE
  8
0
  6
CONTINUOUS
 62
               3
  5
390
 10
60.262406947890831
 20
-53.155086848635165
 30
0.0
 11
36.262406947890831
 21
-53.155086848635165
 31
0.0
  0
LINE
  8
0
  6
CONTINUOUS
 62
               3
  5
391
 10
33.262406947890831
 20
-50.155086848635165
 30
0.0
 11
33.262406947890831
 21
-26.155086848635165
 31
0.0
  0
LINE
  8
0
  6
CONTINUOUS
 62
               3
  5
392
 10
63.262406947890831
 20
-26.155086848635165
 30
0.0
 11
63.262406947890831
 21
-50.155086848635165
 31
0.0
  0
ARC
  8
0
  6
CONTINUOUS
 62
               3
  5
393
 10
36.262406947890831
 20
-26.155086848635165
 30
0.0
 40
3.0
 50
89.999999999999801
 51
179.9999999999996
  0
ARC
  8
0
  6
CONTINUOUS
 62
               3
  5
394
 10
36.262406947890831
 20
-50.155086848635165
 30
0.0
 40
3.0
 50
179.9999999999996
 51
269.99999999999937
  0
ARC
  8
0
  6
CONTINUOUS
 62
               3
  5
395
 10
60.262406947890831
 20
-50.155086848635165
 30
0.0
 40
3.0
 50
269.99999999999937
 51
359.9999999999992
  0
ARC
  8
0
  6
CONTINUOUS
 62
               3
  5
396
 10
60.262406947890831
 20
-26.155086848635165
 30
0.0
 40
3.0
 50
0.0
 51
89.999999999999801
  0
LINE
  8
0
  6
CONTINUOUS
 62
               3
  5
397
 10
85.262406947890824
 20
-23.155086848635165
 30
0.0
 11
109.26240694789082
 21
-23.155086848635165
 31
0.0
  0
LINE
  8
0
  6
CONTINUOUS
 62
               3
  5
398
 10
109.26240694789082
 20
-53.155086848635165
 30
0.0
 11
85.262406947890824
 21
-53.155086848635165
 31
0.0
  0
LINE
  8
0
  6
CONTINUOUS
 62
               3
  5
399
 10
82.262406947890824
 20
-50.155086848635165
 30
0.0
 11
82.262406947890824
 21
-26.155086848635165
 31
0.0
  0
LINE
  8
0
  6
CONTINUOUS
 62
               3
  5
39A
 10
112.26240694789082
 20
-26.155086848635165
 30
0.0
 11
112.26240694789082
 21
-50.155086848635165
 31
0.0
  0
ARC
  8
0
  6
CONTINUOUS
 62
               3
  5
39B
 10
85.262406947890824
 20
-26.155086848635165
 30
0.0
 40
3.0
 50
89.999999999999801
 51
179.9999999999996
  0
ARC
  8
0
  6
CONTINUOUS
 62
               3
  5
39C
 10
85.262406947890824
 20
-50.155086848635165
 30
0.0
 40
3.0
 50
179.9999999999996
 51
269.99999999999937
  0
ARC
  8
0
  6
CONTINUOUS
 62
               3
  5
39D
 10
109.26240694789082
 20
-50.155086848635165
 30
0.0
 40
3.0
 50
269.99999999999937
 51
359.9999999999992
  0
ARC
  8
0
  6
CONTINUOUS
 62
               3
  5
39E
 10
109.26240694789082
 20
-26.155086848635165
 30
0.0
 40
3.0
 50
0.0
 51
89.999999999999801
  0
LINE
  8
0
  6
CONTINUOUS
 62
               3
  5
39F
 10
134.26240694789084
 20
-23.155086848635165
 30
0.0
 11
158.26240694789084
 21
-23.155086848635165
 31
0.0
  0
LINE
  8
0
  6
CONTINUOUS
 62
               3
  5
3A0
 10
158.26240694789084
 20
-53.155086848635165
 30
0.0
 11
134.26240694789084
 21
-53.155086848635165
 31
0.0
  0
LINE
  8
0
  6
CONTINUOUS
 62
               3
  5
3A1
 10
131.26240694789084
 20
-50.155086848635165
 30
0.0
 11
131.26240694789084
 21
-26.155086848635165
 31
0.0
  0
LINE
  8
0
  6
CONTINUOUS
 62
               3
  5
3A2
 10
161.26240694789084
 20
-26.155086848635165
 30
0.0
 11
161.26240694789084
 21
-50.155086848635165
 31
0.0
  0
ARC
  8
0
  6
CONTINUOUS
 62
               3
  5
3A3
 10
134.26240694789084
 20
-26.155086848635165
 30
0.0
 40
3.0
 50
89.999999999999801
 51
179.9999999999996
  0
ARC
  8
0
  6
CONTINUOUS
 62
               3
  5
3A4
 10
134.26240694789084
 20
-50.155086848635165
 30
0.0
 40
3.0
 50
179.9999999999996
 51
269.99999999999937
  0
ARC
  8
0
  6
CONTINUOUS
 62
               3
  5
3A5
 10
158.26240694789084
 20
-50.155086848635165
 30
0.0
 40
3.0
 50
269.99999999999937
 51
359.9999999999992
  0
ARC
  8
0
  6
CONTINUOUS
 62
               3
  5
3A6
 10
158.26240694789084
 20
-26.155086848635165
 30
0.0
 40
3.0
 50
0.0
 51
89.999999999999801
  0
LINE
  8
0
  6
CONTINUOUS
 62
               3
  5
3A7
 10
183.26240694789078
 20
-23.155086848635165
 30
0.0
 11
207.26240694789078
 21
-23.155086848635165
 31
0.0
  0
LINE
  8
0
  6
CONTINUOUS
 62
               3
  5
3A8
 10
207.26240694789078
 20
-53.155086848635165
 30
0.0
 11
183.26240694789078
 21
-53.155086848635165
 31
0.0
  0
LINE
  8
0
  6
CONTINUOUS
 62
               3
  5
3A9
 10
180.26240694789078
 20
-50.155086848635165
 30
0.0
 11
180.26240694789078
 21
-26.155086848635165
 31
0.0
  0
LINE
  8
0
  6
CONTINUOUS
 62
               3
  5
3AA
 10
210.26240694789078
 20
-26.155086848635165
 30
0.0
 11
210.26240694789078
 21
-50.155086848635165
 31
0.0
  0
ARC
  8
0
  6
CONTINUOUS
 62
               3
  5
3AB
 10
183.26240694789078
 20
-26.155086848635165
 30
0.0
 40
3.0
 50
89.999999999999801
 51
179.9999999999996
  0
ARC
  8
0
  6
CONTINUOUS
 62
               3
  5
3AC
 10
183.26240694789078
 20
-50.155086848635165
 30
0.0
 40
3.0
 50
179.9999999999996
 51
269.99999999999937
  0
ARC
  8
0
  6
CONTINUOUS
 62
               3
  5
3AD
 10
207.26240694789078
 20
-50.155086848635165
 30
0.0
 40
3.0
 50
269.99999999999937
 51
359.9999999999992
  0
ARC
  8
0
  6
CONTINUOUS
 62
               3
  5
3AE
 10
207.26240694789078
 20
-26.155086848635165
 30
0.0
 40
3.0
 50
0.0
 51
89.999999999999801
  0
LINE
  8
0
  6
CONTINUOUS
 62
               3
  5
3AF
 10
-77.73759305210919
 20
392.84491315136484
 30
0.0
 11
76.26240694789081
 21
392.84491315136484
 31
0.0
  0
LINE
  8
0
  6
CONTINUOUS
 62
               3
  5
3B0
 10
76.26240694789081
 20
372.84491315136484
 30
0.0
 11
-77.73759305210919
 21
372.84491315136484
 31
0.0
  0
LINE
  8
0
  6
CONTINUOUS
 62
               3
  5
3B1
 10
-80.73759305210919
 20
375.84491315136484
 30
0.0
 11
-80.73759305210919
 21
389.84491315136484
 31
0.0
  0
LINE
  8
0
  6
CONTINUOUS
 62
               3
  5
3B2
 10
79.26240694789081
 20
389.84491315136484
 30
0.0
 11
79.26240694789081
 21
375.84491315136484
 31
0.0
  0
LINE
  8
0
  6
CONTINUOUS
 62
               3
  5
3B3
 10
-55.737593052109183
 20
-62.155086848635165
 30
0.0
 11
-55.737593052109183
 21
-72.155086848635165
 31
0.0
  0
LINE
  8
0
  6
CONTINUOUS
 62
               3
  5
3B4
 10
49.262406947890817
 20
-77.155086848635165
 30
0.0
 11
-50.737593052109183
 21
-77.155086848635165
 31
0.0
  0
LINE
  8
0
  6
CONTINUOUS
 62
               3
  5
3B5
 10
54.262406947890817
 20
-72.155086848635165
 30
0.0
 11
54.262406947890817
 21
-62.155086848635165
 31
0.0
  0
LINE
  8
0
  6
CONTINUOUS
 62
               3
  5
3B6
 10
49.262406947890817
 20
-57.155086848635165
 30
0.0
 11
-50.737593052109183
 21
-57.155086848635165
 31
0.0
  0
ARC
  8
0
  6
CONTINUOUS
 62
               3
  5
3B7
 10
-50.737593052109183
 20
-62.155086848635165
 30
0.0
 40
5.0
 50
89.999999999999801
 51
179.9999999999996
  0
ARC
  8
0
  6
CONTINUOUS
 62
               3
  5
3B8
 10
-50.737593052109183
 20
-72.155086848635165
 30
0.0
 40
5.0
 50
179.9999999999996
 51
269.99999999999937
  0
ARC
  8
0
  6
CONTINUOUS
 62
               3
  5
3B9
 10
49.262406947890817
 20
-62.155086848635165
 30
0.0
 40
5.0
 50
0.0
 51
89.999999999999801
  0
ARC
  8
0
  6
CONTINUOUS
 62
               3
  5
3BA
 10
49.262406947890817
 20
-72.155086848635165
 30
0.0
 40
5.0
 50
269.99999999999937
 51
359.9999999999992
  0
ARC
  8
0
  6
CONTINUOUS
 62
               3
  5
3BB
 10
39.913619947890815
 20
-64.888444848635174
 30
0.0
 40
0.45
 50
0.0
 51
164.993422999968
  0
LINE
  8
0
  6
CONTINUOUS
 62
               3
  5
3BC
 10
40.363619947890818
 20
-64.888444848635174
 30
0.0
 11
40.363619947890818
 21
-71.715086848635167
 31
0.0
  0
LINE
  8
0
  6
CONTINUOUS
 62
               3
  5
3BD
 10
40.363619947890818
 20
-71.715086848635167
 30
0.0
 11
41.762406947890817
 21
-71.715086848635167
 31
0.0
  0
LINE
  8
0
  6
CONTINUOUS
 62
               3
  5
3BE
 10
32.138281947890825
 20
-71.715086848635167
 30
0.0
 11
33.537069947890821
 21
-71.715086848635167
 31
0.0
  0
LINE
  8
0
  6
CONTINUOUS
 62
               3
  5
3BF
 10
33.537069947890821
 20
-71.715086848635167
 30
0.0
 11
33.537069947890821
 21
-64.888447848635167
 31
0.0
  0
ARC
  8
0
  6
CONTINUOUS
 62
               3
  5
3C0
 10
33.987069947890824
 20
-64.888447848635167
 30
0.0
 40
0.45
 50
15.006699999997473
 51
179.99999999996521
  0
LINE
  8
0
  6
CONTINUOUS
 62
               3
  5
3C1
 10
34.421722947890821
 20
-64.771928848635156
 30
0.0
 11
36.282991947890814
 21
-71.715086848635167
 31
0.0
  0
LINE
  8
0
  6
CONTINUOUS
 62
               3
  5
3C2
 10
36.282991947890814
 20
-71.715086848635167
 30
0.0
 11
37.617697947890825
 21
-71.715086848635167
 31
0.0
  0
LINE
  8
0
  6
CONTINUOUS
 62
               3
  5
3C3
 10
37.617697947890825
 20
-71.715086848635167
 30
0.0
 11
39.478966947890818
 21
-64.771926848635161
 31
0.0
  0
LINE
  8
0
  6
CONTINUOUS
 62
               3
  5
3C4
 10
26.077739909005444
 20
-66.355086848635153
 30
0.0
 11
26.077739909005444
 21
-67.955086848635176
 31
0.0
  0
ARC
  8
0
  6
CONTINUOUS
 62
               3
  5
3C5
 10
22.317739909005439
 20
-67.955086848635176
 30
0.0
 40
3.7599999999999998
 50
269.99999999994839
 51
359.99999999993122
  0
LINE
  8
0
  6
CONTINUOUS
 62
               3
  5
3C6
 10
22.317739909005439
 20
-71.715086848635167
 30
0.0
 11
20.964478909005447
 21
-71.715086848635167
 31
0.0
  0
ARC
  8
0
  6
CONTINUOUS
 62
               3
  5
3C7
 10
20.964478909005447
 20
-67.955086848635176
 30
0.0
 40
3.7599999999999998
 50
179.99999999996561
 51
269.99999999994839
  0
LINE
  8
0
  6
CONTINUOUS
 62
               3
  5
3C8
 10
17.204478909005449
 20
-67.955086848635176
 30
0.0
 11
17.204478909005449
 21
-66.355086848635153
 31
0.0
  0
ARC
  8
0
  6
CONTINUOUS
 62
               3
  5
3C9
 10
21.793092909005452
 20
-67.970323848635161
 30
0.0
 40
2.2400000000000002
 50
269.99999999994833
 51
359.9999999999992
  0
LINE
  8
0
  6
CONTINUOUS
 62
               3
  5
3CA
 10
21.793092909005452
 20
-70.21032384863517
 30
0.0
 11
21.472962909005446
 21
-70.21032384863517
 31
0.0
  0
ARC
  8
0
  6
CONTINUOUS
 62
               3
  5
3CB
 10
21.472962909005446
 20
-67.970323848635161
 30
0.0
 40
2.2400000000000002
 50
179.99999999996564
 51
269.99999999994833
  0
LINE
  8
0
  6
CONTINUOUS
 62
               3
  5
3CC
 10
19.232962909005447
 20
-67.970323848635161
 30
0.0
 11
19.232962909005447
 21
-66.217026848635157
 31
0.0
  0
ARC
  8
0
  6
CONTINUOUS
 62
               3
  5
3CD
 10
21.472962909005446
 20
-66.217026848635157
 30
0.0
 40
2.2400000000000002
 50
89.99999999998272
 51
179.99999999996564
  0
LINE
  8
0
  6
CONTINUOUS
 62
               3
  5
3CE
 10
21.472962909005446
 20
-63.977026848635177
 30
0.0
 11
21.793092909005452
 21
-63.977026848635177
 31
0.0
  0
ARC
  8
0
  6
CONTINUOUS
 62
               3
  5
3CF
 10
21.793092909005452
 20
-66.217026848635157
 30
0.0
 40
2.2400000000000002
 50
0.0
 51
89.99999999998272
  0
LINE
  8
0
  6
CONTINUOUS
 62
               3
  5
3D0
 10
24.033092909005447
 20
-66.217026848635157
 30
0.0
 11
24.033092909005447
 21
-67.970323848635161
 31
0.0
  0
ARC
  8
0
  6
CONTINUOUS
 62
               3
  5
3D1
 10
8.7793278940054407
 20
-66.287277848635171
 30
0.0
 40
3.7811430000000001
 50
22.678043999995715
 51
43.432970999991731
  0
LINE
  8
0
  6
CONTINUOUS
 62
               3
  5
3D2
 10
12.268135894005439
 20
-64.829448848635167
 30
0.0
 11
10.623161894005442
 21
-65.23015884863517
 31
0.0
  0
ARC
  8
0
  6
CONTINUOUS
 62
               3
  5
3D3
 10
8.6294748940054404
 20
-66.224085848635156
 30
0.0
 40
2.2277070000000001
 50
26.497953999994856
 51
40.680299999992165
  0
ARC
  8
0
  6
CONTINUOUS
 62
               3
  5
3D4
 10
8.5948638940054423
 20
-66.254040848635157
 30
0.0
 40
2.2734800000000002
 50
40.68423299999229
 51
65.520743999987474
  0
ARC
  8
0
  6
CONTINUOUS
 62
               3
  5
3D5
 10
8.5793258940054429
 20
-66.286356848635165
 30
0.0
 40
2.3093300000000001
 50
65.502116999987535
 51
90.015407999982742
  0
LINE
  8
0
  6
CONTINUOUS
 62
               3
  5
3D6
 10
8.5787048940054405
 20
-63.977026848635177
 30
0.0
 11
8.2520438940054461
 21
-63.977026848635177
 31
0.0
  0
ARC
  8
0
  6
CONTINUOUS
 62
               3
  5
3D7
 10
8.2515858940054443
 20
-66.287479848635172
 30
0.0
 40
2.3104529999999999
 50
89.988644999982824
 51
112.06498199997856
  0
ARC
  8
0
  6
CONTINUOUS
 62
               3
  5
3D8
 10
8.2397228940054461
 20
-66.259781848635157
 30
0.0
 40
2.2803270000000002
 50
112.05019299997863
 51
134.36950099997435
  0
ARC
  8
0
  6
CONTINUOUS
 62
               3
  5
3D9
 10
8.2101088940054439
 20
-66.229560848635174
 30
0.0
 40
2.2380149999999999
 50
134.36856599997427
 51
157.04255999996994
  0
ARC
  8
0
  6
CONTINUOUS
 62
               3
  5
3DA
 10
8.1829768940054421
 20
-66.217444848635154
 30
0.0
 40
2.2083059999999999
 50
157.0574339999699
 51
179.98780999996563
  0
LINE
  8
0
  6
CONTINUOUS
 62
               3
  5
3DB
 10
5.97467089400544
 20
-66.216974848635175
 30
0.0
 11
5.97467089400544
 21
-67.970375848635172
 31
0.0
  0
ARC
  8
0
  6
CONTINUOUS
 62
               3
  5
3DC
 10
8.1829768940054421
 20
-67.969902848635172
 30
0.0
 40
2.2083059999999999
 50
180.01227499996551
 51
202.94264699996126
  0
ARC
  8
0
  6
CONTINUOUS
 62
               3
  5
3DD
 10
8.2101118940054434
 20
-67.95779484863516
 30
0.0
 40
2.2380149999999999
 50
202.9573159999612
 51
225.63133299995684
  0
ARC
  8
0
  6
CONTINUOUS
 62
               3
  5
3DE
 10
8.2397208940054441
 20
-67.927567848635164
 30
0.0
 40
2.2803270000000002
 50
225.63060599995686
 51
247.94990999995258
  0
ARC
  8
0
  6
CONTINUOUS
 62
               3
  5
3DF
 10
8.2515878940054392
 20
-67.899870848635175
 30
0.0
 40
2.3104529999999999
 50
247.93500199995256
 51
270.01133699994841
  0
LINE
  8
0
  6
CONTINUOUS
 62
               3
  5
3E0
 10
8.2520448940054436
 20
-70.21032384863517
 30
0.0
 11
8.578666894005444
 21
-70.21032384863517
 31
0.0
  0
ARC
  8
0
  6
CONTINUOUS
 62
               3
  5
3E1
 10
8.5796688940054437
 20
-67.903257848635178
 30
0.0
 40
2.3070659999999998
 50
269.9750999999485
 51
298.8556049999429
  0
ARC
  8
0
  6
CONTINUOUS
 62
               3
  5
3E2
 10
8.602836894005442
 20
-67.943283848635161
 30
0.0
 40
2.2608299999999999
 50
298.83091399994294
 51
328.20894099993723
  0
ARC
  8
0
  6
CONTINUOUS
 62
               3
  5
3E3
 10
8.6427508940054452
 20
-67.968951848635157
 30
0.0
 40
2.213381
 50
328.22936899993726
 51
343.52418399993434
  0
LINE
  8
0
  6
CONTINUOUS
 62
               3
  5
3E4
 10
10.765249894005443
 20
-68.596689848635151
 30
0.0
 11
12.402418894005443
 21
-69.107430848635175
 31
0.0
  0
ARC
  8
0
  6
CONTINUOUS
 62
               3
  5
3E5
 10
8.6113098940054442
 20
-67.954366848635175
 30
0.0
 40
3.962583
 50
338.57595299993534
 51
343.08288599993443
  0
ARC
  8
0
  6
CONTINUOUS
 62
               3
  5
3E6
 10
8.7793288940054452
 20
-68.022895848635159
 30
0.0
 40
3.7811430000000001
 50
316.56703499993949
 51
338.61265099993534
  0
ARC
  8
0
  6
CONTINUOUS
 62
               3
  5
3E7
 10
8.9514248940054415
 20
-68.18642884863516
 30
0.0
 40
3.5437409999999998
 50
293.66020599994386
 51
316.57409899993951
  0
ARC
  8
0
  6
CONTINUOUS
 62
               3
  5
3E8
 10
9.0203938940054442
 20
-68.336267848635174
 30
0.0
 40
3.3788200000000002
 50
270.03798999994842
 51
293.60866999994386
  0
LINE
  8
0
  6
CONTINUOUS
 62
               3
  5
3E9
 10
9.0226338940054447
 20
-71.715086848635167
 30
0.0
 11
7.7370808940054436
 21
-71.715086848635167
 31
0.0
  0
ARC
  8
0
  6
CONTINUOUS
 62
               3
  5
3EA
 10
7.7393238940054436
 20
-68.336267848635174
 30
0.0
 40
3.3788200000000002
 50
246.39130699995295
 51
269.96195799994842
  0
ARC
  8
0
  6
CONTINUOUS
 62
               3
  5
3EB
 10
7.8082888940054422
 20
-68.186426848635165
 30
0.0
 40
3.5437409999999998
 50
223.42596199995731
 51
246.33984099995294
  0
ARC
  8
0
  6
CONTINUOUS
 62
               3
  5
3EC
 10
7.9803858940054431
 20
-68.022894848635161
 30
0.0
 40
3.7811430000000001
 50
201.38663699996152
 51
223.43300399995732
  0
ARC
  8
0
  6
CONTINUOUS
 62
               3
  5
3ED
 10
8.1381038940054395
 20
-67.957353848635165
 30
0.0
 40
3.951902
 50
179.96882599996562
 51
201.43758999996149
  0
LINE
  8
0
  6
CONTINUOUS
 62
               3
  5
3EE
 10
4.1862018940054426
 20
-67.955203848635165
 30
0.0
 11
4.1862018940054426
 21
-66.354970848635162
 31
0.0
  0
ARC
  8
0
  6
CONTINUOUS
 62
               3
  5
3EF
 10
8.1381028940054421
 20
-66.352823848635154
 30
0.0
 40
3.951902
 50
158.56236299996974
 51
180.03113499996564
  0
ARC
  8
0
  6
CONTINUOUS
 62
               3
  5
3F0
 10
7.9803878940054451
 20
-66.287276848635173
 30
0.0
 40
3.7811430000000001
 50
136.56705899997391
 51
158.61340799996964
  0
ARC
  8
0
  6
CONTINUOUS
 62
               3
  5
3F1
 10
-5.5989504685932863
 20
-67.06270084863516
 30
0.0
 40
1.6739599999999999
 50
104.61107299998007
 51
163.55401699996875
  0
ARC
  8
0
  6
CONTINUOUS
 62
               3
  5
3F2
 10
-4.0642174685932897
 20
-77.848012848635165
 30
0.0
 40
12.558554000000001
 50
80.483125999984608
 51
98.964941999981079
  0
ARC
  8
0
  6
CONTINUOUS
 62
               3
  5
3F3
 10
-2.7418904685932883
 20
-67.352176848635168
 30
0.0
 40
2.0347629999999999
 50
2.9885959999994984
 51
68.247451999986936
  0
LINE
  8
0
  6
CONTINUOUS
 62
               3
  5
3F4
 10
-0.7098954685932861
 20
-67.246089848635165
 30
0.0
 11
-0.7098944685932886
 21
-71.018030848635163
 31
0.0
  0
ARC
  8
0
  6
CONTINUOUS
 62
               3
  5
3F5
 10
1.8505005314067109
 20
-70.93503684863515
 30
0.0
 40
2.5617399999999999
 50
181.85657099996527
 51
197.53474599996227
  0
LINE
  8
0
  6
CONTINUOUS
 62
               3
  5
3F6
 10
-0.5922064685932875
 20
-71.706848848635161
 30
0.0
 11
-2.2008004685932914
 21
-71.706847848635164
 31
0.0
  0
ARC
  8
0
  6
CONTINUOUS
 62
               3
  5
3F7
 10
-1.110428468593289
 20
-70.841204848635158
 30
0.0
 40
1.3922099999999999
 50
191.57889399996336
 51
218.44596499995825
  0
ARC
  8
0
  6
CONTINUOUS
 62
               3
  5
3F8
 10
-4.6777874685932863
 20
-67.316281848635157
 30
0.0
 40
4.39642
 50
262.98766999994973
 51
300.07935499994261
  0
ARC
  8
0
  6
CONTINUOUS
 62
               3
  5
3F9
 10
-5.4862394685932889
 20
-69.209810848635158
 30
0.0
 40
2.4849070000000002
 50
226.82930799995665
 51
276.27782999994713
  0
ARC
  8
0
  6
CONTINUOUS
 62
               3
  5
3FA
 10
-6.058505468593288
 20
-70.038263848635154
 30
0.0
 40
1.49665
 50
119.49315299997708
 51
221.09871999995784
  0
ARC
  8
0
  6
CONTINUOUS
 62
               3
  5
3FB
 10
-5.9207664685932917
 20
-70.48365984863517
 30
0.0
 40
1.954669
 50
102.67818699998035
 51
116.57863599997776
  0
LINE
  8
0
  6
CONTINUOUS
 62
               3
  5
3FC
 10
-6.3497674685932912
 20
-68.576649848635157
 30
0.0
 11
-2.5563874685932912
 21
-67.396090848635168
 31
0.0
  0
ARC
  8
0
  6
CONTINUOUS
 62
               3
  5
3FD
 10
-3.7100334685932861
 20
-67.134705848635178
 30
0.0
 40
1.182887
 50
347.23386299993354
 51
436.26196699998457
  0
ARC
  8
0
  6
CONTINUOUS
 62
               3
  5
3FE
 10
-3.8917884685932886
 20
-68.672154848635159
 30
0.0
 40
2.7260450000000001
 50
80.228341999984721
 51
110.54055499997894
  0
ARC
  8
0
  6
CONTINUOUS
 62
               3
  5
3FF
 10
-4.2336184685932912
 20
-67.495142848635169
 30
0.0
 40
1.5067900000000001
 50
114.07456899997814
 51
152.61719999997078
  0
LINE
  8
0
  6
CONTINUOUS
 62
               3
  5
400
 10
-5.5715784685932865
 20
-66.802119848635158
 30
0.0
 11
-7.2044244685932872
 21
-66.58878384863516
 31
0.0
  0
ARC
  8
0
  6
CONTINUOUS
 62
               3
  5
401
 10
-4.535950468593291
 20
-70.043891848635155
 30
0.0
 40
1.215063
 50
111.67269299997865
 51
136.29617699997388
  0
LINE
  8
0
  6
CONTINUOUS
 62
               3
  5
402
 10
-4.9846784685932866
 20
-68.914723848635163
 30
0.0
 11
-2.5121624685932868
 21
-68.199626848635177
 31
0.0
  0
ARC
  8
0
  6
CONTINUOUS
 62
               3
  5
403
 10
-3.8877054685932873
 20
-69.105746848635164
 30
0.0
 40
1.6471709999999999
 50
350.17987599993307
 51
393.37434699999284
  0
ARC
  8
0
  6
CONTINUOUS
 62
               3
  5
404
 10
-3.9702134685932915
 20
-69.083996848635167
 30
0.0
 40
1.7321949999999999
 50
322.95159799993826
 51
349.93644699993314
  0
ARC
  8
0
  6
CONTINUOUS
 62
               3
  5
405
 10
-4.1945854685932877
 20
-68.912909848635167
 30
0.0
 40
2.014351
 50
299.2558159999428
 51
322.91270799993828
  0
ARC
  8
0
  6
CONTINUOUS
 62
               3
  5
406
 10
-4.3311254685932914
 20
-68.631546848635168
 30
0.0
 40
2.3266260000000001
 50
262.30563699994985
 51
298.80315699994298
  0
ARC
  8
0
  6
CONTINUOUS
 62
               3
  5
407
 10
-4.5580574685932893
 20
-69.673818848635165
 30
0.0
 40
1.2662340000000001
 50
246.32339099995289
 51
266.17012499994917
  0
ARC
  8
0
  6
CONTINUOUS
 62
               3
  5
408
 10
-4.60868646859329
 20
-69.783882848635159
 30
0.0
 40
1.145105
 50
223.27824399995728
 51
246.43193199995284
  0
ARC
  8
0
  6
CONTINUOUS
 62
               3
  5
409
 10
-4.7060764685932872
 20
-69.875363848635175
 30
0.0
 40
1.0114879999999999
 50
195.64171199996252
 51
223.28748199995746
  0
ARC
  8
0
  6
CONTINUOUS
 62
               3
  5
40A
 10
-4.7063264685932884
 20
-69.91970784863517
 30
0.0
 40
1.0002
 50
163.28053799996871
 51
193.1986969999632
  0
ARC
  8
0
  6
CONTINUOUS
 62
               3
  5
40B
 10
-4.6427884685932872
 20
-69.942104848635154
 30
0.0
 40
1.0674999999999999
 50
136.28362499997399
 51
163.11031799996883
  0
ARC
  8
0
  6
CONTINUOUS
 62
               3
  5
40C
 10
-12.937584612109188
 20
-68.257818848635168
 30
0.0
 40
1.800495
 50
75.008649999985735
 51
177.03168899996624
  0
LINE
  8
0
  6
CONTINUOUS
 62
               3
  5
40D
 10
-12.471844612109184
 20
-66.518603848635166
 30
0.0
 11
-11.964654612109189
 21
-65.387178848635159
 31
0.0
  0
ARC
  8
0
  6
CONTINUOUS
 62
               3
  5
40E
 10
-12.605655612109185
 20
-66.655682848635166
 30
0.0
 40
1.4212610000000001
 50
63.191599999988007
 51
146.35604999997202
  0
ARC
  8
0
  6
CONTINUOUS
 62
               3
  5
40F
 10
-14.238397612109186
 20
-65.569083848635159
 30
0.0
 40
0.54
 50
180.00004299996576
 51
326.35594099993762
  0
LINE
  8
0
  6
CONTINUOUS
 62
               3
  5
410
 10
-14.778397612109185
 20
-65.569083848635159
 30
0.0
 11
-14.778397612109185
 21
-65.411837848635173
 31
0.0
  0
LINE
  8
0
  6
CONTINUOUS
 62
               3
  5
411
 10
-14.778397612109185
 20
-65.411837848635173
 30
0.0
 11
-16.383202612109187
 21
-65.411837848635173
 31
0.0
  0
LINE
  8
0
  6
CONTINUOUS
 62
               3
  5
412
 10
-16.383202612109187
 20
-65.411837848635173
 30
0.0
 11
-16.383202612109187
 21
-71.715086848635167
 31
0.0
  0
LINE
  8
0
  6
CONTINUOUS
 62
               3
  5
413
 10
-16.383202612109187
 20
-71.715086848635167
 30
0.0
 11
-14.735664612109186
 21
-71.715086848635167
 31
0.0
  0
LINE
  8
0
  6
CONTINUOUS
 62
               3
  5
414
 10
-14.735664612109186
 20
-71.715086848635167
 30
0.0
 11
-14.735663612109185
 21
-68.164582848635177
 31
0.0
  0
ARC
  8
0
  6
CONTINUOUS
 62
               3
  5
415
 10
-22.846141209696167
 20
-70.355086848635153
 30
0.0
 40
1.3600000000000001
 50
179.99999999996564
 51
269.99999999994833
  0
LINE
  8
0
  6
CONTINUOUS
 62
               3
  5
416
 10
-24.206141209696167
 20
-70.355086848635153
 30
0.0
 11
-24.206141209696167
 21
-66.518443848635172
 31
0.0
  0
LINE
  8
0
  6
CONTINUOUS
 62
               3
  5
417
 10
-24.206141209696167
 20
-66.518443848635172
 30
0.0
 11
-25.137466209696168
 21
-66.518443848635172
 31
0.0
  0
LINE
  8
0
  6
CONTINUOUS
 62
               3
  5
418
 10
-25.137466209696168
 20
-66.518443848635172
 30
0.0
 11
-25.137466209696168
 21
-65.452505848635155
 31
0.0
  0
LINE
  8
0
  6
CONTINUOUS
 62
               3
  5
419
 10
-25.137466209696168
 20
-65.452505848635155
 30
0.0
 11
-24.206141209696167
 21
-65.452505848635155
 31
0.0
  0
LINE
  8
0
  6
CONTINUOUS
 62
               3
  5
41A
 10
-24.206141209696167
 20
-65.452505848635155
 30
0.0
 11
-24.206141209696167
 21
-63.815775848635155
 31
0.0
  0
LINE
  8
0
  6
CONTINUOUS
 62
               3
  5
41B
 10
-22.439165209696167
 20
-65.452505848635155
 30
0.0
 11
-21.056201209696166
 21
-65.452505848635155
 31
0.0
  0
LINE
  8
0
  6
CONTINUOUS
 62
               3
  5
41C
 10
-21.056201209696166
 20
-65.452505848635155
 30
0.0
 11
-21.056201209696166
 21
-66.518443848635172
 31
0.0
  0
LINE
  8
0
  6
CONTINUOUS
 62
               3
  5
41D
 10
-21.056201209696166
 20
-66.518443848635172
 30
0.0
 11
-22.439165209696167
 21
-66.518443848635172
 31
0.0
  0
LINE
  8
0
  6
CONTINUOUS
 62
               3
  5
41E
 10
-22.439165209696167
 20
-66.518443848635172
 30
0.0
 11
-22.439165209696167
 21
-69.985895848635153
 31
0.0
  0
ARC
  8
0
  6
CONTINUOUS
 62
               3
  5
41F
 10
-21.647299209696168
 20
-69.877811848635162
 30
0.0
 40
0.799208
 50
187.77243399996411
 51
269.6875439999485
  0
ARC
  8
0
  6
CONTINUOUS
 62
               3
  5
420
 10
-21.422623209696166
 20
-68.203142848635167
 30
0.0
 40
2.484445
 50
264.71053899994945
 51
278.95433899994674
  0
LINE
  8
0
  6
CONTINUOUS
 62
               3
  5
421
 10
-21.035926209696168
 20
-70.657308848635154
 30
0.0
 11
-20.936837209696169
 21
-71.62118584863515
 31
0.0
  0
ARC
  8
0
  6
CONTINUOUS
 62
               3
  5
422
 10
-22.029888209696168
 20
-65.31103084863517
 30
0.0
 40
6.4041249999999996
 50
270.26588799994835
 51
279.82731399994651
  0
LINE
  8
0
  6
CONTINUOUS
 62
               3
  5
423
 10
-22.000169209696168
 20
-71.715086848635167
 30
0.0
 11
-22.846141209696167
 21
-71.715086848635167
 31
0.0
  0
LINE
  8
0
  6
CONTINUOUS
 62
               3
  5
424
 10
-36.098728052109188
 20
-65.155086848635165
 30
0.0
 11
-36.098728052109188
 21
-65.349294848635168
 31
0.0
  0
ARC
  8
0
  6
CONTINUOUS
 62
               3
  5
425
 10
-38.65872805210919
 20
-65.349294848635168
 30
0.0
 40
2.5600000000000001
 50
269.99999999994839
 51
359.99999999993116
  0
LINE
  8
0
  6
CONTINUOUS
 62
               3
  5
426
 10
-38.65872805210919
 20
-67.90929484863517
 30
0.0
 11
-41.110182052109188
 21
-67.90929484863517
 31
0.0
  0
LINE
  8
0
  6
CONTINUOUS
 62
               3
  5
427
 10
-41.110182052109188
 20
-67.90929484863517
 30
0.0
 11
-41.110182052109188
 21
-71.715086848635167
 31
0.0
  0
LINE
  8
0
  6
CONTINUOUS
 62
               3
  5
428
 10
-41.110182052109188
 20
-71.715086848635167
 30
0.0
 11
-43.237593052109183
 21
-71.715086848635167
 31
0.0
  0
ARC
  8
0
  6
CONTINUOUS
 62
               3
  5
429
 10
-39.434624052109193
 20
-65.088329848635169
 30
0.0
 40
1.373243
 50
66.692895999987243
 51
89.978773999982806
  0
ARC
  8
0
  6
CONTINUOUS
 62
               3
  5
42A
 10
-39.446537052109186
 20
-65.114572848635163
 30
0.0
 40
1.402058
 50
43.859145999991647
 51
66.670099999987229
  0
ARC
  8
0
  6
CONTINUOUS
 62
               3
  5
42B
 10
-39.476253052109193
 20
-65.14321584863518
 30
0.0
 40
1.4433309999999999
 50
21.694781999995786
 51
43.861641999991541
  0
ARC
  8
0
  6
CONTINUOUS
 62
               3
  5
42C
 10
-39.503492052109188
 20
-65.154687848635177
 30
0.0
 40
1.4728810000000001
 50
359.98150399993125
 51
381.7177299999949
  0
LINE
  8
0
  6
CONTINUOUS
 62
               3
  5
42D
 10
-38.030611052109187
 20
-65.155162848635172
 30
0.0
 11
-38.030610052109189
 21
-65.349216848635166
 31
0.0
  0
ARC
  8
0
  6
CONTINUOUS
 62
               3
  5
42E
 10
-39.50349105210919
 20
-65.349688848635168
 30
0.0
 40
1.4728810000000001
 50
338.2819759999353
 51
360.01835399999914
  0
ARC
  8
0
  6
CONTINUOUS
 62
               3
  5
42F
 10
-39.476257052109183
 20
-65.361171848635166
 30
0.0
 40
1.4433309999999999
 50
316.13863599993959
 51
338.30540199993538
  0
ARC
  8
0
  6
CONTINUOUS
 62
               3
  5
430
 10
-39.446535052109191
 20
-65.38980884863517
 30
0.0
 40
1.402058
 50
293.32977799994381
 51
316.14082899993957
  0
ARC
  8
0
  6
CONTINUOUS
 62
               3
  5
431
 10
-39.434622052109184
 20
-65.416051848635163
 30
0.0
 40
1.373243
 50
270.0211739999483
 51
293.30698399994401
  0
LINE
  8
0
  6
CONTINUOUS
 62
               3
  5
432
 10
-39.434115052109185
 20
-66.789294848635166
 30
0.0
 11
-41.110182052109188
 21
-66.789294848635166
 31
0.0
  0
LINE
  8
0
  6
CONTINUOUS
 62
               3
  5
433
 10
-41.110182052109188
 20
-66.789294848635166
 30
0.0
 11
-41.110182052109188
 21
-63.715086848635167
 31
0.0
  0
LINE
  8
0
  6
CONTINUOUS
 62
               3
  5
434
 10
-41.110182052109188
 20
-63.715086848635167
 30
0.0
 11
-39.434115052109185
 21
-63.715086848635167
 31
0.0
  0
LINE
  8
0
  6
CONTINUOUS
 62
               3
  5
435
 10
-32.549962630902677
 20
-68.989692848635173
 30
0.0
 11
-28.686231630902679
 21
-68.989692848635173
 31
0.0
  0
LINE
  8
0
  6
CONTINUOUS
 62
               3
  5
436
 10
-28.686231630902679
 20
-68.989692848635173
 30
0.0
 11
-28.686231630902679
 21
-67.901016848635152
 31
0.0
  0
LINE
  8
0
  6
CONTINUOUS
 62
               3
  5
437
 10
-28.686231630902679
 20
-67.901016848635152
 30
0.0
 11
-32.549962630902677
 21
-67.901016848635152
 31
0.0
  0
LINE
  8
0
  6
CONTINUOUS
 62
               3
  5
438
 10
-32.549962630902677
 20
-67.901016848635152
 30
0.0
 11
-32.549962630902677
 21
-68.989692848635173
 31
0.0
  0
LINE
  8
0
  6
CONTINUOUS
 62
               3
  5
439
 10
41.762406947890817
 20
-71.715086848635167
 30
0.0
 11
41.762406947890817
 21
-62.595086848635162
 31
0.0
  0
LINE
  8
0
  6
CONTINUOUS
 62
               3
  5
43A
 10
41.762406947890817
 20
-62.595086848635162
 30
0.0
 11
38.883784947890824
 21
-62.595086848635162
 31
0.0
  0
LINE
  8
0
  6
CONTINUOUS
 62
               3
  5
43B
 10
38.883784947890824
 20
-62.595086848635162
 30
0.0
 11
36.950344947890819
 21
-69.807468848635153
 31
0.0
  0
LINE
  8
0
  6
CONTINUOUS
 62
               3
  5
43C
 10
36.950344947890819
 20
-69.807468848635153
 30
0.0
 11
35.016904947890815
 21
-62.595086848635162
 31
0.0
  0
LINE
  8
0
  6
CONTINUOUS
 62
               3
  5
43D
 10
35.016904947890815
 20
-62.595086848635162
 30
0.0
 11
32.138281947890825
 21
-62.595086848635162
 31
0.0
  0
LINE
  8
0
  6
CONTINUOUS
 62
               3
  5
43E
 10
32.138281947890825
 20
-62.595086848635162
 30
0.0
 11
32.138281947890825
 21
-71.715086848635167
 31
0.0
  0
ARC
  8
0
  6
CONTINUOUS
 62
               3
  5
43F
 10
20.964478909005447
 20
-66.355086848635153
 30
0.0
 40
3.7599999999999998
 50
89.999999999982805
 51
179.99999999996561
  0
LINE
  8
0
  6
CONTINUOUS
 62
               3
  5
440
 10
20.964478909005447
 20
-62.595086848635162
 30
0.0
 11
22.317739909005439
 21
-62.595086848635162
 31
0.0
  0
ARC
  8
0
  6
CONTINUOUS
 62
               3
  5
441
 10
22.317739909005439
 20
-66.355086848635153
 30
0.0
 40
3.7599999999999998
 50
0.0
 51
89.999999999982805
  0
ARC
  8
0
  6
CONTINUOUS
 62
               3
  5
442
 10
7.7393238940054436
 20
-65.973905848635155
 30
0.0
 40
3.3788200000000002
 50
90.03801699998283
 51
113.60868399997824
  0
LINE
  8
0
  6
CONTINUOUS
 62
               3
  5
443
 10
7.7370818940054411
 20
-62.595086848635162
 30
0.0
 11
9.0226348940054422
 21
-62.595086848635162
 31
0.0
  0
ARC
  8
0
  6
CONTINUOUS
 62
               3
  5
444
 10
9.0203908940054447
 20
-65.973905848635155
 30
0.0
 40
3.3788200000000002
 50
66.39130699998725
 51
89.961957999982815
  0
ARC
  8
0
  6
CONTINUOUS
 62
               3
  5
445
 10
8.9514258940054461
 20
-66.123747848635162
 30
0.0
 40
3.5437409999999998
 50
43.425958999991771
 51
66.339840999987317
  0
ARC
  8
0
  6
CONTINUOUS
 62
               3
  5
446
 10
7.8082888940054422
 20
-66.123746848635164
 30
0.0
 40
3.5437409999999998
 50
113.66015699997827
 51
136.5740639999739
  0
LINE
  8
0
  6
CONTINUOUS
 62
               3
  5
447
 10
-24.206141209696167
 20
-63.815775848635155
 30
0.0
 11
-22.439165209696167
 21
-62.884395848635165
 31
0.0
  0
LINE
  8
0
  6
CONTINUOUS
 62
               3
  5
448
 10
-22.439165209696167
 20
-62.884395848635165
 30
0.0
 11
-22.439165209696167
 21
-65.452505848635155
 31
0.0
  0
ARC
  8
0
  6
CONTINUOUS
 62
               3
  5
449
 10
-38.65872805210919
 20
-65.155086848635165
 30
0.0
 40
2.5600000000000001
 50
0.0
 51
89.999999999982791
  0
LINE
  8
0
  6
CONTINUOUS
 62
               3
  5
44A
 10
-43.237593052109183
 20
-71.715086848635167
 30
0.0
 11
-43.237593052109183
 21
-62.595086848635162
 31
0.0
  0
LINE
  8
0
  6
CONTINUOUS
 62
               3
  5
44B
 10
-43.237593052109183
 20
-62.595086848635162
 30
0.0
 11
-38.65872805210919
 21
-62.595086848635162
 31
0.0
  0
ARC
  8
0
  6
CONTINUOUS
 62
               3
  5
44C
 10
-0.7375930521091811
 20
353.84491315136484
 30
0.0
 40
15.0
 50
0.0
 51
179.9999999999996
  0
LINE
  8
0
  6
CONTINUOUS
 62
               3
  5
44D
 10
11.262406947890831
 20
-4.1550868486351646
 30
0.0
 11
-12.737593052109169
 21
-4.1550868486351646
 31
0.0
  0
LINE
  8
0
  6
CONTINUOUS
 62
               3
  5
44E
 10
-15.737593052109169
 20
-1.1550868486351646
 30
0.0
 11
-15.737593052109169
 21
10.844913151364835
 31
0.0
  0
LINE
  8
0
  6
CONTINUOUS
 62
               3
  5
44F
 10
14.262406947890831
 20
10.844913151364835
 30
0.0
 11
14.262406947890831
 21
-1.1550868486351646
 31
0.0
  0
ARC
  8
0
  6
CONTINUOUS
 62
               3
  5
450
 10
-12.737593052109169
 20
-1.1550868486351646
 30
0.0
 40
3.0
 50
179.9999999999996
 51
269.99999999999937
  0
ARC
  8
0
  6
CONTINUOUS
 62
               3
  5
451
 10
11.262406947890831
 20
-1.1550868486351646
 30
0.0
 40
3.0
 50
269.99999999999937
 51
359.9999999999992
  0
ARC
  8
0
  6
CONTINUOUS
 62
               3
  5
452
 10
-0.7375930521091811
 20
10.844913151364835
 30
0.0
 40
15.0
 50
0.0
 51
179.9999999999996
  0
LINE
  8
0
  6
CONTINUOUS
 62
               3
  5
453
 10
11.262406947890831
 20
-23.155086848635165
 30
0.0
 11
-12.737593052109169
 21
-23.155086848635165
 31
0.0
  0
LINE
  8
0
  6
CONTINUOUS
 62
               3
  5
454
 10
-15.737593052109169
 20
-26.155086848635165
 30
0.0
 11
-15.737593052109169
 21
-38.155086848635165
 31
0.0
  0
LINE
  8
0
  6
CONTINUOUS
 62
               3
  5
455
 10
14.262406947890831
 20
-38.155086848635165
 30
0.0
 11
14.262406947890831
 21
-26.155086848635165
 31
0.0
  0
ARC
  8
0
  6
CONTINUOUS
 62
               3
  5
456
 10
-12.737593052109169
 20
-26.155086848635165
 30
0.0
 40
3.0
 50
89.999999999999801
 51
179.9999999999996
  0
ARC
  8
0
  6
CONTINUOUS
 62
               3
  5
457
 10
11.262406947890831
 20
-26.155086848635165
 30
0.0
 40
3.0
 50
0.0
 51
89.999999999999801
  0
ARC
  8
0
  6
CONTINUOUS
 62
               3
  5
458
 10
-0.7375930521091811
 20
-38.155086848635165
 30
0.0
 40
15.0
 50
179.9999999999996
 51
359.9999999999992
  0
LINE
  8
0
  6
CONTINUOUS
 62
               3
  5
459
 10
-240.73759305210919
 20
-282.15508684863516
 30
0.0
 11
239.26240694789081
 21
-282.15508684863516
 31
0.0
  0
LINE
  8
0
  6
CONTINUOUS
 62
               3
  5
45A
 10
-225.6701889476852
 20
-314.2248858420412
 30
0.0
 11
-224.96933612329082
 21
-294.15508684863562
 31
0.0
  0
LINE
  8
0
  6
CONTINUOUS
 62
               3
  5
45B
 10
224.26240694789067
 20
-316.15508684863522
 30
0.0
 11
223.49415001907224
 21
-294.15508684863562
 31
0.0
  0
LINE
  8
0
  6
CONTINUOUS
 62
               3
  5
45C
 10
236.26240694789067
 20
-316.15508684863522
 30
0.0
 11
239.26240694789081
 21
-282.15508684863516
 31
0.0
  0
LINE
  8
0
  6
CONTINUOUS
 62
               3
  5
45D
 10
-237.89855296793925
 20
-314.33087446922855
 30
0.0
 11
-240.73759305210936
 21
-282.15508684863511
 31
0.0
  0
LINE
  8
0
  6
CONTINUOUS
 62
               3
  5
45E
 10
-211.73759305210916
 20
-282.15508684863516
 30
0.0
 11
-212.62772996627163
 21
-292.32939833413093
 31
0.0
  0
LINE
  8
0
  6
CONTINUOUS
 62
               3
  5
45F
 10
-181.73759305210916
 20
-282.15508684863516
 30
0.0
 11
-180.84745613794666
 21
-292.32939833413093
 31
0.0
  0
ARC
  8
0
  6
CONTINUOUS
 62
               3
  5
460
 10
-77.73759305210919
 20
389.84491315136484
 30
0.0
 40
3.0
 50
89.999999999999801
 51
179.9999999999996
  0
ARC
  8
0
  6
CONTINUOUS
 62
               3
  5
461
 10
-77.73759305210919
 20
375.84491315136484
 30
0.0
 40
3.0
 50
179.9999999999996
 51
269.99999999999937
  0
ARC
  8
0
  6
CONTINUOUS
 62
               3
  5
462
 10
76.26240694789081
 20
375.84491315136484
 30
0.0
 40
3.0
 50
269.99999999999937
 51
359.9999999999992
  0
ARC
  8
0
  6
CONTINUOUS
 62
               3
  5
463
 10
76.26240694789081
 20
389.84491315136484
 30
0.0
 40
3.0
 50
0.0
 51
89.999999999999801
  0
LINE
  8
0
  6
CONTINUOUS
 62
               3
  5
464
 10
-162.73759305210916
 20
-282.15508684863516
 30
0.0
 11
-163.62772996627163
 21
-292.32939833413093
 31
0.0
  0
LINE
  8
0
  6
CONTINUOUS
 62
               3
  5
465
 10
-132.73759305210916
 20
-282.15508684863516
 30
0.0
 11
-131.84745613794664
 21
-292.32939833413093
 31
0.0
  0
LINE
  8
0
  6
CONTINUOUS
 62
               3
  5
466
 10
-113.73759305210918
 20
-282.15508684863516
 30
0.0
 11
-114.62772996627164
 21
-292.32939833413093
 31
0.0
  0
LINE
  8
0
  6
CONTINUOUS
 62
               3
  5
467
 10
-83.737593052109176
 20
-282.15508684863516
 30
0.0
 11
-82.847456137946679
 21
-292.32939833413093
 31
0.0
  0
LINE
  8
0
  6
CONTINUOUS
 62
               3
  5
468
 10
-64.737593052109176
 20
-282.15508684863516
 30
0.0
 11
-65.627729966271659
 21
-292.32939833413093
 31
0.0
  0
LINE
  8
0
  6
CONTINUOUS
 62
               3
  5
469
 10
-34.737593052109169
 20
-282.15508684863516
 30
0.0
 11
-33.847456137946665
 21
-292.32939833413093
 31
0.0
  0
LINE
  8
0
  6
CONTINUOUS
 62
               3
  5
46A
 10
-15.737593052109169
 20
-282.15508684863516
 30
0.0
 11
-16.627729966271641
 21
-292.32939833413093
 31
0.0
  0
LINE
  8
0
  6
CONTINUOUS
 62
               3
  5
46B
 10
14.262406947890831
 20
-282.15508684863516
 30
0.0
 11
15.15254386205334
 21
-292.32939833413093
 31
0.0
  0
LINE
  8
0
  6
CONTINUOUS
 62
               3
  5
46C
 10
33.262406947890831
 20
-282.15508684863516
 30
0.0
 11
32.372270033728363
 21
-292.32939833413093
 31
0.0
  0
LINE
  8
0
  6
CONTINUOUS
 62
               3
  5
46D
 10
63.262406947890831
 20
-282.15508684863516
 30
0.0
 11
64.152543862053335
 21
-292.32939833413093
 31
0.0
  0
LINE
  8
0
  6
CONTINUOUS
 62
               3
  5
46E
 10
82.262406947890824
 20
-282.15508684863516
 30
0.0
 11
81.372270033728356
 21
-292.32939833413093
 31
0.0
  0
LINE
  8
0
  6
CONTINUOUS
 62
               3
  5
46F
 10
112.26240694789082
 20
-282.15508684863516
 30
0.0
 11
113.15254386205334
 21
-292.32939833413093
 31
0.0
  0
LINE
  8
0
  6
CONTINUOUS
 62
               3
  5
470
 10
131.26240694789084
 20
-282.15508684863516
 30
0.0
 11
130.37227003372837
 21
-292.32939833413093
 31
0.0
  0
LINE
  8
0
  6
CONTINUOUS
 62
               3
  5
471
 10
151.76240694789084
 20
-282.15508684863516
 30
0.0
 11
152.54980491962417
 21
-291.15508684863516
 31
0.0
  0
LINE
  8
0
  6
CONTINUOUS
 62
               3
  5
472
 10
189.76240694789078
 20
-282.15508684863516
 30
0.0
 11
188.97500897615748
 21
-291.15508684863516
 31
0.0
  0
LINE
  8
0
  6
CONTINUOUS
 62
               3
  5
473
 10
210.26240694789084
 20
-282.15508684863516
 30
0.0
 11
211.15254386205334
 21
-292.32939833413047
 31
0.0
  0
LINE
  8
0
  6
CONTINUOUS
 62
               3
  5
474
 10
-243.07663314322605
 20
-283.97929914931001
 30
0.0
 11
-240.39855296793911
 21
-314.33087446922764
 31
0.0
  0
LINE
  8
0
  6
CONTINUOUS
 62
               3
  5
475
 10
-245.06889284327679
 20
-282.15508676990339
 30
0.0
 11
-249.40629327483541
 21
-282.15508676990339
 31
0.0
  0
LINE
  8
0
  6
CONTINUOUS
 62
               3
  5
476
 10
-251.39855297488612
 20
-283.97929914931001
 30
0.0
 11
-253.83519327642799
 21
-311.59455590011703
 31
0.0
  0
LINE
  8
0
  6
CONTINUOUS
 62
               3
  5
477
 10
-0.7375930521091811
 20
-324.15508684863522
 30
0.0
 11
-265.73759305210922
 21
-324.15508684863522
 31
0.0
  0
LINE
  8
0
  6
CONTINUOUS
 62
               3
  5
478
 10
-265.73759305210922
 20
-324.15508684863522
 30
0.0
 11
-265.19741079205045
 21
-317.98077536313986
 31
0.0
  0
LINE
  8
0
  6
CONTINUOUS
 62
               3
  5
479
 10
-258.81584252655489
 20
-316.15508684863516
 30
0.0
 11
-263.20502139586699
 21
-316.15508684863516
 31
0.0
  0
ARC
  8
0
  6
CONTINUOUS
 62
               3
  5
47A
 10
-263.20502139586699
 20
-318.15508684863516
 30
0.0
 40
2.0
 50
89.999999999999801
 51
174.99999999999974
  0
ARC
  8
0
  6
CONTINUOUS
 62
               3
  5
47B
 10
-249.40629327483541
 20
-284.15508676990339
 30
0.0
 40
2.0
 50
89.999999999999801
 51
174.95754893080951
  0
ARC
  8
0
  6
CONTINUOUS
 62
               3
  5
47C
 10
-245.06889284327679
 20
-284.15508676990339
 30
0.0
 40
2.0
 50
5.0424510691892221
 51
89.999999999999801
  0
ARC
  8
0
  6
CONTINUOUS
 62
               3
  5
47D
 10
-238.40629326788832
 20
-314.15508684863516
 30
0.0
 40
2.0
 50
185.04245106916355
 51
269.99999999999937
  0
ARC
  8
0
  6
CONTINUOUS
 62
               3
  5
47E
 10
-235.90629326788851
 20
-314.15508684863516
 30
0.0
 40
2.0
 50
185.04245106918961
 51
269.99999999999937
  0
ARC
  8
0
  6
CONTINUOUS
 62
               3
  5
47F
 10
-227.66897060172337
 20
-314.15508684863516
 30
0.0
 40
2.0
 50
269.99999999999937
 51
357.99999999996948
  0
LINE
  8
0
  6
CONTINUOUS
 62
               3
  5
480
 10
-235.90629326788851
 20
-316.15508684863516
 30
0.0
 11
-238.40629326788832
 21
-316.15508684863516
 31
0.0
  0
ARC
  8
0
  6
CONTINUOUS
 62
               3
  5
481
 10
-258.81584252655489
 20
-311.15508684863516
 30
0.0
 40
5.0
 50
269.99999999999937
 51
354.95754893082733
  0
LINE
  8
0
  6
CONTINUOUS
 62
               3
  5
482
 10
241.6014470390075
 20
-283.97929914931012
 30
0.0
 11
238.92336686372056
 21
-314.33087446922769
 31
0.0
  0
LINE
  8
0
  6
CONTINUOUS
 62
               3
  5
483
 10
243.59370673905823
 20
-282.15508676990345
 30
0.0
 11
247.93110717061685
 21
-282.15508676990345
 31
0.0
  0
LINE
  8
0
  6
CONTINUOUS
 62
               3
  5
484
 10
249.92336687066756
 20
-283.97929914931012
 30
0.0
 11
252.36000717220944
 21
-311.59455590011709
 31
0.0
  0
LINE
  8
0
  6
CONTINUOUS
 62
               3
  5
485
 10
264.26240694789055
 20
-324.15508684863528
 30
0.0
 11
263.72222468783178
 21
-317.98077536313991
 31
0.0
  0
LINE
  8
0
  6
CONTINUOUS
 62
               3
  5
486
 10
257.34065642233622
 20
-316.15508684863522
 30
0.0
 11
261.72983529164833
 21
-316.15508684863522
 31
0.0
  0
ARC
  8
0
  6
CONTINUOUS
 62
               3
  5
487
 10
261.72983529164833
 20
-318.15508684863522
 30
0.0
 40
2.0
 50
4.9999999999998561
 51
89.999999999999787
  0
ARC
  8
0
  6
CONTINUOUS
 62
               3
  5
488
 10
247.93110717061685
 20
-284.15508676990351
 30
0.0
 40
2.0
 50
5.0424510691900872
 51
89.999999999999787
  0
ARC
  8
0
  6
CONTINUOUS
 62
               3
  5
489
 10
243.59370673905823
 20
-284.15508676990345
 30
0.0
 40
2.0
 50
89.999999999999787
 51
174.95754893081036
  0
ARC
  8
0
  6
CONTINUOUS
 62
               3
  5
48A
 10
257.34065642233622
 20
-311.15508684863522
 30
0.0
 40
5.0
 50
185.04245106917139
 51
269.99999999999937
  0
ARC
  8
0
  6
CONTINUOUS
 62
               3
  5
48B
 10
236.93110716366976
 20
-314.15508684863522
 30
0.0
 40
2.0
 50
269.99999999999937
 51
354.95754893083523
  0
LINE
  8
0
  6
CONTINUOUS
 62
               3
  5
48C
 10
234.43110716366996
 20
-316.15508684863522
 30
0.0
 11
236.93110716366976
 21
-316.15508684863522
 31
0.0
  0
LINE
  8
0
  6
CONTINUOUS
 62
               3
  5
48D
 10
-225.73759305210916
 20
-324.15508684863522
 30
0.0
 11
-226.27777531216793
 21
-317.98077536313986
 31
0.0
  0
ARC
  8
0
  6
CONTINUOUS
 62
               3
  5
48E
 10
-228.27016470835142
 20
-318.15508684863522
 30
0.0
 40
2.0
 50
5.0000000000014255
 51
89.999999999999801
  0
LINE
  8
0
  6
CONTINUOUS
 62
               3
  5
48F
 10
224.26240694789061
 20
-324.15508684863528
 30
0.0
 11
224.80258920794938
 21
-317.98077536313991
 31
0.0
  0
ARC
  8
0
  6
CONTINUOUS
 62
               3
  5
490
 10
226.79497860413287
 20
-318.15508684863528
 30
0.0
 40
2.0
 50
89.999999999999787
 51
174.99999999999815
  0
LINE
  8
0
  6
CONTINUOUS
 62
               3
  5
491
 10
152.54980491962417
 20
-291.15508684863516
 30
0.0
 11
188.97500897615748
 21
-291.15508684863516
 31
0.0
  0
LINE
  8
0
  6
CONTINUOUS
 62
               3
  5
492
 10
161.76240694789081
 20
-291.15508684863516
 30
0.0
 11
167.76240694789081
 21
-316.15508684863516
 31
0.0
  0
LINE
  8
0
  6
CONTINUOUS
 62
               3
  5
493
 10
179.76240694789081
 20
-291.15508684863516
 30
0.0
 11
173.76240694789081
 21
-316.15508684863516
 31
0.0
  0
LINE
  8
0
  6
CONTINUOUS
 62
               3
  5
494
 10
-235.90629326788851
 20
-316.15508684863516
 30
0.0
 11
234.43110716366996
 21
-316.15508684863522
 31
0.0
  0
LINE
  8
0
  6
CONTINUOUS
 62
               3
  5
495
 10
-0.7375930521093936
 20
-324.15508684863522
 30
0.0
 11
264.26240694789055
 21
-324.15508684863528
 31
0.0
  0
LINE
  8
0
  6
CONTINUOUS
 62
               3
  5
496
 10
259.26240694789084
 20
-107.15508684863516
 30
0.0
 11
-260.73759305210922
 21
-107.15508684863516
 31
0.0
  0
LINE
  8
0
  6
CONTINUOUS
 62
               3
  5
497
 10
-260.73759305210922
 20
422.84491315136484
 30
0.0
 11
259.26240694789084
 21
422.84491315136484
 31
0.0
  0
LINE
  8
0
  6
CONTINUOUS
 62
               3
  5
498
 10
264.26240694789084
 20
417.84491315136484
 30
0.0
 11
264.26240694789084
 21
-102.15508684863516
 31
0.0
  0
LINE
  8
0
  6
CONTINUOUS
 62
               3
  5
499
 10
-265.73759305210922
 20
-102.15508684863516
 30
0.0
 11
-265.73759305210922
 21
417.84491315136484
 31
0.0
  0
ARC
  8
0
  6
CONTINUOUS
 62
               3
  5
49A
 10
-260.73759305210922
 20
417.84491315136484
 30
0.0
 40
5.0
 50
89.999999999999801
 51
179.9999999999996
  0
ARC
  8
0
  6
CONTINUOUS
 62
               3
  5
49B
 10
259.26240694789084
 20
417.84491315136484
 30
0.0
 40
5.0
 50
0.0
 51
89.999999999999801
  0
ARC
  8
0
  6
CONTINUOUS
 62
               3
  5
49C
 10
259.26240694789084
 20
-102.15508684863516
 30
0.0
 40
5.0
 50
269.99999999999937
 51
359.9999999999992
  0
ARC
  8
0
  6
CONTINUOUS
 62
               3
  5
49D
 10
-260.73759305210922
 20
-102.15508684863516
 30
0.0
 40
5.0
 50
179.9999999999996
 51
269.99999999999937
  0
LINE
  8
0
  6
CONTINUOUS
 62
               3
  5
49E
 10
247.26240694789084
 20
405.84491315136484
 30
0.0
 11
-248.7375930521091
 21
405.84491315136484
 31
0.0
  0
LINE
  8
0
  6
CONTINUOUS
 62
               3
  5
49F
 10
-248.73759305210913
 20
-90.155086848635165
 30
0.0
 11
247.26240694789081
 21
-90.155086848635165
 31
0.0
  0
LINE
  8
0
  6
CONTINUOUS
 62
               3
  5
4A0
 10
247.26240694789081
 20
-90.155086848635165
 30
0.0
 11
247.26240694789084
 21
405.84491315136484
 31
0.0
  0
LINE
  8
0
  6
CONTINUOUS
 62
               3
  5
4A1
 10
-248.7375930521091
 20
405.84491315136484
 30
0.0
 11
-248.73759305210913
 21
-90.155086848635165
 31
0.0
  0
LINE
  8
0
  6
CONTINUOUS
 62
               3
  5
4A2
 10
223.49415001907224
 20
-294.15508684863562
 30
0.0
 11
213.14493325823688
 21
-294.15508684863562
 31
0.0
  0
ARC
  8
0
  6
CONTINUOUS
 62
               3
  5
4A3
 10
213.14493325823688
 20
-292.15508684863562
 30
0.0
 40
2.0
 50
184.99999999998627
 51
269.99999999999937
  0
ARC
  8
0
  6
CONTINUOUS
 62
               3
  5
4A4
 10
128.37988063754489
 20
-292.15508684863562
 30
0.0
 40
2.0
 50
269.99999999999937
 51
354.99999999999943
  0
ARC
  8
0
  6
CONTINUOUS
 62
               3
  5
4A5
 10
115.14493325823682
 20
-292.15508684863562
 30
0.0
 40
2.0
 50
184.9999999999994
 51
269.99999999999937
  0
ARC
  8
0
  6
CONTINUOUS
 62
               3
  5
4A6
 10
79.379880637544872
 20
-292.15508684863562
 30
0.0
 40
2.0
 50
269.99999999999937
 51
354.99999999999943
  0
ARC
  8
0
  6
CONTINUOUS
 62
               3
  5
4A7
 10
66.144933258236804
 20
-292.15508684863562
 30
0.0
 40
2.0
 50
184.9999999999994
 51
269.99999999999937
  0
ARC
  8
0
  6
CONTINUOUS
 62
               3
  5
4A8
 10
30.379880637544886
 20
-292.15508684863562
 30
0.0
 40
2.0
 50
269.99999999999937
 51
354.99999999999943
  0
ARC
  8
0
  6
CONTINUOUS
 62
               3
  5
4A9
 10
17.144933258236819
 20
-292.15508684863562
 30
0.0
 40
2.0
 50
184.9999999999994
 51
269.99999999999937
  0
ARC
  8
0
  6
CONTINUOUS
 62
               3
  5
4AA
 10
-18.620119362455114
 20
-292.15508684863562
 30
0.0
 40
2.0
 50
269.99999999999937
 51
354.99999999999943
  0
ARC
  8
0
  6
CONTINUOUS
 62
               3
  5
4AB
 10
-31.855066741763181
 20
-292.15508684863562
 30
0.0
 40
2.0
 50
184.9999999999994
 51
269.99999999999937
  0
ARC
  8
0
  6
CONTINUOUS
 62
               3
  5
4AC
 10
-67.620119362455114
 20
-292.15508684863562
 30
0.0
 40
2.0
 50
269.99999999999937
 51
354.99999999999943
  0
ARC
  8
0
  6
CONTINUOUS
 62
               3
  5
4AD
 10
-80.855066741763181
 20
-292.15508684863562
 30
0.0
 40
2.0
 50
184.9999999999994
 51
269.99999999999937
  0
ARC
  8
0
  6
CONTINUOUS
 62
               3
  5
4AE
 10
-116.62011936245511
 20
-292.15508684863562
 30
0.0
 40
2.0
 50
269.99999999999937
 51
354.99999999999943
  0
ARC
  8
0
  6
CONTINUOUS
 62
               3
  5
4AF
 10
-129.85506674176318
 20
-292.15508684863562
 30
0.0
 40
2.0
 50
184.9999999999994
 51
269.99999999999937
  0
ARC
  8
0
  6
CONTINUOUS
 62
               3
  5
4B0
 10
-165.62011936245511
 20
-292.15508684863562
 30
0.0
 40
2.0
 50
269.99999999999937
 51
354.99999999999943
  0
ARC
  8
0
  6
CONTINUOUS
 62
               3
  5
4B1
 10
-178.85506674176318
 20
-292.15508684863562
 30
0.0
 40
2.0
 50
184.9999999999994
 51
269.99999999999937
  0
ARC
  8
0
  6
CONTINUOUS
 62
               3
  5
4B2
 10
-214.62011936245511
 20
-292.15508684863562
 30
0.0
 40
2.0
 50
269.99999999999937
 51
354.99999999999943
  0
LINE
  8
0
  6
CONTINUOUS
 62
               3
  5
4B3
 10
213.14493325823688
 20
-294.15508684863562
 30
0.0
 11
179.0424069478907
 21
-294.15508684863562
 31
0.0
  0
LINE
  8
0
  6
CONTINUOUS
 62
               3
  5
4B4
 10
162.48240694789092
 20
-294.15508684863562
 30
0.0
 11
-224.96933612329082
 21
-294.15508684863562
 31
0.0
  0
TEXT
  8
0
 62
               6
  5
4B5
 10
-0.7375930521091902
 20
382.84491315136484
 30
0.0
 40
12.0
  1
ＫＧＢ　４５０　５００Ｋ
 72
               1
 11
-0.7375930521091902
 21
382.84491315136484
 31
0.0
 73
               2
  0
LINE
  8
0
  6
DASHDOT
 62
               4
  5
4B6
 10
284.26240694789084
 20
157.84491315136484
 30
0.0
 11
-285.73759305210922
 21
157.84491315136484
 31
0.0
  0
LINE
  8
0
  6
DASHDOT
 62
               4
  5
4B7
 10
-0.7375930521091719
 20
442.84491315136484
 30
0.0
 11
-0.7375930521091719
 21
-344.15508684863522
 31
0.0
  0
ENDSEC
  0
EOF
