  0
SECTION
  2
HEADER
  9
$ACADVER
  1
AC1014
  9
$ACADMAINTVER
 70
               0
  9
$DWGCODEPAGE
  3
ANSI_932
  9
$INSBASE
 10
0.0
 20
0.0
 30
0.0
  9
$EXTMIN
 10
-594.61799999999994
 20
-154.44
 30
0.0
  9
$EXTMAX
 10
118.71800000000003
 20
154.44
 30
0.0
  9
$LIMMIN
 10
-616.90974999999992
 20
-164.0925
  9
$LIMMAX
 10
141.00975000000003
 20
164.0925
  9
$ORTHOMODE
 70
               0
  9
$REGENMODE
 70
               1
  9
$FILLMODE
 70
               1
  9
$QTEXTMODE
 70
               0
  9
$MIRRTEXT
 70
               1
  9
$DRAGMODE
 70
               2
  9
$LTSCALE
 40
1.0
  9
$OSMODE
 70
               0
  9
$ATTMODE
 70
               1
  9
$TEXTSIZE
 40
0.2
  9
$TRACEWID
 40
0.05
  9
$TEXTSTYLE
  7
STANDARD
  9
$CLAYER
  8
0
  9
$CELTYPE
  6
CONTINUOUS
  9
$CECOLOR
 62
             256
  9
$CELTSCALE
 40
1.0
  9
$DELOBJ
 70
               1
  9
$DISPSILH
 70
               0
  9
$DIMSCALE
 40
1.0
  9
$DIMASZ
 40
0.18
  9
$DIMEXO
 40
0.0625
  9
$DIMDLI
 40
0.38
  9
$DIMRND
 40
0.0
  9
$DIMDLE
 40
0.0
  9
$DIMEXE
 40
0.18
  9
$DIMTP
 40
0.0
  9
$DIMTM
 40
0.0
  9
$DIMTXT
 40
0.18
  9
$DIMCEN
 40
0.09
  9
$DIMTSZ
 40
0.0
  9
$DIMTOL
 70
               0
  9
$DIMLIM
 70
               0
  9
$DIMTIH
 70
               1
  9
$DIMTOH
 70
               1
  9
$DIMSE1
 70
               0
  9
$DIMSE2
 70
               0
  9
$DIMTAD
 70
               0
  9
$DIMZIN
 70
               0
  9
$DIMBLK
  1

  9
$DIMASO
 70
               1
  9
$DIMSHO
 70
               1
  9
$DIMPOST
  1

  9
$DIMAPOST
  1

  9
$DIMALT
 70
               0
  9
$DIMALTD
 70
               2
  9
$DIMALTF
 40
25.399999999999999
  9
$DIMLFAC
 40
1.0
  9
$DIMTOFL
 70
               0
  9
$DIMTVP
 40
0.0
  9
$DIMTIX
 70
               0
  9
$DIMSOXD
 70
               0
  9
$DIMSAH
 70
               0
  9
$DIMBLK1
  1

  9
$DIMBLK2
  1

  9
$DIMSTYLE
  2
STANDARD
  9
$DIMCLRD
 70
               0
  9
$DIMCLRE
 70
               0
  9
$DIMCLRT
 70
               0
  9
$DIMTFAC
 40
1.0
  9
$DIMGAP
 40
0.09
  9
$DIMJUST
 70
               0
  9
$DIMSD1
 70
               0
  9
$DIMSD2
 70
               0
  9
$DIMTOLJ
 70
               1
  9
$DIMTZIN
 70
               0
  9
$DIMALTZ
 70
               0
  9
$DIMALTTZ
 70
               0
  9
$DIMFIT
 70
               3
  9
$DIMUPT
 70
               0
  9
$DIMUNIT
 70
               2
  9
$DIMDEC
 70
               4
  9
$DIMTDEC
 70
               4
  9
$DIMALTU
 70
               2
  9
$DIMALTTD
 70
               2
  9
$DIMTXSTY
  7
STANDARD
  9
$DIMAUNIT
 70
               0
  9
$LUNITS
 70
               2
  9
$LUPREC
 70
               4
  9
$SKETCHINC
 40
0.1
  9
$FILLETRAD
 40
0.0
  9
$AUNITS
 70
               0
  9
$AUPREC
 70
               0
  9
$MENU
  1
acad
  9
$ELEVATION
 40
0.0
  9
$PELEVATION
 40
0.0
  9
$THICKNESS
 40
0.0
  9
$LIMCHECK
 70
               0
  9
$BLIPMODE
 70
               1
  9
$CHAMFERA
 40
0.0
  9
$CHAMFERB
 40
0.0
  9
$CHAMFERC
 40
0.0
  9
$CHAMFERD
 40
0.0
  9
$SKPOLY
 70
               0
  9
$TDCREATE
 40
0.000000000
  9
$TDUPDATE
 40
0.000000000
  9
$TDINDWG
 40
0.0000000000
  9
$TDUSRTIMER
 40
0.0000000000
  9
$USRTIMER
 70
               1
  9
$ANGBASE
 50
0.0
  9
$ANGDIR
 70
               0
  9
$PDMODE
 70
               0
  9
$PDSIZE
 40
1.0
  9
$PLINEWID
 40
0.0
  9
$COORDS
 70
               1
  9
$SPLFRAME
 70
               0
  9
$SPLINETYPE
 70
               6
  9
$SPLINESEGS
 70
               8
  9
$ATTDIA
 70
               0
  9
$ATTREQ
 70
               1
  9
$HANDLING
 70
               1
  9
$HANDSEED
  5
594
  9
$SURFTAB1
 70
               6
  9
$SURFTAB2
 70
               6
  9
$SURFTYPE
 70
               6
  9
$SURFU
 70
               6
  9
$SURFV
 70
               6
  9
$UCSNAME
  2

  9
$UCSORG
 10
0.0
 20
0.0
 30
0.0
  9
$UCSXDIR
 10
1.0
 20
0.0
 30
0.0
  9
$UCSYDIR
 10
0.0
 20
1.0
 30
0.0
  9
$PUCSNAME
  2

  9
$PUCSORG
 10
0.0
 20
0.0
 30
0.0
  9
$PUCSXDIR
 10
1.0
 20
0.0
 30
0.0
  9
$PUCSYDIR
 10
0.0
 20
1.0
 30
0.0
  9
$USERI1
 70
               0
  9
$USERI2
 70
               0
  9
$USERI3
 70
               0
  9
$USERI4
 70
               0
  9
$USERI5
 70
               0
  9
$USERR1
 40
0.0
  9
$USERR2
 40
0.0
  9
$USERR3
 40
0.0
  9
$USERR4
 40
0.0
  9
$USERR5
 40
0.0
  9
$WORLDVIEW
 70
               1
  9
$SHADEDGE
 70
               3
  9
$SHADEDIF
 70
              70
  9
$TILEMODE
 70
               1
  9
$MAXACTVP
 70
              16
  9
$PINSBASE
 10
0.0
 20
0.0
 30
0.0
  9
$PLIMCHECK
 70
               0
  9
$PEXTMIN
 10
1.0000000000000000E+20
 20
1.0000000000000000E+20
 30
1.0000000000000000E+20
  9
$PEXTMAX
 10
-1.0000000000000000E+20
 20
-1.0000000000000000E+20
 30
-1.0000000000000000E+20
  9
$PLIMMIN
 10
0.0
 20
0.0
  9
$PLIMMAX
 10
12.0
 20
9.0
  9
$UNITMODE
 70
               0
  9
$VISRETAIN
 70
               0
  9
$PLINEGEN
 70
               1
  9
$PSLTSCALE
 70
               0
  9
$TREEDEPTH
 70
            3020
  9
$PICKSTYLE
 70
               1
  9
$CMLSTYLE
  2
STANDARD
  9
$CMLJUST
 70
               0
  9
$CMLSCALE
 40
1.0
  9
$PROXYGRAPHICS
 70
               0
  9
$MEASUREMENT
 70
               0
  0
ENDSEC
  0
SECTION
  2
CLASSES
  0
CLASS
  1
LWPOLYLINE
  2
AcDbPolyline
  3
"AutoCAD"
 90
        0
280
               0
281
               1
  0
CLASS
  1
IMAGE
  2
AcDbRasterImage
  3
ISM
 90
      127
280
               0
281
               1
  0
CLASS
  1
OLE2FRAME
  2
AcDbOle2Frame
  3
""
 90
        0
280
               0
281
               1
  0
CLASS
  1
HATCH
  2
AcDbHatch
  3
"ACAD_SEDONA"
 90
        0
280
               0
281
               1
  0
CLASS
  1
DICTIONARYVAR
  2
AcDbDictionaryVar
  3
"AutoCAD"
 90
        0
280
               0
281
               0
  0
CLASS
  1
RASTERVARIABLES
  2
AcDbRasterVariables
  3
ISM
 90
        0
280
               0
281
               0
  0
CLASS
  1
IMAGEDEF
  2
AcDbRasterImageDef
  3
ISM
 90
        0
280
               0
281
               0
  0
CLASS
  1
IMAGEDEF_REACTOR
  2
AcDbRasterImageDefReactor
  3
ISM
 90
        1
280
               0
281
               0
  0
CLASS
  1
IDBUFFER
  2
AcDbIdBuffer
  3
"Acad"
 90
        0
280
               0
281
               0
  0
CLASS
  1
SPATIAL_FILTER
  2
AcDbSpatialFilter
  3
"Acad"
 90
        0
280
               0
281
               0
  0
CLASS
  1
XRECORD
  2
AcDbXrecord
  3
"<Built In>"
 90
        0
280
               0
281
               0
  0
CLASS
  1
SORTENTSTABLE
  2
AcDbSortentsTable
  3
"AutoCAD"
 90
        0
280
               0
281
               0
  0
CLASS
  1
LAYER_INDEX
  2
AcDbLayerIndex
  3
"Acad"
 90
        0
280
               0
281
               0
  0
CLASS
  1
SPATIAL_INDEX
  2
AcDbSpatialIndex
  3
"Acad"
 90
        0
280
               0
281
               0
  0
CLASS
  1
OBJECT_PTR
  2
CAseDLPNTableRecord
  3
"ASE-LPNTableRecord"
 90
        1
280
               0
281
               0
  0
ENDSEC
  0
SECTION
  2
TABLES
  0
TABLE
  2
VPORT
  5
7
100
AcDbSymbolTable
 70
               1
  0
VPORT
  5
15
100
AcDbSymbolTableRecord
100
AcDbViewportTableRecord
  2
*ACTIVE
 70
               0
 10
0.0
 20
0.0
 11
1.0
 21
1.0
 12
-237.94999999999993
 22
0.0
 13
0.0
 23
0.0
 14
1.0
 24
1.0
 15
0.0
 25
0.0
 16
0.0
 26
0.0
 36
1.0
 17
0.0
 27
0.0
 37
0.0
 40
328.185
 41
2.3094276094276092
 42
50.0
 43
0.0
 44
0.0
 50
0.0
 51
0.0
 71
               0
 72
             100
 73
               1
 74
               1
 75
               0
 76
               0
 77
               0
 78
               0
  0
ENDTAB
  0
TABLE
  2
LTYPE
  5
4
100
AcDbSymbolTable
 70
              28
  0
LTYPE
  5
11
100
AcDbSymbolTableRecord
100
AcDbLinetypeTableRecord
  2
BYBLOCK
 70
               0
  3

 72
              65
 73
               0
 40
0.0
  0
LTYPE
  5
12
100
AcDbSymbolTableRecord
100
AcDbLinetypeTableRecord
  2
BYLAYER
 70
               0
  3

 72
              65
 73
               0
 40
0.0
  0
LTYPE
  5
13
100
AcDbSymbolTableRecord
100
AcDbLinetypeTableRecord
  2
CONTINUOUS
 70
               0
  3
Solid line
 72
              65
 73
               0
 40
0.0
  0
LTYPE
  5
1D
100
AcDbSymbolTableRecord
100
AcDbLinetypeTableRecord
  2
HIDDENX2
 70
               0
  3
CADPAC FUSION LINETYPE
 72
              65
 73
               2
 40
11.880000000000001
 49
8.9100000000000001
 74
               0
 49
-2.9700000000000002
 74
               0
  0
LTYPE
  5
1E
100
AcDbSymbolTableRecord
100
AcDbLinetypeTableRecord
  2
HIDDEN
 70
               0
  3
CADPAC FUSION LINETYPE
 72
              65
 73
               2
 40
8.9100000000000001
 49
5.9400000000000004
 74
               0
 49
-2.9700000000000002
 74
               0
  0
LTYPE
  5
1F
100
AcDbSymbolTableRecord
100
AcDbLinetypeTableRecord
  2
HIDDEN2
 70
               0
  3
CADPAC FUSION LINETYPE
 72
              65
 73
               2
 40
7.4250000000000007
 49
4.4550000000000001
 74
               0
 49
-2.9700000000000002
 74
               0
  0
LTYPE
  5
20
100
AcDbSymbolTableRecord
100
AcDbLinetypeTableRecord
  2
DASHED
 70
               0
  3
CADPAC FUSION LINETYPE
 72
              65
 73
               2
 40
8.9100000000000001
 49
5.9400000000000004
 74
               0
 49
-2.9700000000000002
 74
               0
  0
LTYPE
  5
21
100
AcDbSymbolTableRecord
100
AcDbLinetypeTableRecord
  2
DASHED2
 70
               0
  3
CADPAC FUSION LINETYPE
 72
              65
 73
               2
 40
6.6825000000000001
 49
4.4550000000000001
 74
               0
 49
-2.2275
 74
               0
  0
LTYPE
  5
22
100
AcDbSymbolTableRecord
100
AcDbLinetypeTableRecord
  2
DASHEDX2
 70
               0
  3
CADPAC FUSION LINETYPE
 72
              65
 73
               2
 40
13.365
 49
8.9100000000000001
 74
               0
 49
-4.4550000000000001
 74
               0
  0
LTYPE
  5
23
100
AcDbSymbolTableRecord
100
AcDbLinetypeTableRecord
  2
DOTX2
 70
               0
  3
CADPAC FUSION LINETYPE
 72
              65
 73
               2
 40
3.7125000000000004
 49
0.0
 74
               0
 49
-3.7125000000000004
 74
               0
  0
LTYPE
  5
24
100
AcDbSymbolTableRecord
100
AcDbLinetypeTableRecord
  2
DOT
 70
               0
  3
CADPAC FUSION LINETYPE
 72
              65
 73
               2
 40
2.9700000000000002
 49
0.0
 74
               0
 49
-2.9700000000000002
 74
               0
  0
LTYPE
  5
25
100
AcDbSymbolTableRecord
100
AcDbLinetypeTableRecord
  2
DOTS
 70
               0
  3
CADPAC FUSION LINETYPE
 72
              65
 73
               2
 40
2.9700000000000002
 49
0.0
 74
               0
 49
-2.9700000000000002
 74
               0
  0
LTYPE
  5
26
100
AcDbSymbolTableRecord
100
AcDbLinetypeTableRecord
  2
DOT2
 70
               0
  3
CADPAC FUSION LINETYPE
 72
              65
 73
               2
 40
2.2275
 49
0.0
 74
               0
 49
-2.2275
 74
               0
  0
LTYPE
  5
27
100
AcDbSymbolTableRecord
100
AcDbLinetypeTableRecord
  2
CENTERX2
 70
               0
  3
CADPAC FUSION LINETYPE
 72
              65
 73
               4
 40
17.82
 49
7.4250000000000007
 74
               0
 49
-3.7125000000000004
 74
               0
 49
2.9700000000000002
 74
               0
 49
-3.7125000000000004
 74
               0
  0
LTYPE
  5
28
100
AcDbSymbolTableRecord
100
AcDbLinetypeTableRecord
  2
CENTER
 70
               0
  3
CADPAC FUSION LINETYPE
 72
              65
 73
               4
 40
13.662000000000001
 49
5.9400000000000004
 74
               0
 49
-2.9700000000000002
 74
               0
 49
1.782
 74
               0
 49
-2.9700000000000002
 74
               0
  0
LTYPE
  5
29
100
AcDbSymbolTableRecord
100
AcDbLinetypeTableRecord
  2
CENTER2
 70
               0
  3
CADPAC FUSION LINETYPE
 72
              65
 73
               4
 40
9.5040000000000013
 49
4.4550000000000001
 74
               0
 49
-2.2275
 74
               0
 49
0.5940000000000001
 74
               0
 49
-2.2275
 74
               0
  0
LTYPE
  5
2A
100
AcDbSymbolTableRecord
100
AcDbLinetypeTableRecord
  2
DASHDOTX2
 70
               0
  3
CADPAC FUSION LINETYPE
 72
              65
 73
               4
 40
14.850000000000001
 49
7.4250000000000007
 74
               0
 49
-3.7125000000000004
 74
               0
 49
0.0
 74
               0
 49
-3.7125000000000004
 74
               0
  0
LTYPE
  5
2B
100
AcDbSymbolTableRecord
100
AcDbLinetypeTableRecord
  2
DASHDOT
 70
               0
  3
CADPAC FUSION LINETYPE
 72
              65
 73
               4
 40
11.880000000000001
 49
5.9400000000000004
 74
               0
 49
-2.9700000000000002
 74
               0
 49
0.0
 74
               0
 49
-2.9700000000000002
 74
               0
  0
LTYPE
  5
2C
100
AcDbSymbolTableRecord
100
AcDbLinetypeTableRecord
  2
DASHDOT2
 70
               0
  3
CADPAC FUSION LINETYPE
 72
              65
 73
               4
 40
8.9100000000000001
 49
4.4550000000000001
 74
               0
 49
-2.2275
 74
               0
 49
0.0
 74
               0
 49
-2.2275
 74
               0
  0
LTYPE
  5
2D
100
AcDbSymbolTableRecord
100
AcDbLinetypeTableRecord
  2
DIVIDEX2
 70
               0
  3
CADPAC FUSION LINETYPE
 72
              65
 73
               6
 40
18.5625
 49
7.4250000000000007
 74
               0
 49
-3.7125000000000004
 74
               0
 49
0.0
 74
               0
 49
-3.7125000000000004
 74
               0
 49
0.0
 74
               0
 49
-3.7125000000000004
 74
               0
  0
LTYPE
  5
2E
100
AcDbSymbolTableRecord
100
AcDbLinetypeTableRecord
  2
DIVIDE
 70
               0
  3
CADPAC FUSION LINETYPE
 72
              65
 73
               6
 40
14.850000000000001
 49
5.9400000000000004
 74
               0
 49
-2.9700000000000002
 74
               0
 49
0.0
 74
               0
 49
-2.9700000000000002
 74
               0
 49
0.0
 74
               0
 49
-2.9700000000000002
 74
               0
  0
LTYPE
  5
2F
100
AcDbSymbolTableRecord
100
AcDbLinetypeTableRecord
  2
DIVIDE2
 70
               0
  3
CADPAC FUSION LINETYPE
 72
              65
 73
               6
 40
11.137499999999999
 49
4.4550000000000001
 74
               0
 49
-2.2275
 74
               0
 49
0.0
 74
               0
 49
-2.2275
 74
               0
 49
0.0
 74
               0
 49
-2.2275
 74
               0
  0
LTYPE
  5
30
100
AcDbSymbolTableRecord
100
AcDbLinetypeTableRecord
  2
BORDERX2
 70
               0
  3
CADPAC FUSION LINETYPE
 72
              65
 73
               6
 40
25.987500000000004
 49
7.4250000000000007
 74
               0
 49
-3.7125000000000004
 74
               0
 49
7.4250000000000007
 74
               0
 49
-3.7125000000000004
 74
               0
 49
0.0
 74
               0
 49
-3.7125000000000004
 74
               0
  0
LTYPE
  5
31
100
AcDbSymbolTableRecord
100
AcDbLinetypeTableRecord
  2
BORDER
 70
               0
  3
CADPAC FUSION LINETYPE
 72
              65
 73
               6
 40
20.789999999999999
 49
5.9400000000000004
 74
               0
 49
-2.9700000000000002
 74
               0
 49
5.9400000000000004
 74
               0
 49
-2.9700000000000002
 74
               0
 49
0.0
 74
               0
 49
-2.9700000000000002
 74
               0
  0
LTYPE
  5
32
100
AcDbSymbolTableRecord
100
AcDbLinetypeTableRecord
  2
BORDER2
 70
               0
  3
CADPAC FUSION LINETYPE
 72
              65
 73
               6
 40
15.592500000000001
 49
4.4550000000000001
 74
               0
 49
-2.2275
 74
               0
 49
4.4550000000000001
 74
               0
 49
-2.2275
 74
               0
 49
0.0
 74
               0
 49
-2.2275
 74
               0
  0
LTYPE
  5
33
100
AcDbSymbolTableRecord
100
AcDbLinetypeTableRecord
  2
PHANTOMX2
 70
               0
  3
CADPAC FUSION LINETYPE
 72
              65
 73
               6
 40
22.275000000000002
 49
7.4250000000000007
 74
               0
 49
-2.9700000000000002
 74
               0
 49
2.9700000000000002
 74
               0
 49
-2.9700000000000002
 74
               0
 49
2.9700000000000002
 74
               0
 49
-2.9700000000000002
 74
               0
  0
LTYPE
  5
34
100
AcDbSymbolTableRecord
100
AcDbLinetypeTableRecord
  2
PHANTOM
 70
               0
  3
CADPAC FUSION LINETYPE
 72
              65
 73
               6
 40
18.414000000000001
 49
5.9400000000000004
 74
               0
 49
-2.9700000000000002
 74
               0
 49
1.782
 74
               0
 49
-2.9700000000000002
 74
               0
 49
1.782
 74
               0
 49
-2.9700000000000002
 74
               0
  0
LTYPE
  5
35
100
AcDbSymbolTableRecord
100
AcDbLinetypeTableRecord
  2
PHANTOM2
 70
               0
  3
CADPAC FUSION LINETYPE
 72
              65
 73
               6
 40
15.741000000000003
 49
4.4550000000000001
 74
               0
 49
-2.9700000000000002
 74
               0
 49
1.1880000000000002
 74
               0
 49
-2.9700000000000002
 74
               0
 49
1.1880000000000002
 74
               0
 49
-2.9700000000000002
 74
               0
  0
ENDTAB
  0
TABLE
  2
LAYER
  5
2
100
AcDbSymbolTable
 70
             256
  0
LAYER
  5
14
100
AcDbSymbolTableRecord
100
AcDbLayerTableRecord
  2
0
 70
               0
 62
               7
  6
CONTINUOUS
  0
LAYER
  5
36
100
AcDbSymbolTableRecord
100
AcDbLayerTableRecord
  2
LAYER001
 70
               0
 62
               7
  6
CONTINUOUS
  0
LAYER
  5
37
100
AcDbSymbolTableRecord
100
AcDbLayerTableRecord
  2
LAYER002
 70
               0
 62
               7
  6
CONTINUOUS
  0
LAYER
  5
38
100
AcDbSymbolTableRecord
100
AcDbLayerTableRecord
  2
LAYER003
 70
               0
 62
               7
  6
CONTINUOUS
  0
LAYER
  5
39
100
AcDbSymbolTableRecord
100
AcDbLayerTableRecord
  2
LAYER004
 70
               0
 62
               7
  6
CONTINUOUS
  0
LAYER
  5
3A
100
AcDbSymbolTableRecord
100
AcDbLayerTableRecord
  2
LAYER005
 70
               0
 62
               7
  6
CONTINUOUS
  0
LAYER
  5
3B
100
AcDbSymbolTableRecord
100
AcDbLayerTableRecord
  2
LAYER006
 70
               0
 62
               7
  6
CONTINUOUS
  0
LAYER
  5
3C
100
AcDbSymbolTableRecord
100
AcDbLayerTableRecord
  2
LAYER007
 70
               0
 62
               7
  6
CONTINUOUS
  0
LAYER
  5
3D
100
AcDbSymbolTableRecord
100
AcDbLayerTableRecord
  2
LAYER008
 70
               0
 62
               7
  6
CONTINUOUS
  0
LAYER
  5
3E
100
AcDbSymbolTableRecord
100
AcDbLayerTableRecord
  2
LAYER009
 70
               0
 62
               7
  6
CONTINUOUS
  0
LAYER
  5
3F
100
AcDbSymbolTableRecord
100
AcDbLayerTableRecord
  2
LAYER010
 70
               0
 62
               7
  6
CONTINUOUS
  0
LAYER
  5
40
100
AcDbSymbolTableRecord
100
AcDbLayerTableRecord
  2
LAYER011
 70
               0
 62
               7
  6
CONTINUOUS
  0
LAYER
  5
41
100
AcDbSymbolTableRecord
100
AcDbLayerTableRecord
  2
LAYER012
 70
               0
 62
               7
  6
CONTINUOUS
  0
LAYER
  5
42
100
AcDbSymbolTableRecord
100
AcDbLayerTableRecord
  2
LAYER013
 70
               0
 62
               7
  6
CONTINUOUS
  0
LAYER
  5
43
100
AcDbSymbolTableRecord
100
AcDbLayerTableRecord
  2
LAYER014
 70
               0
 62
               7
  6
CONTINUOUS
  0
LAYER
  5
44
100
AcDbSymbolTableRecord
100
AcDbLayerTableRecord
  2
LAYER015
 70
               0
 62
               7
  6
CONTINUOUS
  0
LAYER
  5
45
100
AcDbSymbolTableRecord
100
AcDbLayerTableRecord
  2
LAYER016
 70
               0
 62
               7
  6
CONTINUOUS
  0
LAYER
  5
46
100
AcDbSymbolTableRecord
100
AcDbLayerTableRecord
  2
LAYER017
 70
               0
 62
               7
  6
CONTINUOUS
  0
LAYER
  5
47
100
AcDbSymbolTableRecord
100
AcDbLayerTableRecord
  2
LAYER018
 70
               0
 62
               7
  6
CONTINUOUS
  0
LAYER
  5
48
100
AcDbSymbolTableRecord
100
AcDbLayerTableRecord
  2
LAYER019
 70
               0
 62
               7
  6
CONTINUOUS
  0
LAYER
  5
49
100
AcDbSymbolTableRecord
100
AcDbLayerTableRecord
  2
LAYER020
 70
               0
 62
               7
  6
CONTINUOUS
  0
LAYER
  5
4A
100
AcDbSymbolTableRecord
100
AcDbLayerTableRecord
  2
LAYER021
 70
               0
 62
               7
  6
CONTINUOUS
  0
LAYER
  5
4B
100
AcDbSymbolTableRecord
100
AcDbLayerTableRecord
  2
LAYER022
 70
               0
 62
               7
  6
CONTINUOUS
  0
LAYER
  5
4C
100
AcDbSymbolTableRecord
100
AcDbLayerTableRecord
  2
LAYER023
 70
               0
 62
               7
  6
CONTINUOUS
  0
LAYER
  5
4D
100
AcDbSymbolTableRecord
100
AcDbLayerTableRecord
  2
LAYER024
 70
               0
 62
               7
  6
CONTINUOUS
  0
LAYER
  5
4E
100
AcDbSymbolTableRecord
100
AcDbLayerTableRecord
  2
LAYER025
 70
               0
 62
               7
  6
CONTINUOUS
  0
LAYER
  5
4F
100
AcDbSymbolTableRecord
100
AcDbLayerTableRecord
  2
LAYER026
 70
               0
 62
               7
  6
CONTINUOUS
  0
LAYER
  5
50
100
AcDbSymbolTableRecord
100
AcDbLayerTableRecord
  2
LAYER027
 70
               0
 62
               7
  6
CONTINUOUS
  0
LAYER
  5
51
100
AcDbSymbolTableRecord
100
AcDbLayerTableRecord
  2
LAYER028
 70
               0
 62
               7
  6
CONTINUOUS
  0
LAYER
  5
52
100
AcDbSymbolTableRecord
100
AcDbLayerTableRecord
  2
LAYER029
 70
               0
 62
               7
  6
CONTINUOUS
  0
LAYER
  5
53
100
AcDbSymbolTableRecord
100
AcDbLayerTableRecord
  2
LAYER030
 70
               0
 62
               7
  6
CONTINUOUS
  0
LAYER
  5
54
100
AcDbSymbolTableRecord
100
AcDbLayerTableRecord
  2
LAYER031
 70
               0
 62
               7
  6
CONTINUOUS
  0
LAYER
  5
55
100
AcDbSymbolTableRecord
100
AcDbLayerTableRecord
  2
LAYER032
 70
               0
 62
               7
  6
CONTINUOUS
  0
LAYER
  5
56
100
AcDbSymbolTableRecord
100
AcDbLayerTableRecord
  2
LAYER033
 70
               0
 62
               7
  6
CONTINUOUS
  0
LAYER
  5
57
100
AcDbSymbolTableRecord
100
AcDbLayerTableRecord
  2
LAYER034
 70
               0
 62
               7
  6
CONTINUOUS
  0
LAYER
  5
58
100
AcDbSymbolTableRecord
100
AcDbLayerTableRecord
  2
LAYER035
 70
               0
 62
               7
  6
CONTINUOUS
  0
LAYER
  5
59
100
AcDbSymbolTableRecord
100
AcDbLayerTableRecord
  2
LAYER036
 70
               0
 62
               7
  6
CONTINUOUS
  0
LAYER
  5
5A
100
AcDbSymbolTableRecord
100
AcDbLayerTableRecord
  2
LAYER037
 70
               0
 62
               7
  6
CONTINUOUS
  0
LAYER
  5
5B
100
AcDbSymbolTableRecord
100
AcDbLayerTableRecord
  2
LAYER038
 70
               0
 62
               7
  6
CONTINUOUS
  0
LAYER
  5
5C
100
AcDbSymbolTableRecord
100
AcDbLayerTableRecord
  2
LAYER039
 70
               0
 62
               7
  6
CONTINUOUS
  0
LAYER
  5
5D
100
AcDbSymbolTableRecord
100
AcDbLayerTableRecord
  2
LAYER040
 70
               0
 62
               7
  6
CONTINUOUS
  0
LAYER
  5
5E
100
AcDbSymbolTableRecord
100
AcDbLayerTableRecord
  2
LAYER041
 70
               0
 62
               7
  6
CONTINUOUS
  0
LAYER
  5
5F
100
AcDbSymbolTableRecord
100
AcDbLayerTableRecord
  2
LAYER042
 70
               0
 62
               7
  6
CONTINUOUS
  0
LAYER
  5
60
100
AcDbSymbolTableRecord
100
AcDbLayerTableRecord
  2
LAYER043
 70
               0
 62
               7
  6
CONTINUOUS
  0
LAYER
  5
61
100
AcDbSymbolTableRecord
100
AcDbLayerTableRecord
  2
LAYER044
 70
               0
 62
               7
  6
CONTINUOUS
  0
LAYER
  5
62
100
AcDbSymbolTableRecord
100
AcDbLayerTableRecord
  2
LAYER045
 70
               0
 62
               7
  6
CONTINUOUS
  0
LAYER
  5
63
100
AcDbSymbolTableRecord
100
AcDbLayerTableRecord
  2
LAYER046
 70
               0
 62
               7
  6
CONTINUOUS
  0
LAYER
  5
64
100
AcDbSymbolTableRecord
100
AcDbLayerTableRecord
  2
LAYER047
 70
               0
 62
               7
  6
CONTINUOUS
  0
LAYER
  5
65
100
AcDbSymbolTableRecord
100
AcDbLayerTableRecord
  2
LAYER048
 70
               0
 62
               7
  6
CONTINUOUS
  0
LAYER
  5
66
100
AcDbSymbolTableRecord
100
AcDbLayerTableRecord
  2
LAYER049
 70
               0
 62
               7
  6
CONTINUOUS
  0
LAYER
  5
67
100
AcDbSymbolTableRecord
100
AcDbLayerTableRecord
  2
LAYER050
 70
               0
 62
               7
  6
CONTINUOUS
  0
LAYER
  5
68
100
AcDbSymbolTableRecord
100
AcDbLayerTableRecord
  2
LAYER051
 70
               0
 62
               7
  6
CONTINUOUS
  0
LAYER
  5
69
100
AcDbSymbolTableRecord
100
AcDbLayerTableRecord
  2
LAYER052
 70
               0
 62
               7
  6
CONTINUOUS
  0
LAYER
  5
6A
100
AcDbSymbolTableRecord
100
AcDbLayerTableRecord
  2
LAYER053
 70
               0
 62
               7
  6
CONTINUOUS
  0
LAYER
  5
6B
100
AcDbSymbolTableRecord
100
AcDbLayerTableRecord
  2
LAYER054
 70
               0
 62
               7
  6
CONTINUOUS
  0
LAYER
  5
6C
100
AcDbSymbolTableRecord
100
AcDbLayerTableRecord
  2
LAYER055
 70
               0
 62
               7
  6
CONTINUOUS
  0
LAYER
  5
6D
100
AcDbSymbolTableRecord
100
AcDbLayerTableRecord
  2
LAYER056
 70
               0
 62
               7
  6
CONTINUOUS
  0
LAYER
  5
6E
100
AcDbSymbolTableRecord
100
AcDbLayerTableRecord
  2
LAYER057
 70
               0
 62
               7
  6
CONTINUOUS
  0
LAYER
  5
6F
100
AcDbSymbolTableRecord
100
AcDbLayerTableRecord
  2
LAYER058
 70
               0
 62
               7
  6
CONTINUOUS
  0
LAYER
  5
70
100
AcDbSymbolTableRecord
100
AcDbLayerTableRecord
  2
LAYER059
 70
               0
 62
               7
  6
CONTINUOUS
  0
LAYER
  5
71
100
AcDbSymbolTableRecord
100
AcDbLayerTableRecord
  2
LAYER060
 70
               0
 62
               7
  6
CONTINUOUS
  0
LAYER
  5
72
100
AcDbSymbolTableRecord
100
AcDbLayerTableRecord
  2
LAYER061
 70
               0
 62
               7
  6
CONTINUOUS
  0
LAYER
  5
73
100
AcDbSymbolTableRecord
100
AcDbLayerTableRecord
  2
LAYER062
 70
               0
 62
               7
  6
CONTINUOUS
  0
LAYER
  5
74
100
AcDbSymbolTableRecord
100
AcDbLayerTableRecord
  2
LAYER063
 70
               0
 62
               7
  6
CONTINUOUS
  0
LAYER
  5
75
100
AcDbSymbolTableRecord
100
AcDbLayerTableRecord
  2
LAYER064
 70
               0
 62
               7
  6
CONTINUOUS
  0
LAYER
  5
76
100
AcDbSymbolTableRecord
100
AcDbLayerTableRecord
  2
LAYER065
 70
               0
 62
               7
  6
CONTINUOUS
  0
LAYER
  5
77
100
AcDbSymbolTableRecord
100
AcDbLayerTableRecord
  2
LAYER066
 70
               0
 62
               7
  6
CONTINUOUS
  0
LAYER
  5
78
100
AcDbSymbolTableRecord
100
AcDbLayerTableRecord
  2
LAYER067
 70
               0
 62
               7
  6
CONTINUOUS
  0
LAYER
  5
79
100
AcDbSymbolTableRecord
100
AcDbLayerTableRecord
  2
LAYER068
 70
               0
 62
               7
  6
CONTINUOUS
  0
LAYER
  5
7A
100
AcDbSymbolTableRecord
100
AcDbLayerTableRecord
  2
LAYER069
 70
               0
 62
               7
  6
CONTINUOUS
  0
LAYER
  5
7B
100
AcDbSymbolTableRecord
100
AcDbLayerTableRecord
  2
LAYER070
 70
               0
 62
               7
  6
CONTINUOUS
  0
LAYER
  5
7C
100
AcDbSymbolTableRecord
100
AcDbLayerTableRecord
  2
LAYER071
 70
               0
 62
               7
  6
CONTINUOUS
  0
LAYER
  5
7D
100
AcDbSymbolTableRecord
100
AcDbLayerTableRecord
  2
LAYER072
 70
               0
 62
               7
  6
CONTINUOUS
  0
LAYER
  5
7E
100
AcDbSymbolTableRecord
100
AcDbLayerTableRecord
  2
LAYER073
 70
               0
 62
               7
  6
CONTINUOUS
  0
LAYER
  5
7F
100
AcDbSymbolTableRecord
100
AcDbLayerTableRecord
  2
LAYER074
 70
               0
 62
               7
  6
CONTINUOUS
  0
LAYER
  5
80
100
AcDbSymbolTableRecord
100
AcDbLayerTableRecord
  2
LAYER075
 70
               0
 62
               7
  6
CONTINUOUS
  0
LAYER
  5
81
100
AcDbSymbolTableRecord
100
AcDbLayerTableRecord
  2
LAYER076
 70
               0
 62
               7
  6
CONTINUOUS
  0
LAYER
  5
82
100
AcDbSymbolTableRecord
100
AcDbLayerTableRecord
  2
LAYER077
 70
               0
 62
               7
  6
CONTINUOUS
  0
LAYER
  5
83
100
AcDbSymbolTableRecord
100
AcDbLayerTableRecord
  2
LAYER078
 70
               0
 62
               7
  6
CONTINUOUS
  0
LAYER
  5
84
100
AcDbSymbolTableRecord
100
AcDbLayerTableRecord
  2
LAYER079
 70
               0
 62
               7
  6
CONTINUOUS
  0
LAYER
  5
85
100
AcDbSymbolTableRecord
100
AcDbLayerTableRecord
  2
LAYER080
 70
               0
 62
               7
  6
CONTINUOUS
  0
LAYER
  5
86
100
AcDbSymbolTableRecord
100
AcDbLayerTableRecord
  2
LAYER081
 70
               0
 62
               7
  6
CONTINUOUS
  0
LAYER
  5
87
100
AcDbSymbolTableRecord
100
AcDbLayerTableRecord
  2
LAYER082
 70
               0
 62
               7
  6
CONTINUOUS
  0
LAYER
  5
88
100
AcDbSymbolTableRecord
100
AcDbLayerTableRecord
  2
LAYER083
 70
               0
 62
               7
  6
CONTINUOUS
  0
LAYER
  5
89
100
AcDbSymbolTableRecord
100
AcDbLayerTableRecord
  2
LAYER084
 70
               0
 62
               7
  6
CONTINUOUS
  0
LAYER
  5
8A
100
AcDbSymbolTableRecord
100
AcDbLayerTableRecord
  2
LAYER085
 70
               0
 62
               7
  6
CONTINUOUS
  0
LAYER
  5
8B
100
AcDbSymbolTableRecord
100
AcDbLayerTableRecord
  2
LAYER086
 70
               0
 62
               7
  6
CONTINUOUS
  0
LAYER
  5
8C
100
AcDbSymbolTableRecord
100
AcDbLayerTableRecord
  2
LAYER087
 70
               0
 62
               7
  6
CONTINUOUS
  0
LAYER
  5
8D
100
AcDbSymbolTableRecord
100
AcDbLayerTableRecord
  2
LAYER088
 70
               0
 62
               7
  6
CONTINUOUS
  0
LAYER
  5
8E
100
AcDbSymbolTableRecord
100
AcDbLayerTableRecord
  2
LAYER089
 70
               0
 62
               7
  6
CONTINUOUS
  0
LAYER
  5
8F
100
AcDbSymbolTableRecord
100
AcDbLayerTableRecord
  2
LAYER090
 70
               0
 62
               7
  6
CONTINUOUS
  0
LAYER
  5
90
100
AcDbSymbolTableRecord
100
AcDbLayerTableRecord
  2
LAYER091
 70
               0
 62
               7
  6
CONTINUOUS
  0
LAYER
  5
91
100
AcDbSymbolTableRecord
100
AcDbLayerTableRecord
  2
LAYER092
 70
               0
 62
               7
  6
CONTINUOUS
  0
LAYER
  5
92
100
AcDbSymbolTableRecord
100
AcDbLayerTableRecord
  2
LAYER093
 70
               0
 62
               7
  6
CONTINUOUS
  0
LAYER
  5
93
100
AcDbSymbolTableRecord
100
AcDbLayerTableRecord
  2
LAYER094
 70
               0
 62
               7
  6
CONTINUOUS
  0
LAYER
  5
94
100
AcDbSymbolTableRecord
100
AcDbLayerTableRecord
  2
LAYER095
 70
               0
 62
               7
  6
CONTINUOUS
  0
LAYER
  5
95
100
AcDbSymbolTableRecord
100
AcDbLayerTableRecord
  2
LAYER096
 70
               0
 62
               7
  6
CONTINUOUS
  0
LAYER
  5
96
100
AcDbSymbolTableRecord
100
AcDbLayerTableRecord
  2
LAYER097
 70
               0
 62
               7
  6
CONTINUOUS
  0
LAYER
  5
97
100
AcDbSymbolTableRecord
100
AcDbLayerTableRecord
  2
LAYER098
 70
               0
 62
               7
  6
CONTINUOUS
  0
LAYER
  5
98
100
AcDbSymbolTableRecord
100
AcDbLayerTableRecord
  2
LAYER099
 70
               0
 62
               7
  6
CONTINUOUS
  0
LAYER
  5
99
100
AcDbSymbolTableRecord
100
AcDbLayerTableRecord
  2
LAYER100
 70
               0
 62
               7
  6
CONTINUOUS
  0
LAYER
  5
9A
100
AcDbSymbolTableRecord
100
AcDbLayerTableRecord
  2
LAYER101
 70
               0
 62
               7
  6
CONTINUOUS
  0
LAYER
  5
9B
100
AcDbSymbolTableRecord
100
AcDbLayerTableRecord
  2
LAYER102
 70
               0
 62
               7
  6
CONTINUOUS
  0
LAYER
  5
9C
100
AcDbSymbolTableRecord
100
AcDbLayerTableRecord
  2
LAYER103
 70
               0
 62
               7
  6
CONTINUOUS
  0
LAYER
  5
9D
100
AcDbSymbolTableRecord
100
AcDbLayerTableRecord
  2
LAYER104
 70
               0
 62
               7
  6
CONTINUOUS
  0
LAYER
  5
9E
100
AcDbSymbolTableRecord
100
AcDbLayerTableRecord
  2
LAYER105
 70
               0
 62
               7
  6
CONTINUOUS
  0
LAYER
  5
9F
100
AcDbSymbolTableRecord
100
AcDbLayerTableRecord
  2
LAYER106
 70
               0
 62
               7
  6
CONTINUOUS
  0
LAYER
  5
A0
100
AcDbSymbolTableRecord
100
AcDbLayerTableRecord
  2
LAYER107
 70
               0
 62
               7
  6
CONTINUOUS
  0
LAYER
  5
A1
100
AcDbSymbolTableRecord
100
AcDbLayerTableRecord
  2
LAYER108
 70
               0
 62
               7
  6
CONTINUOUS
  0
LAYER
  5
A2
100
AcDbSymbolTableRecord
100
AcDbLayerTableRecord
  2
LAYER109
 70
               0
 62
               7
  6
CONTINUOUS
  0
LAYER
  5
A3
100
AcDbSymbolTableRecord
100
AcDbLayerTableRecord
  2
LAYER110
 70
               0
 62
               7
  6
CONTINUOUS
  0
LAYER
  5
A4
100
AcDbSymbolTableRecord
100
AcDbLayerTableRecord
  2
LAYER111
 70
               0
 62
               7
  6
CONTINUOUS
  0
LAYER
  5
A5
100
AcDbSymbolTableRecord
100
AcDbLayerTableRecord
  2
LAYER112
 70
               0
 62
               7
  6
CONTINUOUS
  0
LAYER
  5
A6
100
AcDbSymbolTableRecord
100
AcDbLayerTableRecord
  2
LAYER113
 70
               0
 62
               7
  6
CONTINUOUS
  0
LAYER
  5
A7
100
AcDbSymbolTableRecord
100
AcDbLayerTableRecord
  2
LAYER114
 70
               0
 62
               7
  6
CONTINUOUS
  0
LAYER
  5
A8
100
AcDbSymbolTableRecord
100
AcDbLayerTableRecord
  2
LAYER115
 70
               0
 62
               7
  6
CONTINUOUS
  0
LAYER
  5
A9
100
AcDbSymbolTableRecord
100
AcDbLayerTableRecord
  2
LAYER116
 70
               0
 62
               7
  6
CONTINUOUS
  0
LAYER
  5
AA
100
AcDbSymbolTableRecord
100
AcDbLayerTableRecord
  2
LAYER117
 70
               0
 62
               7
  6
CONTINUOUS
  0
LAYER
  5
AB
100
AcDbSymbolTableRecord
100
AcDbLayerTableRecord
  2
LAYER118
 70
               0
 62
               7
  6
CONTINUOUS
  0
LAYER
  5
AC
100
AcDbSymbolTableRecord
100
AcDbLayerTableRecord
  2
LAYER119
 70
               0
 62
               7
  6
CONTINUOUS
  0
LAYER
  5
AD
100
AcDbSymbolTableRecord
100
AcDbLayerTableRecord
  2
LAYER120
 70
               0
 62
               7
  6
CONTINUOUS
  0
LAYER
  5
AE
100
AcDbSymbolTableRecord
100
AcDbLayerTableRecord
  2
LAYER121
 70
               0
 62
               7
  6
CONTINUOUS
  0
LAYER
  5
AF
100
AcDbSymbolTableRecord
100
AcDbLayerTableRecord
  2
LAYER122
 70
               0
 62
               7
  6
CONTINUOUS
  0
LAYER
  5
B0
100
AcDbSymbolTableRecord
100
AcDbLayerTableRecord
  2
LAYER123
 70
               0
 62
               7
  6
CONTINUOUS
  0
LAYER
  5
B1
100
AcDbSymbolTableRecord
100
AcDbLayerTableRecord
  2
LAYER124
 70
               0
 62
               7
  6
CONTINUOUS
  0
LAYER
  5
B2
100
AcDbSymbolTableRecord
100
AcDbLayerTableRecord
  2
LAYER125
 70
               0
 62
               7
  6
CONTINUOUS
  0
LAYER
  5
B3
100
AcDbSymbolTableRecord
100
AcDbLayerTableRecord
  2
LAYER126
 70
               0
 62
               7
  6
CONTINUOUS
  0
LAYER
  5
B4
100
AcDbSymbolTableRecord
100
AcDbLayerTableRecord
  2
LAYER127
 70
               0
 62
               7
  6
CONTINUOUS
  0
LAYER
  5
B5
100
AcDbSymbolTableRecord
100
AcDbLayerTableRecord
  2
LAYER128
 70
               0
 62
               7
  6
CONTINUOUS
  0
LAYER
  5
B6
100
AcDbSymbolTableRecord
100
AcDbLayerTableRecord
  2
LAYER129
 70
               0
 62
               7
  6
CONTINUOUS
  0
LAYER
  5
B7
100
AcDbSymbolTableRecord
100
AcDbLayerTableRecord
  2
LAYER130
 70
               0
 62
               7
  6
CONTINUOUS
  0
LAYER
  5
B8
100
AcDbSymbolTableRecord
100
AcDbLayerTableRecord
  2
LAYER131
 70
               0
 62
               7
  6
CONTINUOUS
  0
LAYER
  5
B9
100
AcDbSymbolTableRecord
100
AcDbLayerTableRecord
  2
LAYER132
 70
               0
 62
               7
  6
CONTINUOUS
  0
LAYER
  5
BA
100
AcDbSymbolTableRecord
100
AcDbLayerTableRecord
  2
LAYER133
 70
               0
 62
               7
  6
CONTINUOUS
  0
LAYER
  5
BB
100
AcDbSymbolTableRecord
100
AcDbLayerTableRecord
  2
LAYER134
 70
               0
 62
               7
  6
CONTINUOUS
  0
LAYER
  5
BC
100
AcDbSymbolTableRecord
100
AcDbLayerTableRecord
  2
LAYER135
 70
               0
 62
               7
  6
CONTINUOUS
  0
LAYER
  5
BD
100
AcDbSymbolTableRecord
100
AcDbLayerTableRecord
  2
LAYER136
 70
               0
 62
               7
  6
CONTINUOUS
  0
LAYER
  5
BE
100
AcDbSymbolTableRecord
100
AcDbLayerTableRecord
  2
LAYER137
 70
               0
 62
               7
  6
CONTINUOUS
  0
LAYER
  5
BF
100
AcDbSymbolTableRecord
100
AcDbLayerTableRecord
  2
LAYER138
 70
               0
 62
               7
  6
CONTINUOUS
  0
LAYER
  5
C0
100
AcDbSymbolTableRecord
100
AcDbLayerTableRecord
  2
LAYER139
 70
               0
 62
               7
  6
CONTINUOUS
  0
LAYER
  5
C1
100
AcDbSymbolTableRecord
100
AcDbLayerTableRecord
  2
LAYER140
 70
               0
 62
               7
  6
CONTINUOUS
  0
LAYER
  5
C2
100
AcDbSymbolTableRecord
100
AcDbLayerTableRecord
  2
LAYER141
 70
               0
 62
               7
  6
CONTINUOUS
  0
LAYER
  5
C3
100
AcDbSymbolTableRecord
100
AcDbLayerTableRecord
  2
LAYER142
 70
               0
 62
               7
  6
CONTINUOUS
  0
LAYER
  5
C4
100
AcDbSymbolTableRecord
100
AcDbLayerTableRecord
  2
LAYER143
 70
               0
 62
               7
  6
CONTINUOUS
  0
LAYER
  5
C5
100
AcDbSymbolTableRecord
100
AcDbLayerTableRecord
  2
LAYER144
 70
               0
 62
               7
  6
CONTINUOUS
  0
LAYER
  5
C6
100
AcDbSymbolTableRecord
100
AcDbLayerTableRecord
  2
LAYER145
 70
               0
 62
               7
  6
CONTINUOUS
  0
LAYER
  5
C7
100
AcDbSymbolTableRecord
100
AcDbLayerTableRecord
  2
LAYER146
 70
               0
 62
               7
  6
CONTINUOUS
  0
LAYER
  5
C8
100
AcDbSymbolTableRecord
100
AcDbLayerTableRecord
  2
LAYER147
 70
               0
 62
               7
  6
CONTINUOUS
  0
LAYER
  5
C9
100
AcDbSymbolTableRecord
100
AcDbLayerTableRecord
  2
LAYER148
 70
               0
 62
               7
  6
CONTINUOUS
  0
LAYER
  5
CA
100
AcDbSymbolTableRecord
100
AcDbLayerTableRecord
  2
LAYER149
 70
               0
 62
               7
  6
CONTINUOUS
  0
LAYER
  5
CB
100
AcDbSymbolTableRecord
100
AcDbLayerTableRecord
  2
LAYER150
 70
               0
 62
               7
  6
CONTINUOUS
  0
LAYER
  5
CC
100
AcDbSymbolTableRecord
100
AcDbLayerTableRecord
  2
LAYER151
 70
               0
 62
               7
  6
CONTINUOUS
  0
LAYER
  5
CD
100
AcDbSymbolTableRecord
100
AcDbLayerTableRecord
  2
LAYER152
 70
               0
 62
               7
  6
CONTINUOUS
  0
LAYER
  5
CE
100
AcDbSymbolTableRecord
100
AcDbLayerTableRecord
  2
LAYER153
 70
               0
 62
               7
  6
CONTINUOUS
  0
LAYER
  5
CF
100
AcDbSymbolTableRecord
100
AcDbLayerTableRecord
  2
LAYER154
 70
               0
 62
               7
  6
CONTINUOUS
  0
LAYER
  5
D0
100
AcDbSymbolTableRecord
100
AcDbLayerTableRecord
  2
LAYER155
 70
               0
 62
               7
  6
CONTINUOUS
  0
LAYER
  5
D1
100
AcDbSymbolTableRecord
100
AcDbLayerTableRecord
  2
LAYER156
 70
               0
 62
               7
  6
CONTINUOUS
  0
LAYER
  5
D2
100
AcDbSymbolTableRecord
100
AcDbLayerTableRecord
  2
LAYER157
 70
               0
 62
               7
  6
CONTINUOUS
  0
LAYER
  5
D3
100
AcDbSymbolTableRecord
100
AcDbLayerTableRecord
  2
LAYER158
 70
               0
 62
               7
  6
CONTINUOUS
  0
LAYER
  5
D4
100
AcDbSymbolTableRecord
100
AcDbLayerTableRecord
  2
LAYER159
 70
               0
 62
               7
  6
CONTINUOUS
  0
LAYER
  5
D5
100
AcDbSymbolTableRecord
100
AcDbLayerTableRecord
  2
LAYER160
 70
               0
 62
               7
  6
CONTINUOUS
  0
LAYER
  5
D6
100
AcDbSymbolTableRecord
100
AcDbLayerTableRecord
  2
LAYER161
 70
               0
 62
               7
  6
CONTINUOUS
  0
LAYER
  5
D7
100
AcDbSymbolTableRecord
100
AcDbLayerTableRecord
  2
LAYER162
 70
               0
 62
               7
  6
CONTINUOUS
  0
LAYER
  5
D8
100
AcDbSymbolTableRecord
100
AcDbLayerTableRecord
  2
LAYER163
 70
               0
 62
               7
  6
CONTINUOUS
  0
LAYER
  5
D9
100
AcDbSymbolTableRecord
100
AcDbLayerTableRecord
  2
LAYER164
 70
               0
 62
               7
  6
CONTINUOUS
  0
LAYER
  5
DA
100
AcDbSymbolTableRecord
100
AcDbLayerTableRecord
  2
LAYER165
 70
               0
 62
               7
  6
CONTINUOUS
  0
LAYER
  5
DB
100
AcDbSymbolTableRecord
100
AcDbLayerTableRecord
  2
LAYER166
 70
               0
 62
               7
  6
CONTINUOUS
  0
LAYER
  5
DC
100
AcDbSymbolTableRecord
100
AcDbLayerTableRecord
  2
LAYER167
 70
               0
 62
               7
  6
CONTINUOUS
  0
LAYER
  5
DD
100
AcDbSymbolTableRecord
100
AcDbLayerTableRecord
  2
LAYER168
 70
               0
 62
               7
  6
CONTINUOUS
  0
LAYER
  5
DE
100
AcDbSymbolTableRecord
100
AcDbLayerTableRecord
  2
LAYER169
 70
               0
 62
               7
  6
CONTINUOUS
  0
LAYER
  5
DF
100
AcDbSymbolTableRecord
100
AcDbLayerTableRecord
  2
LAYER170
 70
               0
 62
               7
  6
CONTINUOUS
  0
LAYER
  5
E0
100
AcDbSymbolTableRecord
100
AcDbLayerTableRecord
  2
LAYER171
 70
               0
 62
               7
  6
CONTINUOUS
  0
LAYER
  5
E1
100
AcDbSymbolTableRecord
100
AcDbLayerTableRecord
  2
LAYER172
 70
               0
 62
               7
  6
CONTINUOUS
  0
LAYER
  5
E2
100
AcDbSymbolTableRecord
100
AcDbLayerTableRecord
  2
LAYER173
 70
               0
 62
               7
  6
CONTINUOUS
  0
LAYER
  5
E3
100
AcDbSymbolTableRecord
100
AcDbLayerTableRecord
  2
LAYER174
 70
               0
 62
               7
  6
CONTINUOUS
  0
LAYER
  5
E4
100
AcDbSymbolTableRecord
100
AcDbLayerTableRecord
  2
LAYER175
 70
               0
 62
               7
  6
CONTINUOUS
  0
LAYER
  5
E5
100
AcDbSymbolTableRecord
100
AcDbLayerTableRecord
  2
LAYER176
 70
               0
 62
               7
  6
CONTINUOUS
  0
LAYER
  5
E6
100
AcDbSymbolTableRecord
100
AcDbLayerTableRecord
  2
LAYER177
 70
               0
 62
               7
  6
CONTINUOUS
  0
LAYER
  5
E7
100
AcDbSymbolTableRecord
100
AcDbLayerTableRecord
  2
LAYER178
 70
               0
 62
               7
  6
CONTINUOUS
  0
LAYER
  5
E8
100
AcDbSymbolTableRecord
100
AcDbLayerTableRecord
  2
LAYER179
 70
               0
 62
               7
  6
CONTINUOUS
  0
LAYER
  5
E9
100
AcDbSymbolTableRecord
100
AcDbLayerTableRecord
  2
LAYER180
 70
               0
 62
               7
  6
CONTINUOUS
  0
LAYER
  5
EA
100
AcDbSymbolTableRecord
100
AcDbLayerTableRecord
  2
LAYER181
 70
               0
 62
               7
  6
CONTINUOUS
  0
LAYER
  5
EB
100
AcDbSymbolTableRecord
100
AcDbLayerTableRecord
  2
LAYER182
 70
               0
 62
               7
  6
CONTINUOUS
  0
LAYER
  5
EC
100
AcDbSymbolTableRecord
100
AcDbLayerTableRecord
  2
LAYER183
 70
               0
 62
               7
  6
CONTINUOUS
  0
LAYER
  5
ED
100
AcDbSymbolTableRecord
100
AcDbLayerTableRecord
  2
LAYER184
 70
               0
 62
               7
  6
CONTINUOUS
  0
LAYER
  5
EE
100
AcDbSymbolTableRecord
100
AcDbLayerTableRecord
  2
LAYER185
 70
               0
 62
               7
  6
CONTINUOUS
  0
LAYER
  5
EF
100
AcDbSymbolTableRecord
100
AcDbLayerTableRecord
  2
LAYER186
 70
               0
 62
               7
  6
CONTINUOUS
  0
LAYER
  5
F0
100
AcDbSymbolTableRecord
100
AcDbLayerTableRecord
  2
LAYER187
 70
               0
 62
               7
  6
CONTINUOUS
  0
LAYER
  5
F1
100
AcDbSymbolTableRecord
100
AcDbLayerTableRecord
  2
LAYER188
 70
               0
 62
               7
  6
CONTINUOUS
  0
LAYER
  5
F2
100
AcDbSymbolTableRecord
100
AcDbLayerTableRecord
  2
LAYER189
 70
               0
 62
               7
  6
CONTINUOUS
  0
LAYER
  5
F3
100
AcDbSymbolTableRecord
100
AcDbLayerTableRecord
  2
LAYER190
 70
               0
 62
               7
  6
CONTINUOUS
  0
LAYER
  5
F4
100
AcDbSymbolTableRecord
100
AcDbLayerTableRecord
  2
LAYER191
 70
               0
 62
               7
  6
CONTINUOUS
  0
LAYER
  5
F5
100
AcDbSymbolTableRecord
100
AcDbLayerTableRecord
  2
LAYER192
 70
               0
 62
               7
  6
CONTINUOUS
  0
LAYER
  5
F6
100
AcDbSymbolTableRecord
100
AcDbLayerTableRecord
  2
LAYER193
 70
               0
 62
               7
  6
CONTINUOUS
  0
LAYER
  5
F7
100
AcDbSymbolTableRecord
100
AcDbLayerTableRecord
  2
LAYER194
 70
               0
 62
               7
  6
CONTINUOUS
  0
LAYER
  5
F8
100
AcDbSymbolTableRecord
100
AcDbLayerTableRecord
  2
LAYER195
 70
               0
 62
               7
  6
CONTINUOUS
  0
LAYER
  5
F9
100
AcDbSymbolTableRecord
100
AcDbLayerTableRecord
  2
LAYER196
 70
               0
 62
               7
  6
CONTINUOUS
  0
LAYER
  5
FA
100
AcDbSymbolTableRecord
100
AcDbLayerTableRecord
  2
LAYER197
 70
               0
 62
               7
  6
CONTINUOUS
  0
LAYER
  5
FB
100
AcDbSymbolTableRecord
100
AcDbLayerTableRecord
  2
LAYER198
 70
               0
 62
               7
  6
CONTINUOUS
  0
LAYER
  5
FC
100
AcDbSymbolTableRecord
100
AcDbLayerTableRecord
  2
LAYER199
 70
               0
 62
               7
  6
CONTINUOUS
  0
LAYER
  5
FD
100
AcDbSymbolTableRecord
100
AcDbLayerTableRecord
  2
LAYER200
 70
               0
 62
               7
  6
CONTINUOUS
  0
LAYER
  5
FE
100
AcDbSymbolTableRecord
100
AcDbLayerTableRecord
  2
LAYER201
 70
               0
 62
               7
  6
CONTINUOUS
  0
LAYER
  5
FF
100
AcDbSymbolTableRecord
100
AcDbLayerTableRecord
  2
LAYER202
 70
               0
 62
               7
  6
CONTINUOUS
  0
LAYER
  5
100
100
AcDbSymbolTableRecord
100
AcDbLayerTableRecord
  2
LAYER203
 70
               0
 62
               7
  6
CONTINUOUS
  0
LAYER
  5
101
100
AcDbSymbolTableRecord
100
AcDbLayerTableRecord
  2
LAYER204
 70
               0
 62
               7
  6
CONTINUOUS
  0
LAYER
  5
102
100
AcDbSymbolTableRecord
100
AcDbLayerTableRecord
  2
LAYER205
 70
               0
 62
               7
  6
CONTINUOUS
  0
LAYER
  5
103
100
AcDbSymbolTableRecord
100
AcDbLayerTableRecord
  2
LAYER206
 70
               0
 62
               7
  6
CONTINUOUS
  0
LAYER
  5
104
100
AcDbSymbolTableRecord
100
AcDbLayerTableRecord
  2
LAYER207
 70
               0
 62
               7
  6
CONTINUOUS
  0
LAYER
  5
105
100
AcDbSymbolTableRecord
100
AcDbLayerTableRecord
  2
LAYER208
 70
               0
 62
               7
  6
CONTINUOUS
  0
LAYER
  5
106
100
AcDbSymbolTableRecord
100
AcDbLayerTableRecord
  2
LAYER209
 70
               0
 62
               7
  6
CONTINUOUS
  0
LAYER
  5
107
100
AcDbSymbolTableRecord
100
AcDbLayerTableRecord
  2
LAYER210
 70
               0
 62
               7
  6
CONTINUOUS
  0
LAYER
  5
108
100
AcDbSymbolTableRecord
100
AcDbLayerTableRecord
  2
LAYER211
 70
               0
 62
               7
  6
CONTINUOUS
  0
LAYER
  5
109
100
AcDbSymbolTableRecord
100
AcDbLayerTableRecord
  2
LAYER212
 70
               0
 62
               7
  6
CONTINUOUS
  0
LAYER
  5
10A
100
AcDbSymbolTableRecord
100
AcDbLayerTableRecord
  2
LAYER213
 70
               0
 62
               7
  6
CONTINUOUS
  0
LAYER
  5
10B
100
AcDbSymbolTableRecord
100
AcDbLayerTableRecord
  2
LAYER214
 70
               0
 62
               7
  6
CONTINUOUS
  0
LAYER
  5
10C
100
AcDbSymbolTableRecord
100
AcDbLayerTableRecord
  2
LAYER215
 70
               0
 62
               7
  6
CONTINUOUS
  0
LAYER
  5
10D
100
AcDbSymbolTableRecord
100
AcDbLayerTableRecord
  2
LAYER216
 70
               0
 62
               7
  6
CONTINUOUS
  0
LAYER
  5
10E
100
AcDbSymbolTableRecord
100
AcDbLayerTableRecord
  2
LAYER217
 70
               0
 62
               7
  6
CONTINUOUS
  0
LAYER
  5
10F
100
AcDbSymbolTableRecord
100
AcDbLayerTableRecord
  2
LAYER218
 70
               0
 62
               7
  6
CONTINUOUS
  0
LAYER
  5
110
100
AcDbSymbolTableRecord
100
AcDbLayerTableRecord
  2
LAYER219
 70
               0
 62
               7
  6
CONTINUOUS
  0
LAYER
  5
111
100
AcDbSymbolTableRecord
100
AcDbLayerTableRecord
  2
LAYER220
 70
               0
 62
               7
  6
CONTINUOUS
  0
LAYER
  5
112
100
AcDbSymbolTableRecord
100
AcDbLayerTableRecord
  2
LAYER221
 70
               0
 62
               7
  6
CONTINUOUS
  0
LAYER
  5
113
100
AcDbSymbolTableRecord
100
AcDbLayerTableRecord
  2
LAYER222
 70
               0
 62
               7
  6
CONTINUOUS
  0
LAYER
  5
114
100
AcDbSymbolTableRecord
100
AcDbLayerTableRecord
  2
LAYER223
 70
               0
 62
               7
  6
CONTINUOUS
  0
LAYER
  5
115
100
AcDbSymbolTableRecord
100
AcDbLayerTableRecord
  2
LAYER224
 70
               0
 62
               7
  6
CONTINUOUS
  0
LAYER
  5
116
100
AcDbSymbolTableRecord
100
AcDbLayerTableRecord
  2
LAYER225
 70
               0
 62
               7
  6
CONTINUOUS
  0
LAYER
  5
117
100
AcDbSymbolTableRecord
100
AcDbLayerTableRecord
  2
LAYER226
 70
               0
 62
               7
  6
CONTINUOUS
  0
LAYER
  5
118
100
AcDbSymbolTableRecord
100
AcDbLayerTableRecord
  2
LAYER227
 70
               0
 62
               7
  6
CONTINUOUS
  0
LAYER
  5
119
100
AcDbSymbolTableRecord
100
AcDbLayerTableRecord
  2
LAYER228
 70
               0
 62
               7
  6
CONTINUOUS
  0
LAYER
  5
11A
100
AcDbSymbolTableRecord
100
AcDbLayerTableRecord
  2
LAYER229
 70
               0
 62
               7
  6
CONTINUOUS
  0
LAYER
  5
11B
100
AcDbSymbolTableRecord
100
AcDbLayerTableRecord
  2
LAYER230
 70
               0
 62
               7
  6
CONTINUOUS
  0
LAYER
  5
11C
100
AcDbSymbolTableRecord
100
AcDbLayerTableRecord
  2
LAYER231
 70
               0
 62
               7
  6
CONTINUOUS
  0
LAYER
  5
11D
100
AcDbSymbolTableRecord
100
AcDbLayerTableRecord
  2
LAYER232
 70
               0
 62
               7
  6
CONTINUOUS
  0
LAYER
  5
11E
100
AcDbSymbolTableRecord
100
AcDbLayerTableRecord
  2
LAYER233
 70
               0
 62
               7
  6
CONTINUOUS
  0
LAYER
  5
11F
100
AcDbSymbolTableRecord
100
AcDbLayerTableRecord
  2
LAYER234
 70
               0
 62
               7
  6
CONTINUOUS
  0
LAYER
  5
120
100
AcDbSymbolTableRecord
100
AcDbLayerTableRecord
  2
LAYER235
 70
               0
 62
               7
  6
CONTINUOUS
  0
LAYER
  5
121
100
AcDbSymbolTableRecord
100
AcDbLayerTableRecord
  2
LAYER236
 70
               0
 62
               7
  6
CONTINUOUS
  0
LAYER
  5
122
100
AcDbSymbolTableRecord
100
AcDbLayerTableRecord
  2
LAYER237
 70
               0
 62
               7
  6
CONTINUOUS
  0
LAYER
  5
123
100
AcDbSymbolTableRecord
100
AcDbLayerTableRecord
  2
LAYER238
 70
               0
 62
               7
  6
CONTINUOUS
  0
LAYER
  5
124
100
AcDbSymbolTableRecord
100
AcDbLayerTableRecord
  2
LAYER239
 70
               0
 62
               7
  6
CONTINUOUS
  0
LAYER
  5
125
100
AcDbSymbolTableRecord
100
AcDbLayerTableRecord
  2
LAYER240
 70
               0
 62
               7
  6
CONTINUOUS
  0
LAYER
  5
126
100
AcDbSymbolTableRecord
100
AcDbLayerTableRecord
  2
LAYER241
 70
               0
 62
               7
  6
CONTINUOUS
  0
LAYER
  5
127
100
AcDbSymbolTableRecord
100
AcDbLayerTableRecord
  2
LAYER242
 70
               0
 62
               7
  6
CONTINUOUS
  0
LAYER
  5
128
100
AcDbSymbolTableRecord
100
AcDbLayerTableRecord
  2
LAYER243
 70
               0
 62
               7
  6
CONTINUOUS
  0
LAYER
  5
129
100
AcDbSymbolTableRecord
100
AcDbLayerTableRecord
  2
LAYER244
 70
               0
 62
               7
  6
CONTINUOUS
  0
LAYER
  5
12A
100
AcDbSymbolTableRecord
100
AcDbLayerTableRecord
  2
LAYER245
 70
               0
 62
               7
  6
CONTINUOUS
  0
LAYER
  5
12B
100
AcDbSymbolTableRecord
100
AcDbLayerTableRecord
  2
LAYER246
 70
               0
 62
               7
  6
CONTINUOUS
  0
LAYER
  5
12C
100
AcDbSymbolTableRecord
100
AcDbLayerTableRecord
  2
LAYER247
 70
               0
 62
               7
  6
CONTINUOUS
  0
LAYER
  5
12D
100
AcDbSymbolTableRecord
100
AcDbLayerTableRecord
  2
LAYER248
 70
               0
 62
               7
  6
CONTINUOUS
  0
LAYER
  5
12E
100
AcDbSymbolTableRecord
100
AcDbLayerTableRecord
  2
LAYER249
 70
               0
 62
               7
  6
CONTINUOUS
  0
LAYER
  5
12F
100
AcDbSymbolTableRecord
100
AcDbLayerTableRecord
  2
LAYER250
 70
               0
 62
               7
  6
CONTINUOUS
  0
LAYER
  5
130
100
AcDbSymbolTableRecord
100
AcDbLayerTableRecord
  2
LAYER251
 70
               0
 62
               7
  6
CONTINUOUS
  0
LAYER
  5
131
100
AcDbSymbolTableRecord
100
AcDbLayerTableRecord
  2
LAYER252
 70
               0
 62
               7
  6
CONTINUOUS
  0
LAYER
  5
132
100
AcDbSymbolTableRecord
100
AcDbLayerTableRecord
  2
LAYER253
 70
               0
 62
               7
  6
CONTINUOUS
  0
LAYER
  5
133
100
AcDbSymbolTableRecord
100
AcDbLayerTableRecord
  2
LAYER254
 70
               0
 62
               7
  6
CONTINUOUS
  0
LAYER
  5
134
100
AcDbSymbolTableRecord
100
AcDbLayerTableRecord
  2
LAYER255
 70
               0
 62
               7
  6
CONTINUOUS
  0
ENDTAB
  0
TABLE
  2
STYLE
  5
3
100
AcDbSymbolTable
 70
               2
  0
STYLE
  5
17
100
AcDbSymbolTableRecord
100
AcDbTextStyleTableRecord
  2
STANDARD
 70
               0
 40
0.0
 41
1.0
 50
0.0
 71
               0
 42
5.0
  3
MS Gothic.ttf
  4

1001
ACAD
1000
MS Gothic
1071
    32786
  0
STYLE
  5
135
100
AcDbSymbolTableRecord
100
AcDbTextStyleTableRecord
  2
FdaStyle1
 70
               0
 40
0.0
 41
0.8
 50
0.0
 71
               0
 42
3.0
  3
MS Mincho.ttf
  4

1001
ACAD
1000
MS Mincho
1071
    32786
  0
ENDTAB
  0
TABLE
  2
VIEW
  5
5
100
AcDbSymbolTable
 70
               1
  0
VIEW
  5
136
100
AcDbSymbolTableRecord
100
AcDbViewTableRecord
  2
QQQQ
 70
               0
 40
328.185
 10
-237.94999999999993
 20
0.0
 41
757.91949999999997
 11
0.0
 21
0.0
 31
1.0
 12
100.0
 22
100.0
 32
0.0
 42
50.0
 43
0.0
 44
0.0
 50
0.0
 71
               0
  0
ENDTAB
  0
TABLE
  2
UCS
  5
6
100
AcDbSymbolTable
 70
               0
  0
ENDTAB
  0
TABLE
  2
APPID
  5
8
100
AcDbSymbolTable
 70
               1
  0
APPID
  5
16
100
AcDbSymbolTableRecord
100
AcDbRegAppTableRecord
  2
ACAD
 70
               0
  0
ENDTAB
  0
TABLE
  2
DIMSTYLE
  5
9
100
AcDbSymbolTable
 70
               1
  0
DIMSTYLE
105
18
100
AcDbSymbolTableRecord
100
AcDbDimStyleTableRecord
  2
STANDARD
 70
               0
  3

  4

  5

  6

  7

 40
1.0
 41
0.18
 42
0.0625
 43
0.38
 44
0.18
 45
0.0
 46
0.0
 47
0.0
 48
0.0
140
0.18
141
0.09
142
0.0
143
25.399999999999999
144
1.0
145
0.0
146
1.0
147
0.09
 71
               0
 72
               0
 73
               1
 74
               1
 75
               0
 76
               0
 77
               0
 78
               0
170
               0
171
               2
172
               0
173
               0
174
               0
175
               0
176
               0
177
               0
178
               0
270
               2
271
               4
272
               4
273
               2
274
               2
340
17
275
               0
280
               0
281
               0
282
               0
283
               1
284
               0
285
               0
286
               0
287
               0
288
               0
  0
ENDTAB
  0
TABLE
  2
BLOCK_RECORD
  5
1
100
AcDbSymbolTable
 70
               9
  0
BLOCK_RECORD
  5
A
100
AcDbSymbolTableRecord
100
AcDbBlockTableRecord
  2
*MODEL_SPACE
  0
BLOCK_RECORD
  5
B
100
AcDbSymbolTableRecord
100
AcDbBlockTableRecord
  2
*PAPER_SPACE
  0
BLOCK_RECORD
  5
137
100
AcDbSymbolTableRecord
100
AcDbBlockTableRecord
  2
GROUP_1
  0
BLOCK_RECORD
  5
138
100
AcDbSymbolTableRecord
100
AcDbBlockTableRecord
  2
_OPEN
  0
BLOCK_RECORD
  5
139
100
AcDbSymbolTableRecord
100
AcDbBlockTableRecord
  2
GROUP_2
  0
BLOCK_RECORD
  5
13A
100
AcDbSymbolTableRecord
100
AcDbBlockTableRecord
  2
GROUP_3
  0
BLOCK_RECORD
  5
13B
100
AcDbSymbolTableRecord
100
AcDbBlockTableRecord
  2
GROUP_4
  0
BLOCK_RECORD
  5
13C
100
AcDbSymbolTableRecord
100
AcDbBlockTableRecord
  2
GROUP_5
  0
BLOCK_RECORD
  5
13D
100
AcDbSymbolTableRecord
100
AcDbBlockTableRecord
  2
GROUP_6
  0
BLOCK_RECORD
  5
13E
100
AcDbSymbolTableRecord
100
AcDbBlockTableRecord
  2
GROUP_7
  0
BLOCK_RECORD
  5
13F
100
AcDbSymbolTableRecord
100
AcDbBlockTableRecord
  2
GROUP_8
  0
ENDTAB
  0
ENDSEC
  0
SECTION
  2
BLOCKS
  0
BLOCK
  5
D
100
AcDbEntity
  8
0
100
AcDbBlockBegin
  2
*MODEL_SPACE
 70
               0
 10
0.0
 20
0.0
 30
0.0
  3
*MODEL_SPACE
  1

  0
ENDBLK
  5
E
100
AcDbEntity
  8
0
100
AcDbBlockEnd
  0
BLOCK
  5
F
100
AcDbEntity
 67
               1
  8
0
100
AcDbBlockBegin
  2
*PAPER_SPACE
 70
               0
 10
0.0
 20
0.0
 30
0.0
  3
*PAPER_SPACE
  1

  0
ENDBLK
  5
10
100
AcDbEntity
 67
               1
  8
0
100
AcDbBlockEnd
  0
BLOCK
  5
140
100
AcDbEntity
  8
0
100
AcDbBlockBegin
  2
GROUP_1
 70
               0
 10
0.0
 20
0.0
 30
0.0
  3
GROUP_1
  1

  0
LINE
  5
141
100
AcDbEntity
  8
0
  6
CONTINUOUS
 62
               4
100
AcDbLine
 10
-10.750000000000002
 20
-11.544554455445549
 30
0.0
 11
-10.750000000000002
 21
-22.138613861386148
 31
0.0
  0
LINE
  5
142
100
AcDbEntity
  8
0
  6
CONTINUOUS
 62
               4
100
AcDbLine
 10
10.75
 20
-11.544554455445549
 30
0.0
 11
10.75
 21
-22.138613861386148
 31
0.0
  0
LINE
  5
143
100
AcDbEntity
  8
0
  6
CONTINUOUS
 62
               4
100
AcDbLine
 10
-10.750000000000002
 20
-21.138613861386148
 30
0.0
 11
10.75
 21
-21.138613861386148
 31
0.0
  0
LINE
  5
144
100
AcDbEntity
  8
0
  6
CONTINUOUS
 62
               4
100
AcDbLine
 10
-10.750000000000002
 20
-21.138613861386148
 30
0.0
 11
-9.7585551386261908
 21
-21.008087669166095
 31
0.0
  0
LINE
  5
145
100
AcDbEntity
  8
0
  6
CONTINUOUS
 62
               4
100
AcDbLine
 10
-10.750000000000002
 20
-21.138613861386148
 30
0.0
 11
-9.7585551386261908
 21
-21.269140053606201
 31
0.0
  0
LINE
  5
146
100
AcDbEntity
  8
0
  6
CONTINUOUS
 62
               4
100
AcDbLine
 10
10.75
 20
-21.138613861386148
 30
0.0
 11
9.7585551241944053
 21
-21.269139943985866
 31
0.0
  0
LINE
  5
147
100
AcDbEntity
  8
0
  6
CONTINUOUS
 62
               4
100
AcDbLine
 10
10.75
 20
-21.138613861386148
 30
0.0
 11
9.7585551241944053
 21
-21.008087778786429
 31
0.0
  0
TEXT
  5
148
100
AcDbEntity
  8
0
 62
               3
100
AcDbText
 10
-0.0000000000000009
 20
-18.538613861386146
 30
0.0
 40
5.0
  1
E×Ｆ
 41
0.5
 72
               1
 11
-0.0000000000000009
 21
-21.038613861386146
 31
0.0
100
AcDbText
 73
               1
  0
ENDBLK
  5
149
100
AcDbEntity
  8
0
100
AcDbBlockEnd
  0
BLOCK
  5
14A
100
AcDbEntity
  8
0
100
AcDbBlockBegin
  2
_OPEN
 70
               0
 10
0.0
 20
0.0
 30
0.0
  3
_OPEN
  1

  0
LINE
  5
14B
100
AcDbEntity
  8
0
  6
CONTINUOUS
 62
               0
100
AcDbLine
 10
-1.0
 20
0.1666666666666667
 30
0.0
 11
0.0
 21
0.0
 31
0.0
  0
LINE
  5
14C
100
AcDbEntity
  8
0
  6
CONTINUOUS
 62
               0
100
AcDbLine
 10
0.0
 20
0.0
 30
0.0
 11
-1.0
 21
-0.1666666666666667
 31
0.0
  0
LINE
  5
14D
100
AcDbEntity
  8
0
  6
CONTINUOUS
 62
               0
100
AcDbLine
 10
0.0
 20
0.0
 30
0.0
 11
-1.0
 21
0.0
 31
0.0
  0
ENDBLK
  5
14E
100
AcDbEntity
  8
0
100
AcDbBlockEnd
  0
BLOCK
  5
14F
100
AcDbEntity
  8
0
100
AcDbBlockBegin
  2
GROUP_2
 70
               0
 10
0.0
 20
0.0
 30
0.0
  3
GROUP_2
  1

  0
LINE
  5
150
100
AcDbEntity
  8
0
  6
CONTINUOUS
 62
               4
100
AcDbLine
 10
7.6999999999999886
 20
8.4554455445544505
 30
0.0
 11
21.96534653465346
 21
8.4554455445544505
 31
0.0
  0
LINE
  5
151
100
AcDbEntity
  8
0
  6
CONTINUOUS
 62
               4
100
AcDbLine
 10
14.75
 20
-10.544554455445549
 30
0.0
 11
21.96534653465346
 21
-10.544554455445549
 31
0.0
  0
LINE
  5
152
100
AcDbEntity
  8
0
  6
CONTINUOUS
 62
               4
100
AcDbLine
 10
20.96534653465346
 20
8.4554455445544505
 30
0.0
 11
20.96534653465346
 21
-10.544554455445549
 31
0.0
  0
LINE
  5
153
100
AcDbEntity
  8
0
  6
CONTINUOUS
 62
               4
100
AcDbLine
 10
20.96534653465346
 20
8.4554455445544505
 30
0.0
 11
21.095872726873512
 21
7.4640006831806405
 31
0.0
  0
LINE
  5
154
100
AcDbEntity
  8
0
  6
CONTINUOUS
 62
               4
100
AcDbLine
 10
20.96534653465346
 20
8.4554455445544505
 30
0.0
 11
20.834820342433407
 21
7.4640006831806405
 31
0.0
  0
LINE
  5
155
100
AcDbEntity
  8
0
  6
CONTINUOUS
 62
               4
100
AcDbLine
 10
20.96534653465346
 20
-10.544554455445549
 30
0.0
 11
20.834820452053741
 21
-9.5531095796399548
 31
0.0
  0
LINE
  5
156
100
AcDbEntity
  8
0
  6
CONTINUOUS
 62
               4
100
AcDbLine
 10
20.96534653465346
 20
-10.544554455445549
 30
0.0
 11
21.095872617253178
 21
-9.5531095796399548
 31
0.0
  0
TEXT
  5
157
100
AcDbEntity
  8
0
 62
               3
100
AcDbText
 10
18.365346534653458
 20
-1.0445544554455495
 30
0.0
 40
5.0
  1
B
 50
89.999999999999801
 41
0.5
 72
               1
 11
18.365346534653458
 21
-3.5445544554455495
 31
0.0
100
AcDbText
 73
               1
  0
ENDBLK
  5
158
100
AcDbEntity
  8
0
100
AcDbBlockEnd
  0
BLOCK
  5
159
100
AcDbEntity
  8
0
100
AcDbBlockBegin
  2
GROUP_3
 70
               0
 10
0.0
 20
0.0
 30
0.0
  3
GROUP_3
  1

  0
LINE
  5
15A
100
AcDbEntity
  8
0
  6
CONTINUOUS
 62
               4
100
AcDbLine
 10
14.300000000000011
 20
78.785445544554449
 30
0.0
 11
30.017326732673268
 21
78.785445544554449
 31
0.0
  0
LINE
  5
15B
100
AcDbEntity
  8
0
  6
CONTINUOUS
 62
               4
100
AcDbLine
 10
14.75
 20
-10.544554455445549
 30
0.0
 11
30.017326732673268
 21
-10.544554455445549
 31
0.0
  0
LINE
  5
15C
100
AcDbEntity
  8
0
  6
CONTINUOUS
 62
               4
100
AcDbLine
 10
29.017326732673268
 20
-10.544554455445549
 30
0.0
 11
29.017326732673268
 21
78.785445544554449
 31
0.0
  0
LINE
  5
15D
100
AcDbEntity
  8
0
  6
CONTINUOUS
 62
               4
100
AcDbLine
 10
29.017326732673268
 20
-10.544554455445549
 30
0.0
 11
28.886800540453216
 21
-9.5531095940717385
 31
0.0
  0
LINE
  5
15E
100
AcDbEntity
  8
0
  6
CONTINUOUS
 62
               4
100
AcDbLine
 10
29.017326732673268
 20
-10.544554455445549
 30
0.0
 11
29.147852924893321
 21
-9.5531095940717385
 31
0.0
  0
LINE
  5
15F
100
AcDbEntity
  8
0
  6
CONTINUOUS
 62
               4
100
AcDbLine
 10
29.017326732673268
 20
78.785445544554449
 30
0.0
 11
29.147852815272987
 21
77.794000668748851
 31
0.0
  0
LINE
  5
160
100
AcDbEntity
  8
0
  6
CONTINUOUS
 62
               4
100
AcDbLine
 10
29.017326732673268
 20
78.785445544554449
 30
0.0
 11
28.88680065007355
 21
77.794000668748851
 31
0.0
  0
TEXT
  5
161
100
AcDbEntity
  8
0
 62
               3
100
AcDbText
 10
26.417326732673267
 20
34.12044554455445
 30
0.0
 40
5.0
  1
H
 50
89.999999999999801
 41
0.5
 72
               1
 11
26.417326732673267
 21
31.62044554455445
 31
0.0
100
AcDbText
 73
               1
  0
ENDBLK
  5
162
100
AcDbEntity
  8
0
100
AcDbBlockEnd
  0
BLOCK
  5
163
100
AcDbEntity
  8
0
100
AcDbBlockBegin
  2
GROUP_4
 70
               0
 10
0.0
 20
0.0
 30
0.0
  3
GROUP_4
  1

  0
LINE
  5
164
100
AcDbEntity
  8
0
  6
CONTINUOUS
 62
               9
100
AcDbLine
 10
-8.0499999999999972
 20
79.785445544554449
 30
0.0
 11
-8.0499999999999972
 21
86.004068900040679
 31
0.0
  0
LINE
  5
165
100
AcDbEntity
  8
0
  6
CONTINUOUS
 62
               4
100
AcDbLine
 10
-8.0499999999999972
 20
85.004068900040679
 30
0.0
 11
7.1398514851485118
 21
85.004068900040679
 31
0.0
  0
LINE
  5
166
100
AcDbEntity
  8
0
  6
CONTINUOUS
 62
               4
100
AcDbLine
 10
-8.0499999999999972
 20
85.004068900040679
 30
0.0
 11
-7.0585551386261871
 21
85.134595092260724
 31
0.0
  0
LINE
  5
167
100
AcDbEntity
  8
0
  6
CONTINUOUS
 62
               4
100
AcDbLine
 10
-8.0499999999999972
 20
85.004068900040679
 30
0.0
 11
-7.0585551386261871
 21
84.873542707820633
 31
0.0
  0
TEXT
  5
168
100
AcDbEntity
  8
0
 62
               3
100
AcDbText
 10
0.0
 20
87.604068900040673
 30
0.0
 40
5.0
  1
A
 41
0.5
 72
               1
 11
0.0
 21
85.104068900040673
 31
0.0
100
AcDbText
 73
               1
  0
ENDBLK
  5
169
100
AcDbEntity
  8
0
100
AcDbBlockEnd
  0
BLOCK
  5
16A
100
AcDbEntity
  8
0
100
AcDbBlockBegin
  2
GROUP_5
 70
               0
 10
0.0
 20
0.0
 30
0.0
  3
GROUP_5
  1

  0
LINE
  5
16B
100
AcDbEntity
  8
0
  6
CONTINUOUS
 62
               4
100
AcDbLine
 10
-6.25
 20
75.285445544554449
 30
0.0
 11
-6.25
 21
66.331859971711438
 31
0.0
  0
LINE
  5
16C
100
AcDbEntity
  8
0
  6
CONTINUOUS
 62
               4
100
AcDbLine
 10
6.25
 20
75.285445544554449
 30
0.0
 11
6.25
 21
66.331859971711438
 31
0.0
  0
LINE
  5
16D
100
AcDbEntity
  8
0
  6
CONTINUOUS
 62
               4
100
AcDbLine
 10
-6.25
 20
67.331859971711438
 30
0.0
 11
6.25
 21
67.331859971711438
 31
0.0
  0
LINE
  5
16E
100
AcDbEntity
  8
0
  6
CONTINUOUS
 62
               4
100
AcDbLine
 10
-6.25
 20
67.331859971711438
 30
0.0
 11
-5.25855513862619
 21
67.462386163931484
 31
0.0
  0
LINE
  5
16F
100
AcDbEntity
  8
0
  6
CONTINUOUS
 62
               4
100
AcDbLine
 10
-6.25
 20
67.331859971711438
 30
0.0
 11
-5.25855513862619
 21
67.201333779491392
 31
0.0
  0
LINE
  5
170
100
AcDbEntity
  8
0
  6
CONTINUOUS
 62
               4
100
AcDbLine
 10
6.25
 20
67.331859971711438
 30
0.0
 11
5.2585551241944053
 21
67.201333889111723
 31
0.0
  0
LINE
  5
171
100
AcDbEntity
  8
0
  6
CONTINUOUS
 62
               4
100
AcDbLine
 10
6.25
 20
67.331859971711438
 30
0.0
 11
5.2585551241944053
 21
67.462386054311153
 31
0.0
  0
TEXT
  5
172
100
AcDbEntity
  8
0
 62
               3
100
AcDbText
 10
0.0
 20
69.931859971711432
 30
0.0
 40
5.0
  1
D
 41
0.5
 72
               1
 11
0.0
 21
67.431859971711432
 31
0.0
100
AcDbText
 73
               1
  0
ENDBLK
  5
173
100
AcDbEntity
  8
0
100
AcDbBlockEnd
  0
BLOCK
  5
174
100
AcDbEntity
  8
0
100
AcDbBlockBegin
  2
GROUP_6
 70
               0
 10
0.0
 20
0.0
 30
0.0
  3
GROUP_6
  1

  0
LINE
  5
175
100
AcDbEntity
  8
0
  6
CONTINUOUS
 62
               4
100
AcDbLine
 10
6.25
 20
61.834876574392126
 30
0.0
 11
6.25
 21
68.331859971711438
 31
0.0
  0
LINE
  5
176
100
AcDbEntity
  8
0
  6
CONTINUOUS
 62
               4
100
AcDbLine
 10
6.6999999999999886
 20
61.834876574392126
 30
0.0
 11
6.6999999999999886
 21
68.331859971711438
 31
0.0
  0
LINE
  5
177
100
AcDbEntity
  8
0
  6
CONTINUOUS
 62
               4
100
AcDbLine
 10
6.25
 20
67.331859971711438
 30
0.0
 11
6.6999999999999886
 21
67.331859971711438
 31
0.0
  0
LINE
  5
178
100
AcDbEntity
  8
0
  6
CONTINUOUS
 62
               4
100
AcDbLine
 10
13.956683168316827
 20
67.331859971711438
 30
0.0
 11
6.6999999999999886
 21
67.331859971711438
 31
0.0
  0
LINE
  5
179
100
AcDbEntity
  8
0
  6
CONTINUOUS
 62
               4
100
AcDbLine
 10
6.6999999999999886
 20
67.331859971711438
 30
0.0
 11
7.6914448758055833
 21
67.462386054311153
 31
0.0
  0
LINE
  5
17A
100
AcDbEntity
  8
0
  6
CONTINUOUS
 62
               4
100
AcDbLine
 10
6.6999999999999886
 20
67.331859971711438
 30
0.0
 11
7.6914448758055833
 21
67.201333889111723
 31
0.0
  0
LINE
  5
17B
100
AcDbEntity
  8
0
  6
CONTINUOUS
 62
               4
100
AcDbLine
 10
1.25
 20
67.331859971711438
 30
0.0
 11
6.25
 21
67.331859971711438
 31
0.0
  0
LINE
  5
17C
100
AcDbEntity
  8
0
  6
CONTINUOUS
 62
               4
100
AcDbLine
 10
6.25
 20
67.331859971711438
 30
0.0
 11
5.2585551241944053
 21
67.201333889111723
 31
0.0
  0
LINE
  5
17D
100
AcDbEntity
  8
0
  6
CONTINUOUS
 62
               4
100
AcDbLine
 10
6.25
 20
67.331859971711438
 30
0.0
 11
5.2585551241944053
 21
67.462386054311153
 31
0.0
  0
TEXT
  5
17E
100
AcDbEntity
  8
0
 62
               3
100
AcDbText
 10
11.949999999999989
 20
69.931859971711432
 30
0.0
 40
5.0
  1
T
 41
0.5
 11
10.699999999999989
 21
67.431859971711432
 31
0.0
100
AcDbText
 73
               1
  0
ENDBLK
  5
17F
100
AcDbEntity
  8
0
100
AcDbBlockEnd
  0
BLOCK
  5
180
100
AcDbEntity
  8
0
100
AcDbBlockBegin
  2
GROUP_7
 70
               0
 10
0.0
 20
0.0
 30
0.0
  3
GROUP_7
  1

  0
LINE
  5
181
100
AcDbEntity
  8
0
  6
CONTINUOUS
 62
               4
100
AcDbLine
 10
7.1999999999999886
 20
76.285445544554449
 30
0.0
 11
21.829207920792079
 21
76.285445544554449
 31
0.0
  0
LINE
  5
182
100
AcDbEntity
  8
0
  6
CONTINUOUS
 62
               4
100
AcDbLine
 10
7.6999999999999886
 20
8.4554455445544505
 30
0.0
 11
21.829207920792079
 21
8.4554455445544505
 31
0.0
  0
LINE
  5
183
100
AcDbEntity
  8
0
  6
CONTINUOUS
 62
               4
100
AcDbLine
 10
20.829207920792079
 20
76.285445544554449
 30
0.0
 11
20.829207920792079
 21
8.4554455445544505
 31
0.0
  0
LINE
  5
184
100
AcDbEntity
  8
0
  6
CONTINUOUS
 62
               4
100
AcDbLine
 10
20.829207920792079
 20
76.285445544554449
 30
0.0
 11
20.959734113012132
 21
75.294000683180641
 31
0.0
  0
LINE
  5
185
100
AcDbEntity
  8
0
  6
CONTINUOUS
 62
               4
100
AcDbLine
 10
20.829207920792079
 20
76.285445544554449
 30
0.0
 11
20.698681728572026
 21
75.294000683180641
 31
0.0
  0
LINE
  5
186
100
AcDbEntity
  8
0
  6
CONTINUOUS
 62
               4
100
AcDbLine
 10
20.829207920792079
 20
8.4554455445544505
 30
0.0
 11
20.698681838192361
 21
9.4468904203600452
 31
0.0
  0
LINE
  5
187
100
AcDbEntity
  8
0
  6
CONTINUOUS
 62
               4
100
AcDbLine
 10
20.829207920792079
 20
8.4554455445544505
 30
0.0
 11
20.959734003391798
 21
9.4468904203600452
 31
0.0
  0
TEXT
  5
188
100
AcDbEntity
  8
0
 62
               3
100
AcDbText
 10
18.129207920792076
 20
42.37044554455445
 30
0.0
 40
5.0
  1
h
 50
89.999999999999801
 41
0.5
 72
               1
 11
18.129207920792076
 21
39.87044554455445
 31
0.0
100
AcDbText
 73
               1
  0
ENDBLK
  5
189
100
AcDbEntity
  8
0
100
AcDbBlockEnd
  0
BLOCK
  5
18A
100
AcDbEntity
  8
0
100
AcDbBlockBegin
  2
GROUP_8
 70
               0
 10
0.0
 20
0.0
 30
0.0
  3
GROUP_8
  1

  0
LINE
  5
18B
100
AcDbEntity
  8
0
  6
CONTINUOUS
 62
               4
100
AcDbLine
 10
1.0
 20
78.785445544554449
 30
0.0
 11
3.966115104661152
 21
78.785445544554449
 31
0.0
  0
LINE
  5
18C
100
AcDbEntity
  8
0
  6
CONTINUOUS
 62
               4
100
AcDbLine
 10
1.0
 20
78.085445544554432
 30
0.0
 11
3.966115104661152
 21
78.085445544554432
 31
0.0
  0
LINE
  5
18D
100
AcDbEntity
  8
0
  6
CONTINUOUS
 62
               4
100
AcDbLine
 10
2.966115104661152
 20
78.785445544554449
 30
0.0
 11
2.966115104661152
 21
78.085445544554432
 31
0.0
  0
LINE
  5
18E
100
AcDbEntity
  8
0
  6
CONTINUOUS
 62
               4
100
AcDbLine
 10
2.966115104661152
 20
84.15491206654913
 30
0.0
 11
2.966115104661152
 21
78.785445544554449
 31
0.0
  0
LINE
  5
18F
100
AcDbEntity
  8
0
  6
CONTINUOUS
 62
               4
100
AcDbLine
 10
2.966115104661152
 20
78.785445544554449
 30
0.0
 11
2.8355890220614328
 21
79.776890420360047
 31
0.0
  0
LINE
  5
190
100
AcDbEntity
  8
0
  6
CONTINUOUS
 62
               4
100
AcDbLine
 10
2.966115104661152
 20
78.785445544554449
 30
0.0
 11
3.0966411872608708
 21
79.776890420360047
 31
0.0
  0
LINE
  5
191
100
AcDbEntity
  8
0
  6
CONTINUOUS
 62
               4
100
AcDbLine
 10
2.966115104661152
 20
73.085445544554432
 30
0.0
 11
2.966115104661152
 21
78.085445544554432
 31
0.0
  0
LINE
  5
192
100
AcDbEntity
  8
0
  6
CONTINUOUS
 62
               4
100
AcDbLine
 10
2.966115104661152
 20
78.085445544554432
 30
0.0
 11
3.0966411872608708
 21
77.094000668748834
 31
0.0
  0
LINE
  5
193
100
AcDbEntity
  8
0
  6
CONTINUOUS
 62
               4
100
AcDbLine
 10
2.966115104661152
 20
78.085445544554432
 30
0.0
 11
2.8355890220614333
 21
77.094000668748834
 31
0.0
  0
TEXT
  5
194
100
AcDbEntity
  8
0
 62
               3
100
AcDbText
 10
0.3661151046611519
 20
82.15491206654913
 30
0.0
 40
5.0
  1
t
 50
89.999999999999801
 41
0.5
 11
-0.8838848953388481
 21
79.65491206654913
 31
0.0
100
AcDbText
 73
               1
  0
ENDBLK
  5
195
100
AcDbEntity
  8
0
100
AcDbBlockEnd
  0
ENDSEC
  0
SECTION
  2
ENTITIES
  0
LINE
  5
196
100
AcDbEntity
  8
0
  6
CONTINUOUS
 62
               5
100
AcDbLine
 10
-105.0
 20
148.5
 30
0.0
 11
-105.0
 21
-148.5
 31
0.0
  0
LINE
  5
197
100
AcDbEntity
  8
0
  6
CONTINUOUS
 62
               5
100
AcDbLine
 10
-105.0
 20
-148.5
 30
0.0
 11
105.00000000000003
 21
-148.5
 31
0.0
  0
LINE
  5
198
100
AcDbEntity
  8
0
  6
CONTINUOUS
 62
               5
100
AcDbLine
 10
105.00000000000003
 20
-148.5
 30
0.0
 11
105.00000000000003
 21
148.5
 31
0.0
  0
LINE
  5
199
100
AcDbEntity
  8
0
  6
CONTINUOUS
 62
               5
100
AcDbLine
 10
105.00000000000003
 20
148.5
 30
0.0
 11
-105.0
 21
148.5
 31
0.0
  0
POINT
  5
19A
100
AcDbEntity
  8
0
  6
CONTINUOUS
 62
               5
100
AcDbPoint
 10
-82.600000000000009
 20
-75.100000000000023
 30
0.0
  0
POINT
  5
19B
100
AcDbEntity
  8
0
  6
CONTINUOUS
 62
               5
100
AcDbPoint
 10
-82.600000000000009
 20
-75.100000000000023
 30
0.0
  0
POINT
  5
19C
100
AcDbEntity
  8
0
  6
CONTINUOUS
 62
               5
100
AcDbPoint
 10
-82.600000000000009
 20
-75.100000000000023
 30
0.0
  0
LINE
  5
19D
100
AcDbEntity
  8
0
  6
CONTINUOUS
 62
               6
100
AcDbLine
 10
95.000000000000028
 20
133.5
 30
0.0
 11
95.000000000000028
 21
-138.5
 31
0.0
  0
LINE
  5
19E
100
AcDbEntity
  8
0
  6
CONTINUOUS
 62
               6
100
AcDbLine
 10
-85.0
 20
133.5
 30
0.0
 11
-85.0
 21
-138.5
 31
0.0
  0
LINE
  5
19F
100
AcDbEntity
  8
0
  6
CONTINUOUS
 62
               6
100
AcDbLine
 10
87.342730440923248
 20
133.5
 30
0.0
 11
95.000000000000028
 21
133.5
 31
0.0
  0
LINE
  5
1A0
100
AcDbEntity
  8
0
  6
CONTINUOUS
 62
               6
100
AcDbLine
 10
95.000000000000057
 20
-138.5
 30
0.0
 11
-84.999999999999972
 21
-138.5
 31
0.0
  0
LINE
  5
1A1
100
AcDbEntity
  8
0
  6
CONTINUOUS
 62
               6
100
AcDbLine
 10
-85.0
 20
133.5
 30
0.0
 11
50.174837209302325
 21
133.5
 31
0.0
  0
LINE
  5
1A2
100
AcDbEntity
  8
0
  6
CONTINUOUS
 62
               4
100
AcDbLine
 10
-580.39999999999998
 20
38.535999999999994
 30
0.0
 11
-580.39999999999998
 21
60.53599999999998
 31
0.0
  0
LINE
  5
1A3
100
AcDbEntity
  8
0
  6
CONTINUOUS
 62
               4
100
AcDbLine
 10
-573.39999999999998
 20
38.535999999999994
 30
0.0
 11
-573.39999999999998
 21
60.53599999999998
 31
0.0
  0
LINE
  5
1A4
100
AcDbEntity
  8
0
  6
CONTINUOUS
 62
               4
100
AcDbLine
 10
-543.39999999999998
 20
60.53599999999998
 30
0.0
 11
-543.39999999999998
 21
38.535999999999994
 31
0.0
  0
LINE
  5
1A5
100
AcDbEntity
  8
0
  6
CONTINUOUS
 62
               4
100
AcDbLine
 10
-518.39999999999998
 20
38.535999999999994
 30
0.0
 11
-518.39999999999998
 21
60.53599999999998
 31
0.0
  0
LINE
  5
1A6
100
AcDbEntity
  8
0
  6
CONTINUOUS
 62
               4
100
AcDbLine
 10
-488.39999999999998
 20
60.53599999999998
 30
0.0
 11
-488.39999999999998
 21
38.535999999999994
 31
0.0
  0
LINE
  5
1A7
100
AcDbEntity
  8
0
  6
CONTINUOUS
 62
               4
100
AcDbLine
 10
-580.39999999999998
 20
43.53599999999998
 30
0.0
 11
-488.39999999999998
 21
43.53599999999998
 31
0.0
  0
LINE
  5
1A8
100
AcDbEntity
  8
0
  6
CONTINUOUS
 62
               4
100
AcDbLine
 10
-580.39999999999998
 20
48.53599999999998
 30
0.0
 11
-488.39999999999998
 21
48.53599999999998
 31
0.0
  0
LINE
  5
1A9
100
AcDbEntity
  8
0
  6
CONTINUOUS
 62
               4
100
AcDbLine
 10
-580.39999999999998
 20
53.53599999999998
 30
0.0
 11
-488.39999999999998
 21
53.53599999999998
 31
0.0
  0
LINE
  5
1AA
100
AcDbEntity
  8
0
  6
CONTINUOUS
 62
               4
100
AcDbLine
 10
-580.39999999999998
 20
60.53599999999998
 30
0.0
 11
-488.39999999999998
 21
60.53599999999998
 31
0.0
  0
LINE
  5
1AB
100
AcDbEntity
  8
0
  6
CONTINUOUS
 62
               4
100
AcDbLine
 10
-580.39999999999998
 20
38.535999999999994
 30
0.0
 11
-488.39999999999998
 21
38.535999999999994
 31
0.0
  0
LINE
  5
1AC
100
AcDbEntity
  8
0
  6
CONTINUOUS
 62
               4
100
AcDbLine
 10
-455.39999999999998
 20
16.535999999999987
 30
0.0
 11
-580.39999999999998
 21
16.535999999999987
 31
0.0
  0
LINE
  5
1AD
100
AcDbEntity
  8
0
  6
CONTINUOUS
 62
               4
100
AcDbLine
 10
-580.39999999999998
 20
21.53599999999998
 30
0.0
 11
-455.39999999999998
 21
21.53599999999998
 31
0.0
  0
LINE
  5
1AE
100
AcDbEntity
  8
0
  6
CONTINUOUS
 62
               4
100
AcDbLine
 10
-455.39999999999998
 20
28.535999999999987
 30
0.0
 11
-580.39999999999998
 21
28.53599999999998
 31
0.0
  0
LINE
  5
1AF
100
AcDbEntity
  8
0
  6
CONTINUOUS
 62
               4
100
AcDbLine
 10
-580.39999999999998
 20
28.53599999999998
 30
0.0
 11
-580.39999999999998
 21
-13.463999999999984
 31
0.0
  0
LINE
  5
1B0
100
AcDbEntity
  8
0
  6
CONTINUOUS
 62
               4
100
AcDbLine
 10
-560.39999999999998
 20
-13.463999999999984
 30
0.0
 11
-560.39999999999998
 21
28.53599999999998
 31
0.0
  0
LINE
  5
1B1
100
AcDbEntity
  8
0
  6
CONTINUOUS
 62
               4
100
AcDbLine
 10
-455.39999999999998
 20
11.536000000000001
 30
0.0
 11
-580.39999999999998
 21
11.536000000000001
 31
0.0
  0
LINE
  5
1B2
100
AcDbEntity
  8
0
  6
CONTINUOUS
 62
               4
100
AcDbLine
 10
-455.39999999999998
 20
6.5360000000000014
 30
0.0
 11
-580.39999999999998
 21
6.5360000000000014
 31
0.0
  0
LINE
  5
1B3
100
AcDbEntity
  8
0
  6
CONTINUOUS
 62
               4
100
AcDbLine
 10
-455.39999999999998
 20
1.5360000000000014
 30
0.0
 11
-580.39999999999998
 21
1.5360000000000014
 31
0.0
  0
LINE
  5
1B4
100
AcDbEntity
  8
0
  6
CONTINUOUS
 62
               4
100
AcDbLine
 10
-455.39999999999998
 20
-3.4639999999999986
 30
0.0
 11
-580.39999999999998
 21
-3.4639999999999986
 31
0.0
  0
LINE
  5
1B5
100
AcDbEntity
  8
0
  6
CONTINUOUS
 62
               4
100
AcDbLine
 10
-455.39999999999998
 20
-8.4639999999999986
 30
0.0
 11
-580.39999999999998
 21
-8.4639999999999986
 31
0.0
  0
LINE
  5
1B6
100
AcDbEntity
  8
0
  6
CONTINUOUS
 62
               4
100
AcDbLine
 10
-455.39999999999998
 20
-13.463999999999999
 30
0.0
 11
-580.39999999999998
 21
-13.463999999999999
 31
0.0
  0
LINE
  5
1B7
100
AcDbEntity
  8
0
  6
CONTINUOUS
 62
               4
100
AcDbLine
 10
-545.39999999999998
 20
28.535999999999973
 30
0.0
 11
-545.39999999999998
 21
-13.463999999999984
 31
0.0
  0
LINE
  5
1B8
100
AcDbEntity
  8
0
  6
CONTINUOUS
 62
               4
100
AcDbLine
 10
-530.39999999999998
 20
-13.463999999999984
 30
0.0
 11
-530.39999999999998
 21
28.535999999999994
 31
0.0
  0
LINE
  5
1B9
100
AcDbEntity
  8
0
  6
CONTINUOUS
 62
               4
100
AcDbLine
 10
-515.39999999999998
 20
-13.463999999999984
 30
0.0
 11
-515.39999999999998
 21
28.535999999999994
 31
0.0
  0
LINE
  5
1BA
100
AcDbEntity
  8
0
  6
CONTINUOUS
 62
               4
100
AcDbLine
 10
-500.39999999999998
 20
-13.463999999999984
 30
0.0
 11
-500.39999999999998
 21
28.535999999999994
 31
0.0
  0
LINE
  5
1BB
100
AcDbEntity
  8
0
  6
CONTINUOUS
 62
               4
100
AcDbLine
 10
-485.39999999999998
 20
-13.463999999999984
 30
0.0
 11
-485.39999999999998
 21
28.535999999999994
 31
0.0
  0
LINE
  5
1BC
100
AcDbEntity
  8
0
  6
CONTINUOUS
 62
               4
100
AcDbLine
 10
-470.39999999999998
 20
-13.463999999999999
 30
0.0
 11
-470.39999999999998
 21
28.53599999999998
 31
0.0
  0
LINE
  5
1BD
100
AcDbEntity
  8
0
  6
CONTINUOUS
 62
               4
100
AcDbLine
 10
-455.39999999999998
 20
-13.463999999999999
 30
0.0
 11
-455.39999999999998
 21
28.53599999999998
 31
0.0
  0
LINE
  5
1BE
100
AcDbEntity
  8
0
  6
CONTINUOUS
 62
               4
100
AcDbLine
 10
-84.999999999999972
 20
-116.49999999999999
 30
0.0
 11
95.000000000000057
 21
-116.49999999999999
 31
0.0
  0
LINE
  5
1BF
100
AcDbEntity
  8
0
  6
CONTINUOUS
 62
               4
100
AcDbLine
 10
-77.999999999999972
 20
-116.49999999999999
 30
0.0
 11
-77.999999999999972
 21
-101.49999999999999
 31
0.0
  0
LINE
  5
1C0
100
AcDbEntity
  8
0
  6
CONTINUOUS
 62
               4
100
AcDbLine
 10
-59.999999999999972
 20
-101.49999999999999
 30
0.0
 11
-59.999999999999972
 21
-116.49999999999999
 31
0.0
  0
LINE
  5
1C1
100
AcDbEntity
  8
0
  6
CONTINUOUS
 62
               4
100
AcDbLine
 10
-52.999999999999972
 20
-101.49999999999999
 30
0.0
 11
-52.999999999999972
 21
-116.49999999999999
 31
0.0
  0
LINE
  5
1C2
100
AcDbEntity
  8
0
  6
CONTINUOUS
 62
               4
100
AcDbLine
 10
10.000000000000028
 20
-101.49999999999999
 30
0.0
 11
10.000000000000028
 21
-116.49999999999999
 31
0.0
  0
LINE
  5
1C3
100
AcDbEntity
  8
0
  6
CONTINUOUS
 62
               4
100
AcDbLine
 10
17.000000000000028
 20
-101.49999999999999
 30
0.0
 11
17.000000000000028
 21
-116.49999999999999
 31
0.0
  0
LINE
  5
1C4
100
AcDbEntity
  8
0
  6
CONTINUOUS
 62
               4
100
AcDbLine
 10
58.000000000000057
 20
-101.49999999999999
 30
0.0
 11
58.000000000000057
 21
-116.49999999999999
 31
0.0
  0
LINE
  5
1C5
100
AcDbEntity
  8
0
  6
CONTINUOUS
 62
               4
100
AcDbLine
 10
65.000000000000057
 20
-101.49999999999999
 30
0.0
 11
65.000000000000057
 21
-116.49999999999999
 31
0.0
  0
LINE
  5
1C6
100
AcDbEntity
  8
0
  6
CONTINUOUS
 62
               4
100
AcDbLine
 10
95.000000000000057
 20
-123.49999999999999
 30
0.0
 11
-2.5999999999999943
 21
-123.49999999999993
 31
0.0
  0
ARC
  5
1C7
100
AcDbEntity
  8
0
  6
CONTINUOUS
 62
               4
100
AcDbCircle
 10
-84.241619813490274
 20
-120.31063748882269
 30
0.0
 40
6.1546302891769162
100
AcDbArc
 50
325.70481105463466
 51
374.29518894536375
  0
ARC
  5
1C8
100
AcDbEntity
  8
0
  6
CONTINUOUS
 62
               4
100
AcDbCircle
 10
-78.682670677427495
 20
-118.89417621682463
 30
0.0
 40
0.4180565702743607
100
AcDbArc
 50
14.295188945364535
 51
145.70481105463506
  0
ARC
  5
1C9
100
AcDbEntity
  8
0
  6
CONTINUOUS
 62
               4
100
AcDbCircle
 10
-73.943425482209136
 20
-122.12648700200651
 30
0.0
 40
6.1546302891769162
100
AcDbArc
 50
145.70481105463506
 51
194.29518894536406
  0
ARC
  5
1CA
100
AcDbEntity
  8
0
  6
CONTINUOUS
 62
               4
100
AcDbCircle
 10
-79.502374618271745
 20
-123.54294827400457
 30
0.0
 40
0.4180565702743607
100
AcDbArc
 50
194.29518894536406
 51
325.70481105463472
  0
ARC
  5
1CB
100
AcDbEntity
  8
0
  6
CONTINUOUS
 62
               4
100
AcDbCircle
 10
-89.156767778134395
 20
-108.41187451626587
 30
0.0
 40
18.521999999999998
100
AcDbArc
 50
302.91314635246863
 51
327.08685364753063
  0
ARC
  5
1CC
100
AcDbEntity
  8
0
  6
CONTINUOUS
 62
               4
100
AcDbCircle
 10
-63.543392319836151
 20
-134.02524997456356
 30
0.0
 40
18.521999999999998
100
AcDbArc
 50
122.91314635246908
 51
147.08685364753111
  0
LINE
  5
1CD
100
AcDbEntity
  8
0
  6
CONTINUOUS
 62
               4
100
AcDbLine
 10
-79.092522647849307
 20
-123.96100484427876
 30
0.0
 11
-74.885829224901386
 21
-122.83382473879459
 31
0.0
  0
ARC
  5
1CE
100
AcDbEntity
  8
0
  6
CONTINUOUS
 62
               4
100
AcDbCircle
 10
-74.659453427699759
 20
-132.09205756144712
 30
0.0
 40
9.2609999999999992
100
AcDbArc
 50
91.400677007147422
 51
118.59932299286395
  0
ARC
  5
1CF
100
AcDbEntity
  8
0
  6
CONTINUOUS
 62
               4
100
AcDbCircle
 10
-79.318898445049285
 20
-114.70277202162578
 30
0.0
 40
9.2609999999999992
100
AcDbArc
 50
271.40067700713615
 51
298.59932299285271
  0
LINE
  5
1D0
100
AcDbEntity
  8
0
  6
CONTINUOUS
 62
               4
100
AcDbLine
 10
80.000000000000057
 20
-116.49999999999999
 30
0.0
 11
80.000000000000057
 21
-138.5
 31
0.0
  0
LINE
  5
1D1
100
AcDbEntity
  8
0
  6
CONTINUOUS
 62
               4
100
AcDbLine
 10
65.000000000000057
 20
-138.5
 30
0.0
 11
65.000000000000057
 21
-116.49999999999999
 31
0.0
  0
LINE
  5
1D2
100
AcDbEntity
  8
0
  6
CONTINUOUS
 62
               4
100
AcDbLine
 10
50.000000000000057
 20
-116.49999999999999
 30
0.0
 11
50.000000000000057
 21
-138.5
 31
0.0
  0
LINE
  5
1D3
100
AcDbEntity
  8
0
  6
CONTINUOUS
 62
               4
100
AcDbLine
 10
27.400000000000006
 20
-116.49999999999999
 30
0.0
 11
27.400000000000006
 21
-138.5
 31
0.0
  0
LINE
  5
1D4
100
AcDbEntity
  8
0
  6
CONTINUOUS
 62
               4
100
AcDbLine
 10
12.400000000000006
 20
-116.49999999999996
 30
0.0
 11
12.400000000000006
 21
-138.49999999999997
 31
0.0
  0
LINE
  5
1D5
100
AcDbEntity
  8
0
  6
CONTINUOUS
 62
               4
100
AcDbLine
 10
-2.5999999999999943
 20
-116.49999999999994
 30
0.0
 11
-2.5999999999999943
 21
-138.49999999999994
 31
0.0
  0
LINE
  5
1D6
100
AcDbEntity
  8
0
  6
CONTINUOUS
 62
               4
100
AcDbLine
 10
-82.600000000000009
 20
-63.100000000000023
 30
0.0
 11
-82.600000000000009
 21
-45.500000000000014
 31
0.0
  0
LINE
  5
1D7
100
AcDbEntity
  8
0
  6
CONTINUOUS
 62
               4
100
AcDbLine
 10
-77.0
 20
-63.100000000000023
 30
0.0
 11
-77.0
 21
-45.500000000000014
 31
0.0
  0
LINE
  5
1D8
100
AcDbEntity
  8
0
  6
CONTINUOUS
 62
               4
100
AcDbLine
 10
-53.0
 20
-45.500000000000014
 30
0.0
 11
-53.0
 21
-63.100000000000023
 31
0.0
  0
LINE
  5
1D9
100
AcDbEntity
  8
0
  6
CONTINUOUS
 62
               4
100
AcDbLine
 10
-33.0
 20
-63.100000000000023
 30
0.0
 11
-33.0
 21
-45.500000000000014
 31
0.0
  0
LINE
  5
1DA
100
AcDbEntity
  8
0
  6
CONTINUOUS
 62
               4
100
AcDbLine
 10
-82.600000000000009
 20
-59.100000000000023
 30
0.0
 11
-5.7999999999999972
 21
-59.100000000000023
 31
0.0
  0
LINE
  5
1DB
100
AcDbEntity
  8
0
  6
CONTINUOUS
 62
               4
100
AcDbLine
 10
-82.600000000000009
 20
-55.100000000000023
 30
0.0
 11
-5.7999999999999972
 21
-55.100000000000023
 31
0.0
  0
LINE
  5
1DC
100
AcDbEntity
  8
0
  6
CONTINUOUS
 62
               4
100
AcDbLine
 10
-82.600000000000009
 20
-51.100000000000023
 30
0.0
 11
-5.7999999999999972
 21
-51.100000000000023
 31
0.0
  0
LINE
  5
1DD
100
AcDbEntity
  8
0
  6
CONTINUOUS
 62
               4
100
AcDbLine
 10
-82.600000000000009
 20
-45.500000000000014
 30
0.0
 11
-5.7999999999999972
 21
-45.500000000000014
 31
0.0
  0
LINE
  5
1DE
100
AcDbEntity
  8
0
  6
CONTINUOUS
 62
               4
100
AcDbLine
 10
16.260576611235919
 20
-45.646337546120918
 30
0.0
 11
16.260576611235919
 21
-50.446337546120922
 31
0.0
  0
LINE
  5
1DF
100
AcDbEntity
  8
0
  6
CONTINUOUS
 62
               4
100
AcDbLine
 10
16.260576611235919
 20
-50.446337546120922
 30
0.0
 11
25.5383005705337
 21
-50.446337546120922
 31
0.0
  0
LINE
  5
1E0
100
AcDbEntity
  8
0
  6
CONTINUOUS
 62
               4
100
AcDbLine
 10
16.260576611235919
 20
-45.646337546120918
 30
0.0
 11
25.5383005705337
 21
-45.646337546120918
 31
0.0
  0
LINE
  5
1E1
100
AcDbEntity
  8
0
  6
CONTINUOUS
 62
               4
100
AcDbLine
 10
25.5383005705337
 20
-45.646337546120918
 30
0.0
 11
25.5383005705337
 21
-50.446337546120922
 31
0.0
  0
LINE
  5
1E2
100
AcDbEntity
  8
0
  6
CONTINUOUS
 62
               4
100
AcDbLine
 10
-82.600000000000009
 20
-63.100000000000023
 30
0.0
 11
-5.7999999999999972
 21
-63.100000000000023
 31
0.0
  0
LINE
  5
1E3
100
AcDbEntity
  8
0
  6
CONTINUOUS
 62
               4
100
AcDbLine
 10
-8.2000000000000171
 20
74.710445544554432
 30
0.0
 11
-6.7449999999999903
 21
74.710445544554432
 31
0.0
  0
LINE
  5
1E4
100
AcDbEntity
  8
0
  6
CONTINUOUS
 62
               4
100
AcDbLine
 10
-8.2000000000000171
 20
75.360445544554437
 30
0.0
 11
-6.7449999999999903
 21
75.360445544554437
 31
0.0
  0
LINE
  5
1E5
100
AcDbEntity
  8
0
  6
CONTINUOUS
 62
               4
100
AcDbLine
 10
-4.0103901461574702
 20
78.445827439886855
 30
0.0
 11
-21.574430999780787
 21
86.708116004567898
 31
0.0
  0
CIRCLE
  5
1E6
100
AcDbEntity
  8
0
  6
CONTINUOUS
 62
               4
100
AcDbCircle
 10
-23.836633663366332
 20
87.772277227722768
 30
0.0
 40
2.5
  0
LINE
  5
1E7
100
AcDbEntity
  8
0
  6
CONTINUOUS
 62
               4
100
AcDbLine
 10
-10.310000000000004
 20
77.985445544554437
 30
0.0
 11
-21.388060314745523
 21
80.267808639578874
 31
0.0
  0
CIRCLE
  5
1E8
100
AcDbEntity
  8
0
  6
CONTINUOUS
 62
               4
100
AcDbCircle
 10
-23.836633663366332
 20
80.772277227722768
 30
0.0
 40
2.5
  0
LINE
  5
1E9
100
AcDbEntity
  8
0
  6
CONTINUOUS
 62
               4
100
AcDbLine
 10
-6.540075436115047
 20
18.095520980669495
 30
0.0
 11
-21.366043440868395
 21
20.38993712716098
 31
0.0
  0
CIRCLE
  5
1EA
100
AcDbEntity
  8
0
  6
CONTINUOUS
 62
               4
100
AcDbCircle
 10
-23.836633663366332
 20
20.772277227722768
 30
0.0
 40
2.5
  0
LINE
  5
1EB
100
AcDbEntity
  8
0
  6
CONTINUOUS
 62
               4
100
AcDbLine
 10
-8.2735148514851478
 20
1.0470297029702966
 30
0.0
 11
-21.444463383167413
 21
5.0459705772416967
 31
0.0
  0
CIRCLE
  5
1EC
100
AcDbEntity
  8
0
  6
CONTINUOUS
 62
               4
100
AcDbCircle
 10
-23.836633663366332
 20
5.7722772277227676
 30
0.0
 40
2.5
  0
LINE
  5
1ED
100
AcDbEntity
  8
0
  6
CONTINUOUS
 62
               4
100
AcDbLine
 10
-82.600000000000009
 20
-83.100000000000051
 30
0.0
 11
57.400000000000006
 21
-83.100000000000051
 31
0.0
  0
LINE
  5
1EE
100
AcDbEntity
  8
0
  6
CONTINUOUS
 62
               4
100
AcDbLine
 10
-82.600000000000009
 20
-99.099999999999952
 30
0.0
 11
-82.600000000000009
 21
-75.100000000000023
 31
0.0
  0
LINE
  5
1EF
100
AcDbEntity
  8
0
  6
CONTINUOUS
 62
               4
100
AcDbLine
 10
57.399999999999999
 20
-75.09999999999998
 30
0.0
 11
57.399999999999999
 21
-99.099999999999937
 31
0.0
  0
LINE
  5
1F0
100
AcDbEntity
  8
0
  6
CONTINUOUS
 62
               4
100
AcDbLine
 10
57.400000000000006
 20
-91.099999999999994
 30
0.0
 11
-82.600000000000009
 21
-91.099999999999994
 31
0.0
  0
LINE
  5
1F1
100
AcDbEntity
  8
0
  6
CONTINUOUS
 62
               4
100
AcDbLine
 10
-33.0
 20
-87.100000000000051
 30
0.0
 11
-82.600000000000009
 21
-87.100000000000051
 31
0.0
  0
LINE
  5
1F2
100
AcDbEntity
  8
0
  6
CONTINUOUS
 62
               4
100
AcDbLine
 10
-33.0
 20
-95.099999999999994
 30
0.0
 11
-82.600000000000009
 21
-95.099999999999994
 31
0.0
  0
LINE
  5
1F3
100
AcDbEntity
  8
0
  6
CONTINUOUS
 62
               4
100
AcDbLine
 10
57.400000000000006
 20
-99.099999999999952
 30
0.0
 11
-82.600000000000009
 21
-99.099999999999952
 31
0.0
  0
LINE
  5
1F4
100
AcDbEntity
  8
0
  6
CONTINUOUS
 62
               4
100
AcDbLine
 10
-82.600000000000009
 20
-75.100000000000023
 30
0.0
 11
57.400000000000006
 21
-75.099999999999994
 31
0.0
  0
LINE
  5
1F5
100
AcDbEntity
  8
0
  6
CONTINUOUS
 62
               4
100
AcDbLine
 10
-62.600000000000001
 20
-75.100000000000023
 30
0.0
 11
-62.600000000000001
 21
-99.100000000000023
 31
0.0
  0
LINE
  5
1F6
100
AcDbEntity
  8
0
  6
CONTINUOUS
 62
               4
100
AcDbLine
 10
-53.0
 20
-99.100000000000023
 30
0.0
 11
-53.0
 21
-75.100000000000023
 31
0.0
  0
LINE
  5
1F7
100
AcDbEntity
  8
0
  6
CONTINUOUS
 62
               4
100
AcDbLine
 10
-43.400000000000006
 20
-75.100000000000023
 30
0.0
 11
-43.400000000000006
 21
-99.100000000000023
 31
0.0
  0
LINE
  5
1F8
100
AcDbEntity
  8
0
  6
CONTINUOUS
 62
               4
100
AcDbLine
 10
35.799999999999997
 20
-99.099999999999994
 30
0.0
 11
35.799999999999997
 21
-75.099999999999994
 31
0.0
  0
LINE
  5
1F9
100
AcDbEntity
  8
0
  6
CONTINUOUS
 62
               4
100
AcDbLine
 10
-22.600000000000005
 20
-75.100000000000023
 30
0.0
 11
-22.600000000000005
 21
-99.100000000000023
 31
0.0
  0
LINE
  5
1FA
100
AcDbEntity
  8
0
  6
CONTINUOUS
 62
               4
100
AcDbLine
 10
-13.000000000000004
 20
-99.100000000000023
 30
0.0
 11
-13.000000000000004
 21
-75.100000000000023
 31
0.0
  0
LINE
  5
1FB
100
AcDbEntity
  8
0
  6
CONTINUOUS
 62
               4
100
AcDbLine
 10
-3.4000000000000021
 20
-75.100000000000023
 30
0.0
 11
-3.4000000000000021
 21
-99.100000000000023
 31
0.0
  0
LINE
  5
1FC
100
AcDbEntity
  8
0
  6
CONTINUOUS
 62
               4
100
AcDbLine
 10
6.2000000000000028
 20
-99.100000000000023
 30
0.0
 11
6.2000000000000028
 21
-75.100000000000023
 31
0.0
  0
LINE
  5
1FD
100
AcDbEntity
  8
0
  6
CONTINUOUS
 62
               4
100
AcDbLine
 10
-33.0
 20
-75.100000000000023
 30
0.0
 11
-33.0
 21
-99.100000000000023
 31
0.0
  0
LINE
  5
1FE
100
AcDbEntity
  8
0
  6
CONTINUOUS
 62
               4
100
AcDbLine
 10
15.800000000000004
 20
-99.100000000000023
 30
0.0
 11
15.800000000000004
 21
-75.100000000000023
 31
0.0
  0
LINE
  5
1FF
100
AcDbEntity
  8
0
  6
CONTINUOUS
 62
               4
100
AcDbLine
 10
25.399999999999999
 20
-75.100000000000023
 30
0.0
 11
25.399999999999999
 21
-99.100000000000023
 31
0.0
  0
LINE
  5
200
100
AcDbEntity
  8
0
  6
CONTINUOUS
 62
               4
100
AcDbLine
 10
25.399999999999999
 20
-87.100000000000023
 30
0.0
 11
35.799999999999997
 21
-87.100000000000023
 31
0.0
  0
LINE
  5
201
100
AcDbEntity
  8
0
  6
CONTINUOUS
 62
               4
100
AcDbLine
 10
25.399999999999999
 20
-95.099999999999966
 30
0.0
 11
35.799999999999997
 21
-95.099999999999966
 31
0.0
  0
LINE
  5
202
100
AcDbEntity
  8
0
  6
CONTINUOUS
 62
               4
100
AcDbLine
 10
-5.7999999999999972
 20
-45.500000000000014
 30
0.0
 11
-5.7999999999999972
 21
-63.100000000000023
 31
0.0
  0
LINE
  5
203
100
AcDbEntity
  8
0
  6
CONTINUOUS
 62
               4
100
AcDbLine
 10
10.340000000000011
 20
105.00406890004069
 30
0.0
 11
9.7000000000000135
 21
105.96406890004069
 31
0.0
  0
LINE
  5
204
100
AcDbEntity
  8
0
  6
CONTINUOUS
 62
               4
100
AcDbLine
 10
9.7000000000000135
 20
105.96406890004069
 30
0.0
 11
9.0600000000000058
 21
105.00406890004069
 31
0.0
  0
LINE
  5
205
100
AcDbEntity
  8
0
  6
CONTINUOUS
 62
               4
100
AcDbLine
 10
9.0600000000000058
 20
105.00406890004069
 30
0.0
 11
9.7000000000000135
 21
104.04406890004067
 31
0.0
  0
LINE
  5
206
100
AcDbEntity
  8
0
  6
CONTINUOUS
 62
               4
100
AcDbLine
 10
9.7000000000000135
 20
104.04406890004067
 30
0.0
 11
10.340000000000011
 21
105.00406890004069
 31
0.0
  0
LINE
  5
207
100
AcDbEntity
  8
0
  6
CONTINUOUS
 62
               4
100
AcDbLine
 10
10.084000000000007
 20
105.38806890004068
 30
0.0
 11
9.3160000000000114
 21
105.38806890004068
 31
0.0
  0
LINE
  5
208
100
AcDbEntity
  8
0
  6
CONTINUOUS
 62
               4
100
AcDbLine
 10
9.636000000000017
 20
105.38806890004068
 30
0.0
 11
10.084000000000007
 21
104.62006890004068
 31
0.0
  0
LINE
  5
209
100
AcDbEntity
  8
0
  6
CONTINUOUS
 62
               4
100
AcDbLine
 10
9.3160000000000114
 20
104.62006890004068
 30
0.0
 11
9.8600000000000065
 21
105.00406890004069
 31
0.0
  0
LINE
  5
20A
100
AcDbEntity
  8
0
  6
DASHDOT
 62
               4
100
AcDbLine
 10
-8.6999999999999833
 20
61.267648514851487
 30
0.0
 11
-2.800000000000006
 21
61.267648514851487
 31
0.0
  0
LINE
  5
20B
100
AcDbEntity
  8
0
  6
DASHDOT
 62
               4
100
AcDbLine
 10
2.8000000000000167
 20
61.267648514851487
 30
0.0
 11
9.9081859971711381
 21
61.267648514851487
 31
0.0
  0
LINE
  5
20C
100
AcDbEntity
  8
0
  6
DASHDOT
 62
               4
100
AcDbLine
 10
1.3999999999999826
 20
62.667648514851464
 30
0.0
 11
-1.4000000000000288
 21
59.86764851485151
 31
0.0
  0
LINE
  5
20D
100
AcDbEntity
  8
0
  6
DASHDOT
 62
               4
100
AcDbLine
 10
-2.800000000000006
 20
61.267648514851487
 30
0.0
 11
-1.4000000000000288
 21
59.86764851485151
 31
0.0
  0
LINE
  5
20E
100
AcDbEntity
  8
0
  6
DASHDOT
 62
               4
100
AcDbLine
 10
1.3999999999999826
 20
62.667648514851464
 30
0.0
 11
2.8000000000000167
 21
61.267648514851487
 31
0.0
  0
LINE
  5
20F
100
AcDbEntity
  8
0
  6
DASHDOT
 62
               4
100
AcDbLine
 10
-8.6999999999999833
 20
57.067648514851442
 30
0.0
 11
-2.800000000000006
 21
57.067648514851442
 31
0.0
  0
LINE
  5
210
100
AcDbEntity
  8
0
  6
DASHDOT
 62
               4
100
AcDbLine
 10
2.8000000000000167
 20
57.067648514851442
 30
0.0
 11
9.9081859971711381
 21
57.067648514851442
 31
0.0
  0
LINE
  5
211
100
AcDbEntity
  8
0
  6
DASHDOT
 62
               4
100
AcDbLine
 10
1.3999999999999826
 20
58.467648514851419
 30
0.0
 11
-1.4000000000000288
 21
55.667648514851464
 31
0.0
  0
LINE
  5
212
100
AcDbEntity
  8
0
  6
DASHDOT
 62
               4
100
AcDbLine
 10
-2.800000000000006
 20
57.067648514851442
 30
0.0
 11
-1.4000000000000288
 21
55.667648514851464
 31
0.0
  0
LINE
  5
213
100
AcDbEntity
  8
0
  6
DASHDOT
 62
               4
100
AcDbLine
 10
1.3999999999999826
 20
58.467648514851419
 30
0.0
 11
2.8000000000000167
 21
57.067648514851442
 31
0.0
  0
LINE
  5
214
100
AcDbEntity
  8
0
  6
DASHDOT
 62
               4
100
AcDbLine
 10
-8.6999999999999833
 20
41.267648514851487
 30
0.0
 11
-2.800000000000006
 21
41.267648514851487
 31
0.0
  0
LINE
  5
215
100
AcDbEntity
  8
0
  6
DASHDOT
 62
               4
100
AcDbLine
 10
2.8000000000000167
 20
41.267648514851487
 30
0.0
 11
9.9081859971711381
 21
41.267648514851487
 31
0.0
  0
LINE
  5
216
100
AcDbEntity
  8
0
  6
DASHDOT
 62
               4
100
AcDbLine
 10
1.3999999999999826
 20
42.667648514851464
 30
0.0
 11
-1.4000000000000288
 21
39.86764851485151
 31
0.0
  0
LINE
  5
217
100
AcDbEntity
  8
0
  6
DASHDOT
 62
               4
100
AcDbLine
 10
-2.800000000000006
 20
41.267648514851487
 30
0.0
 11
-1.4000000000000288
 21
39.86764851485151
 31
0.0
  0
LINE
  5
218
100
AcDbEntity
  8
0
  6
DASHDOT
 62
               4
100
AcDbLine
 10
1.3999999999999826
 20
42.667648514851464
 30
0.0
 11
2.8000000000000167
 21
41.267648514851487
 31
0.0
  0
LINE
  5
219
100
AcDbEntity
  8
0
  6
DASHDOT
 62
               4
100
AcDbLine
 10
-8.6999999999999833
 20
37.067648514851442
 30
0.0
 11
-2.800000000000006
 21
37.067648514851442
 31
0.0
  0
LINE
  5
21A
100
AcDbEntity
  8
0
  6
DASHDOT
 62
               4
100
AcDbLine
 10
2.8000000000000167
 20
37.067648514851442
 30
0.0
 11
9.9081859971711381
 21
37.067648514851442
 31
0.0
  0
LINE
  5
21B
100
AcDbEntity
  8
0
  6
DASHDOT
 62
               4
100
AcDbLine
 10
1.3999999999999826
 20
38.467648514851419
 30
0.0
 11
-1.4000000000000288
 21
35.667648514851464
 31
0.0
  0
LINE
  5
21C
100
AcDbEntity
  8
0
  6
DASHDOT
 62
               4
100
AcDbLine
 10
-2.800000000000006
 20
37.067648514851442
 30
0.0
 11
-1.4000000000000288
 21
35.667648514851464
 31
0.0
  0
LINE
  5
21D
100
AcDbEntity
  8
0
  6
DASHDOT
 62
               4
100
AcDbLine
 10
1.3999999999999826
 20
38.467648514851419
 30
0.0
 11
2.8000000000000167
 21
37.067648514851442
 31
0.0
  0
LINE
  5
21E
100
AcDbEntity
  8
0
  6
DASHDOT
 62
               4
100
AcDbLine
 10
0.0
 20
-12.109554455445544
 30
0.0
 11
0.0000000000000048
 21
66.329561527581305
 31
0.0
  0
LINE
  5
21F
100
AcDbEntity
  8
0
  6
DASHDOT
 62
               4
100
AcDbLine
 10
0.0000000000000046
 20
71.698381766026429
 30
0.0
 11
0.0
 21
80.585445544554432
 31
0.0
  0
LINE
  5
220
100
AcDbEntity
  8
0
  6
DASHDOT
 62
               4
100
AcDbLine
 10
0.0
 20
117.00406890004068
 30
0.0
 11
0.0
 21
108.8540689000407
 31
0.0
  0
LINE
  5
221
100
AcDbEntity
  8
0
  6
DASHDOT
 62
               4
100
AcDbLine
 10
0.0
 20
101.15406890004071
 30
0.0
 11
0.0
 21
93.004068900040679
 31
0.0
  0
LINE
  5
222
100
AcDbEntity
  8
0
  6
DASHDOT
 62
               4
100
AcDbLine
 10
15.200000000000017
 20
105.00406890004069
 30
0.0
 11
1.5999999999999943
 21
105.00406890004069
 31
0.0
  0
LINE
  5
223
100
AcDbEntity
  8
0
  6
DASHDOT
 62
               4
100
AcDbLine
 10
-1.5999999999999943
 20
105.00406890004069
 30
0.0
 11
-15.210119047619056
 21
105.00406890004069
 31
0.0
  0
TEXT
  5
224
100
AcDbEntity
  8
0
 62
               6
100
AcDbText
 10
-580.89999999999998
 20
68.035999999999973
 30
0.0
 40
5.0
  1
■部品表
 11
-580.89999999999998
 21
68.035999999999973
 31
0.0
100
AcDbText
 73
               3
  0
TEXT
  5
225
100
AcDbEntity
  8
0
 62
               6
100
AcDbText
 10
-580.89999999999998
 20
36.036000000000023
 30
0.0
 40
5.0
  1
■寸法表
 11
-580.89999999999998
 21
36.036000000000023
 31
0.0
100
AcDbText
 73
               3
  0
TEXT
  5
226
100
AcDbEntity
  8
0
 62
               6
100
AcDbText
 10
-74.831266521923922
 20
-106.30791580113161
 30
0.0
 40
5.0
  1
仕様図
 41
0.8
 11
-74.831266521923922
 21
-106.30791580113161
 31
0.0
100
AcDbText
 73
               3
  0
TEXT
  5
227
100
AcDbEntity
  8
0
 62
               6
100
AcDbText
 10
-71.200997270297194
 20
-119.13506743663248
 30
0.0
 40
4.5
  1
株式会社
 41
0.8
 11
-71.200997270297194
 21
-119.13506743663248
 31
0.0
100
AcDbText
 73
               3
  0
TEXT
  5
228
100
AcDbEntity
  8
0
 62
               6
100
AcDbText
 10
-53.565960607358441
 20
-118.15506743663246
 30
0.0
 40
6.0
  1
小島製作所
 41
0.8
 11
-53.565960607358441
 21
-118.15506743663246
 31
0.0
100
AcDbText
 73
               3
  0
TEXT
  5
229
100
AcDbEntity
  8
0
 62
               6
100
AcDbText
 10
-83.0
 20
-39.500000000000014
 30
0.0
 40
4.0
  1
■部品表
 11
-83.0
 21
-39.500000000000014
 31
0.0
100
AcDbText
 73
               3
  0
TEXT
  5
22A
100
AcDbEntity
  8
0
 62
               6
100
AcDbText
 10
-83.0
 20
-69.099999999999994
 30
0.0
 40
4.0
  1
■寸法表
 11
-83.0
 21
-69.099999999999994
 31
0.0
100
AcDbText
 73
               3
  0
TEXT
  5
22B
100
AcDbEntity
  8
0
 62
               6
100
AcDbText
 10
1.417468175388946
 20
108.74779827297797
 30
0.0
 40
2.5
  1
制水弁
 50
-89.999999999999801
 11
1.417468175388946
 21
108.74779827297797
 31
0.0
100
AcDbText
 73
               3
  0
TEXT
  5
22C
100
AcDbEntity
  8
0
 62
               6
100
AcDbText
 10
46.500000000000028
 20
137.0
 30
0.0
 40
7.0
  1
　ＭＢ
 11
46.500000000000028
 21
137.0
 31
0.0
100
AcDbText
 73
               3
  0
TEXT
  5
22D
100
AcDbEntity
  8
0
 62
               6
100
AcDbText
 10
-29.639818859308562
 20
-106.40174015532008
 30
0.0
 40
5.0
  1
弁きょう
 41
0.8
 11
-29.639818859308562
 21
-106.40174015532008
 31
0.0
100
AcDbText
 73
               3
  0
TEXT
  5
22E
100
AcDbEntity
  8
0
 62
               6
100
AcDbText
 10
33.76222543367237
 20
-106.46268699555618
 30
0.0
 40
5.0
  1
Ｂ６
 41
0.8
 11
33.76222543367237
 21
-106.46268699555618
 31
0.0
100
AcDbText
 73
               3
  0
TEXT
  5
22F
100
AcDbEntity
  8
0
 62
               6
100
AcDbText
 10
-81.599999999999994
 20
130.5
 30
0.0
 40
4.0
  1
ＪＣＷ　１０４　Ｂ６
 41
0.8
 11
-81.599999999999994
 21
130.5
 31
0.0
100
AcDbText
 73
               3
  0
TEXT
  5
230
100
AcDbEntity
  8
0
 62
               6
100
AcDbText
 10
67.612664793849618
 20
-107.23285926152147
 30
0.0
 40
4.0
  1
仕トラ１２－０２７－００
 41
0.5
 11
67.612664793849618
 21
-107.23285926152147
 31
0.0
100
AcDbText
 73
               3
  0
TEXT
  5
231
100
AcDbEntity
  8
0
 62
               3
100
AcDbText
 10
-578.09999999999991
 20
52.53599999999998
 30
0.0
 40
3.0
  1
１
 41
0.8
  7
FdaStyle1
 11
-578.09999999999991
 21
52.53599999999998
 31
0.0
100
AcDbText
 73
               3
  0
TEXT
  5
232
100
AcDbEntity
  8
0
 62
               3
100
AcDbText
 10
-578.09999999999991
 20
47.53599999999998
 30
0.0
 40
3.0
  1
２
 41
0.8
  7
FdaStyle1
 11
-578.09999999999991
 21
47.53599999999998
 31
0.0
100
AcDbText
 73
               3
  0
TEXT
  5
233
100
AcDbEntity
  8
0
 62
               3
100
AcDbText
 10
-578.09999999999991
 20
42.535999999999994
 30
0.0
 40
3.0
  1
３
 41
0.8
  7
FdaStyle1
 11
-578.09999999999991
 21
42.535999999999994
 31
0.0
100
AcDbText
 73
               3
  0
TEXT
  5
234
100
AcDbEntity
  8
0
 62
               3
100
AcDbText
 10
-579.59999999999991
 20
58.53599999999998
 30
0.0
 40
3.0
  1
Ｎｏ．
 41
0.8
  7
FdaStyle1
 11
-579.59999999999991
 21
58.53599999999998
 31
0.0
100
AcDbText
 73
               3
  0
TEXT
  5
235
100
AcDbEntity
  8
0
 62
               3
100
AcDbText
 10
-564.37026152104727
 20
58.53599999999998
 30
0.0
 40
3.0
  1
部　品　名
 41
0.8
  7
FdaStyle1
 11
-564.37026152104727
 21
58.53599999999998
 31
0.0
100
AcDbText
 73
               3
  0
TEXT
  5
236
100
AcDbEntity
  8
0
 62
               3
100
AcDbText
 10
-534.16764631057481
 20
58.53599999999998
 30
0.0
 40
3.0
  1
材　質
 41
0.8
  7
FdaStyle1
 11
-534.16764631057481
 21
58.53599999999998
 31
0.0
100
AcDbText
 73
               3
  0
TEXT
  5
237
100
AcDbEntity
  8
0
 62
               3
100
AcDbText
 10
-511.84313825256697
 20
58.53599999999998
 30
0.0
 40
3.0
  1
表　面　処　理
 41
0.8
  7
FdaStyle1
 11
-511.84313825256697
 21
58.53599999999998
 31
0.0
100
AcDbText
 73
               3
  0
TEXT
  5
238
100
AcDbEntity
  8
0
 62
               3
100
AcDbText
 10
-571.09999999999991
 20
52.53599999999998
 30
0.0
 40
3.0
  1
＊＊＊＊＊＊
 41
0.8
  7
FdaStyle1
 11
-571.09999999999991
 21
52.53599999999998
 31
0.0
100
AcDbText
 73
               3
  0
TEXT
  5
239
100
AcDbEntity
  8
0
 62
               3
100
AcDbText
 10
-485.50130474166093
 20
59.08220177005331
 30
0.0
 40
3.5
  1
◎＊＊＊＊＊＊＊＊＊＊＊＊＊
 41
0.8
  7
FdaStyle1
 11
-485.50130474166093
 21
59.08220177005331
 31
0.0
100
AcDbText
 73
               3
  0
TEXT
  5
23A
100
AcDbEntity
  8
0
 62
               3
100
AcDbText
 10
-541.09999999999991
 20
52.53599999999998
 30
0.0
 40
3.0
  1
＊＊＊＊＊＊
 41
0.8
  7
FdaStyle1
 11
-541.09999999999991
 21
52.53599999999998
 31
0.0
100
AcDbText
 73
               3
  0
TEXT
  5
23B
100
AcDbEntity
  8
0
 62
               3
100
AcDbText
 10
-473.63958110355566
 20
33.897608774076453
 30
0.0
 40
3.5
  1
単位＝ｍｍ
  7
FdaStyle1
 11
-473.63958110355566
 21
33.897608774076453
 31
0.0
100
AcDbText
 73
               3
  0
TEXT
  5
23C
100
AcDbEntity
  8
0
 62
               3
100
AcDbText
 10
-572.64112261426089
 20
26.369771802745738
 30
0.0
 40
3.0
  1
呼び
 41
0.8
  7
FdaStyle1
 11
-572.64112261426089
 21
26.369771802745738
 31
0.0
100
AcDbText
 73
               3
  0
TEXT
  5
23D
100
AcDbEntity
  8
0
 62
               3
100
AcDbText
 10
-572.60198898548083
 20
20.597806130060277
 30
0.0
 40
3.0
  1
４０
 41
0.8
  7
FdaStyle1
 11
-572.60198898548083
 21
20.597806130060277
 31
0.0
100
AcDbText
 73
               3
  0
TEXT
  5
23E
100
AcDbEntity
  8
0
 62
               3
100
AcDbText
 10
-557.60251145804114
 20
20.493456814810415
 30
0.0
 40
3.0
  1
****
 41
0.8
  7
FdaStyle1
 11
-557.60251145804114
 21
20.493456814810415
 31
0.0
100
AcDbText
 73
               3
  0
TEXT
  5
23F
100
AcDbEntity
  8
0
 62
               3
100
AcDbText
 10
-485.50130474166093
 20
54.08220177005331
 30
0.0
 40
3.5
  1
★＊＊＊＊＊＊＊＊＊＊＊＊＊
 41
0.8
  7
FdaStyle1
 11
-485.50130474166093
 21
54.08220177005331
 31
0.0
100
AcDbText
 73
               3
  0
TEXT
  5
240
100
AcDbEntity
  8
0
 62
               3
100
AcDbText
 10
-516.09999999999991
 20
52.53599999999998
 30
0.0
 40
3.0
  1
＊＊＊＊＊＊＊
 41
0.8
  7
FdaStyle1
 11
-516.09999999999991
 21
52.53599999999998
 31
0.0
100
AcDbText
 73
               3
  0
TEXT
  5
241
100
AcDbEntity
  8
0
 62
               3
100
AcDbText
 10
-572.60198898548083
 20
15.597806130060292
 30
0.0
 40
3.0
  1
５０
 41
0.8
  7
FdaStyle1
 11
-572.60198898548083
 21
15.597806130060292
 31
0.0
100
AcDbText
 73
               3
  0
TEXT
  5
242
100
AcDbEntity
  8
0
 62
               3
100
AcDbText
 10
-572.60198898548083
 20
10.597806130060306
 30
0.0
 40
3.0
  1
６５
 41
0.8
  7
FdaStyle1
 11
-572.60198898548083
 21
10.597806130060306
 31
0.0
100
AcDbText
 73
               3
  0
TEXT
  5
243
100
AcDbEntity
  8
0
 62
               3
100
AcDbText
 10
-572.60198898548083
 20
5.5978061300602917
 30
0.0
 40
3.0
  1
７５
 41
0.8
  7
FdaStyle1
 11
-572.60198898548083
 21
5.5978061300602917
 31
0.0
100
AcDbText
 73
               3
  0
TEXT
  5
244
100
AcDbEntity
  8
0
 62
               3
100
AcDbText
 10
-574.82280228512741
 20
0.5978061300603059
 30
0.0
 40
3.0
  1
１００
 41
0.8
  7
FdaStyle1
 11
-574.82280228512741
 21
0.5978061300603059
 31
0.0
100
AcDbText
 73
               3
  0
TEXT
  5
245
100
AcDbEntity
  8
0
 62
               3
100
AcDbText
 10
-574.82280228512741
 20
-4.4021938699397083
 30
0.0
 40
3.0
  1
１２５
 41
0.8
  7
FdaStyle1
 11
-574.82280228512741
 21
-4.4021938699397083
 31
0.0
100
AcDbText
 73
               3
  0
TEXT
  5
246
100
AcDbEntity
  8
0
 62
               3
100
AcDbText
 10
-574.82280228512741
 20
-9.4021938699397083
 30
0.0
 40
3.0
  1
１５０
 41
0.8
  7
FdaStyle1
 11
-574.82280228512741
 21
-9.4021938699397083
 31
0.0
100
AcDbText
 73
               3
  0
TEXT
  5
247
100
AcDbEntity
  8
0
 62
               3
100
AcDbText
 10
-555.28130190335264
 20
26.556527938226068
 30
0.0
 40
3.0
  1
＊＊
 41
0.8
  7
FdaStyle1
 11
-555.28130190335264
 21
26.556527938226068
 31
0.0
100
AcDbText
 73
               3
  0
TEXT
  5
248
100
AcDbEntity
  8
0
 62
               3
100
AcDbText
 10
-557.60251145804114
 20
15.493456814810429
 30
0.0
 40
3.0
  1
****
 41
0.8
  7
FdaStyle1
 11
-557.60251145804114
 21
15.493456814810429
 31
0.0
100
AcDbText
 73
               3
  0
TEXT
  5
249
100
AcDbEntity
  8
0
 62
               3
100
AcDbText
 10
-557.60251145804114
 20
10.493456814810457
 30
0.0
 40
3.0
  1
****
 41
0.8
  7
FdaStyle1
 11
-557.60251145804114
 21
10.493456814810457
 31
0.0
100
AcDbText
 73
               3
  0
TEXT
  5
24A
100
AcDbEntity
  8
0
 62
               3
100
AcDbText
 10
-557.60251145804114
 20
5.4934568148104574
 30
0.0
 40
3.0
  1
****
 41
0.8
  7
FdaStyle1
 11
-557.60251145804114
 21
5.4934568148104574
 31
0.0
100
AcDbText
 73
               3
  0
TEXT
  5
24B
100
AcDbEntity
  8
0
 62
               3
100
AcDbText
 10
-557.60251145804114
 20
0.4934568148104574
 30
0.0
 40
3.0
  1
****
 41
0.8
  7
FdaStyle1
 11
-557.60251145804114
 21
0.4934568148104574
 31
0.0
100
AcDbText
 73
               3
  0
TEXT
  5
24C
100
AcDbEntity
  8
0
 62
               3
100
AcDbText
 10
-557.60251145804114
 20
-4.5065431851895426
 30
0.0
 40
3.0
  1
****
 41
0.8
  7
FdaStyle1
 11
-557.60251145804114
 21
-4.5065431851895426
 31
0.0
100
AcDbText
 73
               3
  0
TEXT
  5
24D
100
AcDbEntity
  8
0
 62
               3
100
AcDbText
 10
-557.60251145804114
 20
-9.5065431851895426
 30
0.0
 40
3.0
  1
****
 41
0.8
  7
FdaStyle1
 11
-557.60251145804114
 21
-9.5065431851895426
 31
0.0
100
AcDbText
 73
               3
  0
TEXT
  5
24E
100
AcDbEntity
  8
0
 62
               3
100
AcDbText
 10
-542.60251145804114
 20
20.493456814810415
 30
0.0
 40
3.0
  1
****
 41
0.8
  7
FdaStyle1
 11
-542.60251145804114
 21
20.493456814810415
 31
0.0
100
AcDbText
 73
               3
  0
TEXT
  5
24F
100
AcDbEntity
  8
0
 62
               3
100
AcDbText
 10
-542.60251145804114
 20
15.493456814810429
 30
0.0
 40
3.0
  1
****
 41
0.8
  7
FdaStyle1
 11
-542.60251145804114
 21
15.493456814810429
 31
0.0
100
AcDbText
 73
               3
  0
TEXT
  5
250
100
AcDbEntity
  8
0
 62
               3
100
AcDbText
 10
-542.60251145804114
 20
10.493456814810457
 30
0.0
 40
3.0
  1
****
 41
0.8
  7
FdaStyle1
 11
-542.60251145804114
 21
10.493456814810457
 31
0.0
100
AcDbText
 73
               3
  0
TEXT
  5
251
100
AcDbEntity
  8
0
 62
               3
100
AcDbText
 10
-542.60251145804114
 20
5.4934568148104574
 30
0.0
 40
3.0
  1
****
 41
0.8
  7
FdaStyle1
 11
-542.60251145804114
 21
5.4934568148104574
 31
0.0
100
AcDbText
 73
               3
  0
TEXT
  5
252
100
AcDbEntity
  8
0
 62
               3
100
AcDbText
 10
-542.60251145804114
 20
0.4934568148104574
 30
0.0
 40
3.0
  1
****
 41
0.8
  7
FdaStyle1
 11
-542.60251145804114
 21
0.4934568148104574
 31
0.0
100
AcDbText
 73
               3
  0
TEXT
  5
253
100
AcDbEntity
  8
0
 62
               3
100
AcDbText
 10
-542.60251145804114
 20
-4.5065431851895426
 30
0.0
 40
3.0
  1
****
 41
0.8
  7
FdaStyle1
 11
-542.60251145804114
 21
-4.5065431851895426
 31
0.0
100
AcDbText
 73
               3
  0
TEXT
  5
254
100
AcDbEntity
  8
0
 62
               3
100
AcDbText
 10
-542.60251145804114
 20
-9.5065431851895426
 30
0.0
 40
3.0
  1
****
 41
0.8
  7
FdaStyle1
 11
-542.60251145804114
 21
-9.5065431851895426
 31
0.0
100
AcDbText
 73
               3
  0
TEXT
  5
255
100
AcDbEntity
  8
0
 62
               3
100
AcDbText
 10
-527.60251145804114
 20
20.493456814810415
 30
0.0
 40
3.0
  1
****
 41
0.8
  7
FdaStyle1
 11
-527.60251145804114
 21
20.493456814810415
 31
0.0
100
AcDbText
 73
               3
  0
TEXT
  5
256
100
AcDbEntity
  8
0
 62
               3
100
AcDbText
 10
-527.60251145804114
 20
15.493456814810429
 30
0.0
 40
3.0
  1
****
 41
0.8
  7
FdaStyle1
 11
-527.60251145804114
 21
15.493456814810429
 31
0.0
100
AcDbText
 73
               3
  0
TEXT
  5
257
100
AcDbEntity
  8
0
 62
               3
100
AcDbText
 10
-527.60251145804114
 20
10.493456814810457
 30
0.0
 40
3.0
  1
****
 41
0.8
  7
FdaStyle1
 11
-527.60251145804114
 21
10.493456814810457
 31
0.0
100
AcDbText
 73
               3
  0
TEXT
  5
258
100
AcDbEntity
  8
0
 62
               3
100
AcDbText
 10
-527.60251145804114
 20
5.4934568148104574
 30
0.0
 40
3.0
  1
****
 41
0.8
  7
FdaStyle1
 11
-527.60251145804114
 21
5.4934568148104574
 31
0.0
100
AcDbText
 73
               3
  0
TEXT
  5
259
100
AcDbEntity
  8
0
 62
               3
100
AcDbText
 10
-527.60251145804114
 20
0.4934568148104574
 30
0.0
 40
3.0
  1
****
 41
0.8
  7
FdaStyle1
 11
-527.60251145804114
 21
0.4934568148104574
 31
0.0
100
AcDbText
 73
               3
  0
TEXT
  5
25A
100
AcDbEntity
  8
0
 62
               3
100
AcDbText
 10
-527.60251145804114
 20
-4.5065431851895426
 30
0.0
 40
3.0
  1
****
 41
0.8
  7
FdaStyle1
 11
-527.60251145804114
 21
-4.5065431851895426
 31
0.0
100
AcDbText
 73
               3
  0
TEXT
  5
25B
100
AcDbEntity
  8
0
 62
               3
100
AcDbText
 10
-527.60251145804114
 20
-9.5065431851895426
 30
0.0
 40
3.0
  1
****
 41
0.8
  7
FdaStyle1
 11
-527.60251145804114
 21
-9.5065431851895426
 31
0.0
100
AcDbText
 73
               3
  0
TEXT
  5
25C
100
AcDbEntity
  8
0
 62
               3
100
AcDbText
 10
-512.60251145804114
 20
20.493456814810415
 30
0.0
 40
3.0
  1
****
 41
0.8
  7
FdaStyle1
 11
-512.60251145804114
 21
20.493456814810415
 31
0.0
100
AcDbText
 73
               3
  0
TEXT
  5
25D
100
AcDbEntity
  8
0
 62
               3
100
AcDbText
 10
-512.60251145804114
 20
15.493456814810429
 30
0.0
 40
3.0
  1
****
 41
0.8
  7
FdaStyle1
 11
-512.60251145804114
 21
15.493456814810429
 31
0.0
100
AcDbText
 73
               3
  0
TEXT
  5
25E
100
AcDbEntity
  8
0
 62
               3
100
AcDbText
 10
-512.60251145804114
 20
10.493456814810457
 30
0.0
 40
3.0
  1
****
 41
0.8
  7
FdaStyle1
 11
-512.60251145804114
 21
10.493456814810457
 31
0.0
100
AcDbText
 73
               3
  0
TEXT
  5
25F
100
AcDbEntity
  8
0
 62
               3
100
AcDbText
 10
-512.60251145804114
 20
5.4934568148104574
 30
0.0
 40
3.0
  1
****
 41
0.8
  7
FdaStyle1
 11
-512.60251145804114
 21
5.4934568148104574
 31
0.0
100
AcDbText
 73
               3
  0
TEXT
  5
260
100
AcDbEntity
  8
0
 62
               3
100
AcDbText
 10
-512.60251145804114
 20
0.4934568148104574
 30
0.0
 40
3.0
  1
****
 41
0.8
  7
FdaStyle1
 11
-512.60251145804114
 21
0.4934568148104574
 31
0.0
100
AcDbText
 73
               3
  0
TEXT
  5
261
100
AcDbEntity
  8
0
 62
               3
100
AcDbText
 10
-512.60251145804114
 20
-4.5065431851895426
 30
0.0
 40
3.0
  1
****
 41
0.8
  7
FdaStyle1
 11
-512.60251145804114
 21
-4.5065431851895426
 31
0.0
100
AcDbText
 73
               3
  0
TEXT
  5
262
100
AcDbEntity
  8
0
 62
               3
100
AcDbText
 10
-512.60251145804114
 20
-9.5065431851895426
 30
0.0
 40
3.0
  1
****
 41
0.8
  7
FdaStyle1
 11
-512.60251145804114
 21
-9.5065431851895426
 31
0.0
100
AcDbText
 73
               3
  0
TEXT
  5
263
100
AcDbEntity
  8
0
 62
               3
100
AcDbText
 10
-497.60251145804114
 20
20.493456814810415
 30
0.0
 40
3.0
  1
****
 41
0.8
  7
FdaStyle1
 11
-497.60251145804114
 21
20.493456814810415
 31
0.0
100
AcDbText
 73
               3
  0
TEXT
  5
264
100
AcDbEntity
  8
0
 62
               3
100
AcDbText
 10
-497.60251145804114
 20
15.493456814810429
 30
0.0
 40
3.0
  1
****
 41
0.8
  7
FdaStyle1
 11
-497.60251145804114
 21
15.493456814810429
 31
0.0
100
AcDbText
 73
               3
  0
TEXT
  5
265
100
AcDbEntity
  8
0
 62
               3
100
AcDbText
 10
-497.60251145804114
 20
10.493456814810457
 30
0.0
 40
3.0
  1
****
 41
0.8
  7
FdaStyle1
 11
-497.60251145804114
 21
10.493456814810457
 31
0.0
100
AcDbText
 73
               3
  0
TEXT
  5
266
100
AcDbEntity
  8
0
 62
               3
100
AcDbText
 10
-497.60251145804114
 20
5.4934568148104574
 30
0.0
 40
3.0
  1
****
 41
0.8
  7
FdaStyle1
 11
-497.60251145804114
 21
5.4934568148104574
 31
0.0
100
AcDbText
 73
               3
  0
TEXT
  5
267
100
AcDbEntity
  8
0
 62
               3
100
AcDbText
 10
-497.60251145804114
 20
0.4934568148104574
 30
0.0
 40
3.0
  1
****
 41
0.8
  7
FdaStyle1
 11
-497.60251145804114
 21
0.4934568148104574
 31
0.0
100
AcDbText
 73
               3
  0
TEXT
  5
268
100
AcDbEntity
  8
0
 62
               3
100
AcDbText
 10
-497.60251145804114
 20
-4.5065431851895426
 30
0.0
 40
3.0
  1
****
 41
0.8
  7
FdaStyle1
 11
-497.60251145804114
 21
-4.5065431851895426
 31
0.0
100
AcDbText
 73
               3
  0
TEXT
  5
269
100
AcDbEntity
  8
0
 62
               3
100
AcDbText
 10
-497.60251145804114
 20
-9.5065431851895426
 30
0.0
 40
3.0
  1
****
 41
0.8
  7
FdaStyle1
 11
-497.60251145804114
 21
-9.5065431851895426
 31
0.0
100
AcDbText
 73
               3
  0
TEXT
  5
26A
100
AcDbEntity
  8
0
 62
               3
100
AcDbText
 10
-482.60251145804114
 20
20.493456814810415
 30
0.0
 40
3.0
  1
****
 41
0.8
  7
FdaStyle1
 11
-482.60251145804114
 21
20.493456814810415
 31
0.0
100
AcDbText
 73
               3
  0
TEXT
  5
26B
100
AcDbEntity
  8
0
 62
               3
100
AcDbText
 10
-482.60251145804114
 20
15.493456814810429
 30
0.0
 40
3.0
  1
****
 41
0.8
  7
FdaStyle1
 11
-482.60251145804114
 21
15.493456814810429
 31
0.0
100
AcDbText
 73
               3
  0
TEXT
  5
26C
100
AcDbEntity
  8
0
 62
               3
100
AcDbText
 10
-482.60251145804114
 20
10.493456814810457
 30
0.0
 40
3.0
  1
****
 41
0.8
  7
FdaStyle1
 11
-482.60251145804114
 21
10.493456814810457
 31
0.0
100
AcDbText
 73
               3
  0
TEXT
  5
26D
100
AcDbEntity
  8
0
 62
               3
100
AcDbText
 10
-482.60251145804114
 20
5.4934568148104574
 30
0.0
 40
3.0
  1
****
 41
0.8
  7
FdaStyle1
 11
-482.60251145804114
 21
5.4934568148104574
 31
0.0
100
AcDbText
 73
               3
  0
TEXT
  5
26E
100
AcDbEntity
  8
0
 62
               3
100
AcDbText
 10
-482.60251145804114
 20
0.4934568148104574
 30
0.0
 40
3.0
  1
****
 41
0.8
  7
FdaStyle1
 11
-482.60251145804114
 21
0.4934568148104574
 31
0.0
100
AcDbText
 73
               3
  0
TEXT
  5
26F
100
AcDbEntity
  8
0
 62
               3
100
AcDbText
 10
-482.60251145804114
 20
-4.5065431851895426
 30
0.0
 40
3.0
  1
****
 41
0.8
  7
FdaStyle1
 11
-482.60251145804114
 21
-4.5065431851895426
 31
0.0
100
AcDbText
 73
               3
  0
TEXT
  5
270
100
AcDbEntity
  8
0
 62
               3
100
AcDbText
 10
-482.60251145804114
 20
-9.5065431851895426
 30
0.0
 40
3.0
  1
****
 41
0.8
  7
FdaStyle1
 11
-482.60251145804114
 21
-9.5065431851895426
 31
0.0
100
AcDbText
 73
               3
  0
TEXT
  5
271
100
AcDbEntity
  8
0
 62
               3
100
AcDbText
 10
-467.60251145804114
 20
20.493456814810415
 30
0.0
 40
3.0
  1
****
 41
0.8
  7
FdaStyle1
 11
-467.60251145804114
 21
20.493456814810415
 31
0.0
100
AcDbText
 73
               3
  0
TEXT
  5
272
100
AcDbEntity
  8
0
 62
               3
100
AcDbText
 10
-467.60251145804114
 20
15.493456814810429
 30
0.0
 40
3.0
  1
****
 41
0.8
  7
FdaStyle1
 11
-467.60251145804114
 21
15.493456814810429
 31
0.0
100
AcDbText
 73
               3
  0
TEXT
  5
273
100
AcDbEntity
  8
0
 62
               3
100
AcDbText
 10
-467.60251145804114
 20
10.493456814810457
 30
0.0
 40
3.0
  1
****
 41
0.8
  7
FdaStyle1
 11
-467.60251145804114
 21
10.493456814810457
 31
0.0
100
AcDbText
 73
               3
  0
TEXT
  5
274
100
AcDbEntity
  8
0
 62
               3
100
AcDbText
 10
-467.60251145804114
 20
5.4934568148104574
 30
0.0
 40
3.0
  1
****
 41
0.8
  7
FdaStyle1
 11
-467.60251145804114
 21
5.4934568148104574
 31
0.0
100
AcDbText
 73
               3
  0
TEXT
  5
275
100
AcDbEntity
  8
0
 62
               3
100
AcDbText
 10
-467.60251145804114
 20
0.4934568148104574
 30
0.0
 40
3.0
  1
****
 41
0.8
  7
FdaStyle1
 11
-467.60251145804114
 21
0.4934568148104574
 31
0.0
100
AcDbText
 73
               3
  0
TEXT
  5
276
100
AcDbEntity
  8
0
 62
               3
100
AcDbText
 10
-467.60251145804114
 20
-4.5065431851895426
 30
0.0
 40
3.0
  1
****
 41
0.8
  7
FdaStyle1
 11
-467.60251145804114
 21
-4.5065431851895426
 31
0.0
100
AcDbText
 73
               3
  0
TEXT
  5
277
100
AcDbEntity
  8
0
 62
               3
100
AcDbText
 10
-467.60251145804114
 20
-9.5065431851895426
 30
0.0
 40
3.0
  1
****
 41
0.8
  7
FdaStyle1
 11
-467.60251145804114
 21
-9.5065431851895426
 31
0.0
100
AcDbText
 73
               3
  0
TEXT
  5
278
100
AcDbEntity
  8
0
 62
               3
100
AcDbText
 10
-540.28130190335264
 20
26.556527938226061
 30
0.0
 40
3.0
  1
＊＊
 41
0.8
  7
FdaStyle1
 11
-540.28130190335264
 21
26.556527938226061
 31
0.0
100
AcDbText
 73
               3
  0
TEXT
  5
279
100
AcDbEntity
  8
0
 62
               3
100
AcDbText
 10
-525.28130190335264
 20
26.556527938226083
 30
0.0
 40
3.0
  1
＊＊
 41
0.8
  7
FdaStyle1
 11
-525.28130190335264
 21
26.556527938226083
 31
0.0
100
AcDbText
 73
               3
  0
TEXT
  5
27A
100
AcDbEntity
  8
0
 62
               3
100
AcDbText
 10
-510.28130190335264
 20
26.556527938226083
 30
0.0
 40
3.0
  1
＊＊
 41
0.8
  7
FdaStyle1
 11
-510.28130190335264
 21
26.556527938226083
 31
0.0
100
AcDbText
 73
               3
  0
TEXT
  5
27B
100
AcDbEntity
  8
0
 62
               3
100
AcDbText
 10
-495.28130190335264
 20
26.556527938226083
 30
0.0
 40
3.0
  1
＊＊
 41
0.8
  7
FdaStyle1
 11
-495.28130190335264
 21
26.556527938226083
 31
0.0
100
AcDbText
 73
               3
  0
TEXT
  5
27C
100
AcDbEntity
  8
0
 62
               3
100
AcDbText
 10
-480.28130190335264
 20
26.556527938226083
 30
0.0
 40
3.0
  1
＊＊
 41
0.8
  7
FdaStyle1
 11
-480.28130190335264
 21
26.556527938226083
 31
0.0
100
AcDbText
 73
               3
  0
TEXT
  5
27D
100
AcDbEntity
  8
0
 62
               3
100
AcDbText
 10
-465.28130190335264
 20
26.556527938226068
 30
0.0
 40
3.0
  1
＊＊
 41
0.8
  7
FdaStyle1
 11
-465.28130190335264
 21
26.556527938226068
 31
0.0
100
AcDbText
 73
               3
  0
TEXT
  5
27E
100
AcDbEntity
  8
0
 62
               3
100
AcDbText
 10
-571.09999999999991
 20
47.53599999999998
 30
0.0
 40
3.0
  1
＊＊＊＊＊＊
 41
0.8
  7
FdaStyle1
 11
-571.09999999999991
 21
47.53599999999998
 31
0.0
100
AcDbText
 73
               3
  0
TEXT
  5
27F
100
AcDbEntity
  8
0
 62
               3
100
AcDbText
 10
-571.09999999999991
 20
42.53599999999998
 30
0.0
 40
3.0
  1
＊＊＊＊＊＊
 41
0.8
  7
FdaStyle1
 11
-571.09999999999991
 21
42.53599999999998
 31
0.0
100
AcDbText
 73
               3
  0
TEXT
  5
280
100
AcDbEntity
  8
0
 62
               3
100
AcDbText
 10
-541.09999999999991
 20
47.53599999999998
 30
0.0
 40
3.0
  1
＊＊＊＊＊＊
 41
0.8
  7
FdaStyle1
 11
-541.09999999999991
 21
47.53599999999998
 31
0.0
100
AcDbText
 73
               3
  0
TEXT
  5
281
100
AcDbEntity
  8
0
 62
               3
100
AcDbText
 10
-541.09999999999991
 20
42.53599999999998
 30
0.0
 40
3.0
  1
＊＊＊＊＊＊
 41
0.8
  7
FdaStyle1
 11
-541.09999999999991
 21
42.53599999999998
 31
0.0
100
AcDbText
 73
               3
  0
TEXT
  5
282
100
AcDbEntity
  8
0
 62
               3
100
AcDbText
 10
-516.09999999999991
 20
47.53599999999998
 30
0.0
 40
3.0
  1
＊＊＊＊＊＊＊
 41
0.8
  7
FdaStyle1
 11
-516.09999999999991
 21
47.53599999999998
 31
0.0
100
AcDbText
 73
               3
  0
TEXT
  5
283
100
AcDbEntity
  8
0
 62
               3
100
AcDbText
 10
-516.09999999999991
 20
42.53599999999998
 30
0.0
 40
3.0
  1
＊＊＊＊＊＊＊
 41
0.8
  7
FdaStyle1
 11
-516.09999999999991
 21
42.53599999999998
 31
0.0
100
AcDbText
 73
               3
  0
TEXT
  5
284
100
AcDbEntity
  8
0
 62
               3
100
AcDbText
 10
-58.249999999999972
 20
-103.74999999999999
 30
0.0
 40
3.5
  1
品
  7
FdaStyle1
 11
-58.249999999999972
 21
-103.74999999999999
 31
0.0
100
AcDbText
 73
               3
  0
TEXT
  5
285
100
AcDbEntity
  8
0
 62
               3
100
AcDbText
 10
-58.249999999999972
 20
-110.74999999999999
 30
0.0
 40
3.5
  1
名
  7
FdaStyle1
 11
-58.249999999999972
 21
-110.74999999999999
 31
0.0
100
AcDbText
 73
               3
  0
TEXT
  5
286
100
AcDbEntity
  8
0
 62
               3
100
AcDbText
 10
-83.249999999999972
 20
-103.74999999999999
 30
0.0
 40
3.5
  1
図
  7
FdaStyle1
 11
-83.249999999999972
 21
-103.74999999999999
 31
0.0
100
AcDbText
 73
               3
  0
TEXT
  5
287
100
AcDbEntity
  8
0
 62
               3
100
AcDbText
 10
-83.249999999999972
 20
-110.74999999999999
 30
0.0
 40
3.5
  1
種
  7
FdaStyle1
 11
-83.249999999999972
 21
-110.74999999999999
 31
0.0
100
AcDbText
 73
               3
  0
TEXT
  5
288
100
AcDbEntity
  8
0
 62
               3
100
AcDbText
 10
11.750000000000028
 20
-103.74999999999999
 30
0.0
 40
3.5
  1
品
  7
FdaStyle1
 11
11.750000000000028
 21
-103.74999999999999
 31
0.0
100
AcDbText
 73
               3
  0
TEXT
  5
289
100
AcDbEntity
  8
0
 62
               3
100
AcDbText
 10
11.750000000000028
 20
-110.74999999999999
 30
0.0
 40
3.5
  1
番
  7
FdaStyle1
 11
11.750000000000028
 21
-110.74999999999999
 31
0.0
100
AcDbText
 73
               3
  0
TEXT
  5
28A
100
AcDbEntity
  8
0
 62
               3
100
AcDbText
 10
59.750000000000057
 20
-103.74999999999999
 30
0.0
 40
3.5
  1
図
  7
FdaStyle1
 11
59.750000000000057
 21
-103.74999999999999
 31
0.0
100
AcDbText
 73
               3
  0
TEXT
  5
28B
100
AcDbEntity
  8
0
 62
               3
100
AcDbText
 10
59.750000000000057
 20
-110.74999999999999
 30
0.0
 40
3.5
  1
番
  7
FdaStyle1
 11
59.750000000000057
 21
-110.74999999999999
 31
0.0
100
AcDbText
 73
               3
  0
TEXT
  5
28C
100
AcDbEntity
  8
0
 62
               3
100
AcDbText
 10
84.160263830525082
 20
-118.3236440729445
 30
0.0
 40
3.5
  1
作図
  7
FdaStyle1
 11
84.160263830525082
 21
-118.3236440729445
 31
0.0
100
AcDbText
 73
               3
  0
TEXT
  5
28D
100
AcDbEntity
  8
0
 62
               3
100
AcDbText
 10
69.259041765596152
 20
-118.26708331115232
 30
0.0
 40
3.5
  1
検図
  7
FdaStyle1
 11
69.259041765596152
 21
-118.26708331115232
 31
0.0
100
AcDbText
 73
               3
  0
TEXT
  5
28E
100
AcDbEntity
  8
0
 62
               3
100
AcDbText
 10
54.43896319038447
 20
-118.28383072558701
 30
0.0
 40
3.5
  1
承認
  7
FdaStyle1
 11
54.43896319038447
 21
-118.28383072558701
 31
0.0
100
AcDbText
 73
               3
  0
TEXT
  5
28F
100
AcDbEntity
  8
0
 62
               3
100
AcDbText
 10
31.700000000000031
 20
-118.28383072558701
 30
0.0
 40
3.5
  1
作図年月日
 41
0.8
  7
FdaStyle1
 11
31.700000000000031
 21
-118.28383072558701
 31
0.0
100
AcDbText
 73
               3
  0
TEXT
  5
290
100
AcDbEntity
  8
0
 62
               3
100
AcDbText
 10
16.838963190384419
 20
-118.28383072558698
 30
0.0
 40
3.5
  1
尺度
  7
FdaStyle1
 11
16.838963190384419
 21
-118.28383072558698
 31
0.0
100
AcDbText
 73
               3
  0
TEXT
  5
291
100
AcDbEntity
  8
0
 62
               3
100
AcDbText
 10
1.838963190384419
 20
-118.28383072558697
 30
0.0
 40
3.5
  1
単位
  7
FdaStyle1
 11
1.838963190384419
 21
-118.28383072558697
 31
0.0
100
AcDbText
 73
               3
  0
TEXT
  5
292
100
AcDbEntity
  8
0
 62
               3
100
AcDbText
 10
19.900000000000006
 20
-130.99999999999994
 30
0.0
 40
4.0
  1
ＮＯＮ
 41
0.8
 72
               1
 11
19.900000000000006
 21
-130.99999999999994
 31
0.0
100
AcDbText
 73
               2
  0
TEXT
  5
293
100
AcDbEntity
  8
0
 62
               3
100
AcDbText
 10
4.9000000000000057
 20
-130.99999999999994
 30
0.0
 40
4.0
  1
ｍｍ
 41
0.8
 72
               1
 11
4.9000000000000057
 21
-130.99999999999994
 31
0.0
100
AcDbText
 73
               2
  0
TEXT
  5
294
100
AcDbEntity
  8
0
 62
               3
100
AcDbText
 10
68.800000000000011
 20
135.0
 30
0.0
 40
3.0
  1
SERIES
 11
68.800000000000011
 21
135.0
 31
0.0
100
AcDbText
 73
               3
  0
TEXT
  5
295
100
AcDbEntity
  8
0
 62
               3
100
AcDbText
 10
45.208335117155414
 20
-70.810712980738828
 30
0.0
 40
2.8000000000000003
  1
単位ｍｍ
 41
0.8
 11
45.208335117155414
 21
-70.810712980738828
 31
0.0
100
AcDbText
 73
               3
  0
TEXT
  5
296
100
AcDbEntity
  8
0
 62
               3
100
AcDbText
 10
-0.2810437933287844
 20
-46.663038583957359
 30
0.0
 40
2.7999999999999998
  1
◎標準品には、　制水弁　の文字が鋳出してあります。
 41
0.8
 11
-0.2810437933287844
 21
-46.663038583957359
 31
0.0
100
AcDbText
 73
               3
  0
TEXT
  5
297
100
AcDbEntity
  8
0
 62
               3
100
AcDbText
 10
-79.800000000000011
 20
-53.100000000000023
 30
0.0
 40
2.8000000000000003
  1
①
 41
0.8
 72
               1
 11
-79.800000000000011
 21
-53.100000000000023
 31
0.0
100
AcDbText
 73
               2
  0
TEXT
  5
298
100
AcDbEntity
  8
0
 62
               3
100
AcDbText
 10
-79.800000000000011
 20
-57.100000000000023
 30
0.0
 40
2.8000000000000003
  1
②
 41
0.8
 72
               1
 11
-79.800000000000011
 21
-57.100000000000023
 31
0.0
100
AcDbText
 73
               2
  0
TEXT
  5
299
100
AcDbEntity
  8
0
 62
               3
100
AcDbText
 10
-79.800000000000011
 20
-61.100000000000023
 30
0.0
 40
2.8000000000000003
  1
③
 41
0.8
 72
               1
 11
-79.800000000000011
 21
-61.100000000000023
 31
0.0
100
AcDbText
 73
               2
  0
TEXT
  5
29A
100
AcDbEntity
  8
0
 62
               3
100
AcDbText
 10
46.199999999999996
 20
-79.100000000000009
 30
0.0
 40
2.8000000000000003
  1
備　　考
 41
0.6
 72
               1
 11
46.199999999999996
 21
-79.100000000000009
 31
0.0
100
AcDbText
 73
               2
  0
TEXT
  5
29B
100
AcDbEntity
  8
0
 62
               3
100
AcDbText
 10
46.199999999999996
 20
-85.100000000000037
 30
0.0
 40
2.8000000000000003
  1
呼び径１００以下の
 41
0.6
 72
               1
 11
46.199999999999996
 21
-85.100000000000037
 31
0.0
100
AcDbText
 73
               2
  0
TEXT
  5
29C
100
AcDbEntity
  8
0
 62
               3
100
AcDbText
 10
46.199999999999996
 20
-89.100000000000009
 30
0.0
 40
2.8000000000000003
  1
制水弁用
 41
0.6
 72
               1
 11
46.199999999999996
 21
-89.100000000000009
 31
0.0
100
AcDbText
 73
               2
  0
TEXT
  5
29D
100
AcDbEntity
  8
0
 62
               3
100
AcDbText
 10
46.199999999999996
 20
-93.09999999999998
 30
0.0
 40
2.8000000000000003
  1
呼び径１５０以下の
 41
0.6
 72
               1
 11
46.199999999999996
 21
-93.09999999999998
 31
0.0
100
AcDbText
 73
               2
  0
TEXT
  5
29E
100
AcDbEntity
  8
0
 62
               3
100
AcDbText
 10
46.199999999999996
 20
-97.099999999999994
 30
0.0
 40
2.8000000000000003
  1
制水弁用
 41
0.6
 72
               1
 11
46.199999999999996
 21
-97.099999999999994
 31
0.0
100
AcDbText
 73
               2
  0
TEXT
  5
29F
100
AcDbEntity
  8
0
 62
               3
100
AcDbText
 10
20.600000000000001
 20
-79.100000000000051
 30
0.0
 40
3.0
  1
Ｔ
 41
0.5
 72
               1
 11
20.600000000000001
 21
-79.100000000000051
 31
0.0
100
AcDbText
 73
               2
  0
TEXT
  5
2A0
100
AcDbEntity
  8
0
 62
               3
100
AcDbText
 10
30.599999999999994
 20
-79.100000000000023
 30
0.0
 40
3.0
  1
h
 41
0.5
 72
               1
 11
30.599999999999994
 21
-79.100000000000023
 31
0.0
100
AcDbText
 73
               2
  0
TEXT
  5
2A1
100
AcDbEntity
  8
0
 62
               3
100
AcDbText
 10
20.600000000000001
 20
-87.100000000000023
 30
0.0
 40
3.0
  1
５
 41
0.5
 72
               1
 11
20.600000000000001
 21
-87.100000000000023
 31
0.0
100
AcDbText
 73
               2
  0
TEXT
  5
2A2
100
AcDbEntity
  8
0
 62
               3
100
AcDbText
 10
20.600000000000001
 20
-95.09999999999998
 30
0.0
 40
3.0
  1
５
 41
0.5
 72
               1
 11
20.600000000000001
 21
-95.09999999999998
 31
0.0
100
AcDbText
 73
               2
  0
TEXT
  5
2A3
100
AcDbEntity
  8
0
 62
               3
100
AcDbText
 10
30.599999999999994
 20
-85.100000000000023
 30
0.0
 40
3.0
  1
１４００
 41
0.5
 72
               1
 11
30.599999999999994
 21
-85.100000000000023
 31
0.0
100
AcDbText
 73
               2
  0
TEXT
  5
2A4
100
AcDbEntity
  8
0
 62
               3
100
AcDbText
 10
30.599999999999994
 20
-89.099999999999994
 30
0.0
 40
3.0
  1
９００
 41
0.5
 72
               1
 11
30.599999999999994
 21
-89.099999999999994
 31
0.0
100
AcDbText
 73
               2
  0
TEXT
  5
2A5
100
AcDbEntity
  8
0
 62
               3
100
AcDbText
 10
30.599999999999994
 20
-93.099999999999966
 30
0.0
 40
3.0
  1
１４００
 41
0.5
 72
               1
 11
30.599999999999994
 21
-93.099999999999966
 31
0.0
100
AcDbText
 73
               2
  0
TEXT
  5
2A6
100
AcDbEntity
  8
0
 62
               3
100
AcDbText
 10
30.599999999999994
 20
-97.099999999999952
 30
0.0
 40
3.0
  1
９００
 41
0.5
 72
               1
 11
30.599999999999994
 21
-97.099999999999952
 31
0.0
100
AcDbText
 73
               2
  0
TEXT
  5
2A7
100
AcDbEntity
  8
0
 62
               3
100
AcDbText
 10
11.0
 20
-79.100000000000051
 30
0.0
 40
3.0
  1
Ａ
 41
0.5
 72
               1
 11
11.0
 21
-79.100000000000051
 31
0.0
100
AcDbText
 73
               2
  0
TEXT
  5
2A8
100
AcDbEntity
  8
0
 62
               3
100
AcDbText
 10
11.0
 20
-87.100000000000023
 30
0.0
 40
3.0
  1
１６２
 41
0.5
 72
               1
 11
11.0
 21
-87.100000000000023
 31
0.0
100
AcDbText
 73
               2
  0
TEXT
  5
2A9
100
AcDbEntity
  8
0
 62
               3
100
AcDbText
 10
11.0
 20
-95.09999999999998
 30
0.0
 40
3.0
  1
１６２
 41
0.5
 72
               1
 11
11.0
 21
-95.09999999999998
 31
0.0
100
AcDbText
 73
               2
  0
TEXT
  5
2AA
100
AcDbEntity
  8
0
 62
               3
100
AcDbText
 10
1.3999999999999986
 20
-79.100000000000023
 30
0.0
 40
3.0
  1
Ｆ
 41
0.5
 72
               1
 11
1.3999999999999986
 21
-79.100000000000023
 31
0.0
100
AcDbText
 73
               2
  0
TEXT
  5
2AB
100
AcDbEntity
  8
0
 62
               3
100
AcDbText
 10
1.3999999999999986
 20
-87.100000000000023
 30
0.0
 40
3.0
  1
２１５
 41
0.5
 72
               1
 11
1.3999999999999986
 21
-87.100000000000023
 31
0.0
100
AcDbText
 73
               2
  0
TEXT
  5
2AC
100
AcDbEntity
  8
0
 62
               3
100
AcDbText
 10
1.3999999999999986
 20
-95.099999999999994
 30
0.0
 40
3.0
  1
２３５
 41
0.5
 72
               1
 11
1.3999999999999986
 21
-95.099999999999994
 31
0.0
100
AcDbText
 73
               2
  0
TEXT
  5
2AD
100
AcDbEntity
  8
0
 62
               3
100
AcDbText
 10
-8.2000000000000028
 20
-79.100000000000051
 30
0.0
 40
3.0
  1
Ｅ
 41
0.5
 72
               1
 11
-8.2000000000000028
 21
-79.100000000000051
 31
0.0
100
AcDbText
 73
               2
  0
TEXT
  5
2AE
100
AcDbEntity
  8
0
 62
               3
100
AcDbText
 10
-8.2000000000000028
 20
-87.100000000000023
 30
0.0
 40
3.0
  1
２７０
 41
0.5
 72
               1
 11
-8.2000000000000028
 21
-87.100000000000023
 31
0.0
100
AcDbText
 73
               2
  0
TEXT
  5
2AF
100
AcDbEntity
  8
0
 62
               3
100
AcDbText
 10
-8.2000000000000028
 20
-95.099999999999994
 30
0.0
 40
3.0
  1
３３０
 41
0.5
 72
               1
 11
-8.2000000000000028
 21
-95.099999999999994
 31
0.0
100
AcDbText
 73
               2
  0
TEXT
  5
2B0
100
AcDbEntity
  8
0
 62
               3
100
AcDbText
 10
-17.800000000000004
 20
-79.100000000000051
 30
0.0
 40
3.0
  1
Ｂ
 41
0.5
 72
               1
 11
-17.800000000000004
 21
-79.100000000000051
 31
0.0
100
AcDbText
 73
               2
  0
TEXT
  5
2B1
100
AcDbEntity
  8
0
 62
               3
100
AcDbText
 10
-17.800000000000004
 20
-87.100000000000023
 30
0.0
 40
3.0
  1
２２０
 41
0.5
 72
               1
 11
-17.800000000000004
 21
-87.100000000000023
 31
0.0
100
AcDbText
 73
               2
  0
TEXT
  5
2B2
100
AcDbEntity
  8
0
 62
               3
100
AcDbText
 10
-17.800000000000004
 20
-95.099999999999994
 30
0.0
 40
3.0
  1
２６０
 41
0.5
 72
               1
 11
-17.800000000000004
 21
-95.099999999999994
 31
0.0
100
AcDbText
 73
               2
  0
TEXT
  5
2B3
100
AcDbEntity
  8
0
 62
               3
100
AcDbText
 10
-27.400000000000006
 20
-79.100000000000051
 30
0.0
 40
3.0
  1
ｔ
 41
0.5
 72
               1
 11
-27.400000000000006
 21
-79.100000000000051
 31
0.0
100
AcDbText
 73
               2
  0
TEXT
  5
2B4
100
AcDbEntity
  8
0
 62
               3
100
AcDbText
 10
-27.400000000000006
 20
-87.100000000000023
 30
0.0
 40
3.0
  1
６
 41
0.5
 72
               1
 11
-27.400000000000006
 21
-87.100000000000023
 31
0.0
100
AcDbText
 73
               2
  0
TEXT
  5
2B5
100
AcDbEntity
  8
0
 62
               3
100
AcDbText
 10
-27.400000000000006
 20
-95.09999999999998
 30
0.0
 40
3.0
  1
６
 41
0.5
 72
               1
 11
-27.400000000000006
 21
-95.09999999999998
 31
0.0
100
AcDbText
 73
               2
  0
TEXT
  5
2B6
100
AcDbEntity
  8
0
 62
               3
100
AcDbText
 10
-38.200000000000003
 20
-79.100000000000051
 30
0.0
 40
3.0
  1
Ｈ
 41
0.5
 72
               1
 11
-38.200000000000003
 21
-79.100000000000051
 31
0.0
100
AcDbText
 73
               2
  0
TEXT
  5
2B7
100
AcDbEntity
  8
0
 62
               3
100
AcDbText
 10
-38.200000000000003
 20
-85.100000000000051
 30
0.0
 40
3.0
  1
１６４０
 41
0.5
 72
               1
 11
-38.200000000000003
 21
-85.100000000000051
 31
0.0
100
AcDbText
 73
               2
  0
TEXT
  5
2B8
100
AcDbEntity
  8
0
 62
               3
100
AcDbText
 10
-38.200000000000003
 20
-89.100000000000023
 30
0.0
 40
3.0
  1
１１４０
 41
0.5
 72
               1
 11
-38.200000000000003
 21
-89.100000000000023
 31
0.0
100
AcDbText
 73
               2
  0
TEXT
  5
2B9
100
AcDbEntity
  8
0
 62
               3
100
AcDbText
 10
-38.200000000000003
 20
-93.099999999999994
 30
0.0
 40
3.0
  1
１６８０
 41
0.5
 72
               1
 11
-38.200000000000003
 21
-93.099999999999994
 31
0.0
100
AcDbText
 73
               2
  0
TEXT
  5
2BA
100
AcDbEntity
  8
0
 62
               3
100
AcDbText
 10
-38.200000000000003
 20
-97.100000000000009
 30
0.0
 40
3.0
  1
１１８０
 41
0.5
 72
               1
 11
-38.200000000000003
 21
-97.100000000000009
 31
0.0
100
AcDbText
 73
               2
  0
TEXT
  5
2BB
100
AcDbEntity
  8
0
 62
               3
100
AcDbText
 10
-48.200000000000003
 20
-79.100000000000051
 30
0.0
 40
3.0
  1
Ｄ
 41
0.5
 72
               1
 11
-48.200000000000003
 21
-79.100000000000051
 31
0.0
100
AcDbText
 73
               2
  0
TEXT
  5
2BC
100
AcDbEntity
  8
0
 62
               3
100
AcDbText
 10
-48.200000000000003
 20
-85.100000000000051
 30
0.0
 40
3.0
  1
１２５
 41
0.5
 72
               1
 11
-48.200000000000003
 21
-85.100000000000051
 31
0.0
100
AcDbText
 73
               2
  0
TEXT
  5
2BD
100
AcDbEntity
  8
0
 62
               3
100
AcDbText
 10
-48.200000000000003
 20
-89.100000000000023
 30
0.0
 40
3.0
  1
１２５
 41
0.5
 72
               1
 11
-48.200000000000003
 21
-89.100000000000023
 31
0.0
100
AcDbText
 73
               2
  0
TEXT
  5
2BE
100
AcDbEntity
  8
0
 62
               3
100
AcDbText
 10
-48.200000000000003
 20
-93.099999999999994
 30
0.0
 40
3.0
  1
１２５
 41
0.5
 72
               1
 11
-48.200000000000003
 21
-93.099999999999994
 31
0.0
100
AcDbText
 73
               2
  0
TEXT
  5
2BF
100
AcDbEntity
  8
0
 62
               3
100
AcDbText
 10
-48.200000000000003
 20
-97.100000000000009
 30
0.0
 40
3.0
  1
１２５
 41
0.5
 72
               1
 11
-48.200000000000003
 21
-97.100000000000009
 31
0.0
100
AcDbText
 73
               2
  0
TEXT
  5
2C0
100
AcDbEntity
  8
0
 62
               3
100
AcDbText
 10
-57.800000000000004
 20
-79.100000000000051
 30
0.0
 40
3.0
  1
呼び
 41
0.5
 72
               1
 11
-57.800000000000004
 21
-79.100000000000051
 31
0.0
100
AcDbText
 73
               2
  0
TEXT
  5
2C1
100
AcDbEntity
  8
0
 62
               3
100
AcDbText
 10
-57.800000000000004
 20
-85.100000000000051
 30
0.0
 40
3.0
  1
１２５
 41
0.5
 72
               1
 11
-57.800000000000004
 21
-85.100000000000051
 31
0.0
100
AcDbText
 73
               2
  0
TEXT
  5
2C2
100
AcDbEntity
  8
0
 62
               3
100
AcDbText
 10
-57.800000000000004
 20
-89.100000000000023
 30
0.0
 40
3.0
  1
１２５
 41
0.5
 72
               1
 11
-57.800000000000004
 21
-89.100000000000023
 31
0.0
100
AcDbText
 73
               2
  0
TEXT
  5
2C3
100
AcDbEntity
  8
0
 62
               3
100
AcDbText
 10
-57.800000000000004
 20
-93.099999999999994
 30
0.0
 40
3.0
  1
１２５
 41
0.5
 72
               1
 11
-57.800000000000004
 21
-93.099999999999994
 31
0.0
100
AcDbText
 73
               2
  0
TEXT
  5
2C4
100
AcDbEntity
  8
0
 62
               3
100
AcDbText
 10
-57.800000000000004
 20
-97.100000000000009
 30
0.0
 40
3.0
  1
１２５
 41
0.5
 72
               1
 11
-57.800000000000004
 21
-97.100000000000009
 31
0.0
100
AcDbText
 73
               2
  0
TEXT
  5
2C5
100
AcDbEntity
  8
0
 62
               3
100
AcDbText
 10
-72.599999999999994
 20
-85.100000000000051
 30
0.0
 40
3.0
  1
Ｂ６－１Ａ
 41
0.5
 72
               1
 11
-72.599999999999994
 21
-85.100000000000051
 31
0.0
100
AcDbText
 73
               2
  0
TEXT
  5
2C6
100
AcDbEntity
  8
0
 62
               3
100
AcDbText
 10
-72.599999999999994
 20
-89.100000000000023
 30
0.0
 40
3.0
  1
Ｂ６－１Ｂ
 41
0.5
 72
               1
 11
-72.599999999999994
 21
-89.100000000000023
 31
0.0
100
AcDbText
 73
               2
  0
TEXT
  5
2C7
100
AcDbEntity
  8
0
 62
               3
100
AcDbText
 10
-72.599999999999994
 20
-93.099999999999994
 30
0.0
 40
3.0
  1
Ｂ６－２Ａ
 41
0.5
 72
               1
 11
-72.599999999999994
 21
-93.099999999999994
 31
0.0
100
AcDbText
 73
               2
  0
TEXT
  5
2C8
100
AcDbEntity
  8
0
 62
               3
100
AcDbText
 10
-72.599999999999994
 20
-97.09999999999998
 30
0.0
 40
3.0
  1
Ｂ６－２Ｂ
 41
0.5
 72
               1
 11
-72.599999999999994
 21
-97.09999999999998
 31
0.0
100
AcDbText
 73
               2
  0
TEXT
  5
2C9
100
AcDbEntity
  8
0
 62
               3
100
AcDbText
 10
-19.399999999999999
 20
-48.300000000000026
 30
0.0
 40
2.8000000000000003
  1
表　面　処　理
 41
0.8
 72
               1
 11
-19.399999999999999
 21
-48.300000000000026
 31
0.0
100
AcDbText
 73
               2
  0
TEXT
  5
2CA
100
AcDbEntity
  8
0
 62
               3
100
AcDbText
 10
-43.0
 20
-48.300000000000026
 30
0.0
 40
2.8000000000000003
  1
材　料　名
 41
0.8
 72
               1
 11
-43.0
 21
-48.300000000000026
 31
0.0
100
AcDbText
 73
               2
  0
TEXT
  5
2CB
100
AcDbEntity
  8
0
 62
               3
100
AcDbText
 10
-65.0
 20
-48.300000000000026
 30
0.0
 40
2.8000000000000003
  1
名　　　称
 41
0.8
 72
               1
 11
-65.0
 21
-48.300000000000026
 31
0.0
100
AcDbText
 73
               2
  0
TEXT
  5
2CC
100
AcDbEntity
  8
0
 62
               3
100
AcDbText
 10
-79.800000000000011
 20
-48.300000000000026
 30
0.0
 40
2.8000000000000003
  1
番号
 41
0.8
 72
               1
 11
-79.800000000000011
 21
-48.300000000000026
 31
0.0
100
AcDbText
 73
               2
  0
TEXT
  5
2CD
100
AcDbEntity
  8
0
 62
               3
100
AcDbText
 10
-43.0
 20
-53.100000000000023
 30
0.0
 40
2.8000000000000003
  1
ＦＣ２００
 41
0.8
 72
               1
 11
-43.0
 21
-53.100000000000023
 31
0.0
100
AcDbText
 73
               2
  0
TEXT
  5
2CE
100
AcDbEntity
  8
0
 62
               3
100
AcDbText
 10
-65.0
 20
-53.100000000000023
 30
0.0
 40
2.8000000000000003
  1
ふ　　た
 41
0.8
 72
               1
 11
-65.0
 21
-53.100000000000023
 31
0.0
100
AcDbText
 73
               2
  0
TEXT
  5
2CF
100
AcDbEntity
  8
0
 62
               3
100
AcDbText
 10
-65.0
 20
-57.100000000000023
 30
0.0
 40
2.8000000000000003
  1
枠
 41
0.8
 72
               1
 11
-65.0
 21
-57.100000000000023
 31
0.0
100
AcDbText
 73
               2
  0
TEXT
  5
2D0
100
AcDbEntity
  8
0
 62
               3
100
AcDbText
 10
-65.0
 20
-61.100000000000023
 30
0.0
 40
2.8000000000000003
  1
台
 41
0.8
 72
               1
 11
-65.0
 21
-61.100000000000023
 31
0.0
100
AcDbText
 73
               2
  0
TEXT
  5
2D1
100
AcDbEntity
  8
0
 62
               3
100
AcDbText
 10
-43.0
 20
-57.100000000000023
 30
0.0
 40
2.8000000000000003
  1
ＦＣ２００
 41
0.8
 72
               1
 11
-43.0
 21
-57.100000000000023
 31
0.0
100
AcDbText
 73
               2
  0
TEXT
  5
2D2
100
AcDbEntity
  8
0
 62
               3
100
AcDbText
 10
-43.0
 20
-61.100000000000023
 30
0.0
 40
2.8000000000000003
  1
ＦＣ２００
 41
0.8
 72
               1
 11
-43.0
 21
-61.100000000000023
 31
0.0
100
AcDbText
 73
               2
  0
TEXT
  5
2D3
100
AcDbEntity
  8
0
 62
               3
100
AcDbText
 10
-72.599999999999994
 20
-79.100000000000023
 30
0.0
 40
3.0
  1
品　　番
 41
0.5
 72
               1
 11
-72.599999999999994
 21
-79.100000000000023
 31
0.0
100
AcDbText
 73
               2
  0
TEXT
  5
2D4
100
AcDbEntity
  8
0
 62
               3
100
AcDbText
 10
-0.2810437933287844
 20
-51.663038583957359
 30
0.0
 40
2.7999999999999998
  1
◎④接続管は付属しません。
 41
0.8
 11
-0.2810437933287844
 21
-51.663038583957359
 31
0.0
100
AcDbText
 73
               3
  0
TEXT
  5
2D5
100
AcDbEntity
  8
0
 62
               3
100
AcDbText
 10
-21.738498929338931
 20
-53.186070552542844
 30
0.0
 40
2.7999999999999998
  1
水溶性合成樹脂焼付塗装
 41
0.8
 11
-31.818498929338933
 21
-51.786070552542846
 31
0.0
100
AcDbText
 73
               3
  0
TEXT
  5
2D6
100
AcDbEntity
  8
0
 62
               3
100
AcDbText
 10
-21.738498929338931
 20
-57.186070552542844
 30
0.0
 40
2.7999999999999998
  1
水溶性合成樹脂焼付塗装
 41
0.8
 11
-31.818498929338933
 21
-55.786070552542846
 31
0.0
100
AcDbText
 73
               3
  0
TEXT
  5
2D7
100
AcDbEntity
  8
0
 62
               3
100
AcDbText
 10
-21.738498929338931
 20
-61.186070552542844
 30
0.0
 40
2.7999999999999998
  1
水溶性合成樹脂焼付塗装
 41
0.8
 11
-31.818498929338933
 21
-59.786070552542846
 31
0.0
100
AcDbText
 73
               3
  0
TEXT
  5
2D8
100
AcDbEntity
  8
0
 62
               3
100
AcDbText
 10
38.70000000000006
 20
-130.99999999999997
 30
0.0
 40
4.0
  1
２０１２．１０．３１
 41
0.5
 72
               1
 11
38.70000000000006
 21
-130.99999999999997
 31
0.0
100
AcDbText
 73
               2
  0
LINE
  5
2D9
100
AcDbEntity
  8
0
  6
CONTINUOUS
 62
               3
100
AcDbLine
 10
-84.999999999999972
 20
-101.49999999999999
 30
0.0
 11
95.000000000000057
 21
-101.49999999999999
 31
0.0
  0
ARC
  5
2DA
100
AcDbEntity
  8
0
  6
CONTINUOUS
 62
               3
100
AcDbCircle
 10
0.0
 20
105.00406890004068
 30
0.0
 40
8.1000000000000014
100
AcDbArc
 50
19.248767072481936
 51
340.75123292751726
  0
ARC
  5
2DB
100
AcDbEntity
  8
0
  6
CONTINUOUS
 62
               3
100
AcDbCircle
 10
8.5912746434973002
 20
102.00406890004068
 30
0.0
 40
1.0
100
AcDbArc
 50
89.999999999999787
 51
160.75123292751766
  0
LINE
  5
2DC
100
AcDbEntity
  8
0
  6
CONTINUOUS
 62
               3
100
AcDbLine
 10
8.5912746434973002
 20
107.00406890004068
 30
0.0
 11
11.700000000000017
 21
107.00406890004068
 31
0.0
  0
LINE
  5
2DD
100
AcDbEntity
  8
0
  6
CONTINUOUS
 62
               3
100
AcDbLine
 10
12.0
 20
106.70406890004067
 30
0.0
 11
12.0
 21
103.30406890004069
 31
0.0
  0
ARC
  5
2DE
100
AcDbEntity
  8
0
  6
CONTINUOUS
 62
               3
100
AcDbCircle
 10
11.700000000000017
 20
103.30406890004069
 30
0.0
 40
0.3
100
AcDbArc
 50
269.99999999999932
 51
359.9999999999992
  0
ARC
  5
2DF
100
AcDbEntity
  8
0
  6
CONTINUOUS
 62
               3
100
AcDbCircle
 10
11.700000000000017
 20
106.70406890004067
 30
0.0
 40
0.3
100
AcDbArc
 50
0.0
 51
89.999999999999787
  0
LINE
  5
2E0
100
AcDbEntity
  8
0
  6
CONTINUOUS
 62
               3
100
AcDbLine
 10
2.3999999999999915
 20
105.80406890004069
 30
0.0
 11
3.1999999999999886
 21
105.80406890004069
 31
0.0
  0
LINE
  5
2E1
100
AcDbEntity
  8
0
  6
CONTINUOUS
 62
               3
100
AcDbLine
 10
3.1999999999999886
 20
105.80406890004069
 30
0.0
 11
3.1999999999999886
 21
104.20406890004067
 31
0.0
  0
LINE
  5
2E2
100
AcDbEntity
  8
0
  6
CONTINUOUS
 62
               3
100
AcDbLine
 10
3.1999999999999886
 20
104.20406890004067
 30
0.0
 11
2.3999999999999915
 21
104.20406890004067
 31
0.0
  0
LINE
  5
2E3
100
AcDbEntity
  8
0
  6
CONTINUOUS
 62
               3
100
AcDbLine
 10
2.25
 20
105.95406890004067
 30
0.0
 11
3.3499999999999801
 21
105.95406890004067
 31
0.0
  0
LINE
  5
2E4
100
AcDbEntity
  8
0
  6
CONTINUOUS
 62
               3
100
AcDbLine
 10
3.3499999999999801
 20
105.95406890004067
 30
0.0
 11
3.3499999999999801
 21
104.05406890004069
 31
0.0
  0
LINE
  5
2E5
100
AcDbEntity
  8
0
  6
CONTINUOUS
 62
               3
100
AcDbLine
 10
3.3499999999999801
 20
104.05406890004069
 30
0.0
 11
2.25
 21
104.05406890004069
 31
0.0
  0
LINE
  5
2E6
100
AcDbEntity
  8
0
  6
CONTINUOUS
 62
               3
100
AcDbLine
 10
3.9999999999999858
 20
105.80406890004069
 30
0.0
 11
5.5999999999999801
 21
105.80406890004069
 31
0.0
  0
LINE
  5
2E7
100
AcDbEntity
  8
0
  6
CONTINUOUS
 62
               3
100
AcDbLine
 10
5.5999999999999801
 20
105.80406890004069
 30
0.0
 11
5.5999999999999801
 21
104.20406890004067
 31
0.0
  0
LINE
  5
2E8
100
AcDbEntity
  8
0
  6
CONTINUOUS
 62
               3
100
AcDbLine
 10
5.5999999999999801
 20
104.20406890004067
 30
0.0
 11
3.9999999999999858
 21
104.20406890004067
 31
0.0
  0
LINE
  5
2E9
100
AcDbEntity
  8
0
  6
CONTINUOUS
 62
               3
100
AcDbLine
 10
3.9999999999999858
 20
104.20406890004067
 30
0.0
 11
3.9999999999999858
 21
105.80406890004069
 31
0.0
  0
LINE
  5
2EA
100
AcDbEntity
  8
0
  6
CONTINUOUS
 62
               3
100
AcDbLine
 10
3.8499999999999943
 20
105.95406890004067
 30
0.0
 11
5.7500000000000142
 21
105.95406890004067
 31
0.0
  0
LINE
  5
2EB
100
AcDbEntity
  8
0
  6
CONTINUOUS
 62
               3
100
AcDbLine
 10
5.7500000000000142
 20
105.95406890004067
 30
0.0
 11
5.7500000000000142
 21
104.05406890004069
 31
0.0
  0
LINE
  5
2EC
100
AcDbEntity
  8
0
  6
CONTINUOUS
 62
               3
100
AcDbLine
 10
5.7500000000000142
 20
104.05406890004069
 30
0.0
 11
3.8499999999999943
 21
104.05406890004069
 31
0.0
  0
LINE
  5
2ED
100
AcDbEntity
  8
0
  6
CONTINUOUS
 62
               3
100
AcDbLine
 10
3.8499999999999943
 20
104.05406890004069
 30
0.0
 11
3.8499999999999943
 21
105.95406890004067
 31
0.0
  0
LINE
  5
2EE
100
AcDbEntity
  8
0
  6
CONTINUOUS
 62
               3
100
AcDbLine
 10
6.3999999999999773
 20
105.80406890004069
 30
0.0
 11
7.0547856097829111
 21
105.80406890004069
 31
0.0
  0
LINE
  5
2EF
100
AcDbEntity
  8
0
  6
CONTINUOUS
 62
               3
100
AcDbLine
 10
7.0547856097829111
 20
104.20406890004067
 30
0.0
 11
6.3999999999999773
 21
104.20406890004067
 31
0.0
  0
LINE
  5
2F0
100
AcDbEntity
  8
0
  6
CONTINUOUS
 62
               3
100
AcDbLine
 10
6.3999999999999773
 20
104.20406890004067
 30
0.0
 11
6.3999999999999773
 21
105.80406890004069
 31
0.0
  0
LINE
  5
2F1
100
AcDbEntity
  8
0
  6
CONTINUOUS
 62
               3
100
AcDbLine
 10
6.2499999999999858
 20
105.95406890004067
 30
0.0
 11
7.1874891304265844
 21
105.95406890004067
 31
0.0
  0
LINE
  5
2F2
100
AcDbEntity
  8
0
  6
CONTINUOUS
 62
               3
100
AcDbLine
 10
7.1874891304265844
 20
104.05406890004069
 30
0.0
 11
6.2499999999999858
 21
104.05406890004069
 31
0.0
  0
LINE
  5
2F3
100
AcDbEntity
  8
0
  6
CONTINUOUS
 62
               3
100
AcDbLine
 10
6.2499999999999858
 20
104.05406890004069
 30
0.0
 11
6.2499999999999858
 21
105.95406890004067
 31
0.0
  0
LINE
  5
2F4
100
AcDbEntity
  8
0
  6
CONTINUOUS
 62
               3
100
AcDbLine
 10
2.3999999999999915
 20
108.20406890004067
 30
0.0
 11
3.1999999999999886
 21
108.20406890004067
 31
0.0
  0
LINE
  5
2F5
100
AcDbEntity
  8
0
  6
CONTINUOUS
 62
               3
100
AcDbLine
 10
3.1999999999999886
 20
108.20406890004067
 30
0.0
 11
3.1999999999999886
 21
106.6040689000407
 31
0.0
  0
LINE
  5
2F6
100
AcDbEntity
  8
0
  6
CONTINUOUS
 62
               3
100
AcDbLine
 10
3.1999999999999886
 20
106.6040689000407
 30
0.0
 11
2.3999999999999915
 21
106.6040689000407
 31
0.0
  0
LINE
  5
2F7
100
AcDbEntity
  8
0
  6
CONTINUOUS
 62
               3
100
AcDbLine
 10
2.25
 20
108.3540689000407
 30
0.0
 11
3.3499999999999801
 21
108.3540689000407
 31
0.0
  0
LINE
  5
2F8
100
AcDbEntity
  8
0
  6
CONTINUOUS
 62
               3
100
AcDbLine
 10
3.3499999999999801
 20
108.3540689000407
 30
0.0
 11
3.3499999999999801
 21
106.4540689000407
 31
0.0
  0
LINE
  5
2F9
100
AcDbEntity
  8
0
  6
CONTINUOUS
 62
               3
100
AcDbLine
 10
3.3499999999999801
 20
106.4540689000407
 30
0.0
 11
2.25
 21
106.4540689000407
 31
0.0
  0
LINE
  5
2FA
100
AcDbEntity
  8
0
  6
CONTINUOUS
 62
               3
100
AcDbLine
 10
3.9999999999999858
 20
108.20406890004067
 30
0.0
 11
5.5999999999999801
 21
108.20406890004067
 31
0.0
  0
LINE
  5
2FB
100
AcDbEntity
  8
0
  6
CONTINUOUS
 62
               3
100
AcDbLine
 10
5.5999999999999801
 20
108.20406890004067
 30
0.0
 11
5.5999999999999801
 21
106.6040689000407
 31
0.0
  0
LINE
  5
2FC
100
AcDbEntity
  8
0
  6
CONTINUOUS
 62
               3
100
AcDbLine
 10
5.5999999999999801
 20
106.6040689000407
 30
0.0
 11
3.9999999999999858
 21
106.6040689000407
 31
0.0
  0
LINE
  5
2FD
100
AcDbEntity
  8
0
  6
CONTINUOUS
 62
               3
100
AcDbLine
 10
3.9999999999999858
 20
106.6040689000407
 30
0.0
 11
3.9999999999999858
 21
108.20406890004067
 31
0.0
  0
LINE
  5
2FE
100
AcDbEntity
  8
0
  6
CONTINUOUS
 62
               3
100
AcDbLine
 10
3.8499999999999943
 20
108.3540689000407
 30
0.0
 11
5.7500000000000142
 21
108.3540689000407
 31
0.0
  0
LINE
  5
2FF
100
AcDbEntity
  8
0
  6
CONTINUOUS
 62
               3
100
AcDbLine
 10
5.7500000000000142
 20
108.3540689000407
 30
0.0
 11
5.7500000000000142
 21
106.4540689000407
 31
0.0
  0
LINE
  5
300
100
AcDbEntity
  8
0
  6
CONTINUOUS
 62
               3
100
AcDbLine
 10
5.7500000000000142
 20
106.4540689000407
 30
0.0
 11
3.8499999999999943
 21
106.4540689000407
 31
0.0
  0
LINE
  5
301
100
AcDbEntity
  8
0
  6
CONTINUOUS
 62
               3
100
AcDbLine
 10
3.8499999999999943
 20
106.4540689000407
 30
0.0
 11
3.8499999999999943
 21
108.3540689000407
 31
0.0
  0
LINE
  5
302
100
AcDbEntity
  8
0
  6
CONTINUOUS
 62
               3
100
AcDbLine
 10
6.9173694422084964
 20
106.6040689000407
 30
0.0
 11
6.3999999999999773
 21
106.6040689000407
 31
0.0
  0
LINE
  5
303
100
AcDbEntity
  8
0
  6
CONTINUOUS
 62
               3
100
AcDbLine
 10
6.3999999999999773
 20
106.6040689000407
 30
0.0
 11
6.3999999999999773
 21
108.07815412982858
 31
0.0
  0
LINE
  5
304
100
AcDbEntity
  8
0
  6
CONTINUOUS
 62
               3
100
AcDbLine
 10
6.2499999999999858
 20
108.3540689000407
 30
0.0
 11
6.4296189622713911
 21
108.3540689000407
 31
0.0
  0
LINE
  5
305
100
AcDbEntity
  8
0
  6
CONTINUOUS
 62
               3
100
AcDbLine
 10
7.1035202540711992
 20
106.4540689000407
 30
0.0
 11
6.2499999999999858
 21
106.4540689000407
 31
0.0
  0
LINE
  5
306
100
AcDbEntity
  8
0
  6
CONTINUOUS
 62
               3
100
AcDbLine
 10
6.2499999999999858
 20
106.4540689000407
 30
0.0
 11
6.2499999999999858
 21
108.3540689000407
 31
0.0
  0
LINE
  5
307
100
AcDbEntity
  8
0
  6
CONTINUOUS
 62
               3
100
AcDbLine
 10
0.0
 20
110.6040689000407
 30
0.0
 11
0.7999999999999972
 21
110.6040689000407
 31
0.0
  0
LINE
  5
308
100
AcDbEntity
  8
0
  6
CONTINUOUS
 62
               3
100
AcDbLine
 10
0.7999999999999972
 20
110.6040689000407
 30
0.0
 11
0.7999999999999972
 21
110.25556968993008
 31
0.0
  0
LINE
  5
309
100
AcDbEntity
  8
0
  6
CONTINUOUS
 62
               3
100
AcDbLine
 10
0.7999999999999972
 20
109.97248519084813
 30
0.0
 11
0.7999999999999972
 21
109.65406890004068
 31
0.0
  0
LINE
  5
30A
100
AcDbEntity
  8
0
  6
CONTINUOUS
 62
               3
100
AcDbLine
 10
0.0
 20
110.75406890004068
 30
0.0
 11
0.9499999999999886
 21
110.75406890004068
 31
0.0
  0
LINE
  5
30B
100
AcDbEntity
  8
0
  6
CONTINUOUS
 62
               3
100
AcDbLine
 10
0.9499999999999886
 20
110.75406890004068
 30
0.0
 11
0.9499999999999886
 21
110.25556968993008
 31
0.0
  0
LINE
  5
30C
100
AcDbEntity
  8
0
  6
CONTINUOUS
 62
               3
100
AcDbLine
 10
0.9499999999999886
 20
109.97248519084813
 30
0.0
 11
0.9499999999999886
 21
109.50406890004068
 31
0.0
  0
LINE
  5
30D
100
AcDbEntity
  8
0
  6
CONTINUOUS
 62
               3
100
AcDbLine
 10
1.5999999999999943
 20
110.6040689000407
 30
0.0
 11
3.1999999999999886
 21
110.6040689000407
 31
0.0
  0
LINE
  5
30E
100
AcDbEntity
  8
0
  6
CONTINUOUS
 62
               3
100
AcDbLine
 10
3.1999999999999886
 20
110.6040689000407
 30
0.0
 11
3.1999999999999886
 21
109.00406890004071
 31
0.0
  0
LINE
  5
30F
100
AcDbEntity
  8
0
  6
CONTINUOUS
 62
               3
100
AcDbLine
 10
3.1999999999999886
 20
109.00406890004071
 30
0.0
 11
2.3513878188659874
 21
109.00406890004071
 31
0.0
  0
LINE
  5
310
100
AcDbEntity
  8
0
  6
CONTINUOUS
 62
               3
100
AcDbLine
 10
1.5999999999999943
 20
109.64215205200536
 30
0.0
 11
1.5999999999999943
 21
110.6040689000407
 31
0.0
  0
LINE
  5
311
100
AcDbEntity
  8
0
  6
CONTINUOUS
 62
               3
100
AcDbLine
 10
1.4500000000000028
 20
110.75406890004068
 30
0.0
 11
3.3499999999999801
 21
110.75406890004068
 31
0.0
  0
LINE
  5
312
100
AcDbEntity
  8
0
  6
CONTINUOUS
 62
               3
100
AcDbLine
 10
3.3499999999999801
 20
110.75406890004068
 30
0.0
 11
3.3499999999999801
 21
108.8540689000407
 31
0.0
  0
LINE
  5
313
100
AcDbEntity
  8
0
  6
CONTINUOUS
 62
               3
100
AcDbLine
 10
3.3499999999999801
 20
108.8540689000407
 30
0.0
 11
2.2358116822750702
 21
108.8540689000407
 31
0.0
  0
LINE
  5
314
100
AcDbEntity
  8
0
  6
CONTINUOUS
 62
               3
100
AcDbLine
 10
1.4500000000000028
 20
109.50406890004068
 30
0.0
 11
1.4500000000000028
 21
110.75406890004068
 31
0.0
  0
LINE
  5
315
100
AcDbEntity
  8
0
  6
CONTINUOUS
 62
               3
100
AcDbLine
 10
3.9999999999999858
 20
110.6040689000407
 30
0.0
 11
4.3646305685590363
 21
110.6040689000407
 31
0.0
  0
LINE
  5
316
100
AcDbEntity
  8
0
  6
CONTINUOUS
 62
               3
100
AcDbLine
 10
5.5999999999999801
 20
109.36869946859973
 30
0.0
 11
5.5999999999999801
 21
109.00406890004071
 31
0.0
  0
LINE
  5
317
100
AcDbEntity
  8
0
  6
CONTINUOUS
 62
               3
100
AcDbLine
 10
5.5999999999999801
 20
109.00406890004071
 30
0.0
 11
3.9999999999999858
 21
109.00406890004071
 31
0.0
  0
LINE
  5
318
100
AcDbEntity
  8
0
  6
CONTINUOUS
 62
               3
100
AcDbLine
 10
3.9999999999999858
 20
109.00406890004071
 30
0.0
 11
3.9999999999999858
 21
110.6040689000407
 31
0.0
  0
LINE
  5
319
100
AcDbEntity
  8
0
  6
CONTINUOUS
 62
               3
100
AcDbLine
 10
3.8499999999999943
 20
110.75406890004068
 30
0.0
 11
4.4158804331639345
 21
110.75406890004068
 31
0.0
  0
LINE
  5
31A
100
AcDbEntity
  8
0
  6
CONTINUOUS
 62
               3
100
AcDbLine
 10
5.7500000000000142
 20
109.4199493332046
 30
0.0
 11
5.7500000000000142
 21
108.8540689000407
 31
0.0
  0
LINE
  5
31B
100
AcDbEntity
  8
0
  6
CONTINUOUS
 62
               3
100
AcDbLine
 10
5.7500000000000142
 20
108.8540689000407
 30
0.0
 11
3.8499999999999943
 21
108.8540689000407
 31
0.0
  0
LINE
  5
31C
100
AcDbEntity
  8
0
  6
CONTINUOUS
 62
               3
100
AcDbLine
 10
3.8499999999999943
 20
108.8540689000407
 30
0.0
 11
3.8499999999999943
 21
110.75406890004068
 31
0.0
  0
LINE
  5
31D
100
AcDbEntity
  8
0
  6
CONTINUOUS
 62
               3
100
AcDbLine
 10
0.7999999999999972
 20
112.05885450982358
 30
0.0
 11
0.7999999999999972
 21
111.40406890004068
 31
0.0
  0
LINE
  5
31E
100
AcDbEntity
  8
0
  6
CONTINUOUS
 62
               3
100
AcDbLine
 10
0.7999999999999972
 20
111.40406890004068
 30
0.0
 11
0.0
 21
111.40406890004068
 31
0.0
  0
LINE
  5
31F
100
AcDbEntity
  8
0
  6
CONTINUOUS
 62
               3
100
AcDbLine
 10
0.9499999999999886
 20
112.19155803046725
 30
0.0
 11
0.9499999999999886
 21
111.25406890004071
 31
0.0
  0
LINE
  5
320
100
AcDbEntity
  8
0
  6
CONTINUOUS
 62
               3
100
AcDbLine
 10
0.9499999999999886
 20
111.25406890004071
 30
0.0
 11
0.0
 21
111.25406890004071
 31
0.0
  0
LINE
  5
321
100
AcDbEntity
  8
0
  6
CONTINUOUS
 62
               3
100
AcDbLine
 10
3.0740852297878831
 20
111.40406890004068
 30
0.0
 11
1.5999999999999943
 21
111.40406890004068
 31
0.0
  0
LINE
  5
322
100
AcDbEntity
  8
0
  6
CONTINUOUS
 62
               3
100
AcDbLine
 10
1.5999999999999943
 20
111.40406890004068
 30
0.0
 11
1.5999999999999943
 21
111.92143834224917
 31
0.0
  0
LINE
  5
323
100
AcDbEntity
  8
0
  6
CONTINUOUS
 62
               3
100
AcDbLine
 10
3.3499999999999801
 20
111.43368786231208
 30
0.0
 11
3.3499999999999801
 21
111.25406890004071
 31
0.0
  0
LINE
  5
324
100
AcDbEntity
  8
0
  6
CONTINUOUS
 62
               3
100
AcDbLine
 10
3.3499999999999801
 20
111.25406890004071
 30
0.0
 11
1.4500000000000028
 21
111.25406890004071
 31
0.0
  0
LINE
  5
325
100
AcDbEntity
  8
0
  6
CONTINUOUS
 62
               3
100
AcDbLine
 10
1.4500000000000028
 20
111.25406890004071
 30
0.0
 11
1.4500000000000028
 21
112.10758915411192
 31
0.0
  0
ARC
  5
326
100
AcDbEntity
  8
0
  6
CONTINUOUS
 62
               3
100
AcDbCircle
 10
0.0
 20
105.00406890004068
 30
0.0
 40
7.25
100
AcDbArc
 50
82.470624804332644
 51
89.999999999999787
  0
ARC
  5
327
100
AcDbEntity
  8
0
  6
CONTINUOUS
 62
               3
100
AcDbCircle
 10
0.0
 20
105.00406890004068
 30
0.0
 40
7.0999999999999996
100
AcDbArc
 50
83.530398389657179
 51
89.999999999999787
  0
ARC
  5
328
100
AcDbEntity
  8
0
  6
CONTINUOUS
 62
               3
100
AcDbCircle
 10
0.0
 20
105.00406890004068
 30
0.0
 40
7.0999999999999996
100
AcDbArc
 50
64.3438238450059
 51
76.976415488151162
  0
ARC
  5
329
100
AcDbEntity
  8
0
  6
CONTINUOUS
 62
               3
100
AcDbCircle
 10
0.0
 20
105.00406890004068
 30
0.0
 40
7.0999999999999996
100
AcDbArc
 50
37.932790919334067
 51
52.067209080665862
  0
ARC
  5
32A
100
AcDbEntity
  8
0
  6
CONTINUOUS
 62
               3
100
AcDbCircle
 10
0.0
 20
105.00406890004068
 30
0.0
 40
7.0999999999999996
100
AcDbArc
 50
13.023584511848679
 51
25.656176154994125
  0
ARC
  5
32B
100
AcDbEntity
  8
0
  6
CONTINUOUS
 62
               3
100
AcDbCircle
 10
0.0
 20
105.00406890004068
 30
0.0
 40
7.25
100
AcDbArc
 50
62.479305145788743
 51
78.463040967184369
  0
ARC
  5
32C
100
AcDbEntity
  8
0
  6
CONTINUOUS
 62
               3
100
AcDbCircle
 10
0.0
 20
105.00406890004068
 30
0.0
 40
7.25
100
AcDbArc
 50
37.523513202113961
 51
52.476486797885961
  0
ARC
  5
32D
100
AcDbEntity
  8
0
  6
CONTINUOUS
 62
               3
100
AcDbCircle
 10
0.0
 20
105.00406890004068
 30
0.0
 40
7.25
100
AcDbArc
 50
11.536959032815474
 51
27.520694854211083
  0
ARC
  5
32E
100
AcDbEntity
  8
0
  6
CONTINUOUS
 62
               3
100
AcDbCircle
 10
0.0
 20
105.00406890004068
 30
0.0
 40
7.0999999999999996
100
AcDbArc
 50
353.53039838965651
 51
366.46960161034178
  0
ARC
  5
32F
100
AcDbEntity
  8
0
  6
CONTINUOUS
 62
               3
100
AcDbCircle
 10
0.0
 20
105.00406890004068
 30
0.0
 40
7.25
100
AcDbArc
 50
352.47062480433203
 51
367.52937519566638
  0
LINE
  5
330
100
AcDbEntity
  8
0
  6
CONTINUOUS
 62
               3
100
AcDbLine
 10
2.3999999999999915
 20
101.80406890004069
 30
0.0
 11
3.1999999999999886
 21
101.80406890004069
 31
0.0
  0
LINE
  5
331
100
AcDbEntity
  8
0
  6
CONTINUOUS
 62
               3
100
AcDbLine
 10
3.1999999999999886
 20
101.80406890004069
 30
0.0
 11
3.1999999999999886
 21
103.40406890004068
 31
0.0
  0
LINE
  5
332
100
AcDbEntity
  8
0
  6
CONTINUOUS
 62
               3
100
AcDbLine
 10
3.1999999999999886
 20
103.40406890004068
 30
0.0
 11
2.3999999999999915
 21
103.40406890004068
 31
0.0
  0
LINE
  5
333
100
AcDbEntity
  8
0
  6
CONTINUOUS
 62
               3
100
AcDbLine
 10
2.25
 20
101.65406890004068
 30
0.0
 11
3.3499999999999801
 21
101.65406890004068
 31
0.0
  0
LINE
  5
334
100
AcDbEntity
  8
0
  6
CONTINUOUS
 62
               3
100
AcDbLine
 10
3.3499999999999801
 20
101.65406890004068
 30
0.0
 11
3.3499999999999801
 21
103.55406890004069
 31
0.0
  0
LINE
  5
335
100
AcDbEntity
  8
0
  6
CONTINUOUS
 62
               3
100
AcDbLine
 10
3.3499999999999801
 20
103.55406890004069
 30
0.0
 11
2.25
 21
103.55406890004069
 31
0.0
  0
LINE
  5
336
100
AcDbEntity
  8
0
  6
CONTINUOUS
 62
               3
100
AcDbLine
 10
3.9999999999999858
 20
101.80406890004069
 30
0.0
 11
5.5999999999999801
 21
101.80406890004069
 31
0.0
  0
LINE
  5
337
100
AcDbEntity
  8
0
  6
CONTINUOUS
 62
               3
100
AcDbLine
 10
5.5999999999999801
 20
101.80406890004069
 30
0.0
 11
5.5999999999999801
 21
103.40406890004068
 31
0.0
  0
LINE
  5
338
100
AcDbEntity
  8
0
  6
CONTINUOUS
 62
               3
100
AcDbLine
 10
5.5999999999999801
 20
103.40406890004068
 30
0.0
 11
3.9999999999999858
 21
103.40406890004068
 31
0.0
  0
LINE
  5
339
100
AcDbEntity
  8
0
  6
CONTINUOUS
 62
               3
100
AcDbLine
 10
3.9999999999999858
 20
103.40406890004068
 30
0.0
 11
3.9999999999999858
 21
101.80406890004069
 31
0.0
  0
LINE
  5
33A
100
AcDbEntity
  8
0
  6
CONTINUOUS
 62
               3
100
AcDbLine
 10
3.8499999999999943
 20
101.65406890004068
 30
0.0
 11
5.7500000000000142
 21
101.65406890004068
 31
0.0
  0
LINE
  5
33B
100
AcDbEntity
  8
0
  6
CONTINUOUS
 62
               3
100
AcDbLine
 10
5.7500000000000142
 20
101.65406890004068
 30
0.0
 11
5.7500000000000142
 21
103.55406890004069
 31
0.0
  0
LINE
  5
33C
100
AcDbEntity
  8
0
  6
CONTINUOUS
 62
               3
100
AcDbLine
 10
5.7500000000000142
 20
103.55406890004069
 30
0.0
 11
3.8499999999999943
 21
103.55406890004069
 31
0.0
  0
LINE
  5
33D
100
AcDbEntity
  8
0
  6
CONTINUOUS
 62
               3
100
AcDbLine
 10
3.8499999999999943
 20
103.55406890004069
 30
0.0
 11
3.8499999999999943
 21
101.65406890004068
 31
0.0
  0
LINE
  5
33E
100
AcDbEntity
  8
0
  6
CONTINUOUS
 62
               3
100
AcDbLine
 10
6.9173694422084964
 20
103.40406890004068
 30
0.0
 11
6.3999999999999773
 21
103.40406890004068
 31
0.0
  0
LINE
  5
33F
100
AcDbEntity
  8
0
  6
CONTINUOUS
 62
               3
100
AcDbLine
 10
6.3999999999999773
 20
103.40406890004068
 30
0.0
 11
6.3999999999999773
 21
101.92998367025278
 31
0.0
  0
LINE
  5
340
100
AcDbEntity
  8
0
  6
CONTINUOUS
 62
               3
100
AcDbLine
 10
6.2499999999999858
 20
101.65406890004068
 30
0.0
 11
6.4296189622713911
 21
101.65406890004068
 31
0.0
  0
LINE
  5
341
100
AcDbEntity
  8
0
  6
CONTINUOUS
 62
               3
100
AcDbLine
 10
7.1035202540711992
 20
103.55406890004069
 30
0.0
 11
6.2499999999999858
 21
103.55406890004069
 31
0.0
  0
LINE
  5
342
100
AcDbEntity
  8
0
  6
CONTINUOUS
 62
               3
100
AcDbLine
 10
6.2499999999999858
 20
103.55406890004069
 30
0.0
 11
6.2499999999999858
 21
101.65406890004068
 31
0.0
  0
LINE
  5
343
100
AcDbEntity
  8
0
  6
CONTINUOUS
 62
               3
100
AcDbLine
 10
0.0
 20
99.404068900040684
 30
0.0
 11
0.7999999999999972
 21
99.404068900040684
 31
0.0
  0
LINE
  5
344
100
AcDbEntity
  8
0
  6
CONTINUOUS
 62
               3
100
AcDbLine
 10
0.7999999999999972
 20
99.404068900040684
 30
0.0
 11
0.7999999999999972
 21
100.35406890004067
 31
0.0
  0
LINE
  5
345
100
AcDbEntity
  8
0
  6
CONTINUOUS
 62
               3
100
AcDbLine
 10
0.0
 20
99.254068900040679
 30
0.0
 11
0.9499999999999886
 21
99.254068900040679
 31
0.0
  0
LINE
  5
346
100
AcDbEntity
  8
0
  6
CONTINUOUS
 62
               3
100
AcDbLine
 10
0.9499999999999886
 20
99.254068900040679
 30
0.0
 11
0.9499999999999886
 21
100.50406890004068
 31
0.0
  0
LINE
  5
347
100
AcDbEntity
  8
0
  6
CONTINUOUS
 62
               3
100
AcDbLine
 10
1.5999999999999943
 20
99.404068900040684
 30
0.0
 11
3.1999999999999886
 21
99.404068900040684
 31
0.0
  0
LINE
  5
348
100
AcDbEntity
  8
0
  6
CONTINUOUS
 62
               3
100
AcDbLine
 10
3.1999999999999886
 20
99.404068900040684
 30
0.0
 11
3.1999999999999886
 21
101.00406890004068
 31
0.0
  0
LINE
  5
349
100
AcDbEntity
  8
0
  6
CONTINUOUS
 62
               3
100
AcDbLine
 10
3.1999999999999886
 20
101.00406890004068
 30
0.0
 11
2.3513878188659874
 21
101.00406890004068
 31
0.0
  0
LINE
  5
34A
100
AcDbEntity
  8
0
  6
CONTINUOUS
 62
               3
100
AcDbLine
 10
1.5999999999999943
 20
100.35406890004067
 30
0.0
 11
1.5999999999999943
 21
99.404068900040684
 31
0.0
  0
LINE
  5
34B
100
AcDbEntity
  8
0
  6
CONTINUOUS
 62
               3
100
AcDbLine
 10
1.4500000000000028
 20
99.254068900040679
 30
0.0
 11
3.3499999999999801
 21
99.254068900040679
 31
0.0
  0
LINE
  5
34C
100
AcDbEntity
  8
0
  6
CONTINUOUS
 62
               3
100
AcDbLine
 10
3.3499999999999801
 20
99.254068900040679
 30
0.0
 11
3.3499999999999801
 21
101.15406890004068
 31
0.0
  0
LINE
  5
34D
100
AcDbEntity
  8
0
  6
CONTINUOUS
 62
               3
100
AcDbLine
 10
3.3499999999999801
 20
101.15406890004068
 30
0.0
 11
2.2358116822750702
 21
101.15406890004068
 31
0.0
  0
LINE
  5
34E
100
AcDbEntity
  8
0
  6
CONTINUOUS
 62
               3
100
AcDbLine
 10
1.4500000000000028
 20
100.50406890004068
 30
0.0
 11
1.4500000000000028
 21
99.254068900040679
 31
0.0
  0
LINE
  5
34F
100
AcDbEntity
  8
0
  6
CONTINUOUS
 62
               3
100
AcDbLine
 10
3.9999999999999858
 20
99.404068900040684
 30
0.0
 11
4.3646305685590363
 21
99.404068900040684
 31
0.0
  0
LINE
  5
350
100
AcDbEntity
  8
0
  6
CONTINUOUS
 62
               3
100
AcDbLine
 10
5.5999999999999801
 20
100.63943833148163
 30
0.0
 11
5.5999999999999801
 21
101.00406890004068
 31
0.0
  0
LINE
  5
351
100
AcDbEntity
  8
0
  6
CONTINUOUS
 62
               3
100
AcDbLine
 10
5.5999999999999801
 20
101.00406890004068
 30
0.0
 11
3.9999999999999858
 21
101.00406890004068
 31
0.0
  0
LINE
  5
352
100
AcDbEntity
  8
0
  6
CONTINUOUS
 62
               3
100
AcDbLine
 10
3.9999999999999858
 20
101.00406890004068
 30
0.0
 11
3.9999999999999858
 21
99.404068900040684
 31
0.0
  0
LINE
  5
353
100
AcDbEntity
  8
0
  6
CONTINUOUS
 62
               3
100
AcDbLine
 10
3.8499999999999943
 20
99.254068900040679
 30
0.0
 11
4.4158804331639345
 21
99.254068900040679
 31
0.0
  0
LINE
  5
354
100
AcDbEntity
  8
0
  6
CONTINUOUS
 62
               3
100
AcDbLine
 10
5.7500000000000142
 20
100.58818846687676
 30
0.0
 11
5.7500000000000142
 21
101.15406890004068
 31
0.0
  0
LINE
  5
355
100
AcDbEntity
  8
0
  6
CONTINUOUS
 62
               3
100
AcDbLine
 10
5.7500000000000142
 20
101.15406890004068
 30
0.0
 11
3.8499999999999943
 21
101.15406890004068
 31
0.0
  0
LINE
  5
356
100
AcDbEntity
  8
0
  6
CONTINUOUS
 62
               3
100
AcDbLine
 10
3.8499999999999943
 20
101.15406890004068
 30
0.0
 11
3.8499999999999943
 21
99.254068900040679
 31
0.0
  0
LINE
  5
357
100
AcDbEntity
  8
0
  6
CONTINUOUS
 62
               3
100
AcDbLine
 10
0.7999999999999972
 20
97.949283290257782
 30
0.0
 11
0.7999999999999972
 21
98.604068900040673
 31
0.0
  0
LINE
  5
358
100
AcDbEntity
  8
0
  6
CONTINUOUS
 62
               3
100
AcDbLine
 10
0.7999999999999972
 20
98.604068900040673
 30
0.0
 11
0.0
 21
98.604068900040673
 31
0.0
  0
LINE
  5
359
100
AcDbEntity
  8
0
  6
CONTINUOUS
 62
               3
100
AcDbLine
 10
0.9499999999999886
 20
97.816579769614137
 30
0.0
 11
0.9499999999999886
 21
98.754068900040679
 31
0.0
  0
LINE
  5
35A
100
AcDbEntity
  8
0
  6
CONTINUOUS
 62
               3
100
AcDbLine
 10
0.9499999999999886
 20
98.754068900040679
 30
0.0
 11
0.0
 21
98.754068900040679
 31
0.0
  0
LINE
  5
35B
100
AcDbEntity
  8
0
  6
CONTINUOUS
 62
               3
100
AcDbLine
 10
3.0740852297878831
 20
98.604068900040673
 30
0.0
 11
1.5999999999999943
 21
98.604068900040673
 31
0.0
  0
LINE
  5
35C
100
AcDbEntity
  8
0
  6
CONTINUOUS
 62
               3
100
AcDbLine
 10
1.5999999999999943
 20
98.604068900040673
 30
0.0
 11
1.5999999999999943
 21
98.086699457832182
 31
0.0
  0
LINE
  5
35D
100
AcDbEntity
  8
0
  6
CONTINUOUS
 62
               3
100
AcDbLine
 10
3.3499999999999801
 20
98.574449937769273
 30
0.0
 11
3.3499999999999801
 21
98.754068900040679
 31
0.0
  0
LINE
  5
35E
100
AcDbEntity
  8
0
  6
CONTINUOUS
 62
               3
100
AcDbLine
 10
3.3499999999999801
 20
98.754068900040679
 30
0.0
 11
1.4500000000000028
 21
98.754068900040679
 31
0.0
  0
LINE
  5
35F
100
AcDbEntity
  8
0
  6
CONTINUOUS
 62
               3
100
AcDbLine
 10
1.4500000000000028
 20
98.754068900040679
 30
0.0
 11
1.4500000000000028
 21
97.900548645969465
 31
0.0
  0
ARC
  5
360
100
AcDbEntity
  8
0
  6
CONTINUOUS
 62
               3
100
AcDbCircle
 10
0.0
 20
105.00406890004068
 30
0.0
 40
7.25
100
AcDbArc
 50
269.99999999999932
 51
277.5293751956666
  0
ARC
  5
361
100
AcDbEntity
  8
0
  6
CONTINUOUS
 62
               3
100
AcDbCircle
 10
0.0
 20
105.00406890004068
 30
0.0
 40
7.0999999999999996
100
AcDbArc
 50
269.99999999999932
 51
276.46960161034207
  0
ARC
  5
362
100
AcDbEntity
  8
0
  6
CONTINUOUS
 62
               3
100
AcDbCircle
 10
0.0
 20
105.00406890004068
 30
0.0
 40
7.0999999999999996
100
AcDbArc
 50
283.02358451184807
 51
295.65617615499332
  0
ARC
  5
363
100
AcDbEntity
  8
0
  6
CONTINUOUS
 62
               3
100
AcDbCircle
 10
0.0
 20
105.00406890004068
 30
0.0
 40
7.0999999999999996
100
AcDbArc
 50
307.93279091933334
 51
322.06720908066512
  0
ARC
  5
364
100
AcDbEntity
  8
0
  6
CONTINUOUS
 62
               3
100
AcDbCircle
 10
0.0
 20
105.00406890004068
 30
0.0
 40
7.0999999999999996
100
AcDbArc
 50
334.34382384500509
 51
346.97641548815056
  0
ARC
  5
365
100
AcDbEntity
  8
0
  6
CONTINUOUS
 62
               3
100
AcDbCircle
 10
0.0
 20
105.00406890004068
 30
0.0
 40
7.25
100
AcDbArc
 50
281.53695903281488
 51
297.52069485421049
  0
ARC
  5
366
100
AcDbEntity
  8
0
  6
CONTINUOUS
 62
               3
100
AcDbCircle
 10
0.0
 20
105.00406890004068
 30
0.0
 40
7.25
100
AcDbArc
 50
307.52351320211324
 51
322.47648679788523
  0
ARC
  5
367
100
AcDbEntity
  8
0
  6
CONTINUOUS
 62
               3
100
AcDbCircle
 10
0.0
 20
105.00406890004068
 30
0.0
 40
7.25
100
AcDbArc
 50
332.47930514578809
 51
348.4630409671837
  0
LINE
  5
368
100
AcDbEntity
  8
0
  6
CONTINUOUS
 62
               3
100
AcDbLine
 10
8.3276647386887532
 20
106.40406890004068
 30
0.0
 11
11.000000000000014
 21
106.40406890004068
 31
0.0
  0
ARC
  5
369
100
AcDbEntity
  8
0
  6
CONTINUOUS
 62
               3
100
AcDbCircle
 10
8.3276647386887532
 20
106.1040689000407
 30
0.0
 40
0.3
100
AcDbArc
 50
89.999999999999787
 51
187.5246302223627
  0
LINE
  5
36A
100
AcDbEntity
  8
0
  6
CONTINUOUS
 62
               3
100
AcDbLine
 10
8.3276647386887532
 20
103.6040689000407
 30
0.0
 11
11.000000000000014
 21
103.6040689000407
 31
0.0
  0
ARC
  5
36B
100
AcDbEntity
  8
0
  6
CONTINUOUS
 62
               3
100
AcDbCircle
 10
8.3276647386887532
 20
103.90406890004068
 30
0.0
 40
0.3
100
AcDbArc
 50
172.47536977763647
 51
269.99999999999932
  0
LINE
  5
36C
100
AcDbEntity
  8
0
  6
CONTINUOUS
 62
               3
100
AcDbLine
 10
11.299999999999997
 20
106.10406890004067
 30
0.0
 11
11.299999999999997
 21
103.90406890004068
 31
0.0
  0
ARC
  5
36D
100
AcDbEntity
  8
0
  6
CONTINUOUS
 62
               3
100
AcDbCircle
 10
11.000000000000014
 20
103.90406890004068
 30
0.0
 40
0.3
100
AcDbArc
 50
269.99999999999932
 51
359.9999999999992
  0
ARC
  5
36E
100
AcDbEntity
  8
0
  6
CONTINUOUS
 62
               3
100
AcDbCircle
 10
11.000000000000014
 20
106.10406890004067
 30
0.0
 40
0.3
100
AcDbArc
 50
0.0
 51
89.999999999999787
  0
ARC
  5
36F
100
AcDbEntity
  8
0
  6
CONTINUOUS
 62
               3
100
AcDbCircle
 10
0.0
 20
105.00406890004068
 30
0.0
 40
8.1000000000000014
100
AcDbArc
 50
352.47536977763605
 51
367.5246302223623
  0
ARC
  5
370
100
AcDbEntity
  8
0
  6
CONTINUOUS
 62
               3
100
AcDbCircle
 10
0.0
 20
105.00406890004068
 30
0.0
 40
8.25
100
AcDbArc
 50
352.47536977763605
 51
367.5246302223623
  0
ARC
  5
371
100
AcDbEntity
  8
0
  6
CONTINUOUS
 62
               3
100
AcDbCircle
 10
8.3276647386887532
 20
103.90406890004068
 30
0.0
 40
0.15
100
AcDbArc
 50
172.47536977763647
 51
269.99999999999932
  0
ARC
  5
372
100
AcDbEntity
  8
0
  6
CONTINUOUS
 62
               3
100
AcDbCircle
 10
8.3276647386887532
 20
106.1040689000407
 30
0.0
 40
0.15
100
AcDbArc
 50
89.999999999999787
 51
187.5246302223627
  0
LINE
  5
373
100
AcDbEntity
  8
0
  6
CONTINUOUS
 62
               3
100
AcDbLine
 10
8.3276647386887532
 20
103.75406890004068
 30
0.0
 11
11.000000000000014
 21
103.75406890004071
 31
0.0
  0
ARC
  5
374
100
AcDbEntity
  8
0
  6
CONTINUOUS
 62
               3
100
AcDbCircle
 10
11.000000000000014
 20
103.90406890004068
 30
0.0
 40
0.15
100
AcDbArc
 50
269.99999999999949
 51
359.9999999999992
  0
LINE
  5
375
100
AcDbEntity
  8
0
  6
CONTINUOUS
 62
               3
100
AcDbLine
 10
11.150000000000006
 20
103.90406890004068
 30
0.0
 11
11.150000000000006
 21
106.1040689000407
 31
0.0
  0
ARC
  5
376
100
AcDbEntity
  8
0
  6
CONTINUOUS
 62
               3
100
AcDbCircle
 10
11.000000000000014
 20
106.1040689000407
 30
0.0
 40
0.15
100
AcDbArc
 50
0.0
 51
89.999999999999631
  0
LINE
  5
377
100
AcDbEntity
  8
0
  6
CONTINUOUS
 62
               3
100
AcDbLine
 10
11.000000000000014
 20
106.25406890004068
 30
0.0
 11
8.3276647386887532
 21
106.25406890004068
 31
0.0
  0
LINE
  5
378
100
AcDbEntity
  8
0
  6
CONTINUOUS
 62
               3
100
AcDbLine
 10
0.0
 20
109.00406890004068
 30
0.0
 11
1.4500000000000028
 21
109.00406890004068
 31
0.0
  0
LINE
  5
379
100
AcDbEntity
  8
0
  6
CONTINUOUS
 62
               3
100
AcDbLine
 10
1.7499999999999858
 20
108.70406890004067
 30
0.0
 11
1.7499999999999858
 21
101.30406890004069
 31
0.0
  0
ARC
  5
37A
100
AcDbEntity
  8
0
  6
CONTINUOUS
 62
               3
100
AcDbCircle
 10
1.4500000000000028
 20
108.70406890004067
 30
0.0
 40
0.3
100
AcDbArc
 50
0.0
 51
89.999999999999787
  0
LINE
  5
37B
100
AcDbEntity
  8
0
  6
CONTINUOUS
 62
               3
100
AcDbLine
 10
0.0
 20
109.50406890004068
 30
0.0
 11
0.9499999999999886
 21
109.50406890004068
 31
0.0
  0
LINE
  5
37C
100
AcDbEntity
  8
0
  6
CONTINUOUS
 62
               3
100
AcDbLine
 10
2.25
 20
108.3540689000407
 30
0.0
 11
2.25
 21
106.4540689000407
 31
0.0
  0
LINE
  5
37D
100
AcDbEntity
  8
0
  6
CONTINUOUS
 62
               3
100
AcDbLine
 10
2.25
 20
105.95406890004067
 30
0.0
 11
2.25
 21
104.05406890004069
 31
0.0
  0
LINE
  5
37E
100
AcDbEntity
  8
0
  6
CONTINUOUS
 62
               3
100
AcDbLine
 10
2.25
 20
103.55406890004069
 30
0.0
 11
2.25
 21
101.65406890004068
 31
0.0
  0
LINE
  5
37F
100
AcDbEntity
  8
0
  6
CONTINUOUS
 62
               3
100
AcDbLine
 10
0.0
 20
109.65406890004068
 30
0.0
 11
0.7999999999999972
 21
109.65406890004068
 31
0.0
  0
LINE
  5
380
100
AcDbEntity
  8
0
  6
CONTINUOUS
 62
               3
100
AcDbLine
 10
2.3999999999999915
 20
108.20406890004067
 30
0.0
 11
2.3999999999999915
 21
106.6040689000407
 31
0.0
  0
LINE
  5
381
100
AcDbEntity
  8
0
  6
CONTINUOUS
 62
               3
100
AcDbLine
 10
2.3999999999999915
 20
105.80406890004069
 30
0.0
 11
2.3999999999999915
 21
104.20406890004067
 31
0.0
  0
LINE
  5
382
100
AcDbEntity
  8
0
  6
CONTINUOUS
 62
               3
100
AcDbLine
 10
2.3999999999999915
 20
103.40406890004068
 30
0.0
 11
2.3999999999999915
 21
101.80406890004069
 31
0.0
  0
LINE
  5
383
100
AcDbEntity
  8
0
  6
CONTINUOUS
 62
               3
100
AcDbLine
 10
0.0
 20
108.8540689000407
 30
0.0
 11
1.4500000000000028
 21
108.85406890004067
 31
0.0
  0
ARC
  5
384
100
AcDbEntity
  8
0
  6
CONTINUOUS
 62
               3
100
AcDbCircle
 10
1.4500000000000028
 20
108.70406890004067
 30
0.0
 40
0.15
100
AcDbArc
 50
0.0
 51
89.999999999999673
  0
LINE
  5
385
100
AcDbEntity
  8
0
  6
CONTINUOUS
 62
               3
100
AcDbLine
 10
1.5999999999999943
 20
108.70406890004067
 30
0.0
 11
1.5999999999999943
 21
101.30406890004069
 31
0.0
  0
ARC
  5
386
100
AcDbEntity
  8
0
  6
CONTINUOUS
 62
               3
100
AcDbCircle
 10
1.4500000000000028
 20
108.70406890004067
 30
0.0
 40
0.8
100
AcDbArc
 50
10.806922874860735
 51
89.999999999999787
  0
ARC
  5
387
100
AcDbEntity
  8
0
  6
CONTINUOUS
 62
               3
100
AcDbCircle
 10
1.4500000000000028
 20
108.7040689000407
 30
0.0
 40
0.95
100
AcDbArc
 50
18.408480170585776
 51
80.915279712609106
  0
LINE
  5
388
100
AcDbEntity
  8
0
  6
CONTINUOUS
 62
               3
100
AcDbLine
 10
0.0
 20
101.00406890004068
 30
0.0
 11
1.4500000000000028
 21
101.00406890004068
 31
0.0
  0
ARC
  5
389
100
AcDbEntity
  8
0
  6
CONTINUOUS
 62
               3
100
AcDbCircle
 10
1.4500000000000028
 20
101.30406890004069
 30
0.0
 40
0.3
100
AcDbArc
 50
269.99999999999943
 51
359.9999999999992
  0
LINE
  5
38A
100
AcDbEntity
  8
0
  6
CONTINUOUS
 62
               3
100
AcDbLine
 10
0.0
 20
100.50406890004068
 30
0.0
 11
0.9499999999999886
 21
100.50406890004068
 31
0.0
  0
LINE
  5
38B
100
AcDbEntity
  8
0
  6
CONTINUOUS
 62
               3
100
AcDbLine
 10
0.0
 20
100.35406890004067
 30
0.0
 11
0.7999999999999972
 21
100.35406890004067
 31
0.0
  0
LINE
  5
38C
100
AcDbEntity
  8
0
  6
CONTINUOUS
 62
               3
100
AcDbLine
 10
0.0
 20
101.15406890004071
 30
0.0
 11
1.4500000000000028
 21
101.15406890004071
 31
0.0
  0
ARC
  5
38D
100
AcDbEntity
  8
0
  6
CONTINUOUS
 62
               3
100
AcDbCircle
 10
1.4500000000000028
 20
101.30406890004069
 30
0.0
 40
0.15
100
AcDbArc
 50
269.99999999999955
 51
359.9999999999992
  0
ARC
  5
38E
100
AcDbEntity
  8
0
  6
CONTINUOUS
 62
               3
100
AcDbCircle
 10
1.4500000000000028
 20
101.30406890004069
 30
0.0
 40
0.8
100
AcDbArc
 50
269.99999999999943
 51
349.19307712513842
  0
ARC
  5
38F
100
AcDbEntity
  8
0
  6
CONTINUOUS
 62
               3
100
AcDbCircle
 10
1.4500000000000028
 20
101.30406890004069
 30
0.0
 40
0.95
100
AcDbArc
 50
279.0847202873901
 51
341.59151982941341
  0
CIRCLE
  5
390
100
AcDbEntity
  8
0
  6
CONTINUOUS
 62
               3
100
AcDbCircle
 10
-6.3000000000000256
 20
105.00406890004068
 30
0.0
 40
0.8999999999999999
  0
ARC
  5
391
100
AcDbEntity
  8
0
  6
CONTINUOUS
 62
               3
100
AcDbCircle
 10
-6.3000000000000256
 20
105.00406890004068
 30
0.0
 40
1.3999999999999999
100
AcDbArc
 50
317.26788995739736
 51
402.73211004260151
  0
LINE
  5
392
100
AcDbEntity
  8
0
  6
CONTINUOUS
 62
               3
100
AcDbLine
 10
0.9499999999999886
 20
112.19155803046725
 30
0.0
 11
0.7999999999999972
 21
112.05885450982358
 31
0.0
  0
LINE
  5
393
100
AcDbEntity
  8
0
  6
CONTINUOUS
 62
               3
100
AcDbLine
 10
0.7999999999999972
 20
111.40406890004068
 30
0.0
 11
0.9499999999999886
 21
111.25406890004071
 31
0.0
  0
LINE
  5
394
100
AcDbEntity
  8
0
  6
CONTINUOUS
 62
               3
100
AcDbLine
 10
0.9499999999999886
 20
110.75406890004068
 30
0.0
 11
0.7999999999999972
 21
110.6040689000407
 31
0.0
  0
LINE
  5
395
100
AcDbEntity
  8
0
  6
CONTINUOUS
 62
               3
100
AcDbLine
 10
0.7999999999999972
 20
109.65406890004068
 30
0.0
 11
0.9499999999999886
 21
109.50406890004068
 31
0.0
  0
LINE
  5
396
100
AcDbEntity
  8
0
  6
CONTINUOUS
 62
               3
100
AcDbLine
 10
1.4500000000000028
 20
109.50406890004068
 30
0.0
 11
1.5999999999999943
 21
109.64215205200536
 31
0.0
  0
LINE
  5
397
100
AcDbEntity
  8
0
  6
CONTINUOUS
 62
               3
100
AcDbLine
 10
1.5999999999999943
 20
110.6040689000407
 30
0.0
 11
1.4500000000000028
 21
110.75406890004068
 31
0.0
  0
LINE
  5
398
100
AcDbEntity
  8
0
  6
CONTINUOUS
 62
               3
100
AcDbLine
 10
1.4500000000000028
 20
111.25406890004071
 30
0.0
 11
1.5999999999999943
 21
111.40406890004068
 31
0.0
  0
LINE
  5
399
100
AcDbEntity
  8
0
  6
CONTINUOUS
 62
               3
100
AcDbLine
 10
1.5999999999999943
 20
111.92143834224917
 30
0.0
 11
1.4500000000000028
 21
112.10758915411192
 31
0.0
  0
LINE
  5
39A
100
AcDbEntity
  8
0
  6
CONTINUOUS
 62
               3
100
AcDbLine
 10
3.0740852297878831
 20
111.40406890004068
 30
0.0
 11
3.3499999999999801
 21
111.25406890004071
 31
0.0
  0
LINE
  5
39B
100
AcDbEntity
  8
0
  6
CONTINUOUS
 62
               3
100
AcDbLine
 10
3.3499999999999801
 20
111.43368786231208
 30
0.0
 11
3.0740852297878831
 21
111.40406890004068
 31
0.0
  0
LINE
  5
39C
100
AcDbEntity
  8
0
  6
CONTINUOUS
 62
               3
100
AcDbLine
 10
3.3499999999999801
 20
110.75406890004068
 30
0.0
 11
3.1999999999999886
 21
110.6040689000407
 31
0.0
  0
LINE
  5
39D
100
AcDbEntity
  8
0
  6
CONTINUOUS
 62
               3
100
AcDbLine
 10
3.1999999999999886
 20
109.00406890004071
 30
0.0
 11
3.3499999999999801
 21
108.8540689000407
 31
0.0
  0
LINE
  5
39E
100
AcDbEntity
  8
0
  6
CONTINUOUS
 62
               3
100
AcDbLine
 10
2.2358116822750702
 20
108.8540689000407
 30
0.0
 11
2.3513878188659874
 21
109.00406890004071
 31
0.0
  0
LINE
  5
39F
100
AcDbEntity
  8
0
  6
CONTINUOUS
 62
               3
100
AcDbLine
 10
2.25
 20
108.3540689000407
 30
0.0
 11
2.3999999999999915
 21
108.20406890004067
 31
0.0
  0
LINE
  5
3A0
100
AcDbEntity
  8
0
  6
CONTINUOUS
 62
               3
100
AcDbLine
 10
2.3999999999999915
 20
106.6040689000407
 30
0.0
 11
2.25
 21
106.4540689000407
 31
0.0
  0
LINE
  5
3A1
100
AcDbEntity
  8
0
  6
CONTINUOUS
 62
               3
100
AcDbLine
 10
3.3499999999999801
 20
106.4540689000407
 30
0.0
 11
3.1999999999999886
 21
106.6040689000407
 31
0.0
  0
LINE
  5
3A2
100
AcDbEntity
  8
0
  6
CONTINUOUS
 62
               3
100
AcDbLine
 10
3.1999999999999886
 20
108.20406890004067
 30
0.0
 11
3.3499999999999801
 21
108.3540689000407
 31
0.0
  0
LINE
  5
3A3
100
AcDbEntity
  8
0
  6
CONTINUOUS
 62
               3
100
AcDbLine
 10
2.25
 20
105.95406890004067
 30
0.0
 11
2.3999999999999915
 21
105.80406890004069
 31
0.0
  0
LINE
  5
3A4
100
AcDbEntity
  8
0
  6
CONTINUOUS
 62
               3
100
AcDbLine
 10
3.1999999999999886
 20
105.80406890004069
 30
0.0
 11
3.3499999999999801
 21
105.95406890004067
 31
0.0
  0
LINE
  5
3A5
100
AcDbEntity
  8
0
  6
CONTINUOUS
 62
               3
100
AcDbLine
 10
3.8499999999999943
 20
105.95406890004067
 30
0.0
 11
3.9999999999999858
 21
105.80406890004069
 31
0.0
  0
LINE
  5
3A6
100
AcDbEntity
  8
0
  6
CONTINUOUS
 62
               3
100
AcDbLine
 10
5.5999999999999801
 20
105.80406890004069
 30
0.0
 11
5.7500000000000142
 21
105.95406890004067
 31
0.0
  0
LINE
  5
3A7
100
AcDbEntity
  8
0
  6
CONTINUOUS
 62
               3
100
AcDbLine
 10
6.2499999999999858
 20
105.95406890004067
 30
0.0
 11
6.3999999999999773
 21
105.80406890004069
 31
0.0
  0
LINE
  5
3A8
100
AcDbEntity
  8
0
  6
CONTINUOUS
 62
               3
100
AcDbLine
 10
7.0547856097829111
 20
105.80406890004069
 30
0.0
 11
7.1874891304265844
 21
105.95406890004067
 31
0.0
  0
LINE
  5
3A9
100
AcDbEntity
  8
0
  6
CONTINUOUS
 62
               3
100
AcDbLine
 10
7.1035202540711992
 20
106.4540689000407
 30
0.0
 11
6.9173694422084964
 21
106.6040689000407
 31
0.0
  0
LINE
  5
3AA
100
AcDbEntity
  8
0
  6
CONTINUOUS
 62
               3
100
AcDbLine
 10
6.3999999999999773
 20
106.6040689000407
 30
0.0
 11
6.2499999999999858
 21
106.4540689000407
 31
0.0
  0
LINE
  5
3AB
100
AcDbEntity
  8
0
  6
CONTINUOUS
 62
               3
100
AcDbLine
 10
5.5999999999999801
 20
106.6040689000407
 30
0.0
 11
5.7500000000000142
 21
106.4540689000407
 31
0.0
  0
LINE
  5
3AC
100
AcDbEntity
  8
0
  6
CONTINUOUS
 62
               3
100
AcDbLine
 10
3.9999999999999858
 20
106.6040689000407
 30
0.0
 11
3.8499999999999943
 21
106.4540689000407
 31
0.0
  0
LINE
  5
3AD
100
AcDbEntity
  8
0
  6
CONTINUOUS
 62
               3
100
AcDbLine
 10
3.8499999999999943
 20
108.3540689000407
 30
0.0
 11
3.9999999999999858
 21
108.20406890004067
 31
0.0
  0
LINE
  5
3AE
100
AcDbEntity
  8
0
  6
CONTINUOUS
 62
               3
100
AcDbLine
 10
5.5999999999999801
 20
108.20406890004067
 30
0.0
 11
5.7500000000000142
 21
108.3540689000407
 31
0.0
  0
LINE
  5
3AF
100
AcDbEntity
  8
0
  6
CONTINUOUS
 62
               3
100
AcDbLine
 10
6.2499999999999858
 20
108.3540689000407
 30
0.0
 11
6.3999999999999773
 21
108.07815412982858
 31
0.0
  0
LINE
  5
3B0
100
AcDbEntity
  8
0
  6
CONTINUOUS
 62
               3
100
AcDbLine
 10
6.3999999999999773
 20
108.07815412982858
 30
0.0
 11
6.4296189622713911
 21
108.3540689000407
 31
0.0
  0
LINE
  5
3B1
100
AcDbEntity
  8
0
  6
CONTINUOUS
 62
               3
100
AcDbLine
 10
5.7500000000000142
 20
108.8540689000407
 30
0.0
 11
5.5999999999999801
 21
109.00406890004071
 31
0.0
  0
LINE
  5
3B2
100
AcDbEntity
  8
0
  6
CONTINUOUS
 62
               3
100
AcDbLine
 10
5.5999999999999801
 20
109.36869946859973
 30
0.0
 11
5.7500000000000142
 21
109.4199493332046
 31
0.0
  0
LINE
  5
3B3
100
AcDbEntity
  8
0
  6
CONTINUOUS
 62
               3
100
AcDbLine
 10
4.3646305685590363
 20
110.6040689000407
 30
0.0
 11
4.4158804331639345
 21
110.75406890004068
 31
0.0
  0
LINE
  5
3B4
100
AcDbEntity
  8
0
  6
CONTINUOUS
 62
               3
100
AcDbLine
 10
3.8499999999999943
 20
110.75406890004068
 30
0.0
 11
3.9999999999999858
 21
110.6040689000407
 31
0.0
  0
LINE
  5
3B5
100
AcDbEntity
  8
0
  6
CONTINUOUS
 62
               3
100
AcDbLine
 10
3.9999999999999858
 20
109.00406890004071
 30
0.0
 11
3.8499999999999943
 21
108.8540689000407
 31
0.0
  0
LINE
  5
3B6
100
AcDbEntity
  8
0
  6
CONTINUOUS
 62
               3
100
AcDbLine
 10
0.9499999999999886
 20
97.816579769614137
 30
0.0
 11
0.7999999999999972
 21
97.949283290257782
 31
0.0
  0
LINE
  5
3B7
100
AcDbEntity
  8
0
  6
CONTINUOUS
 62
               3
100
AcDbLine
 10
0.7999999999999972
 20
98.604068900040673
 30
0.0
 11
0.9499999999999886
 21
98.754068900040679
 31
0.0
  0
LINE
  5
3B8
100
AcDbEntity
  8
0
  6
CONTINUOUS
 62
               3
100
AcDbLine
 10
0.9499999999999886
 20
99.254068900040679
 30
0.0
 11
0.7999999999999972
 21
99.404068900040684
 31
0.0
  0
LINE
  5
3B9
100
AcDbEntity
  8
0
  6
CONTINUOUS
 62
               3
100
AcDbLine
 10
0.7999999999999972
 20
100.35406890004067
 30
0.0
 11
0.9499999999999886
 21
100.50406890004068
 31
0.0
  0
LINE
  5
3BA
100
AcDbEntity
  8
0
  6
CONTINUOUS
 62
               3
100
AcDbLine
 10
1.4500000000000028
 20
100.50406890004068
 30
0.0
 11
1.5999999999999943
 21
100.365985748076
 31
0.0
  0
LINE
  5
3BB
100
AcDbEntity
  8
0
  6
CONTINUOUS
 62
               3
100
AcDbLine
 10
1.5999999999999943
 20
99.404068900040684
 30
0.0
 11
1.4500000000000028
 21
99.254068900040679
 31
0.0
  0
LINE
  5
3BC
100
AcDbEntity
  8
0
  6
CONTINUOUS
 62
               3
100
AcDbLine
 10
1.4500000000000028
 20
98.754068900040679
 30
0.0
 11
1.5999999999999943
 21
98.604068900040673
 31
0.0
  0
LINE
  5
3BD
100
AcDbEntity
  8
0
  6
CONTINUOUS
 62
               3
100
AcDbLine
 10
1.5999999999999943
 20
98.086699457832182
 30
0.0
 11
1.4500000000000028
 21
97.900548645969465
 31
0.0
  0
LINE
  5
3BE
100
AcDbEntity
  8
0
  6
CONTINUOUS
 62
               3
100
AcDbLine
 10
3.0740852297878831
 20
98.604068900040673
 30
0.0
 11
3.3499999999999801
 21
98.754068900040679
 31
0.0
  0
LINE
  5
3BF
100
AcDbEntity
  8
0
  6
CONTINUOUS
 62
               3
100
AcDbLine
 10
3.3499999999999801
 20
98.574449937769273
 30
0.0
 11
3.0740852297878831
 21
98.604068900040673
 31
0.0
  0
LINE
  5
3C0
100
AcDbEntity
  8
0
  6
CONTINUOUS
 62
               3
100
AcDbLine
 10
3.3499999999999801
 20
99.254068900040679
 30
0.0
 11
3.1999999999999886
 21
99.404068900040684
 31
0.0
  0
LINE
  5
3C1
100
AcDbEntity
  8
0
  6
CONTINUOUS
 62
               3
100
AcDbLine
 10
3.1999999999999886
 20
101.00406890004068
 30
0.0
 11
3.3499999999999801
 21
101.15406890004068
 31
0.0
  0
LINE
  5
3C2
100
AcDbEntity
  8
0
  6
CONTINUOUS
 62
               3
100
AcDbLine
 10
2.2358116822750702
 20
101.15406890004068
 30
0.0
 11
2.3513878188659874
 21
101.00406890004068
 31
0.0
  0
LINE
  5
3C3
100
AcDbEntity
  8
0
  6
CONTINUOUS
 62
               3
100
AcDbLine
 10
2.25
 20
101.65406890004068
 30
0.0
 11
2.3999999999999915
 21
101.80406890004069
 31
0.0
  0
LINE
  5
3C4
100
AcDbEntity
  8
0
  6
CONTINUOUS
 62
               3
100
AcDbLine
 10
2.3999999999999915
 20
103.40406890004068
 30
0.0
 11
2.25
 21
103.55406890004069
 31
0.0
  0
LINE
  5
3C5
100
AcDbEntity
  8
0
  6
CONTINUOUS
 62
               3
100
AcDbLine
 10
3.3499999999999801
 20
103.55406890004069
 30
0.0
 11
3.1999999999999886
 21
103.40406890004068
 31
0.0
  0
LINE
  5
3C6
100
AcDbEntity
  8
0
  6
CONTINUOUS
 62
               3
100
AcDbLine
 10
3.1999999999999886
 20
101.80406890004069
 30
0.0
 11
3.3499999999999801
 21
101.65406890004068
 31
0.0
  0
LINE
  5
3C7
100
AcDbEntity
  8
0
  6
CONTINUOUS
 62
               3
100
AcDbLine
 10
2.25
 20
104.05406890004069
 30
0.0
 11
2.3999999999999915
 21
104.20406890004067
 31
0.0
  0
LINE
  5
3C8
100
AcDbEntity
  8
0
  6
CONTINUOUS
 62
               3
100
AcDbLine
 10
3.1999999999999886
 20
104.20406890004067
 30
0.0
 11
3.3499999999999801
 21
104.05406890004069
 31
0.0
  0
LINE
  5
3C9
100
AcDbEntity
  8
0
  6
CONTINUOUS
 62
               3
100
AcDbLine
 10
3.8499999999999943
 20
104.05406890004069
 30
0.0
 11
3.9999999999999858
 21
104.20406890004067
 31
0.0
  0
LINE
  5
3CA
100
AcDbEntity
  8
0
  6
CONTINUOUS
 62
               3
100
AcDbLine
 10
5.5999999999999801
 20
104.20406890004067
 30
0.0
 11
5.7500000000000142
 21
104.05406890004069
 31
0.0
  0
LINE
  5
3CB
100
AcDbEntity
  8
0
  6
CONTINUOUS
 62
               3
100
AcDbLine
 10
6.2499999999999858
 20
104.05406890004069
 30
0.0
 11
6.3999999999999773
 21
104.20406890004067
 31
0.0
  0
LINE
  5
3CC
100
AcDbEntity
  8
0
  6
CONTINUOUS
 62
               3
100
AcDbLine
 10
7.0547856097829111
 20
104.20406890004067
 30
0.0
 11
7.1874891304265844
 21
104.05406890004069
 31
0.0
  0
LINE
  5
3CD
100
AcDbEntity
  8
0
  6
CONTINUOUS
 62
               3
100
AcDbLine
 10
7.1035202540711992
 20
103.55406890004069
 30
0.0
 11
6.9173694422084964
 21
103.40406890004068
 31
0.0
  0
LINE
  5
3CE
100
AcDbEntity
  8
0
  6
CONTINUOUS
 62
               3
100
AcDbLine
 10
6.3999999999999773
 20
103.40406890004068
 30
0.0
 11
6.2499999999999858
 21
103.55406890004069
 31
0.0
  0
LINE
  5
3CF
100
AcDbEntity
  8
0
  6
CONTINUOUS
 62
               3
100
AcDbLine
 10
5.5999999999999801
 20
103.40406890004068
 30
0.0
 11
5.7500000000000142
 21
103.55406890004069
 31
0.0
  0
LINE
  5
3D0
100
AcDbEntity
  8
0
  6
CONTINUOUS
 62
               3
100
AcDbLine
 10
3.9999999999999858
 20
103.40406890004068
 30
0.0
 11
3.8499999999999943
 21
103.55406890004069
 31
0.0
  0
LINE
  5
3D1
100
AcDbEntity
  8
0
  6
CONTINUOUS
 62
               3
100
AcDbLine
 10
3.8499999999999943
 20
101.65406890004068
 30
0.0
 11
3.9999999999999858
 21
101.80406890004069
 31
0.0
  0
LINE
  5
3D2
100
AcDbEntity
  8
0
  6
CONTINUOUS
 62
               3
100
AcDbLine
 10
5.5999999999999801
 20
101.80406890004069
 30
0.0
 11
5.7500000000000142
 21
101.65406890004068
 31
0.0
  0
LINE
  5
3D3
100
AcDbEntity
  8
0
  6
CONTINUOUS
 62
               3
100
AcDbLine
 10
6.2499999999999858
 20
101.65406890004068
 30
0.0
 11
6.3999999999999773
 21
101.92998367025278
 31
0.0
  0
LINE
  5
3D4
100
AcDbEntity
  8
0
  6
CONTINUOUS
 62
               3
100
AcDbLine
 10
6.3999999999999773
 20
101.92998367025278
 30
0.0
 11
6.4296189622713911
 21
101.65406890004068
 31
0.0
  0
LINE
  5
3D5
100
AcDbEntity
  8
0
  6
CONTINUOUS
 62
               3
100
AcDbLine
 10
5.7500000000000142
 20
101.15406890004068
 30
0.0
 11
5.5999999999999801
 21
101.00406890004068
 31
0.0
  0
LINE
  5
3D6
100
AcDbEntity
  8
0
  6
CONTINUOUS
 62
               3
100
AcDbLine
 10
5.5999999999999801
 20
100.63943833148163
 30
0.0
 11
5.7500000000000142
 21
100.58818846687676
 31
0.0
  0
LINE
  5
3D7
100
AcDbEntity
  8
0
  6
CONTINUOUS
 62
               3
100
AcDbLine
 10
4.3646305685590363
 20
99.404068900040684
 30
0.0
 11
4.4158804331639345
 21
99.254068900040679
 31
0.0
  0
LINE
  5
3D8
100
AcDbEntity
  8
0
  6
CONTINUOUS
 62
               3
100
AcDbLine
 10
3.8499999999999943
 20
99.254068900040679
 30
0.0
 11
3.9999999999999858
 21
99.404068900040684
 31
0.0
  0
LINE
  5
3D9
100
AcDbEntity
  8
0
  6
CONTINUOUS
 62
               3
100
AcDbLine
 10
3.9999999999999858
 20
101.00406890004068
 30
0.0
 11
3.8499999999999943
 21
101.15406890004068
 31
0.0
  0
LINE
  5
3DA
100
AcDbEntity
  8
0
  6
CONTINUOUS
 62
               3
100
AcDbLine
 10
-2.3999999999999915
 20
105.80406890004069
 30
0.0
 11
-3.1999999999999886
 21
105.80406890004069
 31
0.0
  0
LINE
  5
3DB
100
AcDbEntity
  8
0
  6
CONTINUOUS
 62
               3
100
AcDbLine
 10
-3.1999999999999886
 20
105.80406890004069
 30
0.0
 11
-3.1999999999999886
 21
104.2040689000407
 31
0.0
  0
LINE
  5
3DC
100
AcDbEntity
  8
0
  6
CONTINUOUS
 62
               3
100
AcDbLine
 10
-3.1999999999999886
 20
104.2040689000407
 30
0.0
 11
-2.3999999999999915
 21
104.2040689000407
 31
0.0
  0
LINE
  5
3DD
100
AcDbEntity
  8
0
  6
CONTINUOUS
 62
               3
100
AcDbLine
 10
-2.25
 20
105.95406890004067
 30
0.0
 11
-3.3499999999999801
 21
105.95406890004067
 31
0.0
  0
LINE
  5
3DE
100
AcDbEntity
  8
0
  6
CONTINUOUS
 62
               3
100
AcDbLine
 10
-3.3499999999999801
 20
105.95406890004067
 30
0.0
 11
-3.3499999999999801
 21
104.05406890004069
 31
0.0
  0
LINE
  5
3DF
100
AcDbEntity
  8
0
  6
CONTINUOUS
 62
               3
100
AcDbLine
 10
-3.3499999999999801
 20
104.05406890004069
 30
0.0
 11
-2.25
 21
104.05406890004069
 31
0.0
  0
LINE
  5
3E0
100
AcDbEntity
  8
0
  6
CONTINUOUS
 62
               3
100
AcDbLine
 10
-3.9999999999999858
 20
105.80406890004069
 30
0.0
 11
-4.9724081952648334
 21
105.80406890004069
 31
0.0
  0
LINE
  5
3E1
100
AcDbEntity
  8
0
  6
CONTINUOUS
 62
               3
100
AcDbLine
 10
-4.9724081952648334
 20
104.2040689000407
 30
0.0
 11
-3.9999999999999858
 21
104.2040689000407
 31
0.0
  0
LINE
  5
3E2
100
AcDbEntity
  8
0
  6
CONTINUOUS
 62
               3
100
AcDbLine
 10
-3.9999999999999858
 20
104.2040689000407
 30
0.0
 11
-3.9999999999999858
 21
105.80406890004069
 31
0.0
  0
LINE
  5
3E3
100
AcDbEntity
  8
0
  6
CONTINUOUS
 62
               3
100
AcDbLine
 10
-3.8499999999999943
 20
105.95406890004067
 30
0.0
 11
-5.2716518099398399
 21
105.95406890004067
 31
0.0
  0
LINE
  5
3E4
100
AcDbEntity
  8
0
  6
CONTINUOUS
 62
               3
100
AcDbLine
 10
-5.2716518099398399
 20
104.05406890004069
 30
0.0
 11
-3.8499999999999943
 21
104.05406890004069
 31
0.0
  0
LINE
  5
3E5
100
AcDbEntity
  8
0
  6
CONTINUOUS
 62
               3
100
AcDbLine
 10
-3.8499999999999943
 20
104.05406890004069
 30
0.0
 11
-3.8499999999999943
 21
105.95406890004067
 31
0.0
  0
LINE
  5
3E6
100
AcDbEntity
  8
0
  6
CONTINUOUS
 62
               3
100
AcDbLine
 10
-2.3999999999999915
 20
108.2040689000407
 30
0.0
 11
-3.1999999999999886
 21
108.2040689000407
 31
0.0
  0
LINE
  5
3E7
100
AcDbEntity
  8
0
  6
CONTINUOUS
 62
               3
100
AcDbLine
 10
-3.1999999999999886
 20
108.2040689000407
 30
0.0
 11
-3.1999999999999886
 21
106.6040689000407
 31
0.0
  0
LINE
  5
3E8
100
AcDbEntity
  8
0
  6
CONTINUOUS
 62
               3
100
AcDbLine
 10
-3.1999999999999886
 20
106.6040689000407
 30
0.0
 11
-2.3999999999999915
 21
106.6040689000407
 31
0.0
  0
LINE
  5
3E9
100
AcDbEntity
  8
0
  6
CONTINUOUS
 62
               3
100
AcDbLine
 10
-2.25
 20
108.3540689000407
 30
0.0
 11
-3.3499999999999801
 21
108.3540689000407
 31
0.0
  0
LINE
  5
3EA
100
AcDbEntity
  8
0
  6
CONTINUOUS
 62
               3
100
AcDbLine
 10
-3.3499999999999801
 20
108.3540689000407
 30
0.0
 11
-3.3499999999999801
 21
106.4540689000407
 31
0.0
  0
LINE
  5
3EB
100
AcDbEntity
  8
0
  6
CONTINUOUS
 62
               3
100
AcDbLine
 10
-3.3499999999999801
 20
106.4540689000407
 30
0.0
 11
-2.25
 21
106.4540689000407
 31
0.0
  0
LINE
  5
3EC
100
AcDbEntity
  8
0
  6
CONTINUOUS
 62
               3
100
AcDbLine
 10
-3.9999999999999858
 20
108.2040689000407
 30
0.0
 11
-5.5999999999999801
 21
108.2040689000407
 31
0.0
  0
LINE
  5
3ED
100
AcDbEntity
  8
0
  6
CONTINUOUS
 62
               3
100
AcDbLine
 10
-5.5999999999999801
 20
108.2040689000407
 30
0.0
 11
-5.5999999999999801
 21
106.6040689000407
 31
0.0
  0
LINE
  5
3EE
100
AcDbEntity
  8
0
  6
CONTINUOUS
 62
               3
100
AcDbLine
 10
-5.5999999999999801
 20
106.6040689000407
 30
0.0
 11
-3.9999999999999858
 21
106.6040689000407
 31
0.0
  0
LINE
  5
3EF
100
AcDbEntity
  8
0
  6
CONTINUOUS
 62
               3
100
AcDbLine
 10
-3.9999999999999858
 20
106.6040689000407
 30
0.0
 11
-3.9999999999999858
 21
108.2040689000407
 31
0.0
  0
LINE
  5
3F0
100
AcDbEntity
  8
0
  6
CONTINUOUS
 62
               3
100
AcDbLine
 10
-3.8499999999999943
 20
108.3540689000407
 30
0.0
 11
-5.7499999999999716
 21
108.3540689000407
 31
0.0
  0
LINE
  5
3F1
100
AcDbEntity
  8
0
  6
CONTINUOUS
 62
               3
100
AcDbLine
 10
-5.7499999999999716
 20
108.3540689000407
 30
0.0
 11
-5.7499999999999716
 21
106.4540689000407
 31
0.0
  0
LINE
  5
3F2
100
AcDbEntity
  8
0
  6
CONTINUOUS
 62
               3
100
AcDbLine
 10
-5.7499999999999716
 20
106.4540689000407
 30
0.0
 11
-3.8499999999999943
 21
106.4540689000407
 31
0.0
  0
LINE
  5
3F3
100
AcDbEntity
  8
0
  6
CONTINUOUS
 62
               3
100
AcDbLine
 10
-3.8499999999999943
 20
106.4540689000407
 30
0.0
 11
-3.8499999999999943
 21
108.3540689000407
 31
0.0
  0
LINE
  5
3F4
100
AcDbEntity
  8
0
  6
CONTINUOUS
 62
               3
100
AcDbLine
 10
-6.9173694422084964
 20
106.6040689000407
 30
0.0
 11
-6.3999999999999773
 21
106.6040689000407
 31
0.0
  0
LINE
  5
3F5
100
AcDbEntity
  8
0
  6
CONTINUOUS
 62
               3
100
AcDbLine
 10
-6.3999999999999773
 20
106.6040689000407
 30
0.0
 11
-6.3999999999999773
 21
108.0781541298286
 31
0.0
  0
LINE
  5
3F6
100
AcDbEntity
  8
0
  6
CONTINUOUS
 62
               3
100
AcDbLine
 10
-6.2499999999999858
 20
108.3540689000407
 30
0.0
 11
-6.4296189622713911
 21
108.3540689000407
 31
0.0
  0
LINE
  5
3F7
100
AcDbEntity
  8
0
  6
CONTINUOUS
 62
               3
100
AcDbLine
 10
-7.1035202540711992
 20
106.4540689000407
 30
0.0
 11
-6.2499999999999858
 21
106.4540689000407
 31
0.0
  0
LINE
  5
3F8
100
AcDbEntity
  8
0
  6
CONTINUOUS
 62
               3
100
AcDbLine
 10
-6.2499999999999858
 20
106.4540689000407
 30
0.0
 11
-6.2499999999999858
 21
108.3540689000407
 31
0.0
  0
LINE
  5
3F9
100
AcDbEntity
  8
0
  6
CONTINUOUS
 62
               3
100
AcDbLine
 10
0.0
 20
110.6040689000407
 30
0.0
 11
-0.7999999999999972
 21
110.6040689000407
 31
0.0
  0
LINE
  5
3FA
100
AcDbEntity
  8
0
  6
CONTINUOUS
 62
               3
100
AcDbLine
 10
-0.7999999999999972
 20
110.6040689000407
 30
0.0
 11
-0.7999999999999972
 21
109.65406890004068
 31
0.0
  0
LINE
  5
3FB
100
AcDbEntity
  8
0
  6
CONTINUOUS
 62
               3
100
AcDbLine
 10
0.0
 20
110.75406890004068
 30
0.0
 11
-0.9499999999999886
 21
110.75406890004068
 31
0.0
  0
LINE
  5
3FC
100
AcDbEntity
  8
0
  6
CONTINUOUS
 62
               3
100
AcDbLine
 10
-0.9499999999999886
 20
110.75406890004068
 30
0.0
 11
-0.9499999999999886
 21
109.50406890004068
 31
0.0
  0
LINE
  5
3FD
100
AcDbEntity
  8
0
  6
CONTINUOUS
 62
               3
100
AcDbLine
 10
-1.5999999999999943
 20
110.6040689000407
 30
0.0
 11
-3.1999999999999886
 21
110.6040689000407
 31
0.0
  0
LINE
  5
3FE
100
AcDbEntity
  8
0
  6
CONTINUOUS
 62
               3
100
AcDbLine
 10
-3.1999999999999886
 20
110.6040689000407
 30
0.0
 11
-3.1999999999999886
 21
109.00406890004071
 31
0.0
  0
LINE
  5
3FF
100
AcDbEntity
  8
0
  6
CONTINUOUS
 62
               3
100
AcDbLine
 10
-3.1999999999999886
 20
109.00406890004071
 30
0.0
 11
-2.3513878188659874
 21
109.00406890004071
 31
0.0
  0
LINE
  5
400
100
AcDbEntity
  8
0
  6
CONTINUOUS
 62
               3
100
AcDbLine
 10
-1.5999999999999943
 20
109.64215205200539
 30
0.0
 11
-1.5999999999999943
 21
110.6040689000407
 31
0.0
  0
LINE
  5
401
100
AcDbEntity
  8
0
  6
CONTINUOUS
 62
               3
100
AcDbLine
 10
-1.4500000000000028
 20
110.75406890004068
 30
0.0
 11
-3.3499999999999801
 21
110.75406890004068
 31
0.0
  0
LINE
  5
402
100
AcDbEntity
  8
0
  6
CONTINUOUS
 62
               3
100
AcDbLine
 10
-3.3499999999999801
 20
110.75406890004068
 30
0.0
 11
-3.3499999999999801
 21
108.8540689000407
 31
0.0
  0
LINE
  5
403
100
AcDbEntity
  8
0
  6
CONTINUOUS
 62
               3
100
AcDbLine
 10
-3.3499999999999801
 20
108.8540689000407
 30
0.0
 11
-2.2358116822750702
 21
108.8540689000407
 31
0.0
  0
LINE
  5
404
100
AcDbEntity
  8
0
  6
CONTINUOUS
 62
               3
100
AcDbLine
 10
-1.4500000000000028
 20
109.50406890004068
 30
0.0
 11
-1.4500000000000028
 21
110.75406890004068
 31
0.0
  0
LINE
  5
405
100
AcDbEntity
  8
0
  6
CONTINUOUS
 62
               3
100
AcDbLine
 10
-3.9999999999999858
 20
110.6040689000407
 30
0.0
 11
-4.3646305685590363
 21
110.6040689000407
 31
0.0
  0
LINE
  5
406
100
AcDbEntity
  8
0
  6
CONTINUOUS
 62
               3
100
AcDbLine
 10
-5.5999999999999801
 20
109.36869946859973
 30
0.0
 11
-5.5999999999999801
 21
109.00406890004071
 31
0.0
  0
LINE
  5
407
100
AcDbEntity
  8
0
  6
CONTINUOUS
 62
               3
100
AcDbLine
 10
-5.5999999999999801
 20
109.00406890004071
 30
0.0
 11
-3.9999999999999858
 21
109.00406890004071
 31
0.0
  0
LINE
  5
408
100
AcDbEntity
  8
0
  6
CONTINUOUS
 62
               3
100
AcDbLine
 10
-3.9999999999999858
 20
109.00406890004071
 30
0.0
 11
-3.9999999999999858
 21
110.6040689000407
 31
0.0
  0
LINE
  5
409
100
AcDbEntity
  8
0
  6
CONTINUOUS
 62
               3
100
AcDbLine
 10
-3.8499999999999943
 20
110.75406890004068
 30
0.0
 11
-4.4158804331638919
 21
110.75406890004068
 31
0.0
  0
LINE
  5
40A
100
AcDbEntity
  8
0
  6
CONTINUOUS
 62
               3
100
AcDbLine
 10
-5.7499999999999716
 20
109.41994933320463
 30
0.0
 11
-5.7499999999999716
 21
108.8540689000407
 31
0.0
  0
LINE
  5
40B
100
AcDbEntity
  8
0
  6
CONTINUOUS
 62
               3
100
AcDbLine
 10
-5.7499999999999716
 20
108.8540689000407
 30
0.0
 11
-3.8499999999999943
 21
108.8540689000407
 31
0.0
  0
LINE
  5
40C
100
AcDbEntity
  8
0
  6
CONTINUOUS
 62
               3
100
AcDbLine
 10
-3.8499999999999943
 20
108.8540689000407
 30
0.0
 11
-3.8499999999999943
 21
110.75406890004068
 31
0.0
  0
LINE
  5
40D
100
AcDbEntity
  8
0
  6
CONTINUOUS
 62
               3
100
AcDbLine
 10
-0.7999999999999972
 20
112.05885450982358
 30
0.0
 11
-0.7999999999999972
 21
111.40406890004068
 31
0.0
  0
LINE
  5
40E
100
AcDbEntity
  8
0
  6
CONTINUOUS
 62
               3
100
AcDbLine
 10
-0.7999999999999972
 20
111.40406890004068
 30
0.0
 11
0.0
 21
111.40406890004068
 31
0.0
  0
LINE
  5
40F
100
AcDbEntity
  8
0
  6
CONTINUOUS
 62
               3
100
AcDbLine
 10
-0.9499999999999886
 20
112.19155803046725
 30
0.0
 11
-0.9499999999999886
 21
111.25406890004071
 31
0.0
  0
LINE
  5
410
100
AcDbEntity
  8
0
  6
CONTINUOUS
 62
               3
100
AcDbLine
 10
-0.9499999999999886
 20
111.25406890004071
 30
0.0
 11
0.0
 21
111.25406890004071
 31
0.0
  0
LINE
  5
411
100
AcDbEntity
  8
0
  6
CONTINUOUS
 62
               3
100
AcDbLine
 10
-3.0740852297878405
 20
111.40406890004068
 30
0.0
 11
-1.5999999999999943
 21
111.40406890004068
 31
0.0
  0
LINE
  5
412
100
AcDbEntity
  8
0
  6
CONTINUOUS
 62
               3
100
AcDbLine
 10
-1.5999999999999943
 20
111.40406890004068
 30
0.0
 11
-1.5999999999999943
 21
111.92143834224917
 31
0.0
  0
LINE
  5
413
100
AcDbEntity
  8
0
  6
CONTINUOUS
 62
               3
100
AcDbLine
 10
-3.3499999999999801
 20
111.43368786231208
 30
0.0
 11
-3.3499999999999801
 21
111.25406890004071
 31
0.0
  0
LINE
  5
414
100
AcDbEntity
  8
0
  6
CONTINUOUS
 62
               3
100
AcDbLine
 10
-3.3499999999999801
 20
111.25406890004071
 30
0.0
 11
-1.4500000000000028
 21
111.25406890004071
 31
0.0
  0
LINE
  5
415
100
AcDbEntity
  8
0
  6
CONTINUOUS
 62
               3
100
AcDbLine
 10
-1.4500000000000028
 20
111.25406890004071
 30
0.0
 11
-1.4500000000000028
 21
112.10758915411192
 31
0.0
  0
ARC
  5
416
100
AcDbEntity
  8
0
  6
CONTINUOUS
 62
               3
100
AcDbCircle
 10
0.0
 20
105.00406890004068
 30
0.0
 40
7.25
100
AcDbArc
 50
89.999999999999773
 51
97.529375195666915
  0
ARC
  5
417
100
AcDbEntity
  8
0
  6
CONTINUOUS
 62
               3
100
AcDbCircle
 10
0.0
 20
105.00406890004068
 30
0.0
 40
7.0999999999999996
100
AcDbArc
 50
89.999999999999773
 51
96.46960161034238
  0
ARC
  5
418
100
AcDbEntity
  8
0
  6
CONTINUOUS
 62
               3
100
AcDbCircle
 10
0.0
 20
105.00406890004068
 30
0.0
 40
7.0999999999999996
100
AcDbArc
 50
103.0235845118484
 51
115.65617615499367
  0
ARC
  5
419
100
AcDbEntity
  8
0
  6
CONTINUOUS
 62
               3
100
AcDbCircle
 10
0.0
 20
105.00406890004068
 30
0.0
 40
7.0999999999999996
100
AcDbArc
 50
127.9327909193337
 51
142.06720908066549
  0
ARC
  5
41A
100
AcDbEntity
  8
0
  6
CONTINUOUS
 62
               3
100
AcDbCircle
 10
0.0
 20
105.00406890004068
 30
0.0
 40
7.0999999999999996
100
AcDbArc
 50
154.34382384500546
 51
166.97641548815088
  0
ARC
  5
41B
100
AcDbEntity
  8
0
  6
CONTINUOUS
 62
               3
100
AcDbCircle
 10
0.0
 20
105.00406890004068
 30
0.0
 40
7.25
100
AcDbArc
 50
101.53695903281519
 51
117.52069485421082
  0
ARC
  5
41C
100
AcDbEntity
  8
0
  6
CONTINUOUS
 62
               3
100
AcDbCircle
 10
0.0
 20
105.00406890004068
 30
0.0
 40
7.25
100
AcDbArc
 50
127.52351320211359
 51
142.4764867978856
  0
ARC
  5
41D
100
AcDbEntity
  8
0
  6
CONTINUOUS
 62
               3
100
AcDbCircle
 10
0.0
 20
105.00406890004068
 30
0.0
 40
7.25
100
AcDbArc
 50
152.47930514578849
 51
168.46304096718407
  0
LINE
  5
41E
100
AcDbEntity
  8
0
  6
CONTINUOUS
 62
               3
100
AcDbLine
 10
-2.3999999999999915
 20
101.80406890004069
 30
0.0
 11
-3.1999999999999886
 21
101.80406890004069
 31
0.0
  0
LINE
  5
41F
100
AcDbEntity
  8
0
  6
CONTINUOUS
 62
               3
100
AcDbLine
 10
-3.1999999999999886
 20
101.80406890004069
 30
0.0
 11
-3.1999999999999886
 21
103.40406890004068
 31
0.0
  0
LINE
  5
420
100
AcDbEntity
  8
0
  6
CONTINUOUS
 62
               3
100
AcDbLine
 10
-3.1999999999999886
 20
103.40406890004068
 30
0.0
 11
-2.3999999999999915
 21
103.40406890004068
 31
0.0
  0
LINE
  5
421
100
AcDbEntity
  8
0
  6
CONTINUOUS
 62
               3
100
AcDbLine
 10
-2.25
 20
101.65406890004068
 30
0.0
 11
-3.3499999999999801
 21
101.65406890004068
 31
0.0
  0
LINE
  5
422
100
AcDbEntity
  8
0
  6
CONTINUOUS
 62
               3
100
AcDbLine
 10
-3.3499999999999801
 20
101.65406890004068
 30
0.0
 11
-3.3499999999999801
 21
103.55406890004069
 31
0.0
  0
LINE
  5
423
100
AcDbEntity
  8
0
  6
CONTINUOUS
 62
               3
100
AcDbLine
 10
-3.3499999999999801
 20
103.55406890004069
 30
0.0
 11
-2.25
 21
103.55406890004069
 31
0.0
  0
LINE
  5
424
100
AcDbEntity
  8
0
  6
CONTINUOUS
 62
               3
100
AcDbLine
 10
-3.9999999999999858
 20
101.80406890004069
 30
0.0
 11
-5.5999999999999801
 21
101.80406890004069
 31
0.0
  0
LINE
  5
425
100
AcDbEntity
  8
0
  6
CONTINUOUS
 62
               3
100
AcDbLine
 10
-5.5999999999999801
 20
101.80406890004069
 30
0.0
 11
-5.5999999999999801
 21
103.40406890004071
 31
0.0
  0
LINE
  5
426
100
AcDbEntity
  8
0
  6
CONTINUOUS
 62
               3
100
AcDbLine
 10
-5.5999999999999801
 20
103.40406890004071
 30
0.0
 11
-3.9999999999999858
 21
103.40406890004071
 31
0.0
  0
LINE
  5
427
100
AcDbEntity
  8
0
  6
CONTINUOUS
 62
               3
100
AcDbLine
 10
-3.9999999999999858
 20
103.40406890004071
 30
0.0
 11
-3.9999999999999858
 21
101.80406890004069
 31
0.0
  0
LINE
  5
428
100
AcDbEntity
  8
0
  6
CONTINUOUS
 62
               3
100
AcDbLine
 10
-3.8499999999999943
 20
101.65406890004068
 30
0.0
 11
-5.7500000000000142
 21
101.65406890004068
 31
0.0
  0
LINE
  5
429
100
AcDbEntity
  8
0
  6
CONTINUOUS
 62
               3
100
AcDbLine
 10
-5.7500000000000142
 20
101.65406890004068
 30
0.0
 11
-5.7499999999999716
 21
103.55406890004069
 31
0.0
  0
LINE
  5
42A
100
AcDbEntity
  8
0
  6
CONTINUOUS
 62
               3
100
AcDbLine
 10
-5.7499999999999716
 20
103.55406890004069
 30
0.0
 11
-3.8499999999999943
 21
103.55406890004069
 31
0.0
  0
LINE
  5
42B
100
AcDbEntity
  8
0
  6
CONTINUOUS
 62
               3
100
AcDbLine
 10
-3.8499999999999943
 20
103.55406890004069
 30
0.0
 11
-3.8499999999999943
 21
101.65406890004068
 31
0.0
  0
LINE
  5
42C
100
AcDbEntity
  8
0
  6
CONTINUOUS
 62
               3
100
AcDbLine
 10
-6.9173694422084964
 20
103.40406890004071
 30
0.0
 11
-6.3999999999999773
 21
103.40406890004071
 31
0.0
  0
LINE
  5
42D
100
AcDbEntity
  8
0
  6
CONTINUOUS
 62
               3
100
AcDbLine
 10
-6.3999999999999773
 20
103.40406890004071
 30
0.0
 11
-6.3999999999999773
 21
101.92998367025278
 31
0.0
  0
LINE
  5
42E
100
AcDbEntity
  8
0
  6
CONTINUOUS
 62
               3
100
AcDbLine
 10
-6.2499999999999858
 20
101.65406890004068
 30
0.0
 11
-6.4296189622713911
 21
101.65406890004068
 31
0.0
  0
LINE
  5
42F
100
AcDbEntity
  8
0
  6
CONTINUOUS
 62
               3
100
AcDbLine
 10
-7.1035202540711992
 20
103.55406890004069
 30
0.0
 11
-6.2499999999999858
 21
103.55406890004069
 31
0.0
  0
LINE
  5
430
100
AcDbEntity
  8
0
  6
CONTINUOUS
 62
               3
100
AcDbLine
 10
-6.2499999999999858
 20
103.55406890004069
 30
0.0
 11
-6.2499999999999858
 21
101.65406890004068
 31
0.0
  0
LINE
  5
431
100
AcDbEntity
  8
0
  6
CONTINUOUS
 62
               3
100
AcDbLine
 10
0.0
 20
99.404068900040684
 30
0.0
 11
-0.7999999999999972
 21
99.404068900040684
 31
0.0
  0
LINE
  5
432
100
AcDbEntity
  8
0
  6
CONTINUOUS
 62
               3
100
AcDbLine
 10
-0.7999999999999972
 20
99.404068900040684
 30
0.0
 11
-0.7999999999999972
 21
100.35406890004067
 31
0.0
  0
LINE
  5
433
100
AcDbEntity
  8
0
  6
CONTINUOUS
 62
               3
100
AcDbLine
 10
0.0
 20
99.254068900040679
 30
0.0
 11
-0.9499999999999886
 21
99.254068900040679
 31
0.0
  0
LINE
  5
434
100
AcDbEntity
  8
0
  6
CONTINUOUS
 62
               3
100
AcDbLine
 10
-0.9499999999999886
 20
99.254068900040679
 30
0.0
 11
-0.9499999999999886
 21
100.50406890004068
 31
0.0
  0
LINE
  5
435
100
AcDbEntity
  8
0
  6
CONTINUOUS
 62
               3
100
AcDbLine
 10
-1.5999999999999943
 20
99.404068900040684
 30
0.0
 11
-3.1999999999999886
 21
99.404068900040684
 31
0.0
  0
LINE
  5
436
100
AcDbEntity
  8
0
  6
CONTINUOUS
 62
               3
100
AcDbLine
 10
-3.1999999999999886
 20
99.404068900040684
 30
0.0
 11
-3.1999999999999886
 21
101.00406890004068
 31
0.0
  0
LINE
  5
437
100
AcDbEntity
  8
0
  6
CONTINUOUS
 62
               3
100
AcDbLine
 10
-3.1999999999999886
 20
101.00406890004068
 30
0.0
 11
-2.3513878188659874
 21
101.00406890004068
 31
0.0
  0
LINE
  5
438
100
AcDbEntity
  8
0
  6
CONTINUOUS
 62
               3
100
AcDbLine
 10
-1.5999999999999943
 20
100.35406890004067
 30
0.0
 11
-1.5999999999999943
 21
99.404068900040684
 31
0.0
  0
LINE
  5
439
100
AcDbEntity
  8
0
  6
CONTINUOUS
 62
               3
100
AcDbLine
 10
-1.4500000000000028
 20
99.254068900040679
 30
0.0
 11
-3.3499999999999801
 21
99.254068900040679
 31
0.0
  0
LINE
  5
43A
100
AcDbEntity
  8
0
  6
CONTINUOUS
 62
               3
100
AcDbLine
 10
-3.3499999999999801
 20
99.254068900040679
 30
0.0
 11
-3.3499999999999801
 21
101.15406890004068
 31
0.0
  0
LINE
  5
43B
100
AcDbEntity
  8
0
  6
CONTINUOUS
 62
               3
100
AcDbLine
 10
-3.3499999999999801
 20
101.15406890004068
 30
0.0
 11
-2.2358116822750702
 21
101.15406890004068
 31
0.0
  0
LINE
  5
43C
100
AcDbEntity
  8
0
  6
CONTINUOUS
 62
               3
100
AcDbLine
 10
-1.4500000000000028
 20
100.50406890004068
 30
0.0
 11
-1.4500000000000028
 21
99.254068900040679
 31
0.0
  0
LINE
  5
43D
100
AcDbEntity
  8
0
  6
CONTINUOUS
 62
               3
100
AcDbLine
 10
-3.9999999999999858
 20
99.404068900040684
 30
0.0
 11
-4.3646305685590363
 21
99.404068900040684
 31
0.0
  0
LINE
  5
43E
100
AcDbEntity
  8
0
  6
CONTINUOUS
 62
               3
100
AcDbLine
 10
-5.5999999999999801
 20
100.63943833148163
 30
0.0
 11
-5.5999999999999801
 21
101.00406890004068
 31
0.0
  0
LINE
  5
43F
100
AcDbEntity
  8
0
  6
CONTINUOUS
 62
               3
100
AcDbLine
 10
-5.5999999999999801
 20
101.00406890004068
 30
0.0
 11
-3.9999999999999858
 21
101.00406890004068
 31
0.0
  0
LINE
  5
440
100
AcDbEntity
  8
0
  6
CONTINUOUS
 62
               3
100
AcDbLine
 10
-3.9999999999999858
 20
101.00406890004068
 30
0.0
 11
-3.9999999999999858
 21
99.404068900040684
 31
0.0
  0
LINE
  5
441
100
AcDbEntity
  8
0
  6
CONTINUOUS
 62
               3
100
AcDbLine
 10
-3.8499999999999943
 20
99.254068900040679
 30
0.0
 11
-4.4158804331639345
 21
99.254068900040679
 31
0.0
  0
LINE
  5
442
100
AcDbEntity
  8
0
  6
CONTINUOUS
 62
               3
100
AcDbLine
 10
-5.7500000000000142
 20
100.58818846687676
 30
0.0
 11
-5.7500000000000142
 21
101.15406890004068
 31
0.0
  0
LINE
  5
443
100
AcDbEntity
  8
0
  6
CONTINUOUS
 62
               3
100
AcDbLine
 10
-5.7500000000000142
 20
101.15406890004068
 30
0.0
 11
-3.8499999999999943
 21
101.15406890004068
 31
0.0
  0
LINE
  5
444
100
AcDbEntity
  8
0
  6
CONTINUOUS
 62
               3
100
AcDbLine
 10
-3.8499999999999943
 20
101.15406890004068
 30
0.0
 11
-3.8499999999999943
 21
99.254068900040679
 31
0.0
  0
LINE
  5
445
100
AcDbEntity
  8
0
  6
CONTINUOUS
 62
               3
100
AcDbLine
 10
-0.7999999999999972
 20
97.949283290257782
 30
0.0
 11
-0.7999999999999972
 21
98.604068900040673
 31
0.0
  0
LINE
  5
446
100
AcDbEntity
  8
0
  6
CONTINUOUS
 62
               3
100
AcDbLine
 10
-0.7999999999999972
 20
98.604068900040673
 30
0.0
 11
0.0
 21
98.604068900040673
 31
0.0
  0
LINE
  5
447
100
AcDbEntity
  8
0
  6
CONTINUOUS
 62
               3
100
AcDbLine
 10
-0.9499999999999886
 20
97.816579769614137
 30
0.0
 11
-0.9499999999999886
 21
98.754068900040679
 31
0.0
  0
LINE
  5
448
100
AcDbEntity
  8
0
  6
CONTINUOUS
 62
               3
100
AcDbLine
 10
-0.9499999999999886
 20
98.754068900040679
 30
0.0
 11
0.0
 21
98.754068900040679
 31
0.0
  0
LINE
  5
449
100
AcDbEntity
  8
0
  6
CONTINUOUS
 62
               3
100
AcDbLine
 10
-3.0740852297878831
 20
98.604068900040701
 30
0.0
 11
-1.5999999999999943
 21
98.604068900040673
 31
0.0
  0
LINE
  5
44A
100
AcDbEntity
  8
0
  6
CONTINUOUS
 62
               3
100
AcDbLine
 10
-1.5999999999999943
 20
98.604068900040673
 30
0.0
 11
-1.5999999999999943
 21
98.086699457832182
 31
0.0
  0
LINE
  5
44B
100
AcDbEntity
  8
0
  6
CONTINUOUS
 62
               3
100
AcDbLine
 10
-3.3499999999999801
 20
98.574449937769273
 30
0.0
 11
-3.3499999999999801
 21
98.754068900040679
 31
0.0
  0
LINE
  5
44C
100
AcDbEntity
  8
0
  6
CONTINUOUS
 62
               3
100
AcDbLine
 10
-3.3499999999999801
 20
98.754068900040679
 30
0.0
 11
-1.4500000000000028
 21
98.754068900040679
 31
0.0
  0
LINE
  5
44D
100
AcDbEntity
  8
0
  6
CONTINUOUS
 62
               3
100
AcDbLine
 10
-1.4500000000000028
 20
98.754068900040679
 30
0.0
 11
-1.4500000000000028
 21
97.900548645969465
 31
0.0
  0
ARC
  5
44E
100
AcDbEntity
  8
0
  6
CONTINUOUS
 62
               3
100
AcDbCircle
 10
0.0
 20
105.00406890004068
 30
0.0
 40
7.25
100
AcDbArc
 50
262.4706248043322
 51
269.99999999999943
  0
ARC
  5
44F
100
AcDbEntity
  8
0
  6
CONTINUOUS
 62
               3
100
AcDbCircle
 10
0.0
 20
105.00406890004068
 30
0.0
 40
7.0999999999999996
100
AcDbArc
 50
263.53039838965674
 51
269.99999999999943
  0
ARC
  5
450
100
AcDbEntity
  8
0
  6
CONTINUOUS
 62
               3
100
AcDbCircle
 10
0.0
 20
105.00406890004068
 30
0.0
 40
7.0999999999999996
100
AcDbArc
 50
244.34382384500549
 51
256.97641548815074
  0
ARC
  5
451
100
AcDbEntity
  8
0
  6
CONTINUOUS
 62
               3
100
AcDbCircle
 10
0.0
 20
105.00406890004068
 30
0.0
 40
7.0999999999999996
100
AcDbArc
 50
217.93279091933363
 51
232.06720908066544
  0
ARC
  5
452
100
AcDbEntity
  8
0
  6
CONTINUOUS
 62
               3
100
AcDbCircle
 10
0.0
 20
105.00406890004068
 30
0.0
 40
7.0999999999999996
100
AcDbArc
 50
193.02358451184821
 51
205.65617615499366
  0
ARC
  5
453
100
AcDbEntity
  8
0
  6
CONTINUOUS
 62
               3
100
AcDbCircle
 10
0.0
 20
105.00406890004068
 30
0.0
 40
7.25
100
AcDbArc
 50
242.47930514578832
 51
258.46304096718393
  0
ARC
  5
454
100
AcDbEntity
  8
0
  6
CONTINUOUS
 62
               3
100
AcDbCircle
 10
0.0
 20
105.00406890004068
 30
0.0
 40
7.25
100
AcDbArc
 50
217.52351320211352
 51
232.47648679788554
  0
ARC
  5
455
100
AcDbEntity
  8
0
  6
CONTINUOUS
 62
               3
100
AcDbCircle
 10
0.0
 20
105.00406890004068
 30
0.0
 40
7.25
100
AcDbArc
 50
191.53695903281502
 51
207.52069485421066
  0
LINE
  5
456
100
AcDbEntity
  8
0
  6
CONTINUOUS
 62
               3
100
AcDbLine
 10
0.0
 20
109.00406890004068
 30
0.0
 11
-1.4500000000000028
 21
109.00406890004068
 31
0.0
  0
LINE
  5
457
100
AcDbEntity
  8
0
  6
CONTINUOUS
 62
               3
100
AcDbLine
 10
-1.7499999999999858
 20
108.7040689000407
 30
0.0
 11
-1.7499999999999858
 21
101.30406890004069
 31
0.0
  0
ARC
  5
458
100
AcDbEntity
  8
0
  6
CONTINUOUS
 62
               3
100
AcDbCircle
 10
-1.4500000000000028
 20
108.70406890004067
 30
0.0
 40
0.3
100
AcDbArc
 50
89.999999999999773
 51
179.99999999999957
  0
LINE
  5
459
100
AcDbEntity
  8
0
  6
CONTINUOUS
 62
               3
100
AcDbLine
 10
0.0
 20
109.50406890004068
 30
0.0
 11
-0.9499999999999886
 21
109.50406890004068
 31
0.0
  0
LINE
  5
45A
100
AcDbEntity
  8
0
  6
CONTINUOUS
 62
               3
100
AcDbLine
 10
-2.25
 20
108.3540689000407
 30
0.0
 11
-2.25
 21
106.4540689000407
 31
0.0
  0
LINE
  5
45B
100
AcDbEntity
  8
0
  6
CONTINUOUS
 62
               3
100
AcDbLine
 10
-2.25
 20
105.95406890004067
 30
0.0
 11
-2.25
 21
104.05406890004069
 31
0.0
  0
LINE
  5
45C
100
AcDbEntity
  8
0
  6
CONTINUOUS
 62
               3
100
AcDbLine
 10
-2.25
 20
103.55406890004069
 30
0.0
 11
-2.25
 21
101.65406890004068
 31
0.0
  0
LINE
  5
45D
100
AcDbEntity
  8
0
  6
CONTINUOUS
 62
               3
100
AcDbLine
 10
0.0
 20
109.65406890004068
 30
0.0
 11
-0.7999999999999972
 21
109.65406890004068
 31
0.0
  0
LINE
  5
45E
100
AcDbEntity
  8
0
  6
CONTINUOUS
 62
               3
100
AcDbLine
 10
-2.3999999999999915
 20
108.2040689000407
 30
0.0
 11
-2.3999999999999915
 21
106.6040689000407
 31
0.0
  0
LINE
  5
45F
100
AcDbEntity
  8
0
  6
CONTINUOUS
 62
               3
100
AcDbLine
 10
-2.3999999999999915
 20
105.80406890004069
 30
0.0
 11
-2.3999999999999915
 21
104.2040689000407
 31
0.0
  0
LINE
  5
460
100
AcDbEntity
  8
0
  6
CONTINUOUS
 62
               3
100
AcDbLine
 10
-2.3999999999999915
 20
103.40406890004068
 30
0.0
 11
-2.3999999999999915
 21
101.80406890004069
 31
0.0
  0
LINE
  5
461
100
AcDbEntity
  8
0
  6
CONTINUOUS
 62
               3
100
AcDbLine
 10
0.0
 20
108.8540689000407
 30
0.0
 11
-1.4500000000000028
 21
108.85406890004067
 31
0.0
  0
ARC
  5
462
100
AcDbEntity
  8
0
  6
CONTINUOUS
 62
               3
100
AcDbCircle
 10
-1.4500000000000028
 20
108.70406890004067
 30
0.0
 40
0.15
100
AcDbArc
 50
89.999999999999886
 51
179.99999999999957
  0
LINE
  5
463
100
AcDbEntity
  8
0
  6
CONTINUOUS
 62
               3
100
AcDbLine
 10
-1.5999999999999943
 20
108.70406890004067
 30
0.0
 11
-1.5999999999999943
 21
101.30406890004069
 31
0.0
  0
ARC
  5
464
100
AcDbEntity
  8
0
  6
CONTINUOUS
 62
               3
100
AcDbCircle
 10
-1.4500000000000028
 20
108.70406890004067
 30
0.0
 40
0.8
100
AcDbArc
 50
89.999999999999773
 51
169.19307712513881
  0
ARC
  5
465
100
AcDbEntity
  8
0
  6
CONTINUOUS
 62
               3
100
AcDbCircle
 10
-1.4500000000000028
 20
108.7040689000407
 30
0.0
 40
0.95
100
AcDbArc
 50
99.084720287390454
 51
161.59151982941378
  0
LINE
  5
466
100
AcDbEntity
  8
0
  6
CONTINUOUS
 62
               3
100
AcDbLine
 10
0.0
 20
101.00406890004068
 30
0.0
 11
-1.4500000000000028
 21
101.00406890004068
 31
0.0
  0
ARC
  5
467
100
AcDbEntity
  8
0
  6
CONTINUOUS
 62
               3
100
AcDbCircle
 10
-1.4500000000000028
 20
101.30406890004069
 30
0.0
 40
0.3
100
AcDbArc
 50
179.99999999999957
 51
269.99999999999932
  0
LINE
  5
468
100
AcDbEntity
  8
0
  6
CONTINUOUS
 62
               3
100
AcDbLine
 10
0.0
 20
100.50406890004068
 30
0.0
 11
-0.9499999999999886
 21
100.50406890004068
 31
0.0
  0
LINE
  5
469
100
AcDbEntity
  8
0
  6
CONTINUOUS
 62
               3
100
AcDbLine
 10
0.0
 20
100.35406890004067
 30
0.0
 11
-0.7999999999999972
 21
100.35406890004067
 31
0.0
  0
LINE
  5
46A
100
AcDbEntity
  8
0
  6
CONTINUOUS
 62
               3
100
AcDbLine
 10
0.0
 20
101.15406890004071
 30
0.0
 11
-1.4500000000000028
 21
101.15406890004071
 31
0.0
  0
ARC
  5
46B
100
AcDbEntity
  8
0
  6
CONTINUOUS
 62
               3
100
AcDbCircle
 10
-1.4500000000000028
 20
101.30406890004069
 30
0.0
 40
0.15
100
AcDbArc
 50
179.99999999999957
 51
269.99999999999926
  0
ARC
  5
46C
100
AcDbEntity
  8
0
  6
CONTINUOUS
 62
               3
100
AcDbCircle
 10
-1.4500000000000028
 20
101.30406890004069
 30
0.0
 40
0.8
100
AcDbArc
 50
190.80692287486033
 51
269.99999999999932
  0
ARC
  5
46D
100
AcDbEntity
  8
0
  6
CONTINUOUS
 62
               3
100
AcDbCircle
 10
-1.4500000000000028
 20
101.30406890004069
 30
0.0
 40
0.95
100
AcDbArc
 50
198.40848017058534
 51
260.91527971260871
  0
LINE
  5
46E
100
AcDbEntity
  8
0
  6
CONTINUOUS
 62
               3
100
AcDbLine
 10
-0.9499999999999886
 20
112.19155803046725
 30
0.0
 11
-0.7999999999999972
 21
112.05885450982358
 31
0.0
  0
LINE
  5
46F
100
AcDbEntity
  8
0
  6
CONTINUOUS
 62
               3
100
AcDbLine
 10
-0.7999999999999972
 20
111.40406890004068
 30
0.0
 11
-0.9499999999999886
 21
111.25406890004071
 31
0.0
  0
LINE
  5
470
100
AcDbEntity
  8
0
  6
CONTINUOUS
 62
               3
100
AcDbLine
 10
-0.9499999999999886
 20
110.75406890004068
 30
0.0
 11
-0.7999999999999972
 21
110.6040689000407
 31
0.0
  0
LINE
  5
471
100
AcDbEntity
  8
0
  6
CONTINUOUS
 62
               3
100
AcDbLine
 10
-0.7999999999999972
 20
109.65406890004068
 30
0.0
 11
-0.9499999999999886
 21
109.50406890004068
 31
0.0
  0
LINE
  5
472
100
AcDbEntity
  8
0
  6
CONTINUOUS
 62
               3
100
AcDbLine
 10
-1.4500000000000028
 20
109.50406890004068
 30
0.0
 11
-1.5999999999999943
 21
109.64215205200539
 31
0.0
  0
LINE
  5
473
100
AcDbEntity
  8
0
  6
CONTINUOUS
 62
               3
100
AcDbLine
 10
-1.5999999999999943
 20
110.6040689000407
 30
0.0
 11
-1.4500000000000028
 21
110.75406890004068
 31
0.0
  0
LINE
  5
474
100
AcDbEntity
  8
0
  6
CONTINUOUS
 62
               3
100
AcDbLine
 10
-1.4500000000000028
 20
111.25406890004071
 30
0.0
 11
-1.5999999999999943
 21
111.40406890004068
 31
0.0
  0
LINE
  5
475
100
AcDbEntity
  8
0
  6
CONTINUOUS
 62
               3
100
AcDbLine
 10
-1.5999999999999943
 20
111.92143834224917
 30
0.0
 11
-1.4500000000000028
 21
112.10758915411192
 31
0.0
  0
LINE
  5
476
100
AcDbEntity
  8
0
  6
CONTINUOUS
 62
               3
100
AcDbLine
 10
-3.0740852297878405
 20
111.40406890004068
 30
0.0
 11
-3.3499999999999801
 21
111.25406890004071
 31
0.0
  0
LINE
  5
477
100
AcDbEntity
  8
0
  6
CONTINUOUS
 62
               3
100
AcDbLine
 10
-3.3499999999999801
 20
111.43368786231208
 30
0.0
 11
-3.0740852297878405
 21
111.40406890004068
 31
0.0
  0
LINE
  5
478
100
AcDbEntity
  8
0
  6
CONTINUOUS
 62
               3
100
AcDbLine
 10
-3.3499999999999801
 20
110.75406890004068
 30
0.0
 11
-3.1999999999999886
 21
110.6040689000407
 31
0.0
  0
LINE
  5
479
100
AcDbEntity
  8
0
  6
CONTINUOUS
 62
               3
100
AcDbLine
 10
-3.1999999999999886
 20
109.00406890004071
 30
0.0
 11
-3.3499999999999801
 21
108.8540689000407
 31
0.0
  0
LINE
  5
47A
100
AcDbEntity
  8
0
  6
CONTINUOUS
 62
               3
100
AcDbLine
 10
-2.2358116822750702
 20
108.8540689000407
 30
0.0
 11
-2.3513878188659874
 21
109.00406890004071
 31
0.0
  0
LINE
  5
47B
100
AcDbEntity
  8
0
  6
CONTINUOUS
 62
               3
100
AcDbLine
 10
-2.25
 20
108.3540689000407
 30
0.0
 11
-2.3999999999999915
 21
108.2040689000407
 31
0.0
  0
LINE
  5
47C
100
AcDbEntity
  8
0
  6
CONTINUOUS
 62
               3
100
AcDbLine
 10
-2.3999999999999915
 20
106.6040689000407
 30
0.0
 11
-2.25
 21
106.4540689000407
 31
0.0
  0
LINE
  5
47D
100
AcDbEntity
  8
0
  6
CONTINUOUS
 62
               3
100
AcDbLine
 10
-3.3499999999999801
 20
106.4540689000407
 30
0.0
 11
-3.1999999999999886
 21
106.6040689000407
 31
0.0
  0
LINE
  5
47E
100
AcDbEntity
  8
0
  6
CONTINUOUS
 62
               3
100
AcDbLine
 10
-3.1999999999999886
 20
108.2040689000407
 30
0.0
 11
-3.3499999999999801
 21
108.3540689000407
 31
0.0
  0
LINE
  5
47F
100
AcDbEntity
  8
0
  6
CONTINUOUS
 62
               3
100
AcDbLine
 10
-2.25
 20
105.95406890004067
 30
0.0
 11
-2.3999999999999915
 21
105.80406890004069
 31
0.0
  0
LINE
  5
480
100
AcDbEntity
  8
0
  6
CONTINUOUS
 62
               3
100
AcDbLine
 10
-3.1999999999999886
 20
105.80406890004069
 30
0.0
 11
-3.3499999999999801
 21
105.95406890004067
 31
0.0
  0
LINE
  5
481
100
AcDbEntity
  8
0
  6
CONTINUOUS
 62
               3
100
AcDbLine
 10
-3.8499999999999943
 20
105.95406890004067
 30
0.0
 11
-3.9999999999999858
 21
105.80406890004069
 31
0.0
  0
LINE
  5
482
100
AcDbEntity
  8
0
  6
CONTINUOUS
 62
               3
100
AcDbLine
 10
-7.1035202540711992
 20
106.4540689000407
 30
0.0
 11
-6.9173694422084964
 21
106.6040689000407
 31
0.0
  0
LINE
  5
483
100
AcDbEntity
  8
0
  6
CONTINUOUS
 62
               3
100
AcDbLine
 10
-6.3999999999999773
 20
106.6040689000407
 30
0.0
 11
-6.2499999999999858
 21
106.4540689000407
 31
0.0
  0
LINE
  5
484
100
AcDbEntity
  8
0
  6
CONTINUOUS
 62
               3
100
AcDbLine
 10
-5.5999999999999801
 20
106.6040689000407
 30
0.0
 11
-5.7499999999999716
 21
106.4540689000407
 31
0.0
  0
LINE
  5
485
100
AcDbEntity
  8
0
  6
CONTINUOUS
 62
               3
100
AcDbLine
 10
-3.9999999999999858
 20
106.6040689000407
 30
0.0
 11
-3.8499999999999943
 21
106.4540689000407
 31
0.0
  0
LINE
  5
486
100
AcDbEntity
  8
0
  6
CONTINUOUS
 62
               3
100
AcDbLine
 10
-3.8499999999999943
 20
108.3540689000407
 30
0.0
 11
-3.9999999999999858
 21
108.2040689000407
 31
0.0
  0
LINE
  5
487
100
AcDbEntity
  8
0
  6
CONTINUOUS
 62
               3
100
AcDbLine
 10
-5.5999999999999801
 20
108.2040689000407
 30
0.0
 11
-5.7499999999999716
 21
108.3540689000407
 31
0.0
  0
LINE
  5
488
100
AcDbEntity
  8
0
  6
CONTINUOUS
 62
               3
100
AcDbLine
 10
-6.2499999999999858
 20
108.3540689000407
 30
0.0
 11
-6.3999999999999773
 21
108.0781541298286
 31
0.0
  0
LINE
  5
489
100
AcDbEntity
  8
0
  6
CONTINUOUS
 62
               3
100
AcDbLine
 10
-6.3999999999999773
 20
108.0781541298286
 30
0.0
 11
-6.4296189622713911
 21
108.3540689000407
 31
0.0
  0
LINE
  5
48A
100
AcDbEntity
  8
0
  6
CONTINUOUS
 62
               3
100
AcDbLine
 10
-5.7499999999999716
 20
108.8540689000407
 30
0.0
 11
-5.5999999999999801
 21
109.00406890004071
 31
0.0
  0
LINE
  5
48B
100
AcDbEntity
  8
0
  6
CONTINUOUS
 62
               3
100
AcDbLine
 10
-5.5999999999999801
 20
109.36869946859973
 30
0.0
 11
-5.7499999999999716
 21
109.41994933320463
 31
0.0
  0
LINE
  5
48C
100
AcDbEntity
  8
0
  6
CONTINUOUS
 62
               3
100
AcDbLine
 10
-4.3646305685590363
 20
110.6040689000407
 30
0.0
 11
-4.4158804331638919
 21
110.75406890004068
 31
0.0
  0
LINE
  5
48D
100
AcDbEntity
  8
0
  6
CONTINUOUS
 62
               3
100
AcDbLine
 10
-3.8499999999999943
 20
110.75406890004068
 30
0.0
 11
-3.9999999999999858
 21
110.6040689000407
 31
0.0
  0
LINE
  5
48E
100
AcDbEntity
  8
0
  6
CONTINUOUS
 62
               3
100
AcDbLine
 10
-3.9999999999999858
 20
109.00406890004071
 30
0.0
 11
-3.8499999999999943
 21
108.8540689000407
 31
0.0
  0
LINE
  5
48F
100
AcDbEntity
  8
0
  6
CONTINUOUS
 62
               3
100
AcDbLine
 10
-0.9499999999999886
 20
97.816579769614137
 30
0.0
 11
-0.7999999999999972
 21
97.949283290257782
 31
0.0
  0
LINE
  5
490
100
AcDbEntity
  8
0
  6
CONTINUOUS
 62
               3
100
AcDbLine
 10
-0.7999999999999972
 20
98.604068900040673
 30
0.0
 11
-0.9499999999999886
 21
98.754068900040679
 31
0.0
  0
LINE
  5
491
100
AcDbEntity
  8
0
  6
CONTINUOUS
 62
               3
100
AcDbLine
 10
-0.9499999999999886
 20
99.254068900040679
 30
0.0
 11
-0.7999999999999972
 21
99.404068900040684
 31
0.0
  0
LINE
  5
492
100
AcDbEntity
  8
0
  6
CONTINUOUS
 62
               3
100
AcDbLine
 10
-0.7999999999999972
 20
100.35406890004067
 30
0.0
 11
-0.9499999999999886
 21
100.50406890004068
 31
0.0
  0
LINE
  5
493
100
AcDbEntity
  8
0
  6
CONTINUOUS
 62
               3
100
AcDbLine
 10
-1.4500000000000028
 20
100.50406890004068
 30
0.0
 11
-1.5999999999999943
 21
100.365985748076
 31
0.0
  0
LINE
  5
494
100
AcDbEntity
  8
0
  6
CONTINUOUS
 62
               3
100
AcDbLine
 10
-1.5999999999999943
 20
99.404068900040684
 30
0.0
 11
-1.4500000000000028
 21
99.254068900040679
 31
0.0
  0
LINE
  5
495
100
AcDbEntity
  8
0
  6
CONTINUOUS
 62
               3
100
AcDbLine
 10
-1.4500000000000028
 20
98.754068900040679
 30
0.0
 11
-1.5999999999999943
 21
98.604068900040673
 31
0.0
  0
LINE
  5
496
100
AcDbEntity
  8
0
  6
CONTINUOUS
 62
               3
100
AcDbLine
 10
-1.5999999999999943
 20
98.086699457832182
 30
0.0
 11
-1.4500000000000028
 21
97.900548645969465
 31
0.0
  0
LINE
  5
497
100
AcDbEntity
  8
0
  6
CONTINUOUS
 62
               3
100
AcDbLine
 10
-3.0740852297878831
 20
98.604068900040701
 30
0.0
 11
-3.3499999999999801
 21
98.754068900040679
 31
0.0
  0
LINE
  5
498
100
AcDbEntity
  8
0
  6
CONTINUOUS
 62
               3
100
AcDbLine
 10
-3.3499999999999801
 20
98.574449937769273
 30
0.0
 11
-3.0740852297878831
 21
98.604068900040701
 31
0.0
  0
LINE
  5
499
100
AcDbEntity
  8
0
  6
CONTINUOUS
 62
               3
100
AcDbLine
 10
-3.3499999999999801
 20
99.254068900040679
 30
0.0
 11
-3.1999999999999886
 21
99.404068900040684
 31
0.0
  0
LINE
  5
49A
100
AcDbEntity
  8
0
  6
CONTINUOUS
 62
               3
100
AcDbLine
 10
-3.1999999999999886
 20
101.00406890004068
 30
0.0
 11
-3.3499999999999801
 21
101.15406890004068
 31
0.0
  0
LINE
  5
49B
100
AcDbEntity
  8
0
  6
CONTINUOUS
 62
               3
100
AcDbLine
 10
-2.2358116822750702
 20
101.15406890004068
 30
0.0
 11
-2.3513878188659874
 21
101.00406890004068
 31
0.0
  0
LINE
  5
49C
100
AcDbEntity
  8
0
  6
CONTINUOUS
 62
               3
100
AcDbLine
 10
-2.25
 20
101.65406890004068
 30
0.0
 11
-2.3999999999999915
 21
101.80406890004069
 31
0.0
  0
LINE
  5
49D
100
AcDbEntity
  8
0
  6
CONTINUOUS
 62
               3
100
AcDbLine
 10
-2.3999999999999915
 20
103.40406890004068
 30
0.0
 11
-2.25
 21
103.55406890004069
 31
0.0
  0
LINE
  5
49E
100
AcDbEntity
  8
0
  6
CONTINUOUS
 62
               3
100
AcDbLine
 10
-3.3499999999999801
 20
103.55406890004069
 30
0.0
 11
-3.1999999999999886
 21
103.40406890004068
 31
0.0
  0
LINE
  5
49F
100
AcDbEntity
  8
0
  6
CONTINUOUS
 62
               3
100
AcDbLine
 10
-3.1999999999999886
 20
101.80406890004069
 30
0.0
 11
-3.3499999999999801
 21
101.65406890004068
 31
0.0
  0
LINE
  5
4A0
100
AcDbEntity
  8
0
  6
CONTINUOUS
 62
               3
100
AcDbLine
 10
-2.25
 20
104.05406890004069
 30
0.0
 11
-2.3999999999999915
 21
104.2040689000407
 31
0.0
  0
LINE
  5
4A1
100
AcDbEntity
  8
0
  6
CONTINUOUS
 62
               3
100
AcDbLine
 10
-3.1999999999999886
 20
104.2040689000407
 30
0.0
 11
-3.3499999999999801
 21
104.05406890004069
 31
0.0
  0
LINE
  5
4A2
100
AcDbEntity
  8
0
  6
CONTINUOUS
 62
               3
100
AcDbLine
 10
-3.8499999999999943
 20
104.05406890004069
 30
0.0
 11
-3.9999999999999858
 21
104.2040689000407
 31
0.0
  0
LINE
  5
4A3
100
AcDbEntity
  8
0
  6
CONTINUOUS
 62
               3
100
AcDbLine
 10
-7.1035202540711992
 20
103.55406890004069
 30
0.0
 11
-6.9173694422084964
 21
103.40406890004071
 31
0.0
  0
LINE
  5
4A4
100
AcDbEntity
  8
0
  6
CONTINUOUS
 62
               3
100
AcDbLine
 10
-6.3999999999999773
 20
103.40406890004071
 30
0.0
 11
-6.2499999999999858
 21
103.55406890004069
 31
0.0
  0
LINE
  5
4A5
100
AcDbEntity
  8
0
  6
CONTINUOUS
 62
               3
100
AcDbLine
 10
-5.5999999999999801
 20
103.40406890004071
 30
0.0
 11
-5.7499999999999716
 21
103.55406890004069
 31
0.0
  0
LINE
  5
4A6
100
AcDbEntity
  8
0
  6
CONTINUOUS
 62
               3
100
AcDbLine
 10
-3.9999999999999858
 20
103.40406890004071
 30
0.0
 11
-3.8499999999999943
 21
103.55406890004069
 31
0.0
  0
LINE
  5
4A7
100
AcDbEntity
  8
0
  6
CONTINUOUS
 62
               3
100
AcDbLine
 10
-3.8499999999999943
 20
101.65406890004068
 30
0.0
 11
-3.9999999999999858
 21
101.80406890004069
 31
0.0
  0
LINE
  5
4A8
100
AcDbEntity
  8
0
  6
CONTINUOUS
 62
               3
100
AcDbLine
 10
-5.5999999999999801
 20
101.80406890004069
 30
0.0
 11
-5.7500000000000142
 21
101.65406890004068
 31
0.0
  0
LINE
  5
4A9
100
AcDbEntity
  8
0
  6
CONTINUOUS
 62
               3
100
AcDbLine
 10
-6.2499999999999858
 20
101.65406890004068
 30
0.0
 11
-6.3999999999999773
 21
101.92998367025278
 31
0.0
  0
LINE
  5
4AA
100
AcDbEntity
  8
0
  6
CONTINUOUS
 62
               3
100
AcDbLine
 10
-6.3999999999999773
 20
101.92998367025278
 30
0.0
 11
-6.4296189622713911
 21
101.65406890004068
 31
0.0
  0
LINE
  5
4AB
100
AcDbEntity
  8
0
  6
CONTINUOUS
 62
               3
100
AcDbLine
 10
-5.7500000000000142
 20
101.15406890004068
 30
0.0
 11
-5.5999999999999801
 21
101.00406890004068
 31
0.0
  0
LINE
  5
4AC
100
AcDbEntity
  8
0
  6
CONTINUOUS
 62
               3
100
AcDbLine
 10
-5.5999999999999801
 20
100.63943833148163
 30
0.0
 11
-5.7500000000000142
 21
100.58818846687676
 31
0.0
  0
LINE
  5
4AD
100
AcDbEntity
  8
0
  6
CONTINUOUS
 62
               3
100
AcDbLine
 10
-4.3646305685590363
 20
99.404068900040684
 30
0.0
 11
-4.4158804331639345
 21
99.254068900040679
 31
0.0
  0
LINE
  5
4AE
100
AcDbEntity
  8
0
  6
CONTINUOUS
 62
               3
100
AcDbLine
 10
-3.8499999999999943
 20
99.254068900040679
 30
0.0
 11
-3.9999999999999858
 21
99.404068900040684
 31
0.0
  0
LINE
  5
4AF
100
AcDbEntity
  8
0
  6
CONTINUOUS
 62
               3
100
AcDbLine
 10
-3.9999999999999858
 20
101.00406890004068
 30
0.0
 11
-3.8499999999999943
 21
101.15406890004068
 31
0.0
  0
ARC
  5
4B0
100
AcDbEntity
  8
0
  6
CONTINUOUS
 62
               3
100
AcDbCircle
 10
-6.3000000000000256
 20
105.00406890004068
 30
0.0
 40
1.5499999999999998
100
AcDbArc
 50
328.92704902784607
 51
391.07295097215263
  0
LINE
  5
4B1
100
AcDbEntity
  8
0
  6
CONTINUOUS
 62
               3
100
AcDbLine
 10
-5.2716518099398399
 20
105.95406890004067
 30
0.0
 11
-4.9724081952648334
 21
105.80406890004069
 31
0.0
  0
LINE
  5
4B2
100
AcDbEntity
  8
0
  6
CONTINUOUS
 62
               3
100
AcDbLine
 10
-4.9724081952648334
 20
104.2040689000407
 30
0.0
 11
-5.2716518099398399
 21
104.05406890004069
 31
0.0
  0
ARC
  5
4B3
100
AcDbEntity
  8
0
  6
CONTINUOUS
 62
               3
100
AcDbCircle
 10
8.5912746434973002
 20
108.00406890004068
 30
0.0
 40
1.0
100
AcDbArc
 50
199.24876707248148
 51
269.99999999999932
  0
LINE
  5
4B4
100
AcDbEntity
  8
0
  6
CONTINUOUS
 62
               3
100
AcDbLine
 10
8.5912746434973002
 20
103.00406890004068
 30
0.0
 11
11.700000000000017
 21
103.00406890004068
 31
0.0
  0
LINE
  5
4B5
100
AcDbEntity
  8
0
  6
CONTINUOUS
 62
               3
100
AcDbLine
 10
8.3276647386887532
 20
106.40406890004068
 30
0.0
 11
11.000000000000014
 21
106.40406890004068
 31
0.0
  0
ARC
  5
4B6
100
AcDbEntity
  8
0
  6
CONTINUOUS
 62
               3
100
AcDbCircle
 10
8.3276647386887532
 20
106.1040689000407
 30
0.0
 40
0.3
100
AcDbArc
 50
89.999999999999787
 51
187.5246302223627
  0
LINE
  5
4B7
100
AcDbEntity
  8
0
  6
CONTINUOUS
 62
               3
100
AcDbLine
 10
8.3276647386887532
 20
103.6040689000407
 30
0.0
 11
11.000000000000014
 21
103.6040689000407
 31
0.0
  0
ARC
  5
4B8
100
AcDbEntity
  8
0
  6
CONTINUOUS
 62
               3
100
AcDbCircle
 10
8.3276647386887532
 20
103.90406890004068
 30
0.0
 40
0.3
100
AcDbArc
 50
172.47536977763647
 51
269.99999999999932
  0
LINE
  5
4B9
100
AcDbEntity
  8
0
  6
CONTINUOUS
 62
               3
100
AcDbLine
 10
11.299999999999997
 20
106.10406890004067
 30
0.0
 11
11.299999999999997
 21
103.90406890004068
 31
0.0
  0
ARC
  5
4BA
100
AcDbEntity
  8
0
  6
CONTINUOUS
 62
               3
100
AcDbCircle
 10
11.000000000000014
 20
103.90406890004068
 30
0.0
 40
0.3
100
AcDbArc
 50
269.99999999999932
 51
359.9999999999992
  0
ARC
  5
4BB
100
AcDbEntity
  8
0
  6
CONTINUOUS
 62
               3
100
AcDbCircle
 10
11.000000000000014
 20
106.10406890004067
 30
0.0
 40
0.3
100
AcDbArc
 50
0.0
 51
89.999999999999787
  0
ARC
  5
4BC
100
AcDbEntity
  8
0
  6
CONTINUOUS
 62
               3
100
AcDbCircle
 10
0.0
 20
105.00406890004068
 30
0.0
 40
8.1000000000000014
100
AcDbArc
 50
352.47536977763605
 51
367.5246302223623
  0
ARC
  5
4BD
100
AcDbEntity
  8
0
  6
CONTINUOUS
 62
               3
100
AcDbCircle
 10
0.0
 20
105.00406890004068
 30
0.0
 40
8.25
100
AcDbArc
 50
352.47536977763605
 51
367.5246302223623
  0
ARC
  5
4BE
100
AcDbEntity
  8
0
  6
CONTINUOUS
 62
               3
100
AcDbCircle
 10
8.3276647386887532
 20
103.90406890004068
 30
0.0
 40
0.15
100
AcDbArc
 50
172.47536977763647
 51
269.99999999999932
  0
ARC
  5
4BF
100
AcDbEntity
  8
0
  6
CONTINUOUS
 62
               3
100
AcDbCircle
 10
8.3276647386887532
 20
106.1040689000407
 30
0.0
 40
0.15
100
AcDbArc
 50
89.999999999999787
 51
187.5246302223627
  0
LINE
  5
4C0
100
AcDbEntity
  8
0
  6
CONTINUOUS
 62
               3
100
AcDbLine
 10
8.3276647386887532
 20
103.75406890004068
 30
0.0
 11
11.000000000000014
 21
103.75406890004071
 31
0.0
  0
ARC
  5
4C1
100
AcDbEntity
  8
0
  6
CONTINUOUS
 62
               3
100
AcDbCircle
 10
11.000000000000014
 20
103.90406890004068
 30
0.0
 40
0.15
100
AcDbArc
 50
269.99999999999949
 51
359.9999999999992
  0
LINE
  5
4C2
100
AcDbEntity
  8
0
  6
CONTINUOUS
 62
               3
100
AcDbLine
 10
11.150000000000006
 20
103.90406890004068
 30
0.0
 11
11.150000000000006
 21
106.1040689000407
 31
0.0
  0
ARC
  5
4C3
100
AcDbEntity
  8
0
  6
CONTINUOUS
 62
               3
100
AcDbCircle
 10
11.000000000000014
 20
106.1040689000407
 30
0.0
 40
0.15
100
AcDbArc
 50
0.0
 51
89.999999999999631
  0
LINE
  5
4C4
100
AcDbEntity
  8
0
  6
CONTINUOUS
 62
               3
100
AcDbLine
 10
11.000000000000014
 20
106.25406890004068
 30
0.0
 11
8.3276647386887532
 21
106.25406890004068
 31
0.0
  0
ARC
  5
4C5
100
AcDbEntity
  8
0
  6
CONTINUOUS
 62
               3
100
AcDbCircle
 10
0.0
 20
105.00406890004068
 30
0.0
 40
10.0
100
AcDbArc
 50
21.323686263497851
 51
338.67631373650124
  0
ARC
  5
4C6
100
AcDbEntity
  8
0
  6
CONTINUOUS
 62
               3
100
AcDbCircle
 10
10.246950765959582
 20
101.00406890004068
 30
0.0
 40
1.0
100
AcDbArc
 50
89.999999999999787
 51
158.67631373650167
  0
ARC
  5
4C7
100
AcDbEntity
  8
0
  6
CONTINUOUS
 62
               3
100
AcDbCircle
 10
10.246950765959582
 20
109.00406890004068
 30
0.0
 40
1.0
100
AcDbArc
 50
201.32368626349739
 51
269.99999999999932
  0
ARC
  5
4C8
100
AcDbEntity
  8
0
  6
CONTINUOUS
 62
               3
100
AcDbCircle
 10
0.0
 20
105.00406890004068
 30
0.0
 40
8.25
100
AcDbArc
 50
19.90981013367335
 51
340.09018986632577
  0
ARC
  5
4C9
100
AcDbEntity
  8
0
  6
CONTINUOUS
 62
               3
100
AcDbCircle
 10
8.6971259620635664
 20
108.15406890004068
 30
0.0
 40
1.0
100
AcDbArc
 50
199.90981013367289
 51
269.99999999999932
  0
LINE
  5
4CA
100
AcDbEntity
  8
0
  6
CONTINUOUS
 62
               3
100
AcDbLine
 10
13.200000000000017
 20
107.7040689000407
 30
0.0
 11
13.200000000000017
 21
102.30406890004069
 31
0.0
  0
LINE
  5
4CB
100
AcDbEntity
  8
0
  6
CONTINUOUS
 62
               3
100
AcDbLine
 10
8.6971259620635664
 20
107.15406890004068
 30
0.0
 11
12.049999999999997
 21
107.15406890004068
 31
0.0
  0
LINE
  5
4CC
100
AcDbEntity
  8
0
  6
CONTINUOUS
 62
               3
100
AcDbLine
 10
8.6971259620635664
 20
102.8540689000407
 30
0.0
 11
12.049999999999997
 21
102.8540689000407
 31
0.0
  0
LINE
  5
4CD
100
AcDbEntity
  8
0
  6
CONTINUOUS
 62
               3
100
AcDbLine
 10
10.246950765959582
 20
108.00406890004068
 30
0.0
 11
12.899999999999991
 21
108.00406890004068
 31
0.0
  0
ARC
  5
4CE
100
AcDbEntity
  8
0
  6
CONTINUOUS
 62
               3
100
AcDbCircle
 10
12.899999999999991
 20
107.7040689000407
 30
0.0
 40
0.3
100
AcDbArc
 50
0.0
 51
89.999999999999787
  0
LINE
  5
4CF
100
AcDbEntity
  8
0
  6
CONTINUOUS
 62
               3
100
AcDbLine
 10
10.246950765959582
 20
102.00406890004068
 30
0.0
 11
12.899999999999991
 21
102.00406890004068
 31
0.0
  0
ARC
  5
4D0
100
AcDbEntity
  8
0
  6
CONTINUOUS
 62
               3
100
AcDbCircle
 10
12.899999999999991
 20
102.30406890004069
 30
0.0
 40
0.3
100
AcDbArc
 50
269.99999999999932
 51
359.9999999999992
  0
LINE
  5
4D1
100
AcDbEntity
  8
0
  6
CONTINUOUS
 62
               3
100
AcDbLine
 10
12.34999999999998
 20
106.85406890004067
 30
0.0
 11
12.34999999999998
 21
103.15406890004068
 31
0.0
  0
ARC
  5
4D2
100
AcDbEntity
  8
0
  6
CONTINUOUS
 62
               3
100
AcDbCircle
 10
12.049999999999997
 20
103.15406890004068
 30
0.0
 40
0.3
100
AcDbArc
 50
269.99999999999932
 51
359.9999999999992
  0
ARC
  5
4D3
100
AcDbEntity
  8
0
  6
CONTINUOUS
 62
               3
100
AcDbCircle
 10
12.049999999999997
 20
106.85406890004067
 30
0.0
 40
0.3
100
AcDbArc
 50
0.0
 51
89.999999999999787
  0
ARC
  5
4D4
100
AcDbEntity
  8
0
  6
CONTINUOUS
 62
               3
100
AcDbCircle
 10
8.6971259620635664
 20
101.85406890004067
 30
0.0
 40
1.0
100
AcDbArc
 50
89.999999999999844
 51
160.09018986632628
  0
POINT
  5
4D5
100
AcDbEntity
  8
0
  6
CONTINUOUS
 62
               3
100
AcDbPoint
 10
-9.1250000000000142
 20
105.00406890004068
 30
0.0
  0
ARC
  5
4D6
100
AcDbEntity
  8
0
  6
CONTINUOUS
 62
               3
100
AcDbCircle
 10
0.0
 20
105.00406890004068
 30
0.0
 40
9.8249999999999993
100
AcDbArc
 50
170.22606072845693
 51
189.77393927154222
  0
ARC
  5
4D7
100
AcDbEntity
  8
0
  6
CONTINUOUS
 62
               3
100
AcDbCircle
 10
-9.2881981568009309
 20
103.40406890004068
 30
0.0
 40
0.4
100
AcDbArc
 50
189.77393927154219
 51
269.99999999999932
  0
ARC
  5
4D8
100
AcDbEntity
  8
0
  6
CONTINUOUS
 62
               3
100
AcDbCircle
 10
-9.2881981568009309
 20
106.6040689000407
 30
0.0
 40
0.4
100
AcDbArc
 50
89.999999999999787
 51
170.22606072845693
  0
LINE
  5
4D9
100
AcDbEntity
  8
0
  6
CONTINUOUS
 62
               3
100
AcDbLine
 10
-9.2881981568009309
 20
103.00406890004068
 30
0.0
 11
-8.6787455890813874
 21
103.00406890004068
 31
0.0
  0
ARC
  5
4DA
100
AcDbEntity
  8
0
  6
CONTINUOUS
 62
               3
100
AcDbCircle
 10
-8.67874558908143
 20
103.40406890004068
 30
0.0
 40
0.4
100
AcDbArc
 50
269.99999999999932
 51
370.44567183548338
  0
ARC
  5
4DB
100
AcDbEntity
  8
0
  6
CONTINUOUS
 62
               3
100
AcDbCircle
 10
0.0
 20
105.00406890004068
 30
0.0
 40
8.4249999999999989
100
AcDbArc
 50
169.5543281645154
 51
190.44567183548375
  0
ARC
  5
4DC
100
AcDbEntity
  8
0
  6
CONTINUOUS
 62
               3
100
AcDbCircle
 10
-8.67874558908143
 20
106.6040689000407
 30
0.0
 40
0.4
100
AcDbArc
 50
349.55432816451497
 51
449.99999999999898
  0
LINE
  5
4DD
100
AcDbEntity
  8
0
  6
CONTINUOUS
 62
               3
100
AcDbLine
 10
-8.67874558908143
 20
107.00406890004068
 30
0.0
 11
-9.2881981568009309
 21
107.00406890004068
 31
0.0
  0
LINE
  5
4DE
100
AcDbEntity
  8
0
  6
CONTINUOUS
 62
               3
100
AcDbLine
 10
-13.750000000000002
 20
-10.544554455445549
 30
0.0
 11
13.75
 21
-10.544554455445549
 31
0.0
  0
LINE
  5
4DF
100
AcDbEntity
  8
0
  6
CONTINUOUS
 62
               3
100
AcDbLine
 10
-7.3499999999999943
 20
11.455445544554451
 30
0.0
 11
-6.6999999999999886
 21
11.455445544554451
 31
0.0
  0
LINE
  5
4E0
100
AcDbEntity
  8
0
  6
CONTINUOUS
 62
               3
100
AcDbLine
 10
6.6999999999999886
 20
11.455445544554451
 30
0.0
 11
7.3499999999999943
 21
11.455445544554451
 31
0.0
  0
LINE
  5
4E1
100
AcDbEntity
  8
0
  6
CONTINUOUS
 62
               3
100
AcDbLine
 10
-6.8499999999999943
 20
8.4554455445544505
 30
0.0
 11
6.8500000000000085
 21
8.4554455445544505
 31
0.0
  0
LINE
  5
4E2
100
AcDbEntity
  8
0
  6
CONTINUOUS
 62
               3
100
AcDbLine
 10
7.3499999999999943
 20
11.455445544554451
 30
0.0
 11
7.605000000000004
 21
4.1604455445544559
 31
0.0
  0
LINE
  5
4E3
100
AcDbEntity
  8
0
  6
CONTINUOUS
 62
               3
100
AcDbLine
 10
-7.3499999999999943
 20
11.455445544554451
 30
0.0
 11
-7.5999999999999943
 21
4.2354455445544517
 31
0.0
  0
ARC
  5
4E4
100
AcDbEntity
  8
0
  6
CONTINUOUS
 62
               3
100
AcDbCircle
 10
-15.590000000000005
 20
4.6604455445544488
 30
0.0
 40
8.0
100
AcDbArc
 50
324.28888851833415
 51
358.01111070202302
  0
LINE
  5
4E5
100
AcDbEntity
  8
0
  6
CONTINUOUS
 62
               3
100
AcDbLine
 10
-13.750000000000002
 20
-10.544554455445549
 30
0.0
 11
-13.750000000000002
 21
-10.244554455445545
 31
0.0
  0
LINE
  5
4E6
100
AcDbEntity
  8
0
  6
CONTINUOUS
 62
               3
100
AcDbLine
 10
-13.450000000000019
 20
-9.9445544554455516
 30
0.0
 11
-11.905000000000003
 21
-9.9445544554455516
 31
0.0
  0
ARC
  5
4E7
100
AcDbEntity
  8
0
  6
CONTINUOUS
 62
               3
100
AcDbCircle
 10
-13.450000000000019
 20
-10.244554455445545
 30
0.0
 40
0.3
100
AcDbArc
 50
89.99999989715981
 51
179.99999979431962
  0
ARC
  5
4E8
100
AcDbEntity
  8
0
  6
CONTINUOUS
 62
               3
100
AcDbCircle
 10
0.0
 20
-6.544554455445553
 30
0.0
 40
10.6
100
AcDbArc
 50
144.33333316840813
 51
179.99999979431962
  0
ARC
  5
4E9
100
AcDbEntity
  8
0
  6
CONTINUOUS
 62
               3
100
AcDbCircle
 10
0.0
 20
-6.544554455445553
 30
0.0
 40
11.199999999999999
100
AcDbArc
 50
143.78888872458583
 51
179.99999979431962
  0
LINE
  5
4EA
100
AcDbEntity
  8
0
  6
CONTINUOUS
 62
               3
100
AcDbLine
 10
-10.750000000000002
 20
-10.544554455445549
 30
0.0
 11
-10.609999999999987
 21
-6.544554455445553
 31
0.0
  0
LINE
  5
4EB
100
AcDbEntity
  8
0
  6
CONTINUOUS
 62
               3
100
AcDbLine
 10
-11.180000000000009
 20
-5.8595544554455472
 30
0.0
 11
-11.305000000000009
 21
-9.3645544554455569
 31
0.0
  0
ARC
  5
4EC
100
AcDbEntity
  8
0
  6
CONTINUOUS
 62
               3
100
AcDbCircle
 10
-11.905000000000003
 20
-9.3445544554455537
 30
0.0
 40
0.6000000000000001
100
AcDbArc
 50
269.99999969147945
 51
357.99999959092457
  0
LINE
  5
4ED
100
AcDbEntity
  8
0
  6
CONTINUOUS
 62
               3
100
AcDbLine
 10
-6.25
 20
76.785445544554449
 30
0.0
 11
-6.25
 21
61.267648514851487
 31
0.0
  0
LINE
  5
4EE
100
AcDbEntity
  8
0
  6
CONTINUOUS
 62
               3
100
AcDbLine
 10
-6.25
 20
57.067648514851442
 30
0.0
 11
-6.25
 21
41.267648514851487
 31
0.0
  0
LINE
  5
4EF
100
AcDbEntity
  8
0
  6
CONTINUOUS
 62
               3
100
AcDbLine
 10
-6.25
 20
37.067648514851442
 30
0.0
 11
-6.25
 21
7.8554455445544491
 31
0.0
  0
LINE
  5
4F0
100
AcDbEntity
  8
0
  6
CONTINUOUS
 62
               3
100
AcDbLine
 10
6.1000000000000085
 20
7.8554455445544491
 30
0.0
 11
-6.0999999999999943
 21
7.8554455445544491
 31
0.0
  0
ARC
  5
4F1
100
AcDbEntity
  8
0
  6
CONTINUOUS
 62
               3
100
AcDbCircle
 10
-6.0999999999999943
 20
7.0554455445544519
 30
0.0
 40
0.8
100
AcDbArc
 50
89.99999989715981
 51
178.02222201880178
  0
LINE
  5
4F2
100
AcDbEntity
  8
0
  6
CONTINUOUS
 62
               3
100
AcDbLine
 10
-6.9000000000000057
 20
7.0854455445544531
 30
0.0
 11
-6.9950000000000045
 21
4.3654455445544542
 31
0.0
  0
ARC
  5
4F3
100
AcDbEntity
  8
0
  6
CONTINUOUS
 62
               3
100
AcDbCircle
 10
-15.590000000000005
 20
4.6604455445544488
 30
0.0
 40
8.5999999999999996
100
AcDbArc
 50
324.28888851833415
 51
357.99999959092457
  0
ARC
  5
4F4
100
AcDbEntity
  8
0
  6
CONTINUOUS
 62
               3
100
AcDbCircle
 10
15.590000000000003
 20
4.6604455445544488
 30
0.0
 40
8.0
100
AcDbArc
 50
181.98888868093584
 51
215.71111086462474
  0
LINE
  5
4F5
100
AcDbEntity
  8
0
  6
CONTINUOUS
 62
               3
100
AcDbLine
 10
13.449999999999989
 20
-9.9445544554455516
 30
0.0
 11
11.905000000000001
 21
-9.9445544554455516
 31
0.0
  0
ARC
  5
4F6
100
AcDbEntity
  8
0
  6
CONTINUOUS
 62
               3
100
AcDbCircle
 10
0.0
 20
-6.544554455445553
 30
0.0
 40
10.6
100
AcDbArc
 50
0.0
 51
35.666666625911475
  0
ARC
  5
4F7
100
AcDbEntity
  8
0
  6
CONTINUOUS
 62
               3
100
AcDbCircle
 10
0.0
 20
-6.544554455445553
 30
0.0
 40
11.199999999999999
100
AcDbArc
 50
0.0
 51
36.211111069733803
  0
LINE
  5
4F8
100
AcDbEntity
  8
0
  6
CONTINUOUS
 62
               3
100
AcDbLine
 10
10.75
 20
-10.544554455445549
 30
0.0
 11
10.609999999999999
 21
-6.544554455445553
 31
0.0
  0
LINE
  5
4F9
100
AcDbEntity
  8
0
  6
CONTINUOUS
 62
               3
100
AcDbLine
 10
11.180000000000007
 20
-5.8595544554455472
 30
0.0
 11
11.305000000000007
 21
-9.3645544554455569
 31
0.0
  0
ARC
  5
4FA
100
AcDbEntity
  8
0
  6
CONTINUOUS
 62
               3
100
AcDbCircle
 10
11.905000000000001
 20
-9.3445544554455537
 30
0.0
 40
0.6000000000000001
100
AcDbArc
 50
181.99999979203426
 51
269.99999969147945
  0
LINE
  5
4FB
100
AcDbEntity
  8
0
  6
CONTINUOUS
 62
               3
100
AcDbLine
 10
6.25
 20
76.285445544554449
 30
0.0
 11
6.25
 21
61.267648514851487
 31
0.0
  0
LINE
  5
4FC
100
AcDbEntity
  8
0
  6
CONTINUOUS
 62
               3
100
AcDbLine
 10
6.25
 20
57.067648514851442
 30
0.0
 11
6.25
 21
41.267648514851487
 31
0.0
  0
LINE
  5
4FD
100
AcDbEntity
  8
0
  6
CONTINUOUS
 62
               3
100
AcDbLine
 10
6.25
 20
37.067648514851442
 30
0.0
 11
6.25
 21
7.8554455445544491
 31
0.0
  0
ARC
  5
4FE
100
AcDbEntity
  8
0
  6
CONTINUOUS
 62
               3
100
AcDbCircle
 10
6.1000000000000085
 20
7.0554455445544519
 30
0.0
 40
0.8
100
AcDbArc
 50
1.977777775517833
 51
89.99999989715981
  0
LINE
  5
4FF
100
AcDbEntity
  8
0
  6
CONTINUOUS
 62
               3
100
AcDbLine
 10
6.9000000000000057
 20
7.0854455445544531
 30
0.0
 11
6.9950000000000045
 21
4.3654455445544542
 31
0.0
  0
ARC
  5
500
100
AcDbEntity
  8
0
  6
CONTINUOUS
 62
               3
100
AcDbCircle
 10
15.590000000000003
 20
4.6604455445544488
 30
0.0
 40
8.5999999999999996
100
AcDbArc
 50
181.99999979203426
 51
215.71111086462474
  0
LINE
  5
501
100
AcDbEntity
  8
0
  6
CONTINUOUS
 62
               3
100
AcDbLine
 10
13.75
 20
-10.544554455445549
 30
0.0
 11
13.75
 21
-10.244554455445545
 31
0.0
  0
ARC
  5
502
100
AcDbEntity
  8
0
  6
CONTINUOUS
 62
               3
100
AcDbCircle
 10
13.449999999999989
 20
-10.244554455445545
 30
0.0
 40
0.3
100
AcDbArc
 50
0.0
 51
89.99999989715981
  0
LINE
  5
503
100
AcDbEntity
  8
0
  6
CONTINUOUS
 62
               3
100
AcDbLine
 10
-6.6999999999999886
 20
8.4554455445544505
 30
0.0
 11
-6.6999999999999886
 21
37.067648514851442
 31
0.0
  0
LINE
  5
504
100
AcDbEntity
  8
0
  6
CONTINUOUS
 62
               3
100
AcDbLine
 10
-6.6999999999999886
 20
41.267648514851487
 30
0.0
 11
-6.6999999999999886
 21
57.067648514851442
 31
0.0
  0
LINE
  5
505
100
AcDbEntity
  8
0
  6
CONTINUOUS
 62
               3
100
AcDbLine
 10
-6.6999999999999886
 20
61.267648514851487
 30
0.0
 11
-6.6999999999999886
 21
76.285445544554449
 31
0.0
  0
LINE
  5
506
100
AcDbEntity
  8
0
  6
CONTINUOUS
 62
               3
100
AcDbLine
 10
6.6999999999999886
 20
76.285445544554449
 30
0.0
 11
6.6999999999999886
 21
61.267648514851487
 31
0.0
  0
LINE
  5
507
100
AcDbEntity
  8
0
  6
CONTINUOUS
 62
               3
100
AcDbLine
 10
6.6999999999999886
 20
57.067648514851442
 30
0.0
 11
6.6999999999999886
 21
41.267648514851487
 31
0.0
  0
LINE
  5
508
100
AcDbEntity
  8
0
  6
CONTINUOUS
 62
               3
100
AcDbLine
 10
6.6999999999999886
 20
37.067648514851442
 30
0.0
 11
6.6999999999999886
 21
8.4554455445544505
 31
0.0
  0
LINE
  5
509
100
AcDbEntity
  8
0
  6
CONTINUOUS
 62
               3
100
AcDbLine
 10
-6.8499999999999943
 20
8.4554455445544505
 30
0.0
 11
-6.8499999999999943
 21
11.455445544554451
 31
0.0
  0
LINE
  5
50A
100
AcDbEntity
  8
0
  6
CONTINUOUS
 62
               3
100
AcDbLine
 10
6.8500000000000085
 20
11.455445544554451
 30
0.0
 11
6.8500000000000085
 21
8.4554455445544505
 31
0.0
  0
LINE
  5
50B
100
AcDbEntity
  8
0
  6
CONTINUOUS
 62
               3
100
AcDbLine
 10
13.300000000000011
 20
78.785445544554449
 30
0.0
 11
-10.69999999999999
 21
78.785445544554449
 31
0.0
  0
LINE
  5
50C
100
AcDbEntity
  8
0
  6
CONTINUOUS
 62
               3
100
AcDbLine
 10
-10.69999999999999
 20
78.785445544554449
 30
0.0
 11
-10.69999999999999
 21
77.785445544554449
 31
0.0
  0
LINE
  5
50D
100
AcDbEntity
  8
0
  6
CONTINUOUS
 62
               3
100
AcDbLine
 10
-10.69999999999999
 20
77.785445544554449
 30
0.0
 11
-8.7000000000000028
 21
77.785445544554449
 31
0.0
  0
LINE
  5
50E
100
AcDbEntity
  8
0
  6
CONTINUOUS
 62
               3
100
AcDbLine
 10
-6.6999999999999886
 20
73.785445544554449
 30
0.0
 11
-7.5999999999999943
 21
73.785445544554449
 31
0.0
  0
LINE
  5
50F
100
AcDbEntity
  8
0
  6
CONTINUOUS
 62
               3
100
AcDbLine
 10
-6.9000000000000057
 20
73.785445544554449
 30
0.0
 11
-6.8449999999999989
 21
74.710445544554432
 31
0.0
  0
LINE
  5
510
100
AcDbEntity
  8
0
  6
CONTINUOUS
 62
               3
100
AcDbLine
 10
-6.8200000000000074
 20
75.120445544554457
 30
0.0
 11
-6.75
 21
76.285445544554449
 31
0.0
  0
LINE
  5
511
100
AcDbEntity
  8
0
  6
CONTINUOUS
 62
               3
100
AcDbLine
 10
-6.75
 20
76.285445544554449
 30
0.0
 11
-4.1950000000000074
 21
76.285445544554449
 31
0.0
  0
LINE
  5
512
100
AcDbEntity
  8
0
  6
CONTINUOUS
 62
               3
100
AcDbLine
 10
-4.6799999999999926
 20
76.785445544554449
 30
0.0
 11
-7.9549999999999983
 21
76.785445544554449
 31
0.0
  0
ARC
  5
513
100
AcDbEntity
  8
0
  6
CONTINUOUS
 62
               3
100
AcDbCircle
 10
-7.9549999999999983
 20
76.985445544554466
 30
0.0
 40
0.2
100
AcDbArc
 50
183.01111090199001
 51
269.99999969147945
  0
LINE
  5
514
100
AcDbEntity
  8
0
  6
CONTINUOUS
 62
               3
100
AcDbLine
 10
-8.25
 20
78.785445544554449
 30
0.0
 11
-8.1550000000000011
 21
76.975445544554447
 31
0.0
  0
LINE
  5
515
100
AcDbEntity
  8
0
  6
CONTINUOUS
 62
               3
100
AcDbLine
 10
-8.0499999999999972
 20
78.785445544554449
 30
0.0
 11
-7.9450000000000074
 21
76.785445544554449
 31
0.0
  0
LINE
  5
516
100
AcDbEntity
  8
0
  6
CONTINUOUS
 62
               3
100
AcDbLine
 10
-8.1300000000000097
 20
76.285445544554449
 30
0.0
 11
-7.835000000000008
 21
76.285445544554449
 31
0.0
  0
ARC
  5
517
100
AcDbEntity
  8
0
  6
CONTINUOUS
 62
               3
100
AcDbCircle
 10
-8.1300000000000097
 20
76.785445544554449
 30
0.0
 40
0.5
100
AcDbArc
 50
183.83333312327272
 51
269.99999969147945
  0
LINE
  5
518
100
AcDbEntity
  8
0
  6
CONTINUOUS
 62
               3
100
AcDbLine
 10
-7.3999999999999915
 20
73.785445544554449
 30
0.0
 11
-7.4550000000000125
 21
74.710445544554432
 31
0.0
  0
LINE
  5
519
100
AcDbEntity
  8
0
  6
CONTINUOUS
 62
               3
100
AcDbLine
 10
-7.4949999999999903
 20
75.360445544554437
 30
0.0
 11
-7.5349999999999966
 21
76.005445544554448
 31
0.0
  0
ARC
  5
51A
100
AcDbEntity
  8
0
  6
CONTINUOUS
 62
               3
100
AcDbCircle
 10
-7.835000000000008
 20
75.985445544554437
 30
0.0
 40
0.3
100
AcDbArc
 50
3.4333333294101704
 51
89.99999989715981
  0
LINE
  5
51B
100
AcDbEntity
  8
0
  6
CONTINUOUS
 62
               3
100
AcDbLine
 10
-7.7350000000000136
 20
76.005445544554448
 30
0.0
 11
-7.6949999999999932
 21
75.360445544554437
 31
0.0
  0
LINE
  5
51C
100
AcDbEntity
  8
0
  6
CONTINUOUS
 62
               3
100
AcDbLine
 10
-7.6550000000000011
 20
74.710445544554432
 30
0.0
 11
-7.5999999999999943
 21
73.785445544554449
 31
0.0
  0
ARC
  5
51D
100
AcDbEntity
  8
0
  6
CONTINUOUS
 62
               3
100
AcDbCircle
 10
-8.0350000000000108
 20
75.985445544554437
 30
0.0
 40
0.3
100
AcDbArc
 50
3.4111111072133413
 51
89.99999989715981
  0
LINE
  5
51E
100
AcDbEntity
  8
0
  6
CONTINUOUS
 62
               3
100
AcDbLine
 10
-8.6299999999999955
 20
76.750445544554452
 30
0.0
 11
-8.7150000000000034
 21
78.000445544554452
 31
0.0
  0
ARC
  5
51F
100
AcDbEntity
  8
0
  6
CONTINUOUS
 62
               3
100
AcDbCircle
 10
-8.914999999999992
 20
77.985445544554437
 30
0.0
 40
0.2
100
AcDbArc
 50
3.8111111067562735
 51
89.99999989715981
  0
LINE
  5
520
100
AcDbEntity
  8
0
  6
CONTINUOUS
 62
               3
100
AcDbLine
 10
-9.8950000000000102
 20
78.185445544554455
 30
0.0
 11
-8.914999999999992
 21
78.185445544554455
 31
0.0
  0
ARC
  5
521
100
AcDbEntity
  8
0
  6
CONTINUOUS
 62
               3
100
AcDbCircle
 10
-9.8950000000000102
 20
77.985445544554437
 30
0.0
 40
0.2
100
AcDbArc
 50
89.99999989715981
 51
165.42222203319943
  0
LINE
  5
522
100
AcDbEntity
  8
0
  6
CONTINUOUS
 62
               3
100
AcDbLine
 10
-10.090000000000003
 20
78.035445544554449
 30
0.0
 11
-10.114999999999995
 21
77.935445544554455
 31
0.0
  0
ARC
  5
523
100
AcDbEntity
  8
0
  6
CONTINUOUS
 62
               3
100
AcDbCircle
 10
-10.310000000000004
 20
77.985445544554437
 30
0.0
 40
0.2
100
AcDbArc
 50
269.99999969147945
 51
345.96666627134135
  0
LINE
  5
524
100
AcDbEntity
  8
0
  6
CONTINUOUS
 62
               3
100
AcDbLine
 10
-7.4550000000000125
 20
76.785445544554449
 30
0.0
 11
-7.3600000000000136
 21
77.900445544554429
 31
0.0
  0
LINE
  5
525
100
AcDbEntity
  8
0
  6
CONTINUOUS
 62
               3
100
AcDbLine
 10
0.0
 20
78.085445544554432
 30
0.0
 11
-2.8900000000000006
 21
78.085445544554432
 31
0.0
  0
LINE
  5
526
100
AcDbEntity
  8
0
  6
CONTINUOUS
 62
               3
100
AcDbLine
 10
-4.1099999999999994
 20
78.085445544554432
 30
0.0
 11
-7.1599999999999966
 21
78.085445544554432
 31
0.0
  0
ARC
  5
527
100
AcDbEntity
  8
0
  6
CONTINUOUS
 62
               3
100
AcDbCircle
 10
-4.7450000000000045
 20
78.685445544554455
 30
0.0
 40
0.6000000000000001
100
AcDbArc
 50
183.05555534638367
 51
269.99999969147945
  0
ARC
  5
528
100
AcDbEntity
  8
0
  6
CONTINUOUS
 62
               3
100
AcDbCircle
 10
-7.1599999999999966
 20
77.885445544554443
 30
0.0
 40
0.2
100
AcDbArc
 50
89.99999989715981
 51
175.08888868882028
  0
ARC
  5
529
100
AcDbEntity
  8
0
  6
CONTINUOUS
 62
               3
100
AcDbCircle
 10
-2.8900000000000006
 20
77.785445544554449
 30
0.0
 40
0.3
100
AcDbArc
 50
89.99999989715981
 51
176.9888886866492
  0
LINE
  5
52A
100
AcDbEntity
  8
0
  6
CONTINUOUS
 62
               3
100
AcDbLine
 10
0.0
 20
75.685445544554455
 30
0.0
 11
-3.5099999999999909
 21
75.685445544554455
 31
0.0
  0
ARC
  5
52B
100
AcDbEntity
  8
0
  6
CONTINUOUS
 62
               3
100
AcDbCircle
 10
-3.5099999999999909
 20
75.885445544554443
 30
0.0
 40
0.2
100
AcDbArc
 50
182.97777756869476
 51
269.99999969147945
  0
LINE
  5
52C
100
AcDbEntity
  8
0
  6
CONTINUOUS
 62
               3
100
AcDbLine
 10
-3.710000000000008
 20
75.875445544554452
 30
0.0
 11
-3.8100000000000023
 21
77.800445544554435
 31
0.0
  0
ARC
  5
52D
100
AcDbEntity
  8
0
  6
CONTINUOUS
 62
               3
100
AcDbCircle
 10
-4.1099999999999994
 20
77.785445544554449
 30
0.0
 40
0.3
100
AcDbArc
 50
3.0111111076704091
 51
89.99999989715981
  0
LINE
  5
52E
100
AcDbEntity
  8
0
  6
CONTINUOUS
 62
               3
100
AcDbLine
 10
-3.289999999999992
 20
75.875445544554452
 30
0.0
 11
-3.1899999999999977
 21
77.800445544554435
 31
0.0
  0
ARC
  5
52F
100
AcDbEntity
  8
0
  6
CONTINUOUS
 62
               3
100
AcDbCircle
 10
-3.4900000000000091
 20
75.885445544554443
 30
0.0
 40
0.2
100
AcDbArc
 50
269.99999969147945
 51
357.02222181426407
  0
LINE
  5
530
100
AcDbEntity
  8
0
  6
CONTINUOUS
 62
               3
100
AcDbLine
 10
-7.1500000000000057
 20
78.785445544554449
 30
0.0
 11
-7.1850000000000023
 21
78.085445544554432
 31
0.0
  0
LINE
  5
531
100
AcDbEntity
  8
0
  6
CONTINUOUS
 62
               3
100
AcDbLine
 10
-5.3499999999999943
 20
78.785445544554449
 30
0.0
 11
-5.3449999999999989
 21
78.655445544554453
 31
0.0
  0
LINE
  5
532
100
AcDbEntity
  8
0
  6
CONTINUOUS
 62
               3
100
AcDbLine
 10
-4.6200000000000045
 20
76.705445544554465
 30
0.0
 11
-3.6499999999999915
 21
75.745445544554428
 31
0.0
  0
ARC
  5
533
100
AcDbEntity
  8
0
  6
CONTINUOUS
 62
               3
100
AcDbCircle
 10
-4.4099999999999966
 20
76.92044554455444
 30
0.0
 40
0.3
100
AcDbArc
 50
184.9555553442126
 51
225.2777775203599
  0
LINE
  5
534
100
AcDbEntity
  8
0
  6
CONTINUOUS
 62
               3
100
AcDbLine
 10
-4.710000000000008
 20
76.895445544554462
 30
0.0
 11
-4.7949999999999875
 21
77.880445544554448
 31
0.0
  0
ARC
  5
535
100
AcDbEntity
  8
0
  6
CONTINUOUS
 62
               3
100
AcDbCircle
 10
-5.0949999999999989
 20
77.855445544554442
 30
0.0
 40
0.3
100
AcDbArc
 50
4.9666666609914119
 51
67.13333325662218
  0
LINE
  5
536
100
AcDbEntity
  8
0
  6
CONTINUOUS
 62
               3
100
AcDbLine
 10
13.02000000000001
 20
77.785445544554449
 30
0.0
 11
12.900000000000006
 21
77.785445544554449
 31
0.0
  0
ARC
  5
537
100
AcDbEntity
  8
0
  6
CONTINUOUS
 62
               3
100
AcDbCircle
 10
12.900000000000006
 20
77.585445544554432
 30
0.0
 40
0.2
100
AcDbArc
 50
89.99999989715981
 51
175.02222202222978
  0
LINE
  5
538
100
AcDbEntity
  8
0
  6
CONTINUOUS
 62
               3
100
AcDbLine
 10
6.6999999999999886
 20
73.785445544554449
 30
0.0
 11
7.4000000000000057
 21
73.785445544554449
 31
0.0
  0
LINE
  5
539
100
AcDbEntity
  8
0
  6
CONTINUOUS
 62
               3
100
AcDbLine
 10
6.9000000000000057
 20
73.785445544554449
 30
0.0
 11
6.8300000000000125
 21
74.985445544554437
 31
0.0
  0
LINE
  5
53A
100
AcDbEntity
  8
0
  6
CONTINUOUS
 62
               3
100
AcDbLine
 10
6.6999999999999886
 20
76.285445544554449
 30
0.0
 11
4.1949999999999932
 21
76.285445544554449
 31
0.0
  0
LINE
  5
53B
100
AcDbEntity
  8
0
  6
CONTINUOUS
 62
               3
100
AcDbLine
 10
4.6800000000000068
 20
76.785445544554449
 30
0.0
 11
8.6749999999999972
 21
76.785445544554449
 31
0.0
  0
LINE
  5
53C
100
AcDbEntity
  8
0
  6
CONTINUOUS
 62
               3
100
AcDbLine
 10
7.4000000000000057
 20
73.785445544554449
 30
0.0
 11
7.4449999999999932
 21
74.505445544554448
 31
0.0
  0
LINE
  5
53D
100
AcDbEntity
  8
0
  6
CONTINUOUS
 62
               3
100
AcDbLine
 10
7.4550000000000125
 20
76.785445544554449
 30
0.0
 11
7.3600000000000136
 21
77.900445544554429
 31
0.0
  0
LINE
  5
53E
100
AcDbEntity
  8
0
  6
CONTINUOUS
 62
               3
100
AcDbLine
 10
0.0
 20
78.085445544554432
 30
0.0
 11
2.8900000000000148
 21
78.085445544554432
 31
0.0
  0
LINE
  5
53F
100
AcDbEntity
  8
0
  6
CONTINUOUS
 62
               3
100
AcDbLine
 10
4.1100000000000136
 20
78.085445544554432
 30
0.0
 11
7.1599999999999966
 21
78.085445544554432
 31
0.0
  0
ARC
  5
540
100
AcDbEntity
  8
0
  6
CONTINUOUS
 62
               3
100
AcDbCircle
 10
7.1599999999999966
 20
77.885445544554443
 30
0.0
 40
0.2
100
AcDbArc
 50
4.9111111054993382
 51
89.99999989715981
  0
ARC
  5
541
100
AcDbEntity
  8
0
  6
CONTINUOUS
 62
               3
100
AcDbCircle
 10
2.8900000000000148
 20
77.785445544554449
 30
0.0
 40
0.3
100
AcDbArc
 50
3.0111111076704091
 51
89.99999989715981
  0
LINE
  5
542
100
AcDbEntity
  8
0
  6
CONTINUOUS
 62
               3
100
AcDbLine
 10
0.0
 20
75.685445544554455
 30
0.0
 11
3.5099999999999909
 21
75.685445544554455
 31
0.0
  0
ARC
  5
543
100
AcDbEntity
  8
0
  6
CONTINUOUS
 62
               3
100
AcDbCircle
 10
3.5099999999999909
 20
75.885445544554443
 30
0.0
 40
0.2
100
AcDbArc
 50
269.99999969147945
 51
357.02222181426407
  0
LINE
  5
544
100
AcDbEntity
  8
0
  6
CONTINUOUS
 62
               3
100
AcDbLine
 10
3.710000000000008
 20
75.875445544554452
 30
0.0
 11
3.8100000000000023
 21
77.800445544554435
 31
0.0
  0
ARC
  5
545
100
AcDbEntity
  8
0
  6
CONTINUOUS
 62
               3
100
AcDbCircle
 10
4.1100000000000136
 20
77.785445544554449
 30
0.0
 40
0.3
100
AcDbArc
 50
89.99999989715981
 51
176.9888886866492
  0
LINE
  5
546
100
AcDbEntity
  8
0
  6
CONTINUOUS
 62
               3
100
AcDbLine
 10
3.2900000000000063
 20
75.875445544554452
 30
0.0
 11
3.1900000000000119
 21
77.800445544554435
 31
0.0
  0
ARC
  5
547
100
AcDbEntity
  8
0
  6
CONTINUOUS
 62
               3
100
AcDbCircle
 10
3.4899999999999949
 20
75.885445544554443
 30
0.0
 40
0.2
100
AcDbArc
 50
182.97777756869476
 51
269.99999969147945
  0
LINE
  5
548
100
AcDbEntity
  8
0
  6
CONTINUOUS
 62
               3
100
AcDbLine
 10
4.6199999999999903
 20
76.705445544554465
 30
0.0
 11
3.6500000000000057
 21
75.745445544554428
 31
0.0
  0
ARC
  5
549
100
AcDbEntity
  8
0
  6
CONTINUOUS
 62
               3
100
AcDbCircle
 10
4.4100000000000108
 20
76.92044554455444
 30
0.0
 40
0.3
100
AcDbArc
 50
314.72222186259899
 51
355.04444403874629
  0
LINE
  5
54A
100
AcDbEntity
  8
0
  6
CONTINUOUS
 62
               3
100
AcDbLine
 10
4.7099999999999937
 20
76.895445544554462
 30
0.0
 11
4.7950000000000017
 21
77.880445544554448
 31
0.0
  0
ARC
  5
54B
100
AcDbEntity
  8
0
  6
CONTINUOUS
 62
               3
100
AcDbCircle
 10
5.0949999999999989
 20
77.855445544554442
 30
0.0
 40
0.3
100
AcDbArc
 50
112.86666653769745
 51
175.0333331333282
  0
LINE
  5
54C
100
AcDbEntity
  8
0
  6
CONTINUOUS
 62
               3
100
AcDbLine
 10
13.300000000000011
 20
78.785445544554449
 30
0.0
 11
13.219999999999999
 21
77.965445544554456
 31
0.0
  0
ARC
  5
54D
100
AcDbEntity
  8
0
  6
CONTINUOUS
 62
               3
100
AcDbCircle
 10
13.02000000000001
 20
77.985445544554437
 30
0.0
 40
0.2
100
AcDbArc
 50
269.99999969147945
 51
354.28888848405404
  0
LINE
  5
54E
100
AcDbEntity
  8
0
  6
CONTINUOUS
 62
               3
100
AcDbLine
 10
12.299999999999997
 20
78.785445544554449
 30
0.0
 11
12.039999999999992
 21
75.740445544554433
 31
0.0
  0
ARC
  5
54F
100
AcDbEntity
  8
0
  6
CONTINUOUS
 62
               3
100
AcDbCircle
 10
11.539999999999992
 20
75.785445544554449
 30
0.0
 40
0.5
100
AcDbArc
 50
269.99999969147945
 51
355.09999959423834
  0
LINE
  5
550
100
AcDbEntity
  8
0
  6
CONTINUOUS
 62
               3
100
AcDbLine
 10
7.1300000000000097
 20
75.285445544554449
 30
0.0
 11
11.539999999999992
 21
75.285445544554449
 31
0.0
  0
ARC
  5
551
100
AcDbEntity
  8
0
  6
CONTINUOUS
 62
               3
100
AcDbCircle
 10
7.1300000000000097
 20
74.985445544554437
 30
0.0
 40
0.3
100
AcDbArc
 50
89.99999989715981
 51
183.43333312372977
  0
LINE
  5
552
100
AcDbEntity
  8
0
  6
CONTINUOUS
 62
               3
100
AcDbLine
 10
7.7450000000000045
 20
74.785445544554449
 30
0.0
 11
11.539999999999992
 21
74.785445544554449
 31
0.0
  0
ARC
  5
553
100
AcDbEntity
  8
0
  6
CONTINUOUS
 62
               3
100
AcDbCircle
 10
7.7450000000000045
 20
74.485445544554437
 30
0.0
 40
0.3
100
AcDbArc
 50
89.99999989715981
 51
176.52222202051581
  0
LINE
  5
554
100
AcDbEntity
  8
0
  6
CONTINUOUS
 62
               3
100
AcDbLine
 10
12.699999999999989
 20
77.600445544554447
 30
0.0
 11
12.534999999999997
 21
75.700445544554441
 31
0.0
  0
ARC
  5
555
100
AcDbEntity
  8
0
  6
CONTINUOUS
 62
               3
100
AcDbCircle
 10
11.539999999999992
 20
75.785445544554449
 30
0.0
 40
1.0
100
AcDbArc
 50
269.99999969147945
 51
355.06666626094312
  0
LINE
  5
556
100
AcDbEntity
  8
0
  6
CONTINUOUS
 62
               3
100
AcDbLine
 10
12.0
 20
78.785445544554449
 30
0.0
 11
12.0
 21
78.285445544554449
 31
0.0
  0
ARC
  5
557
100
AcDbEntity
  8
0
  6
CONTINUOUS
 62
               3
100
AcDbCircle
 10
10.700000000000003
 20
77.285445544554449
 30
0.0
 40
0.4
100
AcDbArc
 50
269.99999969147945
 51
449.999999897159
  0
ARC
  5
558
100
AcDbEntity
  8
0
  6
CONTINUOUS
 62
               3
100
AcDbCircle
 10
10.700000000000003
 20
77.285445544554449
 30
0.0
 40
1.0
100
AcDbArc
 50
269.99999969147945
 51
359.99999958863924
  0
ARC
  5
559
100
AcDbEntity
  8
0
  6
CONTINUOUS
 62
               3
100
AcDbCircle
 10
9.6999999999999886
 20
77.285445544554449
 30
0.0
 40
0.4
100
AcDbArc
 50
89.99999989715981
 51
269.99999969147945
  0
ARC
  5
55A
100
AcDbEntity
  8
0
  6
CONTINUOUS
 62
               3
100
AcDbCircle
 10
9.6999999999999886
 20
77.285445544554449
 30
0.0
 40
1.0
100
AcDbArc
 50
217.89999975101244
 51
269.99999969147945
  0
ARC
  5
55B
100
AcDbEntity
  8
0
  6
CONTINUOUS
 62
               3
100
AcDbCircle
 10
8.6749999999999972
 20
76.485445544554437
 30
0.0
 40
0.3
100
AcDbArc
 50
37.966666623283345
 51
89.99999989715981
  0
LINE
  5
55C
100
AcDbEntity
  8
0
  6
CONTINUOUS
 62
               3
100
AcDbLine
 10
9.6999999999999886
 20
77.685445544554455
 30
0.0
 11
10.700000000000003
 21
77.685445544554455
 31
0.0
  0
LINE
  5
55D
100
AcDbEntity
  8
0
  6
CONTINUOUS
 62
               3
100
AcDbLine
 10
10.700000000000003
 20
76.885445544554472
 30
0.0
 11
9.6999999999999886
 21
76.885445544554472
 31
0.0
  0
LINE
  5
55E
100
AcDbEntity
  8
0
  6
CONTINUOUS
 62
               3
100
AcDbLine
 10
9.6999999999999886
 20
76.285445544554449
 30
0.0
 11
10.700000000000003
 21
76.285445544554449
 31
0.0
  0
CIRCLE
  5
55F
100
AcDbEntity
  8
0
  6
CONTINUOUS
 62
               3
100
AcDbCircle
 10
10.200000000000003
 20
77.285445544554449
 30
0.0
 40
0.3
  0
LINE
  5
560
100
AcDbEntity
  8
0
  6
CONTINUOUS
 62
               3
100
AcDbLine
 10
11.700000000000003
 20
77.285445544554449
 30
0.0
 11
11.700000000000003
 21
78.085445544554432
 31
0.0
  0
LINE
  5
561
100
AcDbEntity
  8
0
  6
CONTINUOUS
 62
               3
100
AcDbLine
 10
12.0
 20
78.285445544554449
 30
0.0
 11
11.900000000000006
 21
78.285445544554449
 31
0.0
  0
ARC
  5
562
100
AcDbEntity
  8
0
  6
CONTINUOUS
 62
               3
100
AcDbCircle
 10
11.900000000000006
 20
78.085445544554432
 30
0.0
 40
0.2
100
AcDbArc
 50
89.99999989715981
 51
179.99999979431962
  0
LINE
  5
563
100
AcDbEntity
  8
0
  6
CONTINUOUS
 62
               3
100
AcDbLine
 10
-8.2000000000000171
 20
74.635445544554472
 30
0.0
 11
-6.8200000000000074
 21
74.635445544554472
 31
0.0
  0
LINE
  5
564
100
AcDbEntity
  8
0
  6
CONTINUOUS
 62
               3
100
AcDbLine
 10
-8.2000000000000171
 20
75.435445544554455
 30
0.0
 11
-6.8200000000000074
 21
75.435445544554455
 31
0.0
  0
LINE
  5
565
100
AcDbEntity
  8
0
  6
CONTINUOUS
 62
               3
100
AcDbLine
 10
-6.8200000000000074
 20
74.635445544554472
 30
0.0
 11
-6.6999999999999886
 21
74.755445544554448
 31
0.0
  0
LINE
  5
566
100
AcDbEntity
  8
0
  6
CONTINUOUS
 62
               3
100
AcDbLine
 10
-6.8200000000000074
 20
75.435445544554455
 30
0.0
 11
-6.6999999999999886
 21
75.31544554455445
 31
0.0
  0
LINE
  5
567
100
AcDbEntity
  8
0
  6
CONTINUOUS
 62
               3
100
AcDbLine
 10
-6.6999999999999886
 20
75.31544554455445
 30
0.0
 11
-6.6999999999999886
 21
74.755445544554448
 31
0.0
  0
LINE
  5
568
100
AcDbEntity
  8
0
  6
CONTINUOUS
 62
               3
100
AcDbLine
 10
-6.8200000000000074
 20
75.435445544554455
 30
0.0
 11
-6.8200000000000074
 21
74.635445544554472
 31
0.0
  0
LINE
  5
569
100
AcDbEntity
  8
0
  6
CONTINUOUS
 62
               3
100
AcDbLine
 10
-8.2000000000000171
 20
75.735445544554437
 30
0.0
 11
-8.2000000000000171
 21
74.345445544554451
 31
0.0
  0
ARC
  5
56A
100
AcDbEntity
  8
0
  6
CONTINUOUS
 62
               3
100
AcDbCircle
 10
-8.2000000000000171
 20
75.275445544554429
 30
0.0
 40
0.46
100
AcDbArc
 50
89.99999989715981
 51
143.13333316977935
  0
ARC
  5
56B
100
AcDbEntity
  8
0
  6
CONTINUOUS
 62
               3
100
AcDbCircle
 10
-8.2000000000000171
 20
74.79544554455444
 30
0.0
 40
0.46
100
AcDbArc
 50
216.86666641885992
 51
269.99999969147945
  0
ARC
  5
56C
100
AcDbEntity
  8
0
  6
CONTINUOUS
 62
               3
100
AcDbCircle
 10
-7.8799999999999955
 20
75.035445544554449
 30
0.0
 40
0.8599999999999999
100
AcDbArc
 50
143.13333316977935
 51
216.86666641885992
  0
LINE
  5
56D
100
AcDbEntity
  8
0
  6
CONTINUOUS
 62
               3
100
AcDbLine
 10
-13.750000000000002
 20
101.30406890004069
 30
0.0
 11
-13.750000000000002
 21
108.7040689000407
 31
0.0
  0
LINE
  5
56E
100
AcDbEntity
  8
0
  6
CONTINUOUS
 62
               3
100
AcDbLine
 10
13.75
 20
101.30406890004069
 30
0.0
 11
13.75
 21
108.7040689000407
 31
0.0
  0
LINE
  5
56F
100
AcDbEntity
  8
0
  6
CONTINUOUS
 62
               3
100
AcDbLine
 10
-11.449999999999996
 20
108.7040689000407
 30
0.0
 11
-11.449999999999996
 21
101.30406890004069
 31
0.0
  0
LINE
  5
570
100
AcDbEntity
  8
0
  6
CONTINUOUS
 62
               3
100
AcDbLine
 10
-6.450000000000002
 20
94.004068900040693
 30
0.0
 11
6.4500000000000002
 21
94.004068900040693
 31
0.0
  0
LINE
  5
571
100
AcDbEntity
  8
0
  6
CONTINUOUS
 62
               3
100
AcDbLine
 10
6.4500000000000002
 20
116.00406890004069
 30
0.0
 11
-6.450000000000002
 21
116.00406890004069
 31
0.0
  0
ARC
  5
572
100
AcDbEntity
  8
0
  6
CONTINUOUS
 62
               3
100
AcDbCircle
 10
-6.4499999999999957
 20
108.7040689000407
 30
0.0
 40
5.0
100
AcDbArc
 50
89.999999999999801
 51
179.9999999999996
  0
ARC
  5
573
100
AcDbEntity
  8
0
  6
CONTINUOUS
 62
               3
100
AcDbCircle
 10
-6.4499999999999957
 20
101.30406890004069
 30
0.0
 40
5.0
100
AcDbArc
 50
179.9999999999996
 51
269.99999999999937
  0
ARC
  5
574
100
AcDbEntity
  8
0
  6
CONTINUOUS
 62
               3
100
AcDbCircle
 10
6.4500000000000064
 20
101.30406890004069
 30
0.0
 40
5.0
100
AcDbArc
 50
269.99999999999937
 51
359.9999999999992
  0
ARC
  5
575
100
AcDbEntity
  8
0
  6
CONTINUOUS
 62
               3
100
AcDbCircle
 10
6.4500000000000064
 20
108.7040689000407
 30
0.0
 40
5.0
100
AcDbArc
 50
0.0
 51
89.999999999999801
  0
ARC
  5
576
100
AcDbEntity
  8
0
  6
CONTINUOUS
 62
               3
100
AcDbCircle
 10
6.4500000000000002
 20
108.7040689000407
 30
0.0
 40
7.2999999999999998
100
AcDbArc
 50
0.0
 51
89.999999999999801
  0
ARC
  5
577
100
AcDbEntity
  8
0
  6
CONTINUOUS
 62
               3
100
AcDbCircle
 10
6.4500000000000002
 20
101.30406890004069
 30
0.0
 40
7.2999999999999998
100
AcDbArc
 50
269.99999999999937
 51
359.9999999999992
  0
ARC
  5
578
100
AcDbEntity
  8
0
  6
CONTINUOUS
 62
               3
100
AcDbCircle
 10
-6.450000000000002
 20
101.30406890004069
 30
0.0
 40
7.2999999999999998
100
AcDbArc
 50
179.9999999999996
 51
269.99999999999937
  0
ARC
  5
579
100
AcDbEntity
  8
0
  6
CONTINUOUS
 62
               3
100
AcDbCircle
 10
-6.450000000000002
 20
108.7040689000407
 30
0.0
 40
7.2999999999999998
100
AcDbArc
 50
89.999999999999801
 51
179.9999999999996
  0
LINE
  5
57A
100
AcDbEntity
  8
0
  6
CONTINUOUS
 62
               3
100
AcDbLine
 10
-6.4499999999999957
 20
113.7040689000407
 30
0.0
 11
-4.9305172142483897
 21
113.7040689000407
 31
0.0
  0
LINE
  5
57B
100
AcDbEntity
  8
0
  6
CONTINUOUS
 62
               3
100
AcDbLine
 10
4.9305172142483897
 20
113.7040689000407
 30
0.0
 11
6.4500000000000064
 21
113.7040689000407
 31
0.0
  0
LINE
  5
57C
100
AcDbEntity
  8
0
  6
CONTINUOUS
 62
               3
100
AcDbLine
 10
6.4500000000000064
 20
96.30406890004069
 30
0.0
 11
4.9305172142484395
 21
96.30406890004069
 31
0.0
  0
LINE
  5
57D
100
AcDbEntity
  8
0
  6
CONTINUOUS
 62
               3
100
AcDbLine
 10
-4.9305172142484412
 20
96.30406890004069
 30
0.0
 11
-6.4499999999999957
 21
96.30406890004069
 31
0.0
  0
LINE
  5
57E
100
AcDbEntity
  8
0
  6
CONTINUOUS
 62
               3
100
AcDbLine
 10
11.450000000000006
 20
108.7040689000407
 30
0.0
 11
11.450000000000006
 21
108.00406890004068
 31
0.0
  0
LINE
  5
57F
100
AcDbEntity
  8
0
  6
CONTINUOUS
 62
               3
100
AcDbLine
 10
11.450000000000006
 20
102.00406890004068
 30
0.0
 11
11.450000000000006
 21
101.30406890004069
 31
0.0
  0
TEXT
  5
580
100
AcDbEntity
  8
0
 62
               4
100
AcDbText
 10
-77.225703710168929
 20
-132.06074167801199
 30
0.0
 40
2.5
  1
TEL．052-361-6551
 41
0.8
 11
-77.225703710168929
 21
-132.06074167801199
 31
0.0
100
AcDbText
 73
               3
  0
TEXT
  5
581
100
AcDbEntity
  8
0
 62
               4
100
AcDbText
 10
-42.225703710168929
 20
-132.06074167801199
 30
0.0
 40
2.5
  1
FAX．052-361-6556
 41
0.8
 11
-42.225703710168929
 21
-132.06074167801199
 31
0.0
100
AcDbText
 73
               3
  0
TEXT
  5
582
100
AcDbEntity
  8
0
 62
               4
100
AcDbText
 10
-77.425703710168932
 20
-128.31074167801199
 30
0.0
 40
3.0
  1
名古屋市中川区広川町５丁目１番地
 41
0.8
 11
-77.425703710168932
 21
-128.31074167801199
 31
0.0
100
AcDbText
 73
               3
  0
TEXT
  5
583
100
AcDbEntity
  8
0
 62
               4
100
AcDbText
 10
-77.225703710168929
 20
-125.56074167801199
 30
0.0
 40
2.5
  1
〒４５４－００２７
 41
0.8
 11
-77.225703710168929
 21
-125.56074167801199
 31
0.0
100
AcDbText
 73
               3
  0
TEXT
  5
584
100
AcDbEntity
  8
0
 62
               4
100
AcDbText
 10
-76.975703710168929
 20
-134.56074167801199
 30
0.0
 40
2.5
  1
URL．http://www.kojima-core.co.jp
 41
0.6
 11
-76.975703710168929
 21
-134.56074167801199
 31
0.0
100
AcDbText
 73
               3
  0
TEXT
  5
585
100
AcDbEntity
  8
0
 62
               4
100
AcDbText
 10
-23.836633663366332
 20
87.772277227722768
 30
0.0
 40
3.0
  1
1
 41
0.8
 72
               1
 11
-23.836633663366332
 21
87.772277227722768
 31
0.0
100
AcDbText
 73
               2
  0
TEXT
  5
586
100
AcDbEntity
  8
0
 62
               4
100
AcDbText
 10
-23.836633663366332
 20
80.772277227722768
 30
0.0
 40
3.0
  1
2
 41
0.8
 72
               1
 11
-23.836633663366332
 21
80.772277227722768
 31
0.0
100
AcDbText
 73
               2
  0
TEXT
  5
587
100
AcDbEntity
  8
0
 62
               4
100
AcDbText
 10
-23.836633663366332
 20
20.772277227722768
 30
0.0
 40
3.0
  1
4
 41
0.8
 72
               1
 11
-23.836633663366332
 21
20.772277227722768
 31
0.0
100
AcDbText
 73
               2
  0
TEXT
  5
588
100
AcDbEntity
  8
0
 62
               4
100
AcDbText
 10
-23.836633663366332
 20
5.7722772277227676
 30
0.0
 40
3.0
  1
3
 41
0.8
 72
               1
 11
-23.836633663366332
 21
5.7722772277227676
 31
0.0
100
AcDbText
 73
               2
  0
INSERT
  5
589
100
AcDbEntity
  8
0
  6
CONTINUOUS
100
AcDbBlockReference
  2
GROUP_1
 10
0.0
 20
0.0
 30
0.0
  0
INSERT
  5
58A
100
AcDbEntity
  8
0
  6
CONTINUOUS
100
AcDbBlockReference
  2
GROUP_2
 10
0.0
 20
0.0
 30
0.0
  0
INSERT
  5
58B
100
AcDbEntity
  8
0
  6
CONTINUOUS
100
AcDbBlockReference
  2
GROUP_3
 10
0.0
 20
0.0
 30
0.0
  0
INSERT
  5
58C
100
AcDbEntity
  8
0
  6
CONTINUOUS
100
AcDbBlockReference
  2
GROUP_4
 10
0.0
 20
0.0
 30
0.0
  0
INSERT
  5
58D
100
AcDbEntity
  8
0
  6
CONTINUOUS
100
AcDbBlockReference
  2
GROUP_5
 10
0.0
 20
0.0
 30
0.0
  0
INSERT
  5
58E
100
AcDbEntity
  8
0
  6
CONTINUOUS
100
AcDbBlockReference
  2
GROUP_6
 10
0.0
 20
0.0
 30
0.0
  0
INSERT
  5
58F
100
AcDbEntity
  8
0
  6
CONTINUOUS
100
AcDbBlockReference
  2
GROUP_7
 10
0.0
 20
0.0
 30
0.0
  0
INSERT
  5
590
100
AcDbEntity
  8
0
  6
CONTINUOUS
100
AcDbBlockReference
  2
GROUP_8
 10
0.0
 20
0.0
 30
0.0
  0
TEXT
  5
591
100
AcDbEntity
  8
0
 62
             190
100
AcDbText
 10
87.500000000000057
 20
-131.0
 30
0.0
 40
4.0
  1
副田
 41
0.8
 72
               1
 11
87.500000000000057
 21
-131.0
 31
0.0
100
AcDbText
 73
               2
  0
TEXT
  5
592
100
AcDbEntity
  8
0
 62
             190
100
AcDbText
 10
72.500000000000057
 20
-131.0
 30
0.0
 40
4.0
  1
岩槻
 41
0.8
 72
               1
 11
72.500000000000057
 21
-131.0
 31
0.0
100
AcDbText
 73
               2
  0
TEXT
  5
593
100
AcDbEntity
  8
0
 62
             190
100
AcDbText
 10
57.500000000000057
 20
-131.0
 30
0.0
 40
4.0
  1
加古
 41
0.8
 72
               1
 11
57.500000000000057
 21
-131.0
 31
0.0
100
AcDbText
 73
               2
  0
ENDSEC
  0
SECTION
  2
OBJECTS
  0
DICTIONARY
  5
19
100
AcDbDictionary
  3
ACAD_GROUP
350
1A
  3
ACAD_MLINESTYLE
350
1B
  0
DICTIONARY
  5
1A
102
{ACAD_REACTORS
330
19
102
}
100
AcDbDictionary
  0
DICTIONARY
  5
1B
102
{ACAD_REACTORS
330
19
102
}
100
AcDbDictionary
  3
STANDARD
350
1C
  0
MLINESTYLE
  5
1C
102
{ACAD_REACTORS
330
1B
102
}
100
AcDbMlineStyle
  2
STANDARD
 70
               0
  3

 62
               0
 51
90.0
 52
90.0
 71
               2
 49
0.5
 62
             256
  6
BYLAYER
 49
-0.5
 62
             256
  6
BYLAYER
  0
ENDSEC
  0
EOF
