  0
SECTION
  2
HEADER
  9
$ACADVER
  1
AC1009
  9
$INSBASE
 10
0.0
 20
0.0
 30
0.0
  9
$EXTMIN
 10
-187.19999999999976
 20
-300.57750000000004
 30
0.0
  9
$EXTMAX
 10
187.19999999999993
 20
236.45249999999993
 30
0.0
  9
$LIMMIN
 10
-198.89999999999975
 20
-317.35968750000006
  9
$LIMMAX
 10
198.89999999999992
 20
253.23468749999992
  9
$ORTHOMODE
 70
               0
  9
$REGENMODE
 70
               1
  9
$FILLMODE
 70
               1
  9
$QTEXTMODE
 70
               0
  9
$MIRRTEXT
 70
               1
  9
$DRAGMODE
 70
               2
  9
$LTSCALE
 40
1.0
  9
$OSMODE
 70
               0
  9
$ATTMODE
 70
               1
  9
$TEXTSIZE
 40
0.2
  9
$TRACEWID
 40
0.05
  9
$TEXTSTYLE
  7
STANDARD
  9
$CLAYER
  8
0
  9
$CELTYPE
  6
CONTINUOUS
  9
$CECOLOR
 62
             256
  9
$DIMSCALE
 40
1.0
  9
$DIMASZ
 40
0.18
  9
$DIMEXO
 40
0.0625
  9
$DIMDLI
 40
0.38
  9
$DIMRND
 40
0.0
  9
$DIMDLE
 40
0.0
  9
$DIMEXE
 40
0.18
  9
$DIMTP
 40
0.0
  9
$DIMTM
 40
0.0
  9
$DIMTXT
 40
0.18
  9
$DIMCEN
 40
0.09
  9
$DIMTSZ
 40
0.0
  9
$DIMTOL
 70
               0
  9
$DIMLIM
 70
               0
  9
$DIMTIH
 70
               1
  9
$DIMTOH
 70
               1
  9
$DIMSE1
 70
               0
  9
$DIMSE2
 70
               0
  9
$DIMTAD
 70
               0
  9
$DIMZIN
 70
               0
  9
$DIMBLK
  1

  9
$DIMASO
 70
               1
  9
$DIMSHO
 70
               1
  9
$DIMPOST
  1

  9
$DIMAPOST
  1

  9
$DIMALT
 70
               0
  9
$DIMALTD
 70
               2
  9
$DIMALTF
 40
25.399999999999999
  9
$DIMLFAC
 40
1.0
  9
$DIMTOFL
 70
               0
  9
$DIMTVP
 40
0.0
  9
$DIMTIX
 70
               0
  9
$DIMSOXD
 70
               0
  9
$DIMSAH
 70
               0
  9
$DIMBLK1
  1

  9
$DIMBLK2
  1

  9
$DIMSTYLE
  2
STANDARD
  9
$DIMCLRD
 70
               0
  9
$DIMCLRE
 70
               0
  9
$DIMCLRT
 70
               0
  9
$DIMTFAC
 40
1.0
  9
$DIMGAP
 40
0.09
  9
$LUNITS
 70
               2
  9
$LUPREC
 70
               4
  9
$AXISMODE
 70
               0
  9
$AXISUNIT
 10
0.0
 20
0.0
  9
$SKETCHINC
 40
0.1
  9
$FILLETRAD
 40
0.0
  9
$AUNITS
 70
               0
  9
$AUPREC
 70
               0
  9
$MENU
  1
acad
  9
$ELEVATION
 40
0.0
  9
$PELEVATION
 40
0.0
  9
$THICKNESS
 40
0.0
  9
$LIMCHECK
 70
               0
  9
$BLIPMODE
 70
               1
  9
$CHAMFERA
 40
0.0
  9
$CHAMFERB
 40
0.0
  9
$SKPOLY
 70
               0
  9
$TDCREATE
 40
0.000000000
  9
$TDUPDATE
 40
0.000000000
  9
$TDINDWG
 40
0.0000000000
  9
$TDUSRTIMER
 40
0.0000000000
  9
$USRTIMER
 70
               1
  9
$ANGBASE
 50
0.0
  9
$ANGDIR
 70
               0
  9
$PDMODE
 70
               0
  9
$PDSIZE
 40
1.0
  9
$PLINEWID
 40
0.0
  9
$COORDS
 70
               1
  9
$SPLFRAME
 70
               0
  9
$SPLINETYPE
 70
               6
  9
$SPLINESEGS
 70
               8
  9
$ATTDIA
 70
               0
  9
$ATTREQ
 70
               1
  9
$HANDLING
 70
               1
  9
$HANDSEED
  5
28B
  9
$SURFTAB1
 70
               6
  9
$SURFTAB2
 70
               6
  9
$SURFTYPE
 70
               6
  9
$SURFU
 70
               6
  9
$SURFV
 70
               6
  9
$UCSNAME
  2

  9
$UCSORG
 10
0.0
 20
0.0
 30
0.0
  9
$UCSXDIR
 10
1.0
 20
0.0
 30
0.0
  9
$UCSYDIR
 10
0.0
 20
1.0
 30
0.0
  9
$PUCSNAME
  2

  9
$PUCSORG
 10
0.0
 20
0.0
 30
0.0
  9
$PUCSXDIR
 10
1.0
 20
0.0
 30
0.0
  9
$PUCSYDIR
 10
0.0
 20
1.0
 30
0.0
  9
$USERI1
 70
               0
  9
$USERI2
 70
               0
  9
$USERI3
 70
               0
  9
$USERI4
 70
               0
  9
$USERI5
 70
               0
  9
$USERR1
 40
0.0
  9
$USERR2
 40
0.0
  9
$USERR3
 40
0.0
  9
$USERR4
 40
0.0
  9
$USERR5
 40
0.0
  9
$WORLDVIEW
 70
               1
  9
$SHADEDGE
 70
               3
  9
$SHADEDIF
 70
              70
  9
$TILEMODE
 70
               1
  9
$MAXACTVP
 70
              16
  9
$PINSBASE
 10
0.0
 20
0.0
 30
0.0
  9
$PLIMCHECK
 70
               0
  9
$PEXTMIN
 10
1.0000000000000000E+20
 20
1.0000000000000000E+20
 30
1.0000000000000000E+20
  9
$PEXTMAX
 10
-1.0000000000000000E+20
 20
-1.0000000000000000E+20
 30
-1.0000000000000000E+20
  9
$PLIMMIN
 10
0.0
 20
0.0
  9
$PLIMMAX
 10
12.0
 20
9.0
  9
$UNITMODE
 70
               0
  9
$VISRETAIN
 70
               0
  9
$PLINEGEN
 70
               1
  9
$PSLTSCALE
 70
               0
  9
$TREEDEPTH
 70
            3020
  9
$DWGCODEPAGE
  3
dos932
  0
ENDSEC
  0
SECTION
  2
TABLES
  0
TABLE
  2
VPORT
 70
               1
  0
VPORT
  2
*ACTIVE
 70
               0
 10
0.0
 20
0.0
 11
1.0
 21
1.0
 12
0.0000000000000853
 22
-32.062500000000071
 13
0.0
 23
0.0
 14
1.0
 24
1.0
 15
0.0
 25
0.0
 16
0.0
 26
0.0
 36
1.0
 17
0.0
 27
0.0
 37
0.0
 40
570.59437500000001
 41
0.6971677559912848
 42
50.0
 43
0.0
 44
0.0
 50
0.0
 51
0.0
 71
               0
 72
             100
 73
               1
 74
               1
 75
               0
 76
               0
 77
               0
 78
               0
  0
ENDTAB
  0
TABLE
  2
LTYPE
 70
              26
  0
LTYPE
  2
CONTINUOUS
 70
               0
  3
Solid line
 72
              65
 73
               0
 40
0.0
  0
LTYPE
  2
HIDDENX2
 70
               0
  3
CADPAC FUSION LINETYPE
 72
              65
 73
               2
 40
33.640000000000001
 49
25.23
 49
-8.4100000000000001
  0
LTYPE
  2
HIDDEN
 70
               0
  3
CADPAC FUSION LINETYPE
 72
              65
 73
               2
 40
25.23
 49
16.82
 49
-8.4100000000000001
  0
LTYPE
  2
HIDDEN2
 70
               0
  3
CADPAC FUSION LINETYPE
 72
              65
 73
               2
 40
21.024999999999999
 49
12.615
 49
-8.4100000000000001
  0
LTYPE
  2
DASHED
 70
               0
  3
CADPAC FUSION LINETYPE
 72
              65
 73
               2
 40
25.23
 49
16.82
 49
-8.4100000000000001
  0
LTYPE
  2
DASHED2
 70
               0
  3
CADPAC FUSION LINETYPE
 72
              65
 73
               2
 40
18.922499999999999
 49
12.615
 49
-6.3075000000000001
  0
LTYPE
  2
DASHEDX2
 70
               0
  3
CADPAC FUSION LINETYPE
 72
              65
 73
               2
 40
37.844999999999999
 49
25.23
 49
-12.615
  0
LTYPE
  2
DOTX2
 70
               0
  3
CADPAC FUSION LINETYPE
 72
              65
 73
               2
 40
10.512499999999999
 49
0.0
 49
-10.512499999999999
  0
LTYPE
  2
DOT
 70
               0
  3
CADPAC FUSION LINETYPE
 72
              65
 73
               2
 40
8.4100000000000001
 49
0.0
 49
-8.4100000000000001
  0
LTYPE
  2
DOTS
 70
               0
  3
CADPAC FUSION LINETYPE
 72
              65
 73
               2
 40
8.4100000000000001
 49
0.0
 49
-8.4100000000000001
  0
LTYPE
  2
DOT2
 70
               0
  3
CADPAC FUSION LINETYPE
 72
              65
 73
               2
 40
6.3075000000000001
 49
0.0
 49
-6.3075000000000001
  0
LTYPE
  2
CENTERX2
 70
               0
  3
CADPAC FUSION LINETYPE
 72
              65
 73
               4
 40
50.459999999999994
 49
21.024999999999999
 49
-10.512499999999999
 49
8.4100000000000001
 49
-10.512499999999999
  0
LTYPE
  2
CENTER
 70
               0
  3
CADPAC FUSION LINETYPE
 72
              65
 73
               4
 40
38.686
 49
16.82
 49
-8.4100000000000001
 49
5.0460000000000003
 49
-8.4100000000000001
  0
LTYPE
  2
CENTER2
 70
               0
  3
CADPAC FUSION LINETYPE
 72
              65
 73
               4
 40
26.911999999999999
 49
12.615
 49
-6.3075000000000001
 49
1.6820000000000002
 49
-6.3075000000000001
  0
LTYPE
  2
DASHDOTX2
 70
               0
  3
CADPAC FUSION LINETYPE
 72
              65
 73
               4
 40
42.049999999999997
 49
21.024999999999999
 49
-10.512499999999999
 49
0.0
 49
-10.512499999999999
  0
LTYPE
  2
DASHDOT
 70
               0
  3
CADPAC FUSION LINETYPE
 72
              65
 73
               4
 40
33.640000000000001
 49
16.82
 49
-8.4100000000000001
 49
0.0
 49
-8.4100000000000001
  0
LTYPE
  2
DASHDOT2
 70
               0
  3
CADPAC FUSION LINETYPE
 72
              65
 73
               4
 40
25.23
 49
12.615
 49
-6.3075000000000001
 49
0.0
 49
-6.3075000000000001
  0
LTYPE
  2
DIVIDEX2
 70
               0
  3
CADPAC FUSION LINETYPE
 72
              65
 73
               6
 40
52.5625
 49
21.024999999999999
 49
-10.512499999999999
 49
0.0
 49
-10.512499999999999
 49
0.0
 49
-10.512499999999999
  0
LTYPE
  2
DIVIDE
 70
               0
  3
CADPAC FUSION LINETYPE
 72
              65
 73
               6
 40
42.049999999999997
 49
16.82
 49
-8.4100000000000001
 49
0.0
 49
-8.4100000000000001
 49
0.0
 49
-8.4100000000000001
  0
LTYPE
  2
DIVIDE2
 70
               0
  3
CADPAC FUSION LINETYPE
 72
              65
 73
               6
 40
31.537500000000001
 49
12.615
 49
-6.3075000000000001
 49
0.0
 49
-6.3075000000000001
 49
0.0
 49
-6.3075000000000001
  0
LTYPE
  2
BORDERX2
 70
               0
  3
CADPAC FUSION LINETYPE
 72
              65
 73
               6
 40
73.587499999999991
 49
21.024999999999999
 49
-10.512499999999999
 49
21.024999999999999
 49
-10.512499999999999
 49
0.0
 49
-10.512499999999999
  0
LTYPE
  2
BORDER
 70
               0
  3
CADPAC FUSION LINETYPE
 72
              65
 73
               6
 40
58.870000000000005
 49
16.82
 49
-8.4100000000000001
 49
16.82
 49
-8.4100000000000001
 49
0.0
 49
-8.4100000000000001
  0
LTYPE
  2
BORDER2
 70
               0
  3
CADPAC FUSION LINETYPE
 72
              65
 73
               6
 40
44.152499999999996
 49
12.615
 49
-6.3075000000000001
 49
12.615
 49
-6.3075000000000001
 49
0.0
 49
-6.3075000000000001
  0
LTYPE
  2
PHANTOMX2
 70
               0
  3
CADPAC FUSION LINETYPE
 72
              65
 73
               6
 40
63.074999999999996
 49
21.024999999999999
 49
-8.4100000000000001
 49
8.4100000000000001
 49
-8.4100000000000001
 49
8.4100000000000001
 49
-8.4100000000000001
  0
LTYPE
  2
PHANTOM
 70
               0
  3
CADPAC FUSION LINETYPE
 72
              65
 73
               6
 40
52.141999999999996
 49
16.82
 49
-8.4100000000000001
 49
5.0460000000000003
 49
-8.4100000000000001
 49
5.0460000000000003
 49
-8.4100000000000001
  0
LTYPE
  2
PHANTOM2
 70
               0
  3
CADPAC FUSION LINETYPE
 72
              65
 73
               6
 40
44.573
 49
12.615
 49
-8.4100000000000001
 49
3.3640000000000003
 49
-8.4100000000000001
 49
3.3640000000000003
 49
-8.4100000000000001
  0
ENDTAB
  0
TABLE
  2
LAYER
 70
             256
  0
LAYER
  2
0
 70
               0
 62
               7
  6
CONTINUOUS
  0
LAYER
  2
LAYER001
 70
               0
 62
               7
  6
CONTINUOUS
  0
LAYER
  2
LAYER002
 70
               0
 62
               7
  6
CONTINUOUS
  0
LAYER
  2
LAYER003
 70
               0
 62
               7
  6
CONTINUOUS
  0
LAYER
  2
LAYER004
 70
               0
 62
               7
  6
CONTINUOUS
  0
LAYER
  2
LAYER005
 70
               0
 62
               7
  6
CONTINUOUS
  0
LAYER
  2
LAYER006
 70
               0
 62
               7
  6
CONTINUOUS
  0
LAYER
  2
LAYER007
 70
               0
 62
               7
  6
CONTINUOUS
  0
LAYER
  2
LAYER008
 70
               0
 62
               7
  6
CONTINUOUS
  0
LAYER
  2
LAYER009
 70
               0
 62
               7
  6
CONTINUOUS
  0
LAYER
  2
LAYER010
 70
               0
 62
               7
  6
CONTINUOUS
  0
LAYER
  2
LAYER011
 70
               0
 62
               7
  6
CONTINUOUS
  0
LAYER
  2
LAYER012
 70
               0
 62
               7
  6
CONTINUOUS
  0
LAYER
  2
LAYER013
 70
               0
 62
               7
  6
CONTINUOUS
  0
LAYER
  2
LAYER014
 70
               0
 62
               7
  6
CONTINUOUS
  0
LAYER
  2
LAYER015
 70
               0
 62
               7
  6
CONTINUOUS
  0
LAYER
  2
LAYER016
 70
               0
 62
               7
  6
CONTINUOUS
  0
LAYER
  2
LAYER017
 70
               0
 62
               7
  6
CONTINUOUS
  0
LAYER
  2
LAYER018
 70
               0
 62
               7
  6
CONTINUOUS
  0
LAYER
  2
LAYER019
 70
               0
 62
               7
  6
CONTINUOUS
  0
LAYER
  2
LAYER020
 70
               0
 62
               7
  6
CONTINUOUS
  0
LAYER
  2
LAYER021
 70
               0
 62
               7
  6
CONTINUOUS
  0
LAYER
  2
LAYER022
 70
               0
 62
               7
  6
CONTINUOUS
  0
LAYER
  2
LAYER023
 70
               0
 62
               7
  6
CONTINUOUS
  0
LAYER
  2
LAYER024
 70
               0
 62
               7
  6
CONTINUOUS
  0
LAYER
  2
LAYER025
 70
               0
 62
               7
  6
CONTINUOUS
  0
LAYER
  2
LAYER026
 70
               0
 62
               7
  6
CONTINUOUS
  0
LAYER
  2
LAYER027
 70
               0
 62
               7
  6
CONTINUOUS
  0
LAYER
  2
LAYER028
 70
               0
 62
               7
  6
CONTINUOUS
  0
LAYER
  2
LAYER029
 70
               0
 62
               7
  6
CONTINUOUS
  0
LAYER
  2
LAYER030
 70
               0
 62
               7
  6
CONTINUOUS
  0
LAYER
  2
LAYER031
 70
               0
 62
               7
  6
CONTINUOUS
  0
LAYER
  2
LAYER032
 70
               0
 62
               7
  6
CONTINUOUS
  0
LAYER
  2
LAYER033
 70
               0
 62
               7
  6
CONTINUOUS
  0
LAYER
  2
LAYER034
 70
               0
 62
               7
  6
CONTINUOUS
  0
LAYER
  2
LAYER035
 70
               0
 62
               7
  6
CONTINUOUS
  0
LAYER
  2
LAYER036
 70
               0
 62
               7
  6
CONTINUOUS
  0
LAYER
  2
LAYER037
 70
               0
 62
               7
  6
CONTINUOUS
  0
LAYER
  2
LAYER038
 70
               0
 62
               7
  6
CONTINUOUS
  0
LAYER
  2
LAYER039
 70
               0
 62
               7
  6
CONTINUOUS
  0
LAYER
  2
LAYER040
 70
               0
 62
               7
  6
CONTINUOUS
  0
LAYER
  2
LAYER041
 70
               0
 62
               7
  6
CONTINUOUS
  0
LAYER
  2
LAYER042
 70
               0
 62
               7
  6
CONTINUOUS
  0
LAYER
  2
LAYER043
 70
               0
 62
               7
  6
CONTINUOUS
  0
LAYER
  2
LAYER044
 70
               0
 62
               7
  6
CONTINUOUS
  0
LAYER
  2
LAYER045
 70
               0
 62
               7
  6
CONTINUOUS
  0
LAYER
  2
LAYER046
 70
               0
 62
               7
  6
CONTINUOUS
  0
LAYER
  2
LAYER047
 70
               0
 62
               7
  6
CONTINUOUS
  0
LAYER
  2
LAYER048
 70
               0
 62
               7
  6
CONTINUOUS
  0
LAYER
  2
LAYER049
 70
               0
 62
               7
  6
CONTINUOUS
  0
LAYER
  2
LAYER050
 70
               0
 62
               7
  6
CONTINUOUS
  0
LAYER
  2
LAYER051
 70
               0
 62
               7
  6
CONTINUOUS
  0
LAYER
  2
LAYER052
 70
               0
 62
               7
  6
CONTINUOUS
  0
LAYER
  2
LAYER053
 70
               0
 62
               7
  6
CONTINUOUS
  0
LAYER
  2
LAYER054
 70
               0
 62
               7
  6
CONTINUOUS
  0
LAYER
  2
LAYER055
 70
               0
 62
               7
  6
CONTINUOUS
  0
LAYER
  2
LAYER056
 70
               0
 62
               7
  6
CONTINUOUS
  0
LAYER
  2
LAYER057
 70
               0
 62
               7
  6
CONTINUOUS
  0
LAYER
  2
LAYER058
 70
               0
 62
               7
  6
CONTINUOUS
  0
LAYER
  2
LAYER059
 70
               0
 62
               7
  6
CONTINUOUS
  0
LAYER
  2
LAYER060
 70
               0
 62
               7
  6
CONTINUOUS
  0
LAYER
  2
LAYER061
 70
               0
 62
               7
  6
CONTINUOUS
  0
LAYER
  2
LAYER062
 70
               0
 62
               7
  6
CONTINUOUS
  0
LAYER
  2
LAYER063
 70
               0
 62
               7
  6
CONTINUOUS
  0
LAYER
  2
LAYER064
 70
               0
 62
               7
  6
CONTINUOUS
  0
LAYER
  2
LAYER065
 70
               0
 62
               7
  6
CONTINUOUS
  0
LAYER
  2
LAYER066
 70
               0
 62
               7
  6
CONTINUOUS
  0
LAYER
  2
LAYER067
 70
               0
 62
               7
  6
CONTINUOUS
  0
LAYER
  2
LAYER068
 70
               0
 62
               7
  6
CONTINUOUS
  0
LAYER
  2
LAYER069
 70
               0
 62
               7
  6
CONTINUOUS
  0
LAYER
  2
LAYER070
 70
               0
 62
               7
  6
CONTINUOUS
  0
LAYER
  2
LAYER071
 70
               0
 62
               7
  6
CONTINUOUS
  0
LAYER
  2
LAYER072
 70
               0
 62
               7
  6
CONTINUOUS
  0
LAYER
  2
LAYER073
 70
               0
 62
               7
  6
CONTINUOUS
  0
LAYER
  2
LAYER074
 70
               0
 62
               7
  6
CONTINUOUS
  0
LAYER
  2
LAYER075
 70
               0
 62
               7
  6
CONTINUOUS
  0
LAYER
  2
LAYER076
 70
               0
 62
               7
  6
CONTINUOUS
  0
LAYER
  2
LAYER077
 70
               0
 62
               7
  6
CONTINUOUS
  0
LAYER
  2
LAYER078
 70
               0
 62
               7
  6
CONTINUOUS
  0
LAYER
  2
LAYER079
 70
               0
 62
               7
  6
CONTINUOUS
  0
LAYER
  2
LAYER080
 70
               0
 62
               7
  6
CONTINUOUS
  0
LAYER
  2
LAYER081
 70
               0
 62
               7
  6
CONTINUOUS
  0
LAYER
  2
LAYER082
 70
               0
 62
               7
  6
CONTINUOUS
  0
LAYER
  2
LAYER083
 70
               0
 62
               7
  6
CONTINUOUS
  0
LAYER
  2
LAYER084
 70
               0
 62
               7
  6
CONTINUOUS
  0
LAYER
  2
LAYER085
 70
               0
 62
               7
  6
CONTINUOUS
  0
LAYER
  2
LAYER086
 70
               0
 62
               7
  6
CONTINUOUS
  0
LAYER
  2
LAYER087
 70
               0
 62
               7
  6
CONTINUOUS
  0
LAYER
  2
LAYER088
 70
               0
 62
               7
  6
CONTINUOUS
  0
LAYER
  2
LAYER089
 70
               0
 62
               7
  6
CONTINUOUS
  0
LAYER
  2
LAYER090
 70
               0
 62
               7
  6
CONTINUOUS
  0
LAYER
  2
LAYER091
 70
               0
 62
               7
  6
CONTINUOUS
  0
LAYER
  2
LAYER092
 70
               0
 62
               7
  6
CONTINUOUS
  0
LAYER
  2
LAYER093
 70
               0
 62
               7
  6
CONTINUOUS
  0
LAYER
  2
LAYER094
 70
               0
 62
               7
  6
CONTINUOUS
  0
LAYER
  2
LAYER095
 70
               0
 62
               7
  6
CONTINUOUS
  0
LAYER
  2
LAYER096
 70
               0
 62
               7
  6
CONTINUOUS
  0
LAYER
  2
LAYER097
 70
               0
 62
               7
  6
CONTINUOUS
  0
LAYER
  2
LAYER098
 70
               0
 62
               7
  6
CONTINUOUS
  0
LAYER
  2
LAYER099
 70
               0
 62
               7
  6
CONTINUOUS
  0
LAYER
  2
LAYER100
 70
               0
 62
               7
  6
CONTINUOUS
  0
LAYER
  2
LAYER101
 70
               0
 62
               7
  6
CONTINUOUS
  0
LAYER
  2
LAYER102
 70
               0
 62
               7
  6
CONTINUOUS
  0
LAYER
  2
LAYER103
 70
               0
 62
               7
  6
CONTINUOUS
  0
LAYER
  2
LAYER104
 70
               0
 62
               7
  6
CONTINUOUS
  0
LAYER
  2
LAYER105
 70
               0
 62
               7
  6
CONTINUOUS
  0
LAYER
  2
LAYER106
 70
               0
 62
               7
  6
CONTINUOUS
  0
LAYER
  2
LAYER107
 70
               0
 62
               7
  6
CONTINUOUS
  0
LAYER
  2
LAYER108
 70
               0
 62
               7
  6
CONTINUOUS
  0
LAYER
  2
LAYER109
 70
               0
 62
               7
  6
CONTINUOUS
  0
LAYER
  2
LAYER110
 70
               0
 62
               7
  6
CONTINUOUS
  0
LAYER
  2
LAYER111
 70
               0
 62
               7
  6
CONTINUOUS
  0
LAYER
  2
LAYER112
 70
               0
 62
               7
  6
CONTINUOUS
  0
LAYER
  2
LAYER113
 70
               0
 62
               7
  6
CONTINUOUS
  0
LAYER
  2
LAYER114
 70
               0
 62
               7
  6
CONTINUOUS
  0
LAYER
  2
LAYER115
 70
               0
 62
               7
  6
CONTINUOUS
  0
LAYER
  2
LAYER116
 70
               0
 62
               7
  6
CONTINUOUS
  0
LAYER
  2
LAYER117
 70
               0
 62
               7
  6
CONTINUOUS
  0
LAYER
  2
LAYER118
 70
               0
 62
               7
  6
CONTINUOUS
  0
LAYER
  2
LAYER119
 70
               0
 62
               7
  6
CONTINUOUS
  0
LAYER
  2
LAYER120
 70
               0
 62
               7
  6
CONTINUOUS
  0
LAYER
  2
LAYER121
 70
               0
 62
               7
  6
CONTINUOUS
  0
LAYER
  2
LAYER122
 70
               0
 62
               7
  6
CONTINUOUS
  0
LAYER
  2
LAYER123
 70
               0
 62
               7
  6
CONTINUOUS
  0
LAYER
  2
LAYER124
 70
               0
 62
               7
  6
CONTINUOUS
  0
LAYER
  2
LAYER125
 70
               0
 62
               7
  6
CONTINUOUS
  0
LAYER
  2
LAYER126
 70
               0
 62
               7
  6
CONTINUOUS
  0
LAYER
  2
LAYER127
 70
               0
 62
               7
  6
CONTINUOUS
  0
LAYER
  2
LAYER128
 70
               0
 62
               7
  6
CONTINUOUS
  0
LAYER
  2
LAYER129
 70
               0
 62
               7
  6
CONTINUOUS
  0
LAYER
  2
LAYER130
 70
               0
 62
               7
  6
CONTINUOUS
  0
LAYER
  2
LAYER131
 70
               0
 62
               7
  6
CONTINUOUS
  0
LAYER
  2
LAYER132
 70
               0
 62
               7
  6
CONTINUOUS
  0
LAYER
  2
LAYER133
 70
               0
 62
               7
  6
CONTINUOUS
  0
LAYER
  2
LAYER134
 70
               0
 62
               7
  6
CONTINUOUS
  0
LAYER
  2
LAYER135
 70
               0
 62
               7
  6
CONTINUOUS
  0
LAYER
  2
LAYER136
 70
               0
 62
               7
  6
CONTINUOUS
  0
LAYER
  2
LAYER137
 70
               0
 62
               7
  6
CONTINUOUS
  0
LAYER
  2
LAYER138
 70
               0
 62
               7
  6
CONTINUOUS
  0
LAYER
  2
LAYER139
 70
               0
 62
               7
  6
CONTINUOUS
  0
LAYER
  2
LAYER140
 70
               0
 62
               7
  6
CONTINUOUS
  0
LAYER
  2
LAYER141
 70
               0
 62
               7
  6
CONTINUOUS
  0
LAYER
  2
LAYER142
 70
               0
 62
               7
  6
CONTINUOUS
  0
LAYER
  2
LAYER143
 70
               0
 62
               7
  6
CONTINUOUS
  0
LAYER
  2
LAYER144
 70
               0
 62
               7
  6
CONTINUOUS
  0
LAYER
  2
LAYER145
 70
               0
 62
               7
  6
CONTINUOUS
  0
LAYER
  2
LAYER146
 70
               0
 62
               7
  6
CONTINUOUS
  0
LAYER
  2
LAYER147
 70
               0
 62
               7
  6
CONTINUOUS
  0
LAYER
  2
LAYER148
 70
               0
 62
               7
  6
CONTINUOUS
  0
LAYER
  2
LAYER149
 70
               0
 62
               7
  6
CONTINUOUS
  0
LAYER
  2
LAYER150
 70
               0
 62
               7
  6
CONTINUOUS
  0
LAYER
  2
LAYER151
 70
               0
 62
               7
  6
CONTINUOUS
  0
LAYER
  2
LAYER152
 70
               0
 62
               7
  6
CONTINUOUS
  0
LAYER
  2
LAYER153
 70
               0
 62
               7
  6
CONTINUOUS
  0
LAYER
  2
LAYER154
 70
               0
 62
               7
  6
CONTINUOUS
  0
LAYER
  2
LAYER155
 70
               0
 62
               7
  6
CONTINUOUS
  0
LAYER
  2
LAYER156
 70
               0
 62
               7
  6
CONTINUOUS
  0
LAYER
  2
LAYER157
 70
               0
 62
               7
  6
CONTINUOUS
  0
LAYER
  2
LAYER158
 70
               0
 62
               7
  6
CONTINUOUS
  0
LAYER
  2
LAYER159
 70
               0
 62
               7
  6
CONTINUOUS
  0
LAYER
  2
LAYER160
 70
               0
 62
               7
  6
CONTINUOUS
  0
LAYER
  2
LAYER161
 70
               0
 62
               7
  6
CONTINUOUS
  0
LAYER
  2
LAYER162
 70
               0
 62
               7
  6
CONTINUOUS
  0
LAYER
  2
LAYER163
 70
               0
 62
               7
  6
CONTINUOUS
  0
LAYER
  2
LAYER164
 70
               0
 62
               7
  6
CONTINUOUS
  0
LAYER
  2
LAYER165
 70
               0
 62
               7
  6
CONTINUOUS
  0
LAYER
  2
LAYER166
 70
               0
 62
               7
  6
CONTINUOUS
  0
LAYER
  2
LAYER167
 70
               0
 62
               7
  6
CONTINUOUS
  0
LAYER
  2
LAYER168
 70
               0
 62
               7
  6
CONTINUOUS
  0
LAYER
  2
LAYER169
 70
               0
 62
               7
  6
CONTINUOUS
  0
LAYER
  2
LAYER170
 70
               0
 62
               7
  6
CONTINUOUS
  0
LAYER
  2
LAYER171
 70
               0
 62
               7
  6
CONTINUOUS
  0
LAYER
  2
LAYER172
 70
               0
 62
               7
  6
CONTINUOUS
  0
LAYER
  2
LAYER173
 70
               0
 62
               7
  6
CONTINUOUS
  0
LAYER
  2
LAYER174
 70
               0
 62
               7
  6
CONTINUOUS
  0
LAYER
  2
LAYER175
 70
               0
 62
               7
  6
CONTINUOUS
  0
LAYER
  2
LAYER176
 70
               0
 62
               7
  6
CONTINUOUS
  0
LAYER
  2
LAYER177
 70
               0
 62
               7
  6
CONTINUOUS
  0
LAYER
  2
LAYER178
 70
               0
 62
               7
  6
CONTINUOUS
  0
LAYER
  2
LAYER179
 70
               0
 62
               7
  6
CONTINUOUS
  0
LAYER
  2
LAYER180
 70
               0
 62
               7
  6
CONTINUOUS
  0
LAYER
  2
LAYER181
 70
               0
 62
               7
  6
CONTINUOUS
  0
LAYER
  2
LAYER182
 70
               0
 62
               7
  6
CONTINUOUS
  0
LAYER
  2
LAYER183
 70
               0
 62
               7
  6
CONTINUOUS
  0
LAYER
  2
LAYER184
 70
               0
 62
               7
  6
CONTINUOUS
  0
LAYER
  2
LAYER185
 70
               0
 62
               7
  6
CONTINUOUS
  0
LAYER
  2
LAYER186
 70
               0
 62
               7
  6
CONTINUOUS
  0
LAYER
  2
LAYER187
 70
               0
 62
               7
  6
CONTINUOUS
  0
LAYER
  2
LAYER188
 70
               0
 62
               7
  6
CONTINUOUS
  0
LAYER
  2
LAYER189
 70
               0
 62
               7
  6
CONTINUOUS
  0
LAYER
  2
LAYER190
 70
               0
 62
               7
  6
CONTINUOUS
  0
LAYER
  2
LAYER191
 70
               0
 62
               7
  6
CONTINUOUS
  0
LAYER
  2
LAYER192
 70
               0
 62
               7
  6
CONTINUOUS
  0
LAYER
  2
LAYER193
 70
               0
 62
               7
  6
CONTINUOUS
  0
LAYER
  2
LAYER194
 70
               0
 62
               7
  6
CONTINUOUS
  0
LAYER
  2
LAYER195
 70
               0
 62
               7
  6
CONTINUOUS
  0
LAYER
  2
LAYER196
 70
               0
 62
               7
  6
CONTINUOUS
  0
LAYER
  2
LAYER197
 70
               0
 62
               7
  6
CONTINUOUS
  0
LAYER
  2
LAYER198
 70
               0
 62
               7
  6
CONTINUOUS
  0
LAYER
  2
LAYER199
 70
               0
 62
               7
  6
CONTINUOUS
  0
LAYER
  2
LAYER200
 70
               0
 62
               7
  6
CONTINUOUS
  0
LAYER
  2
LAYER201
 70
               0
 62
               7
  6
CONTINUOUS
  0
LAYER
  2
LAYER202
 70
               0
 62
               7
  6
CONTINUOUS
  0
LAYER
  2
LAYER203
 70
               0
 62
               7
  6
CONTINUOUS
  0
LAYER
  2
LAYER204
 70
               0
 62
               7
  6
CONTINUOUS
  0
LAYER
  2
LAYER205
 70
               0
 62
               7
  6
CONTINUOUS
  0
LAYER
  2
LAYER206
 70
               0
 62
               7
  6
CONTINUOUS
  0
LAYER
  2
LAYER207
 70
               0
 62
               7
  6
CONTINUOUS
  0
LAYER
  2
LAYER208
 70
               0
 62
               7
  6
CONTINUOUS
  0
LAYER
  2
LAYER209
 70
               0
 62
               7
  6
CONTINUOUS
  0
LAYER
  2
LAYER210
 70
               0
 62
               7
  6
CONTINUOUS
  0
LAYER
  2
LAYER211
 70
               0
 62
               7
  6
CONTINUOUS
  0
LAYER
  2
LAYER212
 70
               0
 62
               7
  6
CONTINUOUS
  0
LAYER
  2
LAYER213
 70
               0
 62
               7
  6
CONTINUOUS
  0
LAYER
  2
LAYER214
 70
               0
 62
               7
  6
CONTINUOUS
  0
LAYER
  2
LAYER215
 70
               0
 62
               7
  6
CONTINUOUS
  0
LAYER
  2
LAYER216
 70
               0
 62
               7
  6
CONTINUOUS
  0
LAYER
  2
LAYER217
 70
               0
 62
               7
  6
CONTINUOUS
  0
LAYER
  2
LAYER218
 70
               0
 62
               7
  6
CONTINUOUS
  0
LAYER
  2
LAYER219
 70
               0
 62
               7
  6
CONTINUOUS
  0
LAYER
  2
LAYER220
 70
               0
 62
               7
  6
CONTINUOUS
  0
LAYER
  2
LAYER221
 70
               0
 62
               7
  6
CONTINUOUS
  0
LAYER
  2
LAYER222
 70
               0
 62
               7
  6
CONTINUOUS
  0
LAYER
  2
LAYER223
 70
               0
 62
               7
  6
CONTINUOUS
  0
LAYER
  2
LAYER224
 70
               0
 62
               7
  6
CONTINUOUS
  0
LAYER
  2
LAYER225
 70
               0
 62
               7
  6
CONTINUOUS
  0
LAYER
  2
LAYER226
 70
               0
 62
               7
  6
CONTINUOUS
  0
LAYER
  2
LAYER227
 70
               0
 62
               7
  6
CONTINUOUS
  0
LAYER
  2
LAYER228
 70
               0
 62
               7
  6
CONTINUOUS
  0
LAYER
  2
LAYER229
 70
               0
 62
               7
  6
CONTINUOUS
  0
LAYER
  2
LAYER230
 70
               0
 62
               7
  6
CONTINUOUS
  0
LAYER
  2
LAYER231
 70
               0
 62
               7
  6
CONTINUOUS
  0
LAYER
  2
LAYER232
 70
               0
 62
               7
  6
CONTINUOUS
  0
LAYER
  2
LAYER233
 70
               0
 62
               7
  6
CONTINUOUS
  0
LAYER
  2
LAYER234
 70
               0
 62
               7
  6
CONTINUOUS
  0
LAYER
  2
LAYER235
 70
               0
 62
               7
  6
CONTINUOUS
  0
LAYER
  2
LAYER236
 70
               0
 62
               7
  6
CONTINUOUS
  0
LAYER
  2
LAYER237
 70
               0
 62
               7
  6
CONTINUOUS
  0
LAYER
  2
LAYER238
 70
               0
 62
               7
  6
CONTINUOUS
  0
LAYER
  2
LAYER239
 70
               0
 62
               7
  6
CONTINUOUS
  0
LAYER
  2
LAYER240
 70
               0
 62
               7
  6
CONTINUOUS
  0
LAYER
  2
LAYER241
 70
               0
 62
               7
  6
CONTINUOUS
  0
LAYER
  2
LAYER242
 70
               0
 62
               7
  6
CONTINUOUS
  0
LAYER
  2
LAYER243
 70
               0
 62
               7
  6
CONTINUOUS
  0
LAYER
  2
LAYER244
 70
               0
 62
               7
  6
CONTINUOUS
  0
LAYER
  2
LAYER245
 70
               0
 62
               7
  6
CONTINUOUS
  0
LAYER
  2
LAYER246
 70
               0
 62
               7
  6
CONTINUOUS
  0
LAYER
  2
LAYER247
 70
               0
 62
               7
  6
CONTINUOUS
  0
LAYER
  2
LAYER248
 70
               0
 62
               7
  6
CONTINUOUS
  0
LAYER
  2
LAYER249
 70
               0
 62
               7
  6
CONTINUOUS
  0
LAYER
  2
LAYER250
 70
               0
 62
               7
  6
CONTINUOUS
  0
LAYER
  2
LAYER251
 70
               0
 62
               7
  6
CONTINUOUS
  0
LAYER
  2
LAYER252
 70
               0
 62
               7
  6
CONTINUOUS
  0
LAYER
  2
LAYER253
 70
               0
 62
               7
  6
CONTINUOUS
  0
LAYER
  2
LAYER254
 70
               0
 62
               7
  6
CONTINUOUS
  0
LAYER
  2
LAYER255
 70
               0
 62
               7
  6
CONTINUOUS
  0
ENDTAB
  0
TABLE
  2
STYLE
 70
               2
  0
STYLE
  2
STANDARD
 70
               4
 40
0.0
 41
1.0
 50
0.0
 71
               0
 42
35.0
  3
MS Gothic.ttf
  4

  0
STYLE
  2
FdaStyle1
 70
               0
 40
0.0
 41
0.5
 50
0.0
 71
               0
 42
12.5
  3
MS Gothic.ttf
  4

  0
ENDTAB
  0
TABLE
  2
VIEW
 70
               0
  0
VIEW
  2
QQQQ
 70
               0
 40
570.59437500000001
 10
0.0000000000000853
 20
-32.062500000000071
 41
397.79999999999967
 11
0.0
 21
0.0
 31
1.0
 12
100.0
 22
100.0
 32
0.0
 42
50.0
 43
0.0
 44
0.0
 50
0.0
 71
               0
  0
ENDTAB
  0
TABLE
  2
UCS
 70
               0
  0
ENDTAB
  0
TABLE
  2
APPID
 70
               1
  0
APPID
  2
ACAD
 70
               0
  0
ENDTAB
  0
TABLE
  2
DIMSTYLE
 70
               1
  0
DIMSTYLE
  2
STANDARD
 70
               0
  3

  4

  5

  6

  7

 40
1.0
 41
0.18
 42
0.0625
 43
0.38
 44
0.18
 45
0.0
 46
0.0
 47
0.0
 48
0.0
140
0.18
141
0.09
142
0.0
143
25.399999999999999
144
1.0
145
0.0
146
1.0
147
0.09
 71
               0
 72
               0
 73
               1
 74
               1
 75
               0
 76
               0
 77
               0
 78
               0
170
               0
171
               2
172
               0
173
               0
174
               0
175
               0
176
               0
177
               0
178
               0
  0
ENDTAB
  0
ENDSEC
  0
SECTION
  2
BLOCKS
  0
ENDSEC
  0
SECTION
  2
ENTITIES
  0
LINE
  8
0
  6
CONTINUOUS
 62
               7
  5
137
 10
-154.99999999999977
 20
-282.75000000000006
 30
0.0
 11
154.99999999999994
 21
-282.75000000000006
 31
0.0
  0
LINE
  8
0
  6
CONTINUOUS
 62
               7
  5
138
 10
-140.49999999999977
 20
-276.75000000000011
 30
0.0
 11
-152.99999999999977
 21
-276.75000000000011
 31
0.0
  0
ARC
  8
0
  6
CONTINUOUS
 62
               7
  5
139
 10
-152.99999999999977
 20
-278.75000000000034
 30
0.0
 40
1.9999999999999998
 50
89.999999897159796
 51
179.99999979431959
  0
LINE
  8
0
  6
CONTINUOUS
 62
               7
  5
13A
 10
-154.99999999999977
 20
-278.75000000000034
 30
0.0
 11
-154.99999999999977
 21
-282.75000000000006
 31
0.0
  0
LINE
  8
0
  6
CONTINUOUS
 62
               7
  5
13B
 10
-151.99999999999983
 20
-132.75000000000006
 30
0.0
 11
152.0
 21
-132.75000000000006
 31
0.0
  0
LINE
  8
0
  6
CONTINUOUS
 62
               7
  5
13C
 10
117.12499999999999
 20
-138.75000000000034
 30
0.0
 11
5.75
 21
-138.75000000000034
 31
0.0
  0
LINE
  8
0
  6
CONTINUOUS
 62
               7
  5
13D
 10
-5.75
 20
-138.75000000000034
 30
0.0
 11
-82.624999999999858
 21
-138.75000000000034
 31
0.0
  0
ARC
  8
0
  6
CONTINUOUS
 62
               7
  5
13E
 10
-82.624999999999858
 20
-143.75000000000034
 30
0.0
 40
5.0
 50
89.999999897159796
 51
179.99999979431959
  0
LINE
  8
0
  6
CONTINUOUS
 62
               7
  5
13F
 10
-141.37499999999983
 20
-138.75000000000034
 30
0.0
 11
-149.99999999999986
 21
-138.75000000000034
 31
0.0
  0
ARC
  8
0
  6
CONTINUOUS
 62
               7
  5
140
 10
-149.99999999999986
 20
-136.75000000000011
 30
0.0
 40
1.9999999999999998
 50
179.99999979431959
 51
269.99999969147945
  0
LINE
  8
0
  6
CONTINUOUS
 62
               7
  5
141
 10
-151.99999999999983
 20
-136.75000000000011
 30
0.0
 11
-151.99999999999983
 21
-132.75000000000006
 31
0.0
  0
LINE
  8
0
  6
CONTINUOUS
 62
               7
  5
142
 10
-131.99999999999983
 20
-132.75000000000006
 30
0.0
 11
-131.24999999999977
 21
-143.87500000000023
 31
0.0
  0
LINE
  8
0
  6
CONTINUOUS
 62
               7
  5
143
 10
-129.87499999999977
 20
-133.75000000000034
 30
0.0
 11
-129.12499999999989
 21
-145.75000000000023
 31
0.0
  0
LINE
  8
0
  6
CONTINUOUS
 62
               7
  5
144
 10
0.0
 20
-133.75000000000034
 30
0.0
 11
-129.99999999999977
 21
-133.75000000000034
 31
0.0
  0
LINE
  8
0
  6
CONTINUOUS
 62
               7
  5
145
 10
0.0
 20
-156.75000000000017
 30
0.0
 11
-0.125
 21
-156.75000000000017
 31
0.0
  0
ARC
  8
0
  6
CONTINUOUS
 62
               7
  5
146
 10
-0.125
 20
-154.75000000000028
 30
0.0
 40
1.9999999999999998
 50
183.02222201308842
 51
269.99999969147945
  0
LINE
  8
0
  6
CONTINUOUS
 62
               7
  5
147
 10
-2.1249999999999929
 20
-154.87500000000011
 30
0.0
 11
-2.7499999999999929
 21
-141.62500000000028
 31
0.0
  0
ARC
  8
0
  6
CONTINUOUS
 62
               7
  5
148
 10
-5.75
 20
-141.75000000000011
 30
0.0
 40
3.0
 50
3.0111111076704082
 51
89.999999897159796
  0
LINE
  8
0
  6
CONTINUOUS
 62
               7
  5
149
 10
-111.7499999999998
 20
-133.75000000000034
 30
0.0
 11
-112.62499999999984
 21
-143.87500000000023
 31
0.0
  0
ARC
  8
0
  6
CONTINUOUS
 62
               7
  5
14A
 10
-114.62499999999989
 20
-143.75000000000034
 30
0.0
 40
1.9999999999999998
 50
269.99999969147945
 51
354.99999959435257
  0
LINE
  8
0
  6
CONTINUOUS
 62
               7
  5
14B
 10
-93.749999999999801
 20
-133.75000000000034
 30
0.0
 11
-92.874999999999901
 21
-143.87500000000023
 31
0.0
  0
LINE
  8
0
  6
CONTINUOUS
 62
               7
  5
14C
 10
-129.24999999999977
 20
-145.75000000000023
 30
0.0
 11
-87.624999999999858
 21
-145.75000000000023
 31
0.0
  0
ARC
  8
0
  6
CONTINUOUS
 62
               7
  5
14D
 10
-90.874999999999886
 20
-143.75000000000034
 30
0.0
 40
1.9999999999999998
 50
184.99999978860623
 51
269.99999969147945
  0
ARC
  8
0
  6
CONTINUOUS
 62
               7
  5
14E
 10
-129.24999999999977
 20
-143.75000000000034
 30
0.0
 40
1.9999999999999998
 50
183.98888867865048
 51
269.99999969147945
  0
LINE
  8
0
  6
CONTINUOUS
 62
               7
  5
14F
 10
-138.37499999999989
 20
-141.50000000000006
 30
0.0
 11
-137.99999999999977
 21
-147.37500000000011
 31
0.0
  0
ARC
  8
0
  6
CONTINUOUS
 62
               7
  5
150
 10
-141.37499999999983
 20
-141.75000000000011
 30
0.0
 40
3.0
 50
3.977777773232495
 51
89.999999897159796
  0
LINE
  8
0
  6
CONTINUOUS
 62
               7
  5
151
 10
-136.49999999999989
 20
-148.75000000000034
 30
0.0
 11
-135.49999999999977
 21
-148.75000000000034
 31
0.0
  0
ARC
  8
0
  6
CONTINUOUS
 62
               7
  5
152
 10
-136.49999999999989
 20
-147.25000000000028
 30
0.0
 40
1.5
 50
183.9777775675521
 51
269.99999969147945
  0
LINE
  8
0
  6
CONTINUOUS
 62
               7
  5
153
 10
-153.99999999999989
 20
-277.00000000000023
 30
0.0
 11
-135.49999999999977
 21
-258.50000000000023
 31
0.0
  0
LINE
  8
0
  6
CONTINUOUS
 62
               7
  5
154
 10
-87.624999999999858
 20
-145.75000000000023
 30
0.0
 11
-42.499999999999794
 21
-151.37500000000023
 31
0.0
  0
LINE
  8
0
  6
CONTINUOUS
 62
               7
  5
155
 10
-37.499999999999794
 20
-152.00000000000023
 30
0.0
 11
-0.375
 21
-156.75000000000017
 31
0.0
  0
LINE
  8
0
  6
CONTINUOUS
 62
               7
  5
156
 10
-87.624999999999858
 20
-145.75000000000023
 30
0.0
 11
-87.624999999999858
 21
-143.75000000000034
 31
0.0
  0
LINE
  8
0
  6
CONTINUOUS
 62
               7
  5
157
 10
-124.49999999999984
 20
-151.75000000000011
 30
0.0
 11
-42.499999999999794
 21
-151.75000000000011
 31
0.0
  0
ARC
  8
0
  6
CONTINUOUS
 62
               7
  5
158
 10
-124.49999999999984
 20
-157.75000000000006
 30
0.0
 40
6.0
 50
89.999999897159796
 51
179.99999979431959
  0
LINE
  8
0
  6
CONTINUOUS
 62
               7
  5
159
 10
-120.9999999999999
 20
-145.75000000000023
 30
0.0
 11
-120.9999999999999
 21
-149.75000000000028
 31
0.0
  0
ARC
  8
0
  6
CONTINUOUS
 62
               7
  5
15A
 10
-122.9999999999998
 20
-149.75000000000028
 30
0.0
 40
1.9999999999999998
 50
275.0111107968645
 51
359.99999958863918
  0
LINE
  8
0
  6
CONTINUOUS
 62
               7
  5
15B
 10
-130.49999999999977
 20
-282.75000000000006
 30
0.0
 11
-130.49999999999977
 21
-157.75000000000006
 31
0.0
  0
LINE
  8
0
  6
CONTINUOUS
 62
               7
  5
15C
 10
-135.49999999999977
 20
-148.75000000000034
 30
0.0
 11
-135.49999999999977
 21
-271.75000000000011
 31
0.0
  0
ARC
  8
0
  6
CONTINUOUS
 62
               7
  5
15D
 10
-140.49999999999977
 20
-271.75000000000011
 30
0.0
 40
5.0
 50
269.99999969147945
 51
359.99999958863918
  0
LINE
  8
0
  6
CONTINUOUS
 62
               7
  5
15E
 10
140.5
 20
-276.75000000000011
 30
0.0
 11
152.99999999999994
 21
-276.75000000000011
 31
0.0
  0
ARC
  8
0
  6
CONTINUOUS
 62
               7
  5
15F
 10
152.99999999999994
 20
-278.75000000000034
 30
0.0
 40
1.9999999999999998
 50
0.0
 51
89.999999897159796
  0
LINE
  8
0
  6
CONTINUOUS
 62
               7
  5
160
 10
154.99999999999994
 20
-278.75000000000034
 30
0.0
 11
154.99999999999994
 21
-282.75000000000006
 31
0.0
  0
LINE
  8
0
  6
CONTINUOUS
 62
               7
  5
161
 10
141.375
 20
-138.75000000000034
 30
0.0
 11
150.0
 21
-138.75000000000034
 31
0.0
  0
ARC
  8
0
  6
CONTINUOUS
 62
               7
  5
162
 10
150.0
 20
-136.75000000000011
 30
0.0
 40
1.9999999999999998
 50
269.99999969147945
 51
359.99999958863918
  0
LINE
  8
0
  6
CONTINUOUS
 62
               7
  5
163
 10
152.0
 20
-136.75000000000011
 30
0.0
 11
152.0
 21
-132.75000000000006
 31
0.0
  0
LINE
  8
0
  6
CONTINUOUS
 62
               7
  5
164
 10
132.0
 20
-132.75000000000006
 30
0.0
 11
131.25
 21
-143.87500000000023
 31
0.0
  0
LINE
  8
0
  6
CONTINUOUS
 62
               7
  5
165
 10
129.875
 20
-133.75000000000034
 30
0.0
 11
129.25
 21
-143.87500000000023
 31
0.0
  0
ARC
  8
0
  6
CONTINUOUS
 62
               7
  5
166
 10
127.25000000000001
 20
-143.75000000000034
 30
0.0
 40
1.9999999999999998
 50
269.99999969147945
 51
356.0666662598004
  0
LINE
  8
0
  6
CONTINUOUS
 62
               7
  5
167
 10
0.0
 20
-133.75000000000034
 30
0.0
 11
130.0
 21
-133.75000000000034
 31
0.0
  0
LINE
  8
0
  6
CONTINUOUS
 62
               7
  5
168
 10
0.0
 20
-156.75000000000017
 30
0.0
 11
0.125
 21
-156.75000000000017
 31
0.0
  0
ARC
  8
0
  6
CONTINUOUS
 62
               7
  5
169
 10
0.125
 20
-154.75000000000028
 30
0.0
 40
1.9999999999999998
 50
269.99999969147945
 51
356.97777736987041
  0
LINE
  8
0
  6
CONTINUOUS
 62
               7
  5
16A
 10
2.125
 20
-154.87500000000011
 30
0.0
 11
2.75
 21
-141.62500000000028
 31
0.0
  0
ARC
  8
0
  6
CONTINUOUS
 62
               7
  5
16B
 10
5.75
 20
-141.75000000000011
 30
0.0
 40
3.0
 50
89.999999897159796
 51
176.98888868664918
  0
LINE
  8
0
  6
CONTINUOUS
 62
               7
  5
16C
 10
129.25
 20
-145.75000000000023
 30
0.0
 11
118.99999999999999
 21
-145.75000000000023
 31
0.0
  0
ARC
  8
0
  6
CONTINUOUS
 62
               7
  5
16D
 10
124.12500000000001
 20
-143.75000000000034
 30
0.0
 40
1.9999999999999998
 50
179.99999979431959
 51
269.99999969147945
  0
ARC
  8
0
  6
CONTINUOUS
 62
               7
  5
16E
 10
129.25
 20
-143.75000000000034
 30
0.0
 40
1.9999999999999998
 50
269.99999969147945
 51
356.01111070430829
  0
LINE
  8
0
  6
CONTINUOUS
 62
               7
  5
16F
 10
138.375
 20
-141.50000000000006
 30
0.0
 11
138.0
 21
-147.37500000000011
 31
0.0
  0
ARC
  8
0
  6
CONTINUOUS
 62
               7
  5
170
 10
141.375
 20
-141.75000000000011
 30
0.0
 40
3.0
 50
89.999999897159796
 51
176.02222202108712
  0
LINE
  8
0
  6
CONTINUOUS
 62
               7
  5
171
 10
136.5
 20
-148.75000000000034
 30
0.0
 11
135.5
 21
-148.75000000000034
 31
0.0
  0
ARC
  8
0
  6
CONTINUOUS
 62
               7
  5
172
 10
136.5
 20
-147.25000000000028
 30
0.0
 40
1.5
 50
269.99999969147945
 51
356.02222181540668
  0
LINE
  8
0
  6
CONTINUOUS
 62
               7
  5
173
 10
154.0
 20
-277.00000000000023
 30
0.0
 11
135.5
 21
-258.50000000000023
 31
0.0
  0
LINE
  8
0
  6
CONTINUOUS
 62
               7
  5
174
 10
124.49999999999999
 20
-151.75000000000011
 30
0.0
 11
54.250000000000014
 21
-151.75000000000011
 31
0.0
  0
ARC
  8
0
  6
CONTINUOUS
 62
               7
  5
175
 10
124.49999999999999
 20
-157.75000000000006
 30
0.0
 40
6.0
 50
0.0
 51
89.999999897159796
  0
LINE
  8
0
  6
CONTINUOUS
 62
               7
  5
176
 10
121.00000000000001
 20
-145.75000000000023
 30
0.0
 11
121.00000000000001
 21
-149.75000000000028
 31
0.0
  0
ARC
  8
0
  6
CONTINUOUS
 62
               7
  5
177
 10
123.00000000000001
 20
-149.75000000000028
 30
0.0
 40
1.9999999999999998
 50
179.99999979431959
 51
264.98888858609428
  0
LINE
  8
0
  6
CONTINUOUS
 62
               7
  5
178
 10
130.5
 20
-282.75000000000006
 30
0.0
 11
130.5
 21
-157.75000000000006
 31
0.0
  0
LINE
  8
0
  6
CONTINUOUS
 62
               7
  5
179
 10
135.5
 20
-148.75000000000034
 30
0.0
 11
135.5
 21
-271.75000000000011
 31
0.0
  0
ARC
  8
0
  6
CONTINUOUS
 62
               7
  5
17A
 10
140.5
 20
-271.75000000000011
 30
0.0
 40
5.0
 50
179.99999979431959
 51
269.99999969147945
  0
LINE
  8
0
  6
CONTINUOUS
 62
               7
  5
17B
 10
122.12499999999999
 20
-145.75000000000023
 30
0.0
 11
122.12499999999999
 21
-143.75000000000034
 31
0.0
  0
ARC
  8
0
  6
CONTINUOUS
 62
               7
  5
17C
 10
117.12499999999999
 20
-143.75000000000034
 30
0.0
 40
5.0
 50
0.0
 51
89.999999897159796
  0
LINE
  8
0
  6
CONTINUOUS
 62
               7
  5
17D
 10
118.99999999999999
 20
-145.75000000000023
 30
0.0
 11
0.25
 21
-156.75000000000017
 31
0.0
  0
LINE
  8
0
  6
CONTINUOUS
 62
               7
  5
17E
 10
-89.499999999999844
 20
-135.75000000000023
 30
0.0
 11
-70.749999999999858
 21
-135.75000000000023
 31
0.0
  0
LINE
  8
0
  6
CONTINUOUS
 62
               7
  5
17F
 10
-59.999999999999794
 20
-135.75000000000023
 30
0.0
 11
0.0
 21
-135.75000000000023
 31
0.0
  0
LINE
  8
0
  6
CONTINUOUS
 62
               7
  5
180
 10
-90.999999999999901
 20
-133.75000000000034
 30
0.0
 11
-89.499999999999844
 21
-135.75000000000023
 31
0.0
  0
LINE
  8
0
  6
CONTINUOUS
 62
               7
  5
181
 10
-70.749999999999858
 20
-135.75000000000023
 30
0.0
 11
-69.249999999999801
 21
-133.75000000000034
 31
0.0
  0
LINE
  8
0
  6
CONTINUOUS
 62
               7
  5
182
 10
-61.499999999999901
 20
-133.75000000000034
 30
0.0
 11
-59.999999999999794
 21
-135.75000000000023
 31
0.0
  0
LINE
  8
0
  6
CONTINUOUS
 62
               7
  5
183
 10
89.499999999999986
 20
-135.75000000000023
 30
0.0
 11
70.749999999999986
 21
-135.75000000000023
 31
0.0
  0
LINE
  8
0
  6
CONTINUOUS
 62
               7
  5
184
 10
60.0
 20
-135.75000000000023
 30
0.0
 11
0.0
 21
-135.75000000000023
 31
0.0
  0
LINE
  8
0
  6
CONTINUOUS
 62
               7
  5
185
 10
91.000000000000014
 20
-133.75000000000034
 30
0.0
 11
89.499999999999986
 21
-135.75000000000023
 31
0.0
  0
LINE
  8
0
  6
CONTINUOUS
 62
               7
  5
186
 10
70.749999999999986
 20
-135.75000000000023
 30
0.0
 11
69.250000000000014
 21
-133.75000000000034
 31
0.0
  0
LINE
  8
0
  6
CONTINUOUS
 62
               7
  5
187
 10
61.5
 20
-133.75000000000034
 30
0.0
 11
60.0
 21
-135.75000000000023
 31
0.0
  0
LINE
  8
0
  6
CONTINUOUS
 62
               7
  5
188
 10
97.500000000000014
 20
-135.75000000000023
 30
0.0
 11
116.12500000000001
 21
-135.75000000000023
 31
0.0
  0
LINE
  8
0
  6
CONTINUOUS
 62
               7
  5
189
 10
96.000000000000014
 20
-133.75000000000034
 30
0.0
 11
97.500000000000014
 21
-135.75000000000023
 31
0.0
  0
LINE
  8
0
  6
CONTINUOUS
 62
               7
  5
18A
 10
116.12500000000001
 20
-135.75000000000023
 30
0.0
 11
117.62499999999999
 21
-133.75000000000034
 31
0.0
  0
ARC
  8
0
  6
CONTINUOUS
 62
               7
  5
18B
 10
50.0
 20
-225.7500000000002
 30
0.0
 40
2.5
 50
0.0
 51
179.99999979431959
  0
LINE
  8
0
  6
CONTINUOUS
 62
               7
  5
18C
 10
47.5
 20
-225.7500000000002
 30
0.0
 11
47.5
 21
-262.75000000000006
 31
0.0
  0
LINE
  8
0
  6
CONTINUOUS
 62
               7
  5
18D
 10
52.5
 20
-262.75000000000006
 30
0.0
 11
52.5
 21
-225.7500000000002
 31
0.0
  0
ARC
  8
0
  6
CONTINUOUS
 62
               7
  5
18E
 10
50.0
 20
-262.75000000000006
 30
0.0
 40
2.5
 50
179.99999979431959
 51
359.99999958863918
  0
ARC
  8
0
  6
CONTINUOUS
 62
               7
  5
18F
 10
50.0
 20
-263.75000000000034
 30
0.0
 40
3.5
 50
135.69999984493984
 51
179.99999979431959
  0
ARC
  8
0
  6
CONTINUOUS
 62
               7
  5
190
 10
50.0
 20
-263.75000000000034
 30
0.0
 40
3.5
 50
0.0
 51
44.299999949379767
  0
ARC
  8
0
  6
CONTINUOUS
 62
               7
  5
191
 10
50.0
 20
-263.75000000000034
 30
0.0
 40
8.5
 50
0.0
 51
72.888888805601027
  0
ARC
  8
0
  6
CONTINUOUS
 62
               7
  5
192
 10
50.0
 20
-263.75000000000034
 30
0.0
 40
8.5
 50
107.11111098871862
 51
179.99999979431959
  0
LINE
  8
0
  6
CONTINUOUS
 62
               7
  5
193
 10
41.5
 20
-277.75000000000006
 30
0.0
 11
41.5
 21
-263.75000000000034
 31
0.0
  0
LINE
  8
0
  6
CONTINUOUS
 62
               7
  5
194
 10
58.500000000000014
 20
-263.75000000000034
 30
0.0
 11
58.500000000000014
 21
-277.75000000000006
 31
0.0
  0
LINE
  8
0
  6
CONTINUOUS
 62
               7
  5
195
 10
46.5
 20
-263.75000000000034
 30
0.0
 11
46.5
 21
-277.75000000000006
 31
0.0
  0
LINE
  8
0
  6
CONTINUOUS
 62
               7
  5
196
 10
53.500000000000014
 20
-263.75000000000034
 30
0.0
 11
53.500000000000014
 21
-277.75000000000006
 31
0.0
  0
ARC
  8
0
  6
CONTINUOUS
 62
               7
  5
197
 10
-39.999999999999794
 20
-143.25000000000023
 30
0.0
 40
2.5
 50
0.0
 51
179.99999979431959
  0
LINE
  8
0
  6
CONTINUOUS
 62
               7
  5
198
 10
-42.499999999999794
 20
-143.25000000000023
 30
0.0
 11
-42.499999999999794
 21
-180.25000000000009
 31
0.0
  0
LINE
  8
0
  6
CONTINUOUS
 62
               7
  5
199
 10
-37.499999999999794
 20
-180.25000000000009
 30
0.0
 11
-37.499999999999794
 21
-143.25000000000023
 31
0.0
  0
ARC
  8
0
  6
CONTINUOUS
 62
               7
  5
19A
 10
-39.999999999999794
 20
-180.25000000000009
 30
0.0
 40
2.5
 50
179.99999979431959
 51
359.99999958863918
  0
ARC
  8
0
  6
CONTINUOUS
 62
               7
  5
19B
 10
-39.999999999999794
 20
-181.25000000000034
 30
0.0
 40
3.5
 50
135.69999984493984
 51
179.99999979431959
  0
ARC
  8
0
  6
CONTINUOUS
 62
               7
  5
19C
 10
-39.999999999999794
 20
-181.25000000000034
 30
0.0
 40
3.5
 50
0.0
 51
44.299999949379767
  0
ARC
  8
0
  6
CONTINUOUS
 62
               7
  5
19D
 10
-39.999999999999794
 20
-181.25000000000034
 30
0.0
 40
8.5
 50
0.0
 51
72.888888805601027
  0
ARC
  8
0
  6
CONTINUOUS
 62
               7
  5
19E
 10
-39.999999999999794
 20
-181.25000000000034
 30
0.0
 40
8.5
 50
107.11111098871862
 51
179.99999979431959
  0
ARC
  8
0
  6
CONTINUOUS
 62
               7
  5
19F
 10
-39.999999999999794
 20
-206.25000000000031
 30
0.0
 40
3.5
 50
179.99999979431959
 51
224.42222196578194
  0
ARC
  8
0
  6
CONTINUOUS
 62
               7
  5
1A0
 10
-39.999999999999794
 20
-206.25000000000031
 30
0.0
 40
3.5
 50
315.57777741717689
 51
359.99999958863918
  0
ARC
  8
0
  6
CONTINUOUS
 62
               7
  5
1A1
 10
-39.999999999999794
 20
-206.25000000000031
 30
0.0
 40
8.5
 50
179.99999979431959
 51
252.89999971101901
  0
ARC
  8
0
  6
CONTINUOUS
 62
               7
  5
1A2
 10
-39.999999999999794
 20
-206.25000000000031
 30
0.0
 40
8.5
 50
287.09999967193983
 51
359.99999958863918
  0
LINE
  8
0
  6
CONTINUOUS
 62
               7
  5
1A3
 10
-48.499999999999901
 20
-206.25000000000031
 30
0.0
 11
-48.499999999999901
 21
-181.25000000000034
 31
0.0
  0
LINE
  8
0
  6
CONTINUOUS
 62
               7
  5
1A4
 10
-31.499999999999897
 20
-181.25000000000034
 30
0.0
 11
-31.499999999999897
 21
-206.25000000000031
 31
0.0
  0
LINE
  8
0
  6
CONTINUOUS
 62
               7
  5
1A5
 10
-43.499999999999901
 20
-181.25000000000034
 30
0.0
 11
-43.499999999999901
 21
-206.25000000000031
 31
0.0
  0
LINE
  8
0
  6
CONTINUOUS
 62
               7
  5
1A6
 10
-36.499999999999901
 20
-181.25000000000034
 30
0.0
 11
-36.499999999999901
 21
-206.25000000000031
 31
0.0
  0
LINE
  8
0
  6
CONTINUOUS
 62
               7
  5
1A7
 10
55.749999999999986
 20
-197.75000000000006
 30
0.0
 11
52.875000000000014
 21
-192.75000000000009
 31
0.0
  0
LINE
  8
0
  6
CONTINUOUS
 62
               7
  5
1A8
 10
52.875000000000014
 20
-192.75000000000009
 30
0.0
 11
52.5
 21
-192.75000000000009
 31
0.0
  0
LINE
  8
0
  6
CONTINUOUS
 62
               7
  5
1A9
 10
47.5
 20
-192.75000000000009
 30
0.0
 11
47.125
 21
-192.75000000000009
 31
0.0
  0
LINE
  8
0
  6
CONTINUOUS
 62
               7
  5
1AA
 10
47.125
 20
-192.75000000000009
 30
0.0
 11
44.250000000000014
 21
-197.75000000000006
 31
0.0
  0
LINE
  8
0
  6
CONTINUOUS
 62
               7
  5
1AB
 10
44.250000000000014
 20
-197.75000000000006
 30
0.0
 11
46.750000000000014
 21
-202.0000000000002
 31
0.0
  0
LINE
  8
0
  6
CONTINUOUS
 62
               7
  5
1AC
 10
53.249999999999986
 20
-202.0000000000002
 30
0.0
 11
55.749999999999986
 21
-197.75000000000006
 31
0.0
  0
ARC
  8
0
  6
CONTINUOUS
 62
               7
  5
1AD
 10
50.0
 20
-197.75000000000006
 30
0.0
 40
4.875
 50
120.61111097329253
 51
239.38888861534662
  0
ARC
  8
0
  6
CONTINUOUS
 62
               7
  5
1AE
 10
50.0
 20
-197.75000000000006
 30
0.0
 40
4.875
 50
300.61111076761216
 51
419.38888882102623
  0
LINE
  8
0
  6
CONTINUOUS
 62
               7
  5
1AF
 10
47.5
 20
-208.2500000000002
 30
0.0
 11
47.5
 21
-187.25000000000028
 31
0.0
  0
LINE
  8
0
  6
CONTINUOUS
 62
               7
  5
1B0
 10
52.5
 20
-187.25000000000028
 30
0.0
 11
52.5
 21
-208.2500000000002
 31
0.0
  0
ARC
  8
0
  6
CONTINUOUS
 62
               7
  5
1B1
 10
50.0
 20
-187.25000000000028
 30
0.0
 40
2.5
 50
0.0
 51
179.99999979431959
  0
ARC
  8
0
  6
CONTINUOUS
 62
               7
  5
1B2
 10
50.0
 20
-208.2500000000002
 30
0.0
 40
2.5
 50
179.99999979431959
 51
359.99999958863918
  0
ARC
  8
0
  6
CONTINUOUS
 62
               7
  5
1B3
 10
50.0
 20
-217.75000000000006
 30
0.0
 40
12.0
 50
102.2666665498097
 51
257.96666637189622
  0
ARC
  8
0
  6
CONTINUOUS
 62
               7
  5
1B4
 10
50.0
 20
-217.75000000000006
 30
0.0
 40
12.0
 50
282.03333301106261
 51
437.96666657757572
  0
ARC
  8
0
  6
CONTINUOUS
 62
               7
  5
1B5
 10
50.0
 20
-217.75000000000006
 30
0.0
 40
15.999999999999998
 50
98.988888775777369
 51
261.01111081286189
  0
ARC
  8
0
  6
CONTINUOUS
 62
               7
  5
1B6
 10
50.0
 20
-217.75000000000006
 30
0.0
 40
15.999999999999998
 50
278.98888857009695
 51
441.01111101854144
  0
ARC
  8
0
  6
CONTINUOUS
 62
               7
  5
1B7
 10
-39.999999999999794
 20
-141.75000000000011
 30
0.0
 40
3.9999999999999996
 50
183.57777756800914
 51
231.34444418009431
  0
ARC
  8
0
  6
CONTINUOUS
 62
               7
  5
1B8
 10
-39.999999999999794
 20
-141.75000000000011
 30
0.0
 40
3.9999999999999996
 50
308.65555520286449
 51
359.99999958863918
  0
LINE
  8
0
  6
CONTINUOUS
 62
               7
  5
1B9
 10
-44.249999999999801
 20
-138.75000000000034
 30
0.0
 11
-43.999999999999901
 21
-142.00000000000023
 31
0.0
  0
LINE
  8
0
  6
CONTINUOUS
 62
               7
  5
1BA
 10
-35.749999999999851
 20
-138.75000000000034
 30
0.0
 11
-35.999999999999901
 21
-142.00000000000023
 31
0.0
  0
ARC
  8
0
  6
CONTINUOUS
 62
               7
  5
1BB
 10
-39.999999999999794
 20
-207.25000000000026
 30
0.0
 40
2.5
 50
0.0
 51
179.99999979431959
  0
LINE
  8
0
  6
CONTINUOUS
 62
               7
  5
1BC
 10
-42.499999999999794
 20
-207.25000000000026
 30
0.0
 11
-42.499999999999794
 21
-244.25000000000011
 31
0.0
  0
LINE
  8
0
  6
CONTINUOUS
 62
               7
  5
1BD
 10
-37.499999999999794
 20
-244.25000000000011
 30
0.0
 11
-37.499999999999794
 21
-207.25000000000026
 31
0.0
  0
ARC
  8
0
  6
CONTINUOUS
 62
               7
  5
1BE
 10
-39.999999999999794
 20
-244.25000000000011
 30
0.0
 40
2.5
 50
179.99999979431959
 51
359.99999958863918
  0
LINE
  8
0
  6
CONTINUOUS
 62
               7
  5
1BF
 10
-113.4999999999999
 20
207.99999999999994
 30
0.0
 11
113.50000000000001
 21
207.99999999999994
 31
0.0
  0
ARC
  8
0
  6
CONTINUOUS
 62
               7
  5
1C0
 10
113.50000000000001
 20
169.49999999999994
 30
0.0
 40
38.5
 50
0.0
 51
89.999999897159796
  0
ARC
  8
0
  6
CONTINUOUS
 62
               7
  5
1C1
 10
-113.4999999999999
 20
169.49999999999994
 30
0.0
 40
38.5
 50
89.999999897159796
 51
179.99999979431959
  0
LINE
  8
0
  6
CONTINUOUS
 62
               7
  5
1C2
 10
152.0
 20
169.49999999999994
 30
0.0
 11
152.0
 21
30.499999999999943
 31
0.0
  0
ARC
  8
0
  6
CONTINUOUS
 62
               7
  5
1C3
 10
113.50000000000001
 20
30.499999999999943
 30
0.0
 40
38.5
 50
269.99999969147945
 51
359.99999958863918
  0
LINE
  8
0
  6
CONTINUOUS
 62
               7
  5
1C4
 10
113.50000000000001
 20
-8.0000000000000568
 30
0.0
 11
-113.4999999999999
 21
-8.0000000000000568
 31
0.0
  0
ARC
  8
0
  6
CONTINUOUS
 62
               7
  5
1C5
 10
-113.4999999999999
 20
30.499999999999943
 30
0.0
 40
38.5
 50
179.99999979431959
 51
269.99999969147945
  0
LINE
  8
0
  6
CONTINUOUS
 62
               7
  5
1C6
 10
-151.99999999999983
 20
30.499999999999943
 30
0.0
 11
-151.99999999999983
 21
169.49999999999994
 31
0.0
  0
LINE
  8
0
  6
CONTINUOUS
 62
               7
  5
1C7
 10
-129.99999999999977
 20
21.999999999999943
 30
0.0
 11
-129.99999999999977
 21
177.99999999999994
 31
0.0
  0
LINE
  8
0
  6
CONTINUOUS
 62
               7
  5
1C8
 10
-121.99999999999984
 20
185.99999999999994
 30
0.0
 11
121.99999999999999
 21
185.99999999999994
 31
0.0
  0
ARC
  8
0
  6
CONTINUOUS
 62
               7
  5
1C9
 10
121.99999999999999
 20
177.99999999999994
 30
0.0
 40
7.9999999999999991
 50
0.0
 51
89.999999897159796
  0
ARC
  8
0
  6
CONTINUOUS
 62
               7
  5
1CA
 10
-121.99999999999984
 20
177.99999999999994
 30
0.0
 40
7.9999999999999991
 50
89.999999897159796
 51
179.99999979431959
  0
LINE
  8
0
  6
CONTINUOUS
 62
               7
  5
1CB
 10
130.0
 20
177.99999999999994
 30
0.0
 11
130.0
 21
21.999999999999943
 31
0.0
  0
ARC
  8
0
  6
CONTINUOUS
 62
               7
  5
1CC
 10
121.99999999999999
 20
21.999999999999943
 30
0.0
 40
7.9999999999999991
 50
269.99999969147945
 51
359.99999958863918
  0
LINE
  8
0
  6
CONTINUOUS
 62
               7
  5
1CD
 10
121.99999999999999
 20
14.0
 30
0.0
 11
-121.99999999999984
 21
14.0
 31
0.0
  0
ARC
  8
0
  6
CONTINUOUS
 62
               7
  5
1CE
 10
-121.99999999999984
 20
21.999999999999943
 30
0.0
 40
7.9999999999999991
 50
179.99999979431959
 51
269.99999969147945
  0
CIRCLE
  8
0
  6
CONTINUOUS
 62
               7
  5
1CF
 10
-102.74999999999989
 20
100.0
 30
0.0
 40
9.0
  0
LINE
  8
0
  6
CONTINUOUS
 62
               7
  5
1D0
 10
-59.999999999999794
 20
122.5
 30
0.0
 11
60.0
 21
122.5
 31
0.0
  0
LINE
  8
0
  6
CONTINUOUS
 62
               7
  5
1D1
 10
60.0
 20
122.5
 30
0.0
 11
60.0
 21
77.5
 31
0.0
  0
LINE
  8
0
  6
CONTINUOUS
 62
               7
  5
1D2
 10
60.0
 20
77.5
 30
0.0
 11
-59.999999999999794
 21
77.5
 31
0.0
  0
LINE
  8
0
  6
CONTINUOUS
 62
               7
  5
1D3
 10
-59.999999999999794
 20
77.5
 30
0.0
 11
-59.999999999999794
 21
122.5
 31
0.0
  0
LINE
  8
0
  6
CONTINUOUS
 62
               7
  5
1D4
 10
-10.874999999999901
 20
147.5
 30
0.0
 11
10.875
 21
147.5
 31
0.0
  0
LINE
  8
0
  6
CONTINUOUS
 62
               7
  5
1D5
 10
10.875
 20
147.5
 30
0.0
 11
10.875
 21
127.5
 31
0.0
  0
LINE
  8
0
  6
CONTINUOUS
 62
               7
  5
1D6
 10
10.875
 20
127.5
 30
0.0
 11
-10.874999999999901
 21
127.5
 31
0.0
  0
LINE
  8
0
  6
CONTINUOUS
 62
               7
  5
1D7
 10
-10.874999999999901
 20
127.5
 30
0.0
 11
-10.874999999999901
 21
147.5
 31
0.0
  0
LINE
  8
0
  6
CONTINUOUS
 62
               7
  5
1D8
 10
-10.874999999999901
 20
152.5
 30
0.0
 11
10.875
 21
152.5
 31
0.0
  0
LINE
  8
0
  6
CONTINUOUS
 62
               7
  5
1D9
 10
10.875
 20
152.5
 30
0.0
 11
10.875
 21
172.5
 31
0.0
  0
LINE
  8
0
  6
CONTINUOUS
 62
               7
  5
1DA
 10
10.875
 20
172.5
 30
0.0
 11
-10.874999999999901
 21
172.5
 31
0.0
  0
LINE
  8
0
  6
CONTINUOUS
 62
               7
  5
1DB
 10
-10.874999999999901
 20
172.5
 30
0.0
 11
-10.874999999999901
 21
152.5
 31
0.0
  0
LINE
  8
0
  6
CONTINUOUS
 62
               7
  5
1DC
 10
37.5
 20
147.5
 30
0.0
 11
15.875
 21
147.5
 31
0.0
  0
LINE
  8
0
  6
CONTINUOUS
 62
               7
  5
1DD
 10
15.875
 20
147.5
 30
0.0
 11
15.875
 21
127.5
 31
0.0
  0
LINE
  8
0
  6
CONTINUOUS
 62
               7
  5
1DE
 10
15.875
 20
127.5
 30
0.0
 11
37.5
 21
127.5
 31
0.0
  0
LINE
  8
0
  6
CONTINUOUS
 62
               7
  5
1DF
 10
37.5
 20
127.5
 30
0.0
 11
37.5
 21
147.5
 31
0.0
  0
LINE
  8
0
  6
CONTINUOUS
 62
               7
  5
1E0
 10
37.5
 20
152.5
 30
0.0
 11
15.875
 21
152.5
 31
0.0
  0
LINE
  8
0
  6
CONTINUOUS
 62
               7
  5
1E1
 10
15.875
 20
152.5
 30
0.0
 11
15.875
 21
172.5
 31
0.0
  0
LINE
  8
0
  6
CONTINUOUS
 62
               7
  5
1E2
 10
15.875
 20
172.5
 30
0.0
 11
37.5
 21
172.5
 31
0.0
  0
LINE
  8
0
  6
CONTINUOUS
 62
               7
  5
1E3
 10
37.5
 20
172.5
 30
0.0
 11
37.5
 21
152.5
 31
0.0
  0
LINE
  8
0
  6
CONTINUOUS
 62
               7
  5
1E4
 10
-15.874999999999897
 20
147.5
 30
0.0
 11
-37.499999999999794
 21
147.5
 31
0.0
  0
LINE
  8
0
  6
CONTINUOUS
 62
               7
  5
1E5
 10
-37.499999999999794
 20
147.5
 30
0.0
 11
-37.499999999999794
 21
127.5
 31
0.0
  0
LINE
  8
0
  6
CONTINUOUS
 62
               7
  5
1E6
 10
-37.499999999999794
 20
127.5
 30
0.0
 11
-15.874999999999897
 21
127.5
 31
0.0
  0
LINE
  8
0
  6
CONTINUOUS
 62
               7
  5
1E7
 10
-15.874999999999897
 20
127.5
 30
0.0
 11
-15.874999999999897
 21
147.5
 31
0.0
  0
LINE
  8
0
  6
CONTINUOUS
 62
               7
  5
1E8
 10
-15.874999999999897
 20
152.5
 30
0.0
 11
-37.499999999999794
 21
152.5
 31
0.0
  0
LINE
  8
0
  6
CONTINUOUS
 62
               7
  5
1E9
 10
-37.499999999999794
 20
152.5
 30
0.0
 11
-37.499999999999794
 21
172.5
 31
0.0
  0
LINE
  8
0
  6
CONTINUOUS
 62
               7
  5
1EA
 10
-37.499999999999794
 20
172.5
 30
0.0
 11
-15.874999999999897
 21
172.5
 31
0.0
  0
LINE
  8
0
  6
CONTINUOUS
 62
               7
  5
1EB
 10
-15.874999999999897
 20
172.5
 30
0.0
 11
-15.874999999999897
 21
152.5
 31
0.0
  0
LINE
  8
0
  6
CONTINUOUS
 62
               7
  5
1EC
 10
-64.249999999999801
 20
147.5
 30
0.0
 11
-42.499999999999794
 21
147.5
 31
0.0
  0
LINE
  8
0
  6
CONTINUOUS
 62
               7
  5
1ED
 10
-42.499999999999794
 20
147.5
 30
0.0
 11
-42.499999999999794
 21
127.5
 31
0.0
  0
LINE
  8
0
  6
CONTINUOUS
 62
               7
  5
1EE
 10
-42.499999999999794
 20
127.5
 30
0.0
 11
-64.249999999999801
 21
127.5
 31
0.0
  0
LINE
  8
0
  6
CONTINUOUS
 62
               7
  5
1EF
 10
-64.249999999999801
 20
127.5
 30
0.0
 11
-64.249999999999801
 21
147.5
 31
0.0
  0
LINE
  8
0
  6
CONTINUOUS
 62
               7
  5
1F0
 10
-64.249999999999801
 20
152.5
 30
0.0
 11
-42.499999999999794
 21
152.5
 31
0.0
  0
LINE
  8
0
  6
CONTINUOUS
 62
               7
  5
1F1
 10
-42.499999999999794
 20
152.5
 30
0.0
 11
-42.499999999999794
 21
172.5
 31
0.0
  0
LINE
  8
0
  6
CONTINUOUS
 62
               7
  5
1F2
 10
-42.499999999999794
 20
172.5
 30
0.0
 11
-64.249999999999801
 21
172.5
 31
0.0
  0
LINE
  8
0
  6
CONTINUOUS
 62
               7
  5
1F3
 10
-64.249999999999801
 20
172.5
 30
0.0
 11
-64.249999999999801
 21
152.5
 31
0.0
  0
LINE
  8
0
  6
CONTINUOUS
 62
               7
  5
1F4
 10
64.250000000000014
 20
147.5
 30
0.0
 11
42.5
 21
147.5
 31
0.0
  0
LINE
  8
0
  6
CONTINUOUS
 62
               7
  5
1F5
 10
42.5
 20
147.5
 30
0.0
 11
42.5
 21
127.5
 31
0.0
  0
LINE
  8
0
  6
CONTINUOUS
 62
               7
  5
1F6
 10
42.5
 20
127.5
 30
0.0
 11
64.250000000000014
 21
127.5
 31
0.0
  0
LINE
  8
0
  6
CONTINUOUS
 62
               7
  5
1F7
 10
64.250000000000014
 20
127.5
 30
0.0
 11
64.250000000000014
 21
147.5
 31
0.0
  0
LINE
  8
0
  6
CONTINUOUS
 62
               7
  5
1F8
 10
64.250000000000014
 20
152.5
 30
0.0
 11
42.5
 21
152.5
 31
0.0
  0
LINE
  8
0
  6
CONTINUOUS
 62
               7
  5
1F9
 10
42.5
 20
152.5
 30
0.0
 11
42.5
 21
172.5
 31
0.0
  0
LINE
  8
0
  6
CONTINUOUS
 62
               7
  5
1FA
 10
42.5
 20
172.5
 30
0.0
 11
64.250000000000014
 21
172.5
 31
0.0
  0
LINE
  8
0
  6
CONTINUOUS
 62
               7
  5
1FB
 10
64.250000000000014
 20
172.5
 30
0.0
 11
64.250000000000014
 21
152.5
 31
0.0
  0
LINE
  8
0
  6
CONTINUOUS
 62
               7
  5
1FC
 10
-10.874999999999901
 20
52.5
 30
0.0
 11
10.875
 21
52.5
 31
0.0
  0
LINE
  8
0
  6
CONTINUOUS
 62
               7
  5
1FD
 10
10.875
 20
52.5
 30
0.0
 11
10.875
 21
72.5
 31
0.0
  0
LINE
  8
0
  6
CONTINUOUS
 62
               7
  5
1FE
 10
10.875
 20
72.5
 30
0.0
 11
-10.874999999999901
 21
72.5
 31
0.0
  0
LINE
  8
0
  6
CONTINUOUS
 62
               7
  5
1FF
 10
-10.874999999999901
 20
72.5
 30
0.0
 11
-10.874999999999901
 21
52.5
 31
0.0
  0
LINE
  8
0
  6
CONTINUOUS
 62
               7
  5
200
 10
-10.874999999999901
 20
47.5
 30
0.0
 11
10.875
 21
47.5
 31
0.0
  0
LINE
  8
0
  6
CONTINUOUS
 62
               7
  5
201
 10
10.875
 20
47.5
 30
0.0
 11
10.875
 21
27.5
 31
0.0
  0
LINE
  8
0
  6
CONTINUOUS
 62
               7
  5
202
 10
10.875
 20
27.5
 30
0.0
 11
-10.874999999999901
 21
27.5
 31
0.0
  0
LINE
  8
0
  6
CONTINUOUS
 62
               7
  5
203
 10
-10.874999999999901
 20
27.5
 30
0.0
 11
-10.874999999999901
 21
47.5
 31
0.0
  0
LINE
  8
0
  6
CONTINUOUS
 62
               7
  5
204
 10
37.5
 20
52.5
 30
0.0
 11
15.875
 21
52.5
 31
0.0
  0
LINE
  8
0
  6
CONTINUOUS
 62
               7
  5
205
 10
15.875
 20
52.5
 30
0.0
 11
15.875
 21
72.5
 31
0.0
  0
LINE
  8
0
  6
CONTINUOUS
 62
               7
  5
206
 10
15.875
 20
72.5
 30
0.0
 11
37.5
 21
72.5
 31
0.0
  0
LINE
  8
0
  6
CONTINUOUS
 62
               7
  5
207
 10
37.5
 20
72.5
 30
0.0
 11
37.5
 21
52.5
 31
0.0
  0
LINE
  8
0
  6
CONTINUOUS
 62
               7
  5
208
 10
37.5
 20
47.5
 30
0.0
 11
15.875
 21
47.5
 31
0.0
  0
LINE
  8
0
  6
CONTINUOUS
 62
               7
  5
209
 10
15.875
 20
47.5
 30
0.0
 11
15.875
 21
27.5
 31
0.0
  0
LINE
  8
0
  6
CONTINUOUS
 62
               7
  5
20A
 10
15.875
 20
27.5
 30
0.0
 11
37.5
 21
27.5
 31
0.0
  0
LINE
  8
0
  6
CONTINUOUS
 62
               7
  5
20B
 10
37.5
 20
27.5
 30
0.0
 11
37.5
 21
47.5
 31
0.0
  0
LINE
  8
0
  6
CONTINUOUS
 62
               7
  5
20C
 10
-15.874999999999897
 20
52.5
 30
0.0
 11
-37.499999999999794
 21
52.5
 31
0.0
  0
LINE
  8
0
  6
CONTINUOUS
 62
               7
  5
20D
 10
-37.499999999999794
 20
52.5
 30
0.0
 11
-37.499999999999794
 21
72.5
 31
0.0
  0
LINE
  8
0
  6
CONTINUOUS
 62
               7
  5
20E
 10
-37.499999999999794
 20
72.5
 30
0.0
 11
-15.874999999999897
 21
72.5
 31
0.0
  0
LINE
  8
0
  6
CONTINUOUS
 62
               7
  5
20F
 10
-15.874999999999897
 20
72.5
 30
0.0
 11
-15.874999999999897
 21
52.5
 31
0.0
  0
LINE
  8
0
  6
CONTINUOUS
 62
               7
  5
210
 10
-15.874999999999897
 20
47.5
 30
0.0
 11
-37.499999999999794
 21
47.5
 31
0.0
  0
LINE
  8
0
  6
CONTINUOUS
 62
               7
  5
211
 10
-37.499999999999794
 20
47.5
 30
0.0
 11
-37.499999999999794
 21
27.5
 31
0.0
  0
LINE
  8
0
  6
CONTINUOUS
 62
               7
  5
212
 10
-37.499999999999794
 20
27.5
 30
0.0
 11
-15.874999999999897
 21
27.5
 31
0.0
  0
LINE
  8
0
  6
CONTINUOUS
 62
               7
  5
213
 10
-15.874999999999897
 20
27.5
 30
0.0
 11
-15.874999999999897
 21
47.5
 31
0.0
  0
LINE
  8
0
  6
CONTINUOUS
 62
               7
  5
214
 10
-64.249999999999801
 20
52.5
 30
0.0
 11
-42.499999999999794
 21
52.5
 31
0.0
  0
LINE
  8
0
  6
CONTINUOUS
 62
               7
  5
215
 10
-42.499999999999794
 20
52.5
 30
0.0
 11
-42.499999999999794
 21
72.5
 31
0.0
  0
LINE
  8
0
  6
CONTINUOUS
 62
               7
  5
216
 10
-42.499999999999794
 20
72.5
 30
0.0
 11
-64.249999999999801
 21
72.5
 31
0.0
  0
LINE
  8
0
  6
CONTINUOUS
 62
               7
  5
217
 10
-64.249999999999801
 20
72.5
 30
0.0
 11
-64.249999999999801
 21
52.5
 31
0.0
  0
LINE
  8
0
  6
CONTINUOUS
 62
               7
  5
218
 10
-64.249999999999801
 20
47.5
 30
0.0
 11
-42.499999999999794
 21
47.5
 31
0.0
  0
LINE
  8
0
  6
CONTINUOUS
 62
               7
  5
219
 10
-42.499999999999794
 20
47.5
 30
0.0
 11
-42.499999999999794
 21
27.5
 31
0.0
  0
LINE
  8
0
  6
CONTINUOUS
 62
               7
  5
21A
 10
-42.499999999999794
 20
27.5
 30
0.0
 11
-64.249999999999801
 21
27.5
 31
0.0
  0
LINE
  8
0
  6
CONTINUOUS
 62
               7
  5
21B
 10
-64.249999999999801
 20
27.5
 30
0.0
 11
-64.249999999999801
 21
47.5
 31
0.0
  0
LINE
  8
0
  6
CONTINUOUS
 62
               7
  5
21C
 10
64.250000000000014
 20
52.5
 30
0.0
 11
42.5
 21
52.5
 31
0.0
  0
LINE
  8
0
  6
CONTINUOUS
 62
               7
  5
21D
 10
42.5
 20
52.5
 30
0.0
 11
42.5
 21
72.5
 31
0.0
  0
LINE
  8
0
  6
CONTINUOUS
 62
               7
  5
21E
 10
42.5
 20
72.5
 30
0.0
 11
64.250000000000014
 21
72.5
 31
0.0
  0
LINE
  8
0
  6
CONTINUOUS
 62
               7
  5
21F
 10
64.250000000000014
 20
72.5
 30
0.0
 11
64.250000000000014
 21
52.5
 31
0.0
  0
LINE
  8
0
  6
CONTINUOUS
 62
               7
  5
220
 10
64.250000000000014
 20
47.5
 30
0.0
 11
42.5
 21
47.5
 31
0.0
  0
LINE
  8
0
  6
CONTINUOUS
 62
               7
  5
221
 10
42.5
 20
47.5
 30
0.0
 11
42.5
 21
27.5
 31
0.0
  0
LINE
  8
0
  6
CONTINUOUS
 62
               7
  5
222
 10
42.5
 20
27.5
 30
0.0
 11
64.250000000000014
 21
27.5
 31
0.0
  0
LINE
  8
0
  6
CONTINUOUS
 62
               7
  5
223
 10
64.250000000000014
 20
27.5
 30
0.0
 11
64.250000000000014
 21
47.5
 31
0.0
  0
LINE
  8
0
  6
CONTINUOUS
 62
               7
  5
224
 10
91.000000000000014
 20
147.5
 30
0.0
 11
69.250000000000014
 21
147.5
 31
0.0
  0
LINE
  8
0
  6
CONTINUOUS
 62
               7
  5
225
 10
69.250000000000014
 20
147.5
 30
0.0
 11
69.250000000000014
 21
127.5
 31
0.0
  0
LINE
  8
0
  6
CONTINUOUS
 62
               7
  5
226
 10
69.250000000000014
 20
127.5
 30
0.0
 11
91.000000000000014
 21
127.5
 31
0.0
  0
LINE
  8
0
  6
CONTINUOUS
 62
               7
  5
227
 10
91.000000000000014
 20
127.5
 30
0.0
 11
91.000000000000014
 21
147.5
 31
0.0
  0
LINE
  8
0
  6
CONTINUOUS
 62
               7
  5
228
 10
91.000000000000014
 20
152.5
 30
0.0
 11
69.250000000000014
 21
152.5
 31
0.0
  0
LINE
  8
0
  6
CONTINUOUS
 62
               7
  5
229
 10
69.250000000000014
 20
152.5
 30
0.0
 11
69.250000000000014
 21
172.5
 31
0.0
  0
LINE
  8
0
  6
CONTINUOUS
 62
               7
  5
22A
 10
69.250000000000014
 20
172.5
 30
0.0
 11
91.000000000000014
 21
172.5
 31
0.0
  0
LINE
  8
0
  6
CONTINUOUS
 62
               7
  5
22B
 10
91.000000000000014
 20
172.5
 30
0.0
 11
91.000000000000014
 21
152.5
 31
0.0
  0
LINE
  8
0
  6
CONTINUOUS
 62
               7
  5
22C
 10
96.000000000000014
 20
27.5
 30
0.0
 11
96.000000000000014
 21
172.5
 31
0.0
  0
LINE
  8
0
  6
CONTINUOUS
 62
               7
  5
22D
 10
96.000000000000014
 20
172.5
 30
0.0
 11
117.62499999999999
 21
172.5
 31
0.0
  0
LINE
  8
0
  6
CONTINUOUS
 62
               7
  5
22E
 10
117.62499999999999
 20
172.5
 30
0.0
 11
117.62499999999999
 21
27.5
 31
0.0
  0
LINE
  8
0
  6
CONTINUOUS
 62
               7
  5
22F
 10
91.000000000000014
 20
47.5
 30
0.0
 11
69.250000000000014
 21
47.5
 31
0.0
  0
LINE
  8
0
  6
CONTINUOUS
 62
               7
  5
230
 10
69.250000000000014
 20
47.5
 30
0.0
 11
69.250000000000014
 21
27.5
 31
0.0
  0
LINE
  8
0
  6
CONTINUOUS
 62
               7
  5
231
 10
69.250000000000014
 20
27.5
 30
0.0
 11
91.000000000000014
 21
27.5
 31
0.0
  0
LINE
  8
0
  6
CONTINUOUS
 62
               7
  5
232
 10
91.000000000000014
 20
27.5
 30
0.0
 11
91.000000000000014
 21
47.5
 31
0.0
  0
LINE
  8
0
  6
CONTINUOUS
 62
               7
  5
233
 10
91.000000000000014
 20
52.5
 30
0.0
 11
69.250000000000014
 21
52.5
 31
0.0
  0
LINE
  8
0
  6
CONTINUOUS
 62
               7
  5
234
 10
69.250000000000014
 20
52.5
 30
0.0
 11
69.250000000000014
 21
72.5
 31
0.0
  0
LINE
  8
0
  6
CONTINUOUS
 62
               7
  5
235
 10
69.250000000000014
 20
72.5
 30
0.0
 11
91.000000000000014
 21
72.5
 31
0.0
  0
LINE
  8
0
  6
CONTINUOUS
 62
               7
  5
236
 10
91.000000000000014
 20
72.5
 30
0.0
 11
91.000000000000014
 21
52.5
 31
0.0
  0
LINE
  8
0
  6
CONTINUOUS
 62
               7
  5
237
 10
96.000000000000014
 20
27.5
 30
0.0
 11
117.62499999999999
 21
27.5
 31
0.0
  0
LINE
  8
0
  6
CONTINUOUS
 62
               7
  5
238
 10
-69.249999999999801
 20
52.5
 30
0.0
 11
-90.999999999999901
 21
52.5
 31
0.0
  0
LINE
  8
0
  6
CONTINUOUS
 62
               7
  5
239
 10
-90.999999999999901
 20
52.5
 30
0.0
 11
-90.999999999999901
 21
72.5
 31
0.0
  0
LINE
  8
0
  6
CONTINUOUS
 62
               7
  5
23A
 10
-90.999999999999901
 20
72.5
 30
0.0
 11
-69.249999999999801
 21
72.5
 31
0.0
  0
LINE
  8
0
  6
CONTINUOUS
 62
               7
  5
23B
 10
-69.249999999999801
 20
72.5
 30
0.0
 11
-69.249999999999801
 21
52.5
 31
0.0
  0
LINE
  8
0
  6
CONTINUOUS
 62
               7
  5
23C
 10
-69.249999999999801
 20
47.5
 30
0.0
 11
-90.999999999999901
 21
47.5
 31
0.0
  0
LINE
  8
0
  6
CONTINUOUS
 62
               7
  5
23D
 10
-90.999999999999901
 20
47.5
 30
0.0
 11
-90.999999999999901
 21
27.5
 31
0.0
  0
LINE
  8
0
  6
CONTINUOUS
 62
               7
  5
23E
 10
-90.999999999999901
 20
27.5
 30
0.0
 11
-69.249999999999801
 21
27.5
 31
0.0
  0
LINE
  8
0
  6
CONTINUOUS
 62
               7
  5
23F
 10
-69.249999999999801
 20
27.5
 30
0.0
 11
-69.249999999999801
 21
47.5
 31
0.0
  0
LINE
  8
0
  6
CONTINUOUS
 62
               7
  5
240
 10
-117.62499999999984
 20
52.5
 30
0.0
 11
-95.999999999999901
 21
52.5
 31
0.0
  0
LINE
  8
0
  6
CONTINUOUS
 62
               7
  5
241
 10
-95.999999999999901
 20
52.5
 30
0.0
 11
-95.999999999999901
 21
72.5
 31
0.0
  0
LINE
  8
0
  6
CONTINUOUS
 62
               7
  5
242
 10
-95.999999999999901
 20
72.5
 30
0.0
 11
-117.62499999999984
 21
72.5
 31
0.0
  0
LINE
  8
0
  6
CONTINUOUS
 62
               7
  5
243
 10
-117.62499999999984
 20
72.5
 30
0.0
 11
-117.62499999999984
 21
52.5
 31
0.0
  0
LINE
  8
0
  6
CONTINUOUS
 62
               7
  5
244
 10
-117.62499999999984
 20
47.5
 30
0.0
 11
-95.999999999999901
 21
47.5
 31
0.0
  0
LINE
  8
0
  6
CONTINUOUS
 62
               7
  5
245
 10
-95.999999999999901
 20
47.5
 30
0.0
 11
-95.999999999999901
 21
27.5
 31
0.0
  0
LINE
  8
0
  6
CONTINUOUS
 62
               7
  5
246
 10
-95.999999999999901
 20
27.5
 30
0.0
 11
-117.62499999999984
 21
27.5
 31
0.0
  0
LINE
  8
0
  6
CONTINUOUS
 62
               7
  5
247
 10
-117.62499999999984
 20
27.5
 30
0.0
 11
-117.62499999999984
 21
47.5
 31
0.0
  0
LINE
  8
0
  6
CONTINUOUS
 62
               7
  5
248
 10
-69.249999999999801
 20
152.5
 30
0.0
 11
-90.999999999999901
 21
152.5
 31
0.0
  0
LINE
  8
0
  6
CONTINUOUS
 62
               7
  5
249
 10
-90.999999999999901
 20
152.5
 30
0.0
 11
-90.999999999999901
 21
172.5
 31
0.0
  0
LINE
  8
0
  6
CONTINUOUS
 62
               7
  5
24A
 10
-90.999999999999901
 20
172.5
 30
0.0
 11
-69.249999999999801
 21
172.5
 31
0.0
  0
LINE
  8
0
  6
CONTINUOUS
 62
               7
  5
24B
 10
-69.249999999999801
 20
172.5
 30
0.0
 11
-69.249999999999801
 21
152.5
 31
0.0
  0
LINE
  8
0
  6
CONTINUOUS
 62
               7
  5
24C
 10
-69.249999999999801
 20
147.5
 30
0.0
 11
-90.999999999999901
 21
147.5
 31
0.0
  0
LINE
  8
0
  6
CONTINUOUS
 62
               7
  5
24D
 10
-90.999999999999901
 20
147.5
 30
0.0
 11
-90.999999999999901
 21
127.5
 31
0.0
  0
LINE
  8
0
  6
CONTINUOUS
 62
               7
  5
24E
 10
-90.999999999999901
 20
127.5
 30
0.0
 11
-69.249999999999801
 21
127.5
 31
0.0
  0
LINE
  8
0
  6
CONTINUOUS
 62
               7
  5
24F
 10
-69.249999999999801
 20
127.5
 30
0.0
 11
-69.249999999999801
 21
147.5
 31
0.0
  0
LINE
  8
0
  6
CONTINUOUS
 62
               7
  5
250
 10
-117.62499999999984
 20
152.5
 30
0.0
 11
-95.999999999999901
 21
152.5
 31
0.0
  0
LINE
  8
0
  6
CONTINUOUS
 62
               7
  5
251
 10
-95.999999999999901
 20
152.5
 30
0.0
 11
-95.999999999999901
 21
172.5
 31
0.0
  0
LINE
  8
0
  6
CONTINUOUS
 62
               7
  5
252
 10
-95.999999999999901
 20
172.5
 30
0.0
 11
-117.62499999999984
 21
172.5
 31
0.0
  0
LINE
  8
0
  6
CONTINUOUS
 62
               7
  5
253
 10
-117.62499999999984
 20
172.5
 30
0.0
 11
-117.62499999999984
 21
152.5
 31
0.0
  0
LINE
  8
0
  6
CONTINUOUS
 62
               7
  5
254
 10
-117.62499999999984
 20
147.5
 30
0.0
 11
-95.999999999999901
 21
147.5
 31
0.0
  0
LINE
  8
0
  6
CONTINUOUS
 62
               7
  5
255
 10
-95.999999999999901
 20
147.5
 30
0.0
 11
-95.999999999999901
 21
127.5
 31
0.0
  0
LINE
  8
0
  6
CONTINUOUS
 62
               7
  5
256
 10
-95.999999999999901
 20
127.5
 30
0.0
 11
-117.62499999999984
 21
127.5
 31
0.0
  0
LINE
  8
0
  6
CONTINUOUS
 62
               7
  5
257
 10
-117.62499999999984
 20
127.5
 30
0.0
 11
-117.62499999999984
 21
147.5
 31
0.0
  0
LINE
  8
0
  6
CONTINUOUS
 62
               7
  5
258
 10
69.250000000000014
 20
77.5
 30
0.0
 11
91.000000000000014
 21
77.5
 31
0.0
  0
LINE
  8
0
  6
CONTINUOUS
 62
               7
  5
259
 10
69.250000000000014
 20
77.5
 30
0.0
 11
69.250000000000014
 21
122.5
 31
0.0
  0
LINE
  8
0
  6
CONTINUOUS
 62
               7
  5
25A
 10
69.250000000000014
 20
122.5
 30
0.0
 11
91.000000000000014
 21
122.5
 31
0.0
  0
LINE
  8
0
  6
CONTINUOUS
 62
               7
  5
25B
 10
91.000000000000014
 20
122.5
 30
0.0
 11
91.000000000000014
 21
77.5
 31
0.0
  0
LINE
  8
0
  6
CONTINUOUS
 62
               7
  5
25C
 10
-69.249999999999801
 20
97.5
 30
0.0
 11
-90.999999999999901
 21
97.5
 31
0.0
  0
LINE
  8
0
  6
CONTINUOUS
 62
               7
  5
25D
 10
-90.999999999999901
 20
97.5
 30
0.0
 11
-90.999999999999901
 21
77.5
 31
0.0
  0
LINE
  8
0
  6
CONTINUOUS
 62
               7
  5
25E
 10
-90.999999999999901
 20
77.5
 30
0.0
 11
-69.249999999999801
 21
77.5
 31
0.0
  0
LINE
  8
0
  6
CONTINUOUS
 62
               7
  5
25F
 10
-69.249999999999801
 20
77.5
 30
0.0
 11
-69.249999999999801
 21
97.5
 31
0.0
  0
LINE
  8
0
  6
CONTINUOUS
 62
               7
  5
260
 10
-69.249999999999801
 20
102.5
 30
0.0
 11
-90.999999999999901
 21
102.5
 31
0.0
  0
LINE
  8
0
  6
CONTINUOUS
 62
               7
  5
261
 10
-90.999999999999901
 20
102.5
 30
0.0
 11
-90.999999999999901
 21
122.5
 31
0.0
  0
LINE
  8
0
  6
CONTINUOUS
 62
               7
  5
262
 10
-90.999999999999901
 20
122.5
 30
0.0
 11
-69.249999999999801
 21
122.5
 31
0.0
  0
LINE
  8
0
  6
CONTINUOUS
 62
               7
  5
263
 10
-69.249999999999801
 20
122.5
 30
0.0
 11
-69.249999999999801
 21
102.5
 31
0.0
  0
LINE
  8
0
  6
CONTINUOUS
 62
               7
  5
264
 10
-143.49999999999989
 20
169.49999999999994
 30
0.0
 11
-143.49999999999989
 21
30.499999999999943
 31
0.0
  0
LINE
  8
0
  6
CONTINUOUS
 62
               7
  5
265
 10
-113.4999999999999
 20
0.4999999999999432
 30
0.0
 11
113.50000000000001
 21
0.4999999999999432
 31
0.0
  0
ARC
  8
0
  6
CONTINUOUS
 62
               7
  5
266
 10
-113.4999999999999
 20
30.499999999999943
 30
0.0
 40
30.0
 50
179.99999979431959
 51
269.99999969147945
  0
LINE
  8
0
  6
CONTINUOUS
 62
               7
  5
267
 10
143.5
 20
169.49999999999994
 30
0.0
 11
143.5
 21
30.499999999999943
 31
0.0
  0
ARC
  8
0
  6
CONTINUOUS
 62
               7
  5
268
 10
113.50000000000001
 20
30.499999999999943
 30
0.0
 40
30.0
 50
269.99999969147945
 51
359.99999958863918
  0
ARC
  8
0
  6
CONTINUOUS
 62
               7
  5
269
 10
113.50000000000001
 20
169.49999999999994
 30
0.0
 40
30.0
 50
0.0
 51
89.999999897159796
  0
LINE
  8
0
  6
CONTINUOUS
 62
               7
  5
26A
 10
-113.4999999999999
 20
199.49999999999994
 30
0.0
 11
113.50000000000001
 21
199.49999999999994
 31
0.0
  0
ARC
  8
0
  6
CONTINUOUS
 62
               7
  5
26B
 10
-113.4999999999999
 20
169.49999999999994
 30
0.0
 40
30.0
 50
89.999999897159796
 51
179.99999979431959
  0
LINE
  8
0
  6
CONTINUOUS
 62
               7
  5
26C
 10
-150.24999999999989
 20
101.99999999999994
 30
0.0
 11
-143.49999999999989
 21
101.99999999999994
 31
0.0
  0
LINE
  8
0
  6
CONTINUOUS
 62
               7
  5
26D
 10
-143.49999999999989
 20
97.999999999999943
 30
0.0
 11
-149.99999999999986
 21
97.999999999999943
 31
0.0
  0
ARC
  8
0
  6
CONTINUOUS
 62
               7
  5
26E
 10
-149.99999999999986
 20
100.0
 30
0.0
 40
1.9999999999999998
 50
89.999999897159796
 51
269.99999969147945
  0
LINE
  8
0
  6
CONTINUOUS
 62
               7
  5
26F
 10
150.25
 20
101.99999999999994
 30
0.0
 11
143.5
 21
101.99999999999994
 31
0.0
  0
LINE
  8
0
  6
CONTINUOUS
 62
               7
  5
270
 10
143.5
 20
97.999999999999943
 30
0.0
 11
150.0
 21
97.999999999999943
 31
0.0
  0
ARC
  8
0
  6
CONTINUOUS
 62
               7
  5
271
 10
150.0
 20
100.0
 30
0.0
 40
1.9999999999999998
 50
269.99999969147945
 51
449.999999897159
  0
LINE
  8
0
  6
CONTINUOUS
 62
               7
  5
272
 10
-50.999999999999901
 20
-6.2500000000000568
 30
0.0
 11
-50.999999999999901
 21
0.4999999999999432
 31
0.0
  0
LINE
  8
0
  6
CONTINUOUS
 62
               7
  5
273
 10
-46.999999999999851
 20
0.4999999999999432
 30
0.0
 11
-46.999999999999851
 21
-6.0
 31
0.0
  0
ARC
  8
0
  6
CONTINUOUS
 62
               7
  5
274
 10
-48.999999999999901
 20
-6.0
 30
0.0
 40
1.9999999999999998
 50
179.99999979431959
 51
359.99999958863918
  0
LINE
  8
0
  6
CONTINUOUS
 62
               7
  5
275
 10
51.000000000000014
 20
-6.2500000000000568
 30
0.0
 11
51.000000000000014
 21
0.4999999999999432
 31
0.0
  0
LINE
  8
0
  6
CONTINUOUS
 62
               7
  5
276
 10
46.999999999999986
 20
0.4999999999999432
 30
0.0
 11
46.999999999999986
 21
-6.0
 31
0.0
  0
ARC
  8
0
  6
CONTINUOUS
 62
               7
  5
277
 10
49.0
 20
-6.0
 30
0.0
 40
1.9999999999999998
 50
179.99999979431959
 51
359.99999958863918
  0
LINE
  8
0
  6
CONTINUOUS
 62
               7
  5
278
 10
-50.999999999999901
 20
206.25000000000006
 30
0.0
 11
-50.999999999999901
 21
199.49999999999994
 31
0.0
  0
LINE
  8
0
  6
CONTINUOUS
 62
               7
  5
279
 10
-46.999999999999851
 20
199.49999999999994
 30
0.0
 11
-46.999999999999851
 21
205.99999999999994
 31
0.0
  0
ARC
  8
0
  6
CONTINUOUS
 62
               7
  5
27A
 10
-48.999999999999901
 20
205.99999999999994
 30
0.0
 40
1.9999999999999998
 50
0.0
 51
179.99999979431959
  0
LINE
  8
0
  6
CONTINUOUS
 62
               7
  5
27B
 10
51.000000000000014
 20
206.25000000000006
 30
0.0
 11
51.000000000000014
 21
199.49999999999994
 31
0.0
  0
LINE
  8
0
  6
CONTINUOUS
 62
               7
  5
27C
 10
46.999999999999986
 20
199.49999999999994
 30
0.0
 11
46.999999999999986
 21
205.99999999999994
 31
0.0
  0
ARC
  8
0
  6
CONTINUOUS
 62
               7
  5
27D
 10
49.0
 20
205.99999999999994
 30
0.0
 40
1.9999999999999998
 50
0.0
 51
179.99999979431959
  0
LINE
  8
0
  6
DASHDOT
 62
               7
  5
27E
 10
50.0
 20
-181.25000000000034
 30
0.0
 11
50.0
 21
-259.50000000000023
 31
0.0
  0
ARC
  8
0
  6
DASHDOT
 62
               7
  5
27F
 10
40.0
 20
-259.50000000000023
 30
0.0
 40
10.0
 50
269.99999969147945
 51
359.99999958863918
  0
LINE
  8
0
  6
DASHDOT
 62
               7
  5
280
 10
-39.999999999999794
 20
-138.75000000000034
 30
0.0
 11
-39.999999999999794
 21
-259.50000000000023
 31
0.0
  0
LINE
  8
0
  6
DASHDOT
 62
               7
  5
281
 10
-29.999999999999794
 20
-269.50000000000023
 30
0.0
 11
40.0
 21
-269.50000000000023
 31
0.0
  0
ARC
  8
0
  6
DASHDOT
 62
               7
  5
282
 10
-29.999999999999794
 20
-259.50000000000023
 30
0.0
 40
10.0
 50
179.99999979431959
 51
269.99999969147945
  0
LINE
  8
0
  6
DASHDOT
 62
               7
  5
283
 10
0.0
 20
-116.37500000000023
 30
0.0
 11
0.0
 21
-290.25000000000006
 31
0.0
  0
LINE
  8
0
  6
DASHDOT
 62
               7
  5
284
 10
0.0
 20
226.12499999999994
 30
0.0
 11
0.0
 21
-21.0
 31
0.0
  0
LINE
  8
0
  6
DASHDOT
 62
               7
  5
285
 10
-179.99999999999977
 20
100.0
 30
0.0
 11
179.99999999999994
 21
100.0
 31
0.0
  0
TEXT
  8
0
 62
               7
  5
286
 10
0.0
 20
100.0
 30
0.0
 40
35.0
  1
散水栓
 50
359.9999999999992
 72
               1
 11
0.0
 21
100.0
 31
0.0
 73
               2
  0
TEXT
  8
0
 62
               7
  5
287
 10
106.81250000000001
 20
100.0
 30
0.0
 40
12.5
  1
ＫＯＪＩＭＡ　ＳＥＩＳＡＫＵＳＨＯ　ＣＯ．
 50
89.999999999999801
 41
0.5
  7
FdaStyle1
 72
               1
 11
106.81250000000001
 21
100.0
 31
0.0
 73
               2
  0
TEXT
  8
0
 62
               7
  5
288
 10
80.125000000000014
 20
100.0
 30
0.0
 40
15.0
  1
Ｂ３
 50
89.999999999999801
  7
FdaStyle1
 72
               1
 11
80.125000000000014
 21
100.0
 31
0.0
 73
               2
  0
ENDSEC
  0
EOF
