  0
SECTION
  2
HEADER
  9
$ACADVER
  1
AC1009
  9
$INSBASE
 10
0.0
 20
0.0
 30
0.0
  9
$EXTMIN
 10
-143.52000000000001
 20
-210.49400000000006
 30
0.0
  9
$EXTMAX
 10
143.52000000000001
 20
246.79400000000001
 30
0.0
  9
$LIMMIN
 10
-152.49000000000001
 20
-224.78425000000007
  9
$LIMMAX
 10
152.49000000000001
 20
261.08425
  9
$ORTHOMODE
 70
               0
  9
$REGENMODE
 70
               1
  9
$FILLMODE
 70
               1
  9
$QTEXTMODE
 70
               0
  9
$MIRRTEXT
 70
               1
  9
$DRAGMODE
 70
               2
  9
$LTSCALE
 40
1.0
  9
$OSMODE
 70
               0
  9
$ATTMODE
 70
               1
  9
$TEXTSIZE
 40
0.2
  9
$TRACEWID
 40
0.05
  9
$TEXTSTYLE
  7
STANDARD
  9
$CLAYER
  8
0
  9
$CELTYPE
  6
CONTINUOUS
  9
$CECOLOR
 62
             256
  9
$DIMSCALE
 40
1.0
  9
$DIMASZ
 40
0.18
  9
$DIMEXO
 40
0.0625
  9
$DIMDLI
 40
0.38
  9
$DIMRND
 40
0.0
  9
$DIMDLE
 40
0.0
  9
$DIMEXE
 40
0.18
  9
$DIMTP
 40
0.0
  9
$DIMTM
 40
0.0
  9
$DIMTXT
 40
0.18
  9
$DIMCEN
 40
0.09
  9
$DIMTSZ
 40
0.0
  9
$DIMTOL
 70
               0
  9
$DIMLIM
 70
               0
  9
$DIMTIH
 70
               1
  9
$DIMTOH
 70
               1
  9
$DIMSE1
 70
               0
  9
$DIMSE2
 70
               0
  9
$DIMTAD
 70
               0
  9
$DIMZIN
 70
               0
  9
$DIMBLK
  1

  9
$DIMASO
 70
               1
  9
$DIMSHO
 70
               1
  9
$DIMPOST
  1

  9
$DIMAPOST
  1

  9
$DIMALT
 70
               0
  9
$DIMALTD
 70
               2
  9
$DIMALTF
 40
25.399999999999999
  9
$DIMLFAC
 40
1.0
  9
$DIMTOFL
 70
               0
  9
$DIMTVP
 40
0.0
  9
$DIMTIX
 70
               0
  9
$DIMSOXD
 70
               0
  9
$DIMSAH
 70
               0
  9
$DIMBLK1
  1

  9
$DIMBLK2
  1

  9
$DIMSTYLE
  2
STANDARD
  9
$DIMCLRD
 70
               0
  9
$DIMCLRE
 70
               0
  9
$DIMCLRT
 70
               0
  9
$DIMTFAC
 40
1.0
  9
$DIMGAP
 40
0.09
  9
$LUNITS
 70
               2
  9
$LUPREC
 70
               4
  9
$AXISMODE
 70
               0
  9
$AXISUNIT
 10
0.0
 20
0.0
  9
$SKETCHINC
 40
0.1
  9
$FILLETRAD
 40
0.0
  9
$AUNITS
 70
               0
  9
$AUPREC
 70
               0
  9
$MENU
  1
acad
  9
$ELEVATION
 40
0.0
  9
$PELEVATION
 40
0.0
  9
$THICKNESS
 40
0.0
  9
$LIMCHECK
 70
               0
  9
$BLIPMODE
 70
               1
  9
$CHAMFERA
 40
0.0
  9
$CHAMFERB
 40
0.0
  9
$SKPOLY
 70
               0
  9
$TDCREATE
 40
0.000000000
  9
$TDUPDATE
 40
0.000000000
  9
$TDINDWG
 40
0.0000000000
  9
$TDUSRTIMER
 40
0.0000000000
  9
$USRTIMER
 70
               1
  9
$ANGBASE
 50
0.0
  9
$ANGDIR
 70
               0
  9
$PDMODE
 70
               0
  9
$PDSIZE
 40
1.0
  9
$PLINEWID
 40
0.0
  9
$COORDS
 70
               1
  9
$SPLFRAME
 70
               0
  9
$SPLINETYPE
 70
               6
  9
$SPLINESEGS
 70
               8
  9
$ATTDIA
 70
               0
  9
$ATTREQ
 70
               1
  9
$HANDLING
 70
               1
  9
$HANDSEED
  5
26C
  9
$SURFTAB1
 70
               6
  9
$SURFTAB2
 70
               6
  9
$SURFTYPE
 70
               6
  9
$SURFU
 70
               6
  9
$SURFV
 70
               6
  9
$UCSNAME
  2

  9
$UCSORG
 10
0.0
 20
0.0
 30
0.0
  9
$UCSXDIR
 10
1.0
 20
0.0
 30
0.0
  9
$UCSYDIR
 10
0.0
 20
1.0
 30
0.0
  9
$PUCSNAME
  2

  9
$PUCSORG
 10
0.0
 20
0.0
 30
0.0
  9
$PUCSXDIR
 10
1.0
 20
0.0
 30
0.0
  9
$PUCSYDIR
 10
0.0
 20
1.0
 30
0.0
  9
$USERI1
 70
               0
  9
$USERI2
 70
               0
  9
$USERI3
 70
               0
  9
$USERI4
 70
               0
  9
$USERI5
 70
               0
  9
$USERR1
 40
0.0
  9
$USERR2
 40
0.0
  9
$USERR3
 40
0.0
  9
$USERR4
 40
0.0
  9
$USERR5
 40
0.0
  9
$WORLDVIEW
 70
               1
  9
$SHADEDGE
 70
               3
  9
$SHADEDIF
 70
              70
  9
$TILEMODE
 70
               1
  9
$MAXACTVP
 70
              16
  9
$PINSBASE
 10
0.0
 20
0.0
 30
0.0
  9
$PLIMCHECK
 70
               0
  9
$PEXTMIN
 10
1.0000000000000000E+20
 20
1.0000000000000000E+20
 30
1.0000000000000000E+20
  9
$PEXTMAX
 10
-1.0000000000000000E+20
 20
-1.0000000000000000E+20
 30
-1.0000000000000000E+20
  9
$PLIMMIN
 10
0.0
 20
0.0
  9
$PLIMMAX
 10
12.0
 20
9.0
  9
$UNITMODE
 70
               0
  9
$VISRETAIN
 70
               0
  9
$PLINEGEN
 70
               1
  9
$PSLTSCALE
 70
               0
  9
$TREEDEPTH
 70
            3020
  9
$DWGCODEPAGE
  3
dos932
  0
ENDSEC
  0
SECTION
  2
TABLES
  0
TABLE
  2
VPORT
 70
               1
  0
VPORT
  2
*ACTIVE
 70
               0
 10
0.0
 20
0.0
 11
1.0
 21
1.0
 12
0.0
 22
18.149999999999963
 13
0.0
 23
0.0
 14
1.0
 24
1.0
 15
0.0
 25
0.0
 16
0.0
 26
0.0
 36
1.0
 17
0.0
 27
0.0
 37
0.0
 40
485.86850000000004
 41
0.6277007050261542
 42
50.0
 43
0.0
 44
0.0
 50
0.0
 51
0.0
 71
               0
 72
             100
 73
               1
 74
               1
 75
               0
 76
               0
 77
               0
 78
               0
  0
ENDTAB
  0
TABLE
  2
LTYPE
 70
              26
  0
LTYPE
  2
CONTINUOUS
 70
               0
  3
Solid line
 72
              65
 73
               0
 40
0.0
  0
LTYPE
  2
HIDDENX2
 70
               0
  3
CADPAC FUSION LINETYPE
 72
              65
 73
               2
 40
33.640000000000001
 49
25.23
 49
-8.4100000000000001
  0
LTYPE
  2
HIDDEN
 70
               0
  3
CADPAC FUSION LINETYPE
 72
              65
 73
               2
 40
25.23
 49
16.82
 49
-8.4100000000000001
  0
LTYPE
  2
HIDDEN2
 70
               0
  3
CADPAC FUSION LINETYPE
 72
              65
 73
               2
 40
21.024999999999999
 49
12.615
 49
-8.4100000000000001
  0
LTYPE
  2
DASHED
 70
               0
  3
CADPAC FUSION LINETYPE
 72
              65
 73
               2
 40
25.23
 49
16.82
 49
-8.4100000000000001
  0
LTYPE
  2
DASHED2
 70
               0
  3
CADPAC FUSION LINETYPE
 72
              65
 73
               2
 40
18.922499999999999
 49
12.615
 49
-6.3075000000000001
  0
LTYPE
  2
DASHEDX2
 70
               0
  3
CADPAC FUSION LINETYPE
 72
              65
 73
               2
 40
37.844999999999999
 49
25.23
 49
-12.615
  0
LTYPE
  2
DOTX2
 70
               0
  3
CADPAC FUSION LINETYPE
 72
              65
 73
               2
 40
10.512499999999999
 49
0.0
 49
-10.512499999999999
  0
LTYPE
  2
DOT
 70
               0
  3
CADPAC FUSION LINETYPE
 72
              65
 73
               2
 40
8.4100000000000001
 49
0.0
 49
-8.4100000000000001
  0
LTYPE
  2
DOTS
 70
               0
  3
CADPAC FUSION LINETYPE
 72
              65
 73
               2
 40
8.4100000000000001
 49
0.0
 49
-8.4100000000000001
  0
LTYPE
  2
DOT2
 70
               0
  3
CADPAC FUSION LINETYPE
 72
              65
 73
               2
 40
6.3075000000000001
 49
0.0
 49
-6.3075000000000001
  0
LTYPE
  2
CENTERX2
 70
               0
  3
CADPAC FUSION LINETYPE
 72
              65
 73
               4
 40
50.459999999999994
 49
21.024999999999999
 49
-10.512499999999999
 49
8.4100000000000001
 49
-10.512499999999999
  0
LTYPE
  2
CENTER
 70
               0
  3
CADPAC FUSION LINETYPE
 72
              65
 73
               4
 40
38.686
 49
16.82
 49
-8.4100000000000001
 49
5.0460000000000003
 49
-8.4100000000000001
  0
LTYPE
  2
CENTER2
 70
               0
  3
CADPAC FUSION LINETYPE
 72
              65
 73
               4
 40
26.911999999999999
 49
12.615
 49
-6.3075000000000001
 49
1.6820000000000002
 49
-6.3075000000000001
  0
LTYPE
  2
DASHDOTX2
 70
               0
  3
CADPAC FUSION LINETYPE
 72
              65
 73
               4
 40
42.049999999999997
 49
21.024999999999999
 49
-10.512499999999999
 49
0.0
 49
-10.512499999999999
  0
LTYPE
  2
DASHDOT
 70
               0
  3
CADPAC FUSION LINETYPE
 72
              65
 73
               4
 40
33.640000000000001
 49
16.82
 49
-8.4100000000000001
 49
0.0
 49
-8.4100000000000001
  0
LTYPE
  2
DASHDOT2
 70
               0
  3
CADPAC FUSION LINETYPE
 72
              65
 73
               4
 40
25.23
 49
12.615
 49
-6.3075000000000001
 49
0.0
 49
-6.3075000000000001
  0
LTYPE
  2
DIVIDEX2
 70
               0
  3
CADPAC FUSION LINETYPE
 72
              65
 73
               6
 40
52.5625
 49
21.024999999999999
 49
-10.512499999999999
 49
0.0
 49
-10.512499999999999
 49
0.0
 49
-10.512499999999999
  0
LTYPE
  2
DIVIDE
 70
               0
  3
CADPAC FUSION LINETYPE
 72
              65
 73
               6
 40
42.049999999999997
 49
16.82
 49
-8.4100000000000001
 49
0.0
 49
-8.4100000000000001
 49
0.0
 49
-8.4100000000000001
  0
LTYPE
  2
DIVIDE2
 70
               0
  3
CADPAC FUSION LINETYPE
 72
              65
 73
               6
 40
31.537500000000001
 49
12.615
 49
-6.3075000000000001
 49
0.0
 49
-6.3075000000000001
 49
0.0
 49
-6.3075000000000001
  0
LTYPE
  2
BORDERX2
 70
               0
  3
CADPAC FUSION LINETYPE
 72
              65
 73
               6
 40
73.587499999999991
 49
21.024999999999999
 49
-10.512499999999999
 49
21.024999999999999
 49
-10.512499999999999
 49
0.0
 49
-10.512499999999999
  0
LTYPE
  2
BORDER
 70
               0
  3
CADPAC FUSION LINETYPE
 72
              65
 73
               6
 40
58.870000000000005
 49
16.82
 49
-8.4100000000000001
 49
16.82
 49
-8.4100000000000001
 49
0.0
 49
-8.4100000000000001
  0
LTYPE
  2
BORDER2
 70
               0
  3
CADPAC FUSION LINETYPE
 72
              65
 73
               6
 40
44.152499999999996
 49
12.615
 49
-6.3075000000000001
 49
12.615
 49
-6.3075000000000001
 49
0.0
 49
-6.3075000000000001
  0
LTYPE
  2
PHANTOMX2
 70
               0
  3
CADPAC FUSION LINETYPE
 72
              65
 73
               6
 40
63.074999999999996
 49
21.024999999999999
 49
-8.4100000000000001
 49
8.4100000000000001
 49
-8.4100000000000001
 49
8.4100000000000001
 49
-8.4100000000000001
  0
LTYPE
  2
PHANTOM
 70
               0
  3
CADPAC FUSION LINETYPE
 72
              65
 73
               6
 40
52.141999999999996
 49
16.82
 49
-8.4100000000000001
 49
5.0460000000000003
 49
-8.4100000000000001
 49
5.0460000000000003
 49
-8.4100000000000001
  0
LTYPE
  2
PHANTOM2
 70
               0
  3
CADPAC FUSION LINETYPE
 72
              65
 73
               6
 40
44.573
 49
12.615
 49
-8.4100000000000001
 49
3.3640000000000003
 49
-8.4100000000000001
 49
3.3640000000000003
 49
-8.4100000000000001
  0
ENDTAB
  0
TABLE
  2
LAYER
 70
             256
  0
LAYER
  2
0
 70
               0
 62
               7
  6
CONTINUOUS
  0
LAYER
  2
LAYER001
 70
               0
 62
               7
  6
CONTINUOUS
  0
LAYER
  2
LAYER002
 70
               0
 62
               7
  6
CONTINUOUS
  0
LAYER
  2
LAYER003
 70
               0
 62
               7
  6
CONTINUOUS
  0
LAYER
  2
LAYER004
 70
               0
 62
               7
  6
CONTINUOUS
  0
LAYER
  2
LAYER005
 70
               0
 62
               7
  6
CONTINUOUS
  0
LAYER
  2
LAYER006
 70
               0
 62
               7
  6
CONTINUOUS
  0
LAYER
  2
LAYER007
 70
               0
 62
               7
  6
CONTINUOUS
  0
LAYER
  2
LAYER008
 70
               0
 62
               7
  6
CONTINUOUS
  0
LAYER
  2
LAYER009
 70
               0
 62
               7
  6
CONTINUOUS
  0
LAYER
  2
LAYER010
 70
               0
 62
               7
  6
CONTINUOUS
  0
LAYER
  2
LAYER011
 70
               0
 62
               7
  6
CONTINUOUS
  0
LAYER
  2
LAYER012
 70
               0
 62
               7
  6
CONTINUOUS
  0
LAYER
  2
LAYER013
 70
               0
 62
               7
  6
CONTINUOUS
  0
LAYER
  2
LAYER014
 70
               0
 62
               7
  6
CONTINUOUS
  0
LAYER
  2
LAYER015
 70
               0
 62
               7
  6
CONTINUOUS
  0
LAYER
  2
LAYER016
 70
               0
 62
               7
  6
CONTINUOUS
  0
LAYER
  2
LAYER017
 70
               0
 62
               7
  6
CONTINUOUS
  0
LAYER
  2
LAYER018
 70
               0
 62
               7
  6
CONTINUOUS
  0
LAYER
  2
LAYER019
 70
               0
 62
               7
  6
CONTINUOUS
  0
LAYER
  2
LAYER020
 70
               0
 62
               7
  6
CONTINUOUS
  0
LAYER
  2
LAYER021
 70
               0
 62
               7
  6
CONTINUOUS
  0
LAYER
  2
LAYER022
 70
               0
 62
               7
  6
CONTINUOUS
  0
LAYER
  2
LAYER023
 70
               0
 62
               7
  6
CONTINUOUS
  0
LAYER
  2
LAYER024
 70
               0
 62
               7
  6
CONTINUOUS
  0
LAYER
  2
LAYER025
 70
               0
 62
               7
  6
CONTINUOUS
  0
LAYER
  2
LAYER026
 70
               0
 62
               7
  6
CONTINUOUS
  0
LAYER
  2
LAYER027
 70
               0
 62
               7
  6
CONTINUOUS
  0
LAYER
  2
LAYER028
 70
               0
 62
               7
  6
CONTINUOUS
  0
LAYER
  2
LAYER029
 70
               0
 62
               7
  6
CONTINUOUS
  0
LAYER
  2
LAYER030
 70
               0
 62
               7
  6
CONTINUOUS
  0
LAYER
  2
LAYER031
 70
               0
 62
               7
  6
CONTINUOUS
  0
LAYER
  2
LAYER032
 70
               0
 62
               7
  6
CONTINUOUS
  0
LAYER
  2
LAYER033
 70
               0
 62
               7
  6
CONTINUOUS
  0
LAYER
  2
LAYER034
 70
               0
 62
               7
  6
CONTINUOUS
  0
LAYER
  2
LAYER035
 70
               0
 62
               7
  6
CONTINUOUS
  0
LAYER
  2
LAYER036
 70
               0
 62
               7
  6
CONTINUOUS
  0
LAYER
  2
LAYER037
 70
               0
 62
               7
  6
CONTINUOUS
  0
LAYER
  2
LAYER038
 70
               0
 62
               7
  6
CONTINUOUS
  0
LAYER
  2
LAYER039
 70
               0
 62
               7
  6
CONTINUOUS
  0
LAYER
  2
LAYER040
 70
               0
 62
               7
  6
CONTINUOUS
  0
LAYER
  2
LAYER041
 70
               0
 62
               7
  6
CONTINUOUS
  0
LAYER
  2
LAYER042
 70
               0
 62
               7
  6
CONTINUOUS
  0
LAYER
  2
LAYER043
 70
               0
 62
               7
  6
CONTINUOUS
  0
LAYER
  2
LAYER044
 70
               0
 62
               7
  6
CONTINUOUS
  0
LAYER
  2
LAYER045
 70
               0
 62
               7
  6
CONTINUOUS
  0
LAYER
  2
LAYER046
 70
               0
 62
               7
  6
CONTINUOUS
  0
LAYER
  2
LAYER047
 70
               0
 62
               7
  6
CONTINUOUS
  0
LAYER
  2
LAYER048
 70
               0
 62
               7
  6
CONTINUOUS
  0
LAYER
  2
LAYER049
 70
               0
 62
               7
  6
CONTINUOUS
  0
LAYER
  2
LAYER050
 70
               0
 62
               7
  6
CONTINUOUS
  0
LAYER
  2
LAYER051
 70
               0
 62
               7
  6
CONTINUOUS
  0
LAYER
  2
LAYER052
 70
               0
 62
               7
  6
CONTINUOUS
  0
LAYER
  2
LAYER053
 70
               0
 62
               7
  6
CONTINUOUS
  0
LAYER
  2
LAYER054
 70
               0
 62
               7
  6
CONTINUOUS
  0
LAYER
  2
LAYER055
 70
               0
 62
               7
  6
CONTINUOUS
  0
LAYER
  2
LAYER056
 70
               0
 62
               7
  6
CONTINUOUS
  0
LAYER
  2
LAYER057
 70
               0
 62
               7
  6
CONTINUOUS
  0
LAYER
  2
LAYER058
 70
               0
 62
               7
  6
CONTINUOUS
  0
LAYER
  2
LAYER059
 70
               0
 62
               7
  6
CONTINUOUS
  0
LAYER
  2
LAYER060
 70
               0
 62
               7
  6
CONTINUOUS
  0
LAYER
  2
LAYER061
 70
               0
 62
               7
  6
CONTINUOUS
  0
LAYER
  2
LAYER062
 70
               0
 62
               7
  6
CONTINUOUS
  0
LAYER
  2
LAYER063
 70
               0
 62
               7
  6
CONTINUOUS
  0
LAYER
  2
LAYER064
 70
               0
 62
               7
  6
CONTINUOUS
  0
LAYER
  2
LAYER065
 70
               0
 62
               7
  6
CONTINUOUS
  0
LAYER
  2
LAYER066
 70
               0
 62
               7
  6
CONTINUOUS
  0
LAYER
  2
LAYER067
 70
               0
 62
               7
  6
CONTINUOUS
  0
LAYER
  2
LAYER068
 70
               0
 62
               7
  6
CONTINUOUS
  0
LAYER
  2
LAYER069
 70
               0
 62
               7
  6
CONTINUOUS
  0
LAYER
  2
LAYER070
 70
               0
 62
               7
  6
CONTINUOUS
  0
LAYER
  2
LAYER071
 70
               0
 62
               7
  6
CONTINUOUS
  0
LAYER
  2
LAYER072
 70
               0
 62
               7
  6
CONTINUOUS
  0
LAYER
  2
LAYER073
 70
               0
 62
               7
  6
CONTINUOUS
  0
LAYER
  2
LAYER074
 70
               0
 62
               7
  6
CONTINUOUS
  0
LAYER
  2
LAYER075
 70
               0
 62
               7
  6
CONTINUOUS
  0
LAYER
  2
LAYER076
 70
               0
 62
               7
  6
CONTINUOUS
  0
LAYER
  2
LAYER077
 70
               0
 62
               7
  6
CONTINUOUS
  0
LAYER
  2
LAYER078
 70
               0
 62
               7
  6
CONTINUOUS
  0
LAYER
  2
LAYER079
 70
               0
 62
               7
  6
CONTINUOUS
  0
LAYER
  2
LAYER080
 70
               0
 62
               7
  6
CONTINUOUS
  0
LAYER
  2
LAYER081
 70
               0
 62
               7
  6
CONTINUOUS
  0
LAYER
  2
LAYER082
 70
               0
 62
               7
  6
CONTINUOUS
  0
LAYER
  2
LAYER083
 70
               0
 62
               7
  6
CONTINUOUS
  0
LAYER
  2
LAYER084
 70
               0
 62
               7
  6
CONTINUOUS
  0
LAYER
  2
LAYER085
 70
               0
 62
               7
  6
CONTINUOUS
  0
LAYER
  2
LAYER086
 70
               0
 62
               7
  6
CONTINUOUS
  0
LAYER
  2
LAYER087
 70
               0
 62
               7
  6
CONTINUOUS
  0
LAYER
  2
LAYER088
 70
               0
 62
               7
  6
CONTINUOUS
  0
LAYER
  2
LAYER089
 70
               0
 62
               7
  6
CONTINUOUS
  0
LAYER
  2
LAYER090
 70
               0
 62
               7
  6
CONTINUOUS
  0
LAYER
  2
LAYER091
 70
               0
 62
               7
  6
CONTINUOUS
  0
LAYER
  2
LAYER092
 70
               0
 62
               7
  6
CONTINUOUS
  0
LAYER
  2
LAYER093
 70
               0
 62
               7
  6
CONTINUOUS
  0
LAYER
  2
LAYER094
 70
               0
 62
               7
  6
CONTINUOUS
  0
LAYER
  2
LAYER095
 70
               0
 62
               7
  6
CONTINUOUS
  0
LAYER
  2
LAYER096
 70
               0
 62
               7
  6
CONTINUOUS
  0
LAYER
  2
LAYER097
 70
               0
 62
               7
  6
CONTINUOUS
  0
LAYER
  2
LAYER098
 70
               0
 62
               7
  6
CONTINUOUS
  0
LAYER
  2
LAYER099
 70
               0
 62
               7
  6
CONTINUOUS
  0
LAYER
  2
LAYER100
 70
               0
 62
               7
  6
CONTINUOUS
  0
LAYER
  2
LAYER101
 70
               0
 62
               7
  6
CONTINUOUS
  0
LAYER
  2
LAYER102
 70
               0
 62
               7
  6
CONTINUOUS
  0
LAYER
  2
LAYER103
 70
               0
 62
               7
  6
CONTINUOUS
  0
LAYER
  2
LAYER104
 70
               0
 62
               7
  6
CONTINUOUS
  0
LAYER
  2
LAYER105
 70
               0
 62
               7
  6
CONTINUOUS
  0
LAYER
  2
LAYER106
 70
               0
 62
               7
  6
CONTINUOUS
  0
LAYER
  2
LAYER107
 70
               0
 62
               7
  6
CONTINUOUS
  0
LAYER
  2
LAYER108
 70
               0
 62
               7
  6
CONTINUOUS
  0
LAYER
  2
LAYER109
 70
               0
 62
               7
  6
CONTINUOUS
  0
LAYER
  2
LAYER110
 70
               0
 62
               7
  6
CONTINUOUS
  0
LAYER
  2
LAYER111
 70
               0
 62
               7
  6
CONTINUOUS
  0
LAYER
  2
LAYER112
 70
               0
 62
               7
  6
CONTINUOUS
  0
LAYER
  2
LAYER113
 70
               0
 62
               7
  6
CONTINUOUS
  0
LAYER
  2
LAYER114
 70
               0
 62
               7
  6
CONTINUOUS
  0
LAYER
  2
LAYER115
 70
               0
 62
               7
  6
CONTINUOUS
  0
LAYER
  2
LAYER116
 70
               0
 62
               7
  6
CONTINUOUS
  0
LAYER
  2
LAYER117
 70
               0
 62
               7
  6
CONTINUOUS
  0
LAYER
  2
LAYER118
 70
               0
 62
               7
  6
CONTINUOUS
  0
LAYER
  2
LAYER119
 70
               0
 62
               7
  6
CONTINUOUS
  0
LAYER
  2
LAYER120
 70
               0
 62
               7
  6
CONTINUOUS
  0
LAYER
  2
LAYER121
 70
               0
 62
               7
  6
CONTINUOUS
  0
LAYER
  2
LAYER122
 70
               0
 62
               7
  6
CONTINUOUS
  0
LAYER
  2
LAYER123
 70
               0
 62
               7
  6
CONTINUOUS
  0
LAYER
  2
LAYER124
 70
               0
 62
               7
  6
CONTINUOUS
  0
LAYER
  2
LAYER125
 70
               0
 62
               7
  6
CONTINUOUS
  0
LAYER
  2
LAYER126
 70
               0
 62
               7
  6
CONTINUOUS
  0
LAYER
  2
LAYER127
 70
               0
 62
               7
  6
CONTINUOUS
  0
LAYER
  2
LAYER128
 70
               0
 62
               7
  6
CONTINUOUS
  0
LAYER
  2
LAYER129
 70
               0
 62
               7
  6
CONTINUOUS
  0
LAYER
  2
LAYER130
 70
               0
 62
               7
  6
CONTINUOUS
  0
LAYER
  2
LAYER131
 70
               0
 62
               7
  6
CONTINUOUS
  0
LAYER
  2
LAYER132
 70
               0
 62
               7
  6
CONTINUOUS
  0
LAYER
  2
LAYER133
 70
               0
 62
               7
  6
CONTINUOUS
  0
LAYER
  2
LAYER134
 70
               0
 62
               7
  6
CONTINUOUS
  0
LAYER
  2
LAYER135
 70
               0
 62
               7
  6
CONTINUOUS
  0
LAYER
  2
LAYER136
 70
               0
 62
               7
  6
CONTINUOUS
  0
LAYER
  2
LAYER137
 70
               0
 62
               7
  6
CONTINUOUS
  0
LAYER
  2
LAYER138
 70
               0
 62
               7
  6
CONTINUOUS
  0
LAYER
  2
LAYER139
 70
               0
 62
               7
  6
CONTINUOUS
  0
LAYER
  2
LAYER140
 70
               0
 62
               7
  6
CONTINUOUS
  0
LAYER
  2
LAYER141
 70
               0
 62
               7
  6
CONTINUOUS
  0
LAYER
  2
LAYER142
 70
               0
 62
               7
  6
CONTINUOUS
  0
LAYER
  2
LAYER143
 70
               0
 62
               7
  6
CONTINUOUS
  0
LAYER
  2
LAYER144
 70
               0
 62
               7
  6
CONTINUOUS
  0
LAYER
  2
LAYER145
 70
               0
 62
               7
  6
CONTINUOUS
  0
LAYER
  2
LAYER146
 70
               0
 62
               7
  6
CONTINUOUS
  0
LAYER
  2
LAYER147
 70
               0
 62
               7
  6
CONTINUOUS
  0
LAYER
  2
LAYER148
 70
               0
 62
               7
  6
CONTINUOUS
  0
LAYER
  2
LAYER149
 70
               0
 62
               7
  6
CONTINUOUS
  0
LAYER
  2
LAYER150
 70
               0
 62
               7
  6
CONTINUOUS
  0
LAYER
  2
LAYER151
 70
               0
 62
               7
  6
CONTINUOUS
  0
LAYER
  2
LAYER152
 70
               0
 62
               7
  6
CONTINUOUS
  0
LAYER
  2
LAYER153
 70
               0
 62
               7
  6
CONTINUOUS
  0
LAYER
  2
LAYER154
 70
               0
 62
               7
  6
CONTINUOUS
  0
LAYER
  2
LAYER155
 70
               0
 62
               7
  6
CONTINUOUS
  0
LAYER
  2
LAYER156
 70
               0
 62
               7
  6
CONTINUOUS
  0
LAYER
  2
LAYER157
 70
               0
 62
               7
  6
CONTINUOUS
  0
LAYER
  2
LAYER158
 70
               0
 62
               7
  6
CONTINUOUS
  0
LAYER
  2
LAYER159
 70
               0
 62
               7
  6
CONTINUOUS
  0
LAYER
  2
LAYER160
 70
               0
 62
               7
  6
CONTINUOUS
  0
LAYER
  2
LAYER161
 70
               0
 62
               7
  6
CONTINUOUS
  0
LAYER
  2
LAYER162
 70
               0
 62
               7
  6
CONTINUOUS
  0
LAYER
  2
LAYER163
 70
               0
 62
               7
  6
CONTINUOUS
  0
LAYER
  2
LAYER164
 70
               0
 62
               7
  6
CONTINUOUS
  0
LAYER
  2
LAYER165
 70
               0
 62
               7
  6
CONTINUOUS
  0
LAYER
  2
LAYER166
 70
               0
 62
               7
  6
CONTINUOUS
  0
LAYER
  2
LAYER167
 70
               0
 62
               7
  6
CONTINUOUS
  0
LAYER
  2
LAYER168
 70
               0
 62
               7
  6
CONTINUOUS
  0
LAYER
  2
LAYER169
 70
               0
 62
               7
  6
CONTINUOUS
  0
LAYER
  2
LAYER170
 70
               0
 62
               7
  6
CONTINUOUS
  0
LAYER
  2
LAYER171
 70
               0
 62
               7
  6
CONTINUOUS
  0
LAYER
  2
LAYER172
 70
               0
 62
               7
  6
CONTINUOUS
  0
LAYER
  2
LAYER173
 70
               0
 62
               7
  6
CONTINUOUS
  0
LAYER
  2
LAYER174
 70
               0
 62
               7
  6
CONTINUOUS
  0
LAYER
  2
LAYER175
 70
               0
 62
               7
  6
CONTINUOUS
  0
LAYER
  2
LAYER176
 70
               0
 62
               7
  6
CONTINUOUS
  0
LAYER
  2
LAYER177
 70
               0
 62
               7
  6
CONTINUOUS
  0
LAYER
  2
LAYER178
 70
               0
 62
               7
  6
CONTINUOUS
  0
LAYER
  2
LAYER179
 70
               0
 62
               7
  6
CONTINUOUS
  0
LAYER
  2
LAYER180
 70
               0
 62
               7
  6
CONTINUOUS
  0
LAYER
  2
LAYER181
 70
               0
 62
               7
  6
CONTINUOUS
  0
LAYER
  2
LAYER182
 70
               0
 62
               7
  6
CONTINUOUS
  0
LAYER
  2
LAYER183
 70
               0
 62
               7
  6
CONTINUOUS
  0
LAYER
  2
LAYER184
 70
               0
 62
               7
  6
CONTINUOUS
  0
LAYER
  2
LAYER185
 70
               0
 62
               7
  6
CONTINUOUS
  0
LAYER
  2
LAYER186
 70
               0
 62
               7
  6
CONTINUOUS
  0
LAYER
  2
LAYER187
 70
               0
 62
               7
  6
CONTINUOUS
  0
LAYER
  2
LAYER188
 70
               0
 62
               7
  6
CONTINUOUS
  0
LAYER
  2
LAYER189
 70
               0
 62
               7
  6
CONTINUOUS
  0
LAYER
  2
LAYER190
 70
               0
 62
               7
  6
CONTINUOUS
  0
LAYER
  2
LAYER191
 70
               0
 62
               7
  6
CONTINUOUS
  0
LAYER
  2
LAYER192
 70
               0
 62
               7
  6
CONTINUOUS
  0
LAYER
  2
LAYER193
 70
               0
 62
               7
  6
CONTINUOUS
  0
LAYER
  2
LAYER194
 70
               0
 62
               7
  6
CONTINUOUS
  0
LAYER
  2
LAYER195
 70
               0
 62
               7
  6
CONTINUOUS
  0
LAYER
  2
LAYER196
 70
               0
 62
               7
  6
CONTINUOUS
  0
LAYER
  2
LAYER197
 70
               0
 62
               7
  6
CONTINUOUS
  0
LAYER
  2
LAYER198
 70
               0
 62
               7
  6
CONTINUOUS
  0
LAYER
  2
LAYER199
 70
               0
 62
               7
  6
CONTINUOUS
  0
LAYER
  2
LAYER200
 70
               0
 62
               7
  6
CONTINUOUS
  0
LAYER
  2
LAYER201
 70
               0
 62
               7
  6
CONTINUOUS
  0
LAYER
  2
LAYER202
 70
               0
 62
               7
  6
CONTINUOUS
  0
LAYER
  2
LAYER203
 70
               0
 62
               7
  6
CONTINUOUS
  0
LAYER
  2
LAYER204
 70
               0
 62
               7
  6
CONTINUOUS
  0
LAYER
  2
LAYER205
 70
               0
 62
               7
  6
CONTINUOUS
  0
LAYER
  2
LAYER206
 70
               0
 62
               7
  6
CONTINUOUS
  0
LAYER
  2
LAYER207
 70
               0
 62
               7
  6
CONTINUOUS
  0
LAYER
  2
LAYER208
 70
               0
 62
               7
  6
CONTINUOUS
  0
LAYER
  2
LAYER209
 70
               0
 62
               7
  6
CONTINUOUS
  0
LAYER
  2
LAYER210
 70
               0
 62
               7
  6
CONTINUOUS
  0
LAYER
  2
LAYER211
 70
               0
 62
               7
  6
CONTINUOUS
  0
LAYER
  2
LAYER212
 70
               0
 62
               7
  6
CONTINUOUS
  0
LAYER
  2
LAYER213
 70
               0
 62
               7
  6
CONTINUOUS
  0
LAYER
  2
LAYER214
 70
               0
 62
               7
  6
CONTINUOUS
  0
LAYER
  2
LAYER215
 70
               0
 62
               7
  6
CONTINUOUS
  0
LAYER
  2
LAYER216
 70
               0
 62
               7
  6
CONTINUOUS
  0
LAYER
  2
LAYER217
 70
               0
 62
               7
  6
CONTINUOUS
  0
LAYER
  2
LAYER218
 70
               0
 62
               7
  6
CONTINUOUS
  0
LAYER
  2
LAYER219
 70
               0
 62
               7
  6
CONTINUOUS
  0
LAYER
  2
LAYER220
 70
               0
 62
               7
  6
CONTINUOUS
  0
LAYER
  2
LAYER221
 70
               0
 62
               7
  6
CONTINUOUS
  0
LAYER
  2
LAYER222
 70
               0
 62
               7
  6
CONTINUOUS
  0
LAYER
  2
LAYER223
 70
               0
 62
               7
  6
CONTINUOUS
  0
LAYER
  2
LAYER224
 70
               0
 62
               7
  6
CONTINUOUS
  0
LAYER
  2
LAYER225
 70
               0
 62
               7
  6
CONTINUOUS
  0
LAYER
  2
LAYER226
 70
               0
 62
               7
  6
CONTINUOUS
  0
LAYER
  2
LAYER227
 70
               0
 62
               7
  6
CONTINUOUS
  0
LAYER
  2
LAYER228
 70
               0
 62
               7
  6
CONTINUOUS
  0
LAYER
  2
LAYER229
 70
               0
 62
               7
  6
CONTINUOUS
  0
LAYER
  2
LAYER230
 70
               0
 62
               7
  6
CONTINUOUS
  0
LAYER
  2
LAYER231
 70
               0
 62
               7
  6
CONTINUOUS
  0
LAYER
  2
LAYER232
 70
               0
 62
               7
  6
CONTINUOUS
  0
LAYER
  2
LAYER233
 70
               0
 62
               7
  6
CONTINUOUS
  0
LAYER
  2
LAYER234
 70
               0
 62
               7
  6
CONTINUOUS
  0
LAYER
  2
LAYER235
 70
               0
 62
               7
  6
CONTINUOUS
  0
LAYER
  2
LAYER236
 70
               0
 62
               7
  6
CONTINUOUS
  0
LAYER
  2
LAYER237
 70
               0
 62
               7
  6
CONTINUOUS
  0
LAYER
  2
LAYER238
 70
               0
 62
               7
  6
CONTINUOUS
  0
LAYER
  2
LAYER239
 70
               0
 62
               7
  6
CONTINUOUS
  0
LAYER
  2
LAYER240
 70
               0
 62
               7
  6
CONTINUOUS
  0
LAYER
  2
LAYER241
 70
               0
 62
               7
  6
CONTINUOUS
  0
LAYER
  2
LAYER242
 70
               0
 62
               7
  6
CONTINUOUS
  0
LAYER
  2
LAYER243
 70
               0
 62
               7
  6
CONTINUOUS
  0
LAYER
  2
LAYER244
 70
               0
 62
               7
  6
CONTINUOUS
  0
LAYER
  2
LAYER245
 70
               0
 62
               7
  6
CONTINUOUS
  0
LAYER
  2
LAYER246
 70
               0
 62
               7
  6
CONTINUOUS
  0
LAYER
  2
LAYER247
 70
               0
 62
               7
  6
CONTINUOUS
  0
LAYER
  2
LAYER248
 70
               0
 62
               7
  6
CONTINUOUS
  0
LAYER
  2
LAYER249
 70
               0
 62
               7
  6
CONTINUOUS
  0
LAYER
  2
LAYER250
 70
               0
 62
               7
  6
CONTINUOUS
  0
LAYER
  2
LAYER251
 70
               0
 62
               7
  6
CONTINUOUS
  0
LAYER
  2
LAYER252
 70
               0
 62
               7
  6
CONTINUOUS
  0
LAYER
  2
LAYER253
 70
               0
 62
               7
  6
CONTINUOUS
  0
LAYER
  2
LAYER254
 70
               0
 62
               7
  6
CONTINUOUS
  0
LAYER
  2
LAYER255
 70
               0
 62
               7
  6
CONTINUOUS
  0
ENDTAB
  0
TABLE
  2
STYLE
 70
               1
  0
STYLE
  2
STANDARD
 70
               0
 40
0.0
 41
1.0
 50
0.0
 71
               0
 42
24.0
  3
MS Gothic.ttf
  4

  0
ENDTAB
  0
TABLE
  2
VIEW
 70
               0
  0
VIEW
  2
QQQQ
 70
               0
 40
485.86850000000004
 10
0.0
 20
18.149999999999963
 41
304.98000000000002
 11
0.0
 21
0.0
 31
1.0
 12
100.0
 22
100.0
 32
0.0
 42
50.0
 43
0.0
 44
0.0
 50
0.0
 71
               0
  0
ENDTAB
  0
TABLE
  2
UCS
 70
               0
  0
ENDTAB
  0
TABLE
  2
APPID
 70
               1
  0
APPID
  2
ACAD
 70
               0
  0
ENDTAB
  0
TABLE
  2
DIMSTYLE
 70
               1
  0
DIMSTYLE
  2
STANDARD
 70
               0
  3

  4

  5

  6

  7

 40
1.0
 41
0.18
 42
0.0625
 43
0.38
 44
0.18
 45
0.0
 46
0.0
 47
0.0
 48
0.0
140
0.18
141
0.09
142
0.0
143
25.399999999999999
144
1.0
145
0.0
146
1.0
147
0.09
 71
               0
 72
               0
 73
               1
 74
               1
 75
               0
 76
               0
 77
               0
 78
               0
170
               0
171
               2
172
               0
173
               0
174
               0
175
               0
176
               0
177
               0
178
               0
  0
ENDTAB
  0
ENDSEC
  0
SECTION
  2
BLOCKS
  0
ENDSEC
  0
SECTION
  2
ENTITIES
  0
LINE
  8
0
  6
DASHDOT
 62
               7
  5
136
 10
0.0
 20
-125.70000000000005
 30
0.0
 11
0.0
 21
-201.70000000000005
 31
0.0
  0
LINE
  8
0
  6
DASHDOT
 62
               7
  5
137
 10
0.0
 20
238.0
 30
0.0
 11
0.0
 21
140.0
 31
0.0
  0
LINE
  8
0
  6
DASHDOT
 62
               7
  5
138
 10
0.0
 20
60.0
 30
0.0
 11
0.0000000000000169
 21
-38.0
 31
0.0
  0
LINE
  8
0
  6
DASHDOT
 62
               7
  5
139
 10
-138.0
 20
100.0
 30
0.0
 11
-17.5
 21
100.0
 31
0.0
  0
LINE
  8
0
  6
DASHDOT
 62
               7
  5
13A
 10
17.5
 20
100.0
 30
0.0
 11
138.0
 21
100.0
 31
0.0
  0
LINE
  8
0
  6
CONTINUOUS
 62
               7
  5
13B
 10
-130.0
 20
200.0
 30
0.0
 11
-130.0
 21
100.0
 31
0.0
  0
LINE
  8
0
  6
CONTINUOUS
 62
               7
  5
13C
 10
0.0
 20
230.0
 30
0.0
 11
-100.0
 21
230.0
 31
0.0
  0
ARC
  8
0
  6
CONTINUOUS
 62
               7
  5
13D
 10
-100.0
 20
200.0
 30
0.0
 40
30.0
 50
89.99999989715981
 51
179.99999979431962
  0
LINE
  8
0
  6
CONTINUOUS
 62
               7
  5
13E
 10
-105.5
 20
219.69999999999999
 30
0.0
 11
-63.299999999999955
 21
177.39999999999998
 31
0.0
  0
LINE
  8
0
  6
CONTINUOUS
 62
               7
  5
13F
 10
-119.69999999999993
 20
205.5
 30
0.0
 11
-77.399999999999977
 21
163.29999999999995
 31
0.0
  0
ARC
  8
0
  6
CONTINUOUS
 62
               7
  5
140
 10
-114.0
 20
191.39999999999998
 30
0.0
 40
6.0
 50
44.999999948579905
 51
179.99999979431962
  0
LINE
  8
0
  6
CONTINUOUS
 62
               7
  5
141
 10
0.0
 20
220.0
 30
0.0
 11
-91.399999999999977
 21
220.0
 31
0.0
  0
ARC
  8
0
  6
CONTINUOUS
 62
               7
  5
142
 10
-102.0
 20
202.0
 30
0.0
 40
18.0
 50
101.28888877314924
 51
168.71111091833018
  0
ARC
  8
0
  6
CONTINUOUS
 62
               7
  5
143
 10
-91.399999999999977
 20
214.0
 30
0.0
 40
6.0
 50
89.99999989715981
 51
224.97777752070266
  0
LINE
  8
0
  6
CONTINUOUS
 62
               7
  5
144
 10
-120.0
 20
100.0
 30
0.0
 11
-120.0
 21
191.39999999999998
 31
0.0
  0
ARC
  8
0
  6
CONTINUOUS
 62
               7
  5
145
 10
0.0
 20
100.0
 30
0.0
 40
100.0
 50
21.488888864334207
 51
338.83333294615909
  0
ARC
  8
0
  6
CONTINUOUS
 62
               7
  5
146
 10
-90.899999999999977
 20
190.79999999999995
 30
0.0
 40
1.5
 50
134.99999984573972
 51
224.99999974289952
  0
LINE
  8
0
  6
CONTINUOUS
 62
               7
  5
147
 10
-89.799999999999955
 20
191.89999999999998
 30
0.0
 11
-69.599999999999909
 21
171.79999999999995
 31
0.0
  0
ARC
  8
0
  6
CONTINUOUS
 62
               7
  5
148
 10
-90.799999999999955
 20
190.89999999999998
 30
0.0
 40
1.5
 50
44.999999948579905
 51
134.99999984573972
  0
LINE
  8
0
  6
CONTINUOUS
 62
               7
  5
149
 10
-91.899999999999977
 20
189.79999999999995
 30
0.0
 11
-71.799999999999955
 21
169.60000000000002
 31
0.0
  0
LINE
  8
0
  6
CONTINUOUS
 62
               7
  5
14A
 10
130.0
 20
200.0
 30
0.0
 11
130.0
 21
128.79999999999995
 31
0.0
  0
LINE
  8
0
  6
CONTINUOUS
 62
               7
  5
14B
 10
0.0
 20
230.0
 30
0.0
 11
100.0
 21
230.0
 31
0.0
  0
ARC
  8
0
  6
CONTINUOUS
 62
               7
  5
14C
 10
100.0
 20
200.0
 30
0.0
 40
30.0
 50
0.0
 51
89.99999989715981
  0
LINE
  8
0
  6
CONTINUOUS
 62
               7
  5
14D
 10
105.5
 20
219.69999999999999
 30
0.0
 11
63.299999999999955
 21
177.39999999999998
 31
0.0
  0
LINE
  8
0
  6
CONTINUOUS
 62
               7
  5
14E
 10
119.70000000000005
 20
205.5
 30
0.0
 11
77.400000000000091
 21
163.29999999999995
 31
0.0
  0
ARC
  8
0
  6
CONTINUOUS
 62
               7
  5
14F
 10
114.0
 20
191.39999999999998
 30
0.0
 40
6.0
 50
0.0
 51
134.99999984573972
  0
LINE
  8
0
  6
CONTINUOUS
 62
               7
  5
150
 10
0.0
 20
220.0
 30
0.0
 11
91.400000000000091
 21
220.0
 31
0.0
  0
ARC
  8
0
  6
CONTINUOUS
 62
               7
  5
151
 10
102.0
 20
202.0
 30
0.0
 40
18.0
 50
11.288888875989427
 51
78.711111021170382
  0
ARC
  8
0
  6
CONTINUOUS
 62
               7
  5
152
 10
91.400000000000091
 20
214.0
 30
0.0
 40
6.0
 50
315.02222186225617
 51
449.999999897159
  0
LINE
  8
0
  6
CONTINUOUS
 62
               7
  5
153
 10
120.0
 20
130.29999999999995
 30
0.0
 11
120.0
 21
191.39999999999998
 31
0.0
  0
ARC
  8
0
  6
CONTINUOUS
 62
               7
  5
154
 10
90.900000000000091
 20
190.79999999999995
 30
0.0
 40
1.5
 50
314.99999964005934
 51
404.9999999485791
  0
LINE
  8
0
  6
CONTINUOUS
 62
               7
  5
155
 10
89.799999999999955
 20
191.89999999999998
 30
0.0
 11
69.700000000000045
 21
171.79999999999995
 31
0.0
  0
ARC
  8
0
  6
CONTINUOUS
 62
               7
  5
156
 10
90.900000000000091
 20
190.89999999999998
 30
0.0
 40
1.5
 50
44.999999948579905
 51
134.99999984573972
  0
LINE
  8
0
  6
CONTINUOUS
 62
               7
  5
157
 10
91.900000000000091
 20
189.79999999999995
 30
0.0
 11
71.799999999999955
 21
169.60000000000002
 31
0.0
  0
LINE
  8
0
  6
CONTINUOUS
 62
               7
  5
158
 10
-130.0
 20
0.0
 30
0.0
 11
-130.0
 21
100.0
 31
0.0
  0
LINE
  8
0
  6
CONTINUOUS
 62
               7
  5
159
 10
0.0
 20
-30.0
 30
0.0
 11
-100.0
 21
-30.0
 31
0.0
  0
ARC
  8
0
  6
CONTINUOUS
 62
               7
  5
15A
 10
-100.0
 20
0.0
 30
0.0
 40
30.0
 50
179.99999979431962
 51
269.99999969147945
  0
LINE
  8
0
  6
CONTINUOUS
 62
               7
  5
15B
 10
-105.5
 20
-19.700000000000045
 30
0.0
 11
-63.299999999999955
 21
22.600000000000023
 31
0.0
  0
LINE
  8
0
  6
CONTINUOUS
 62
               7
  5
15C
 10
-119.69999999999993
 20
-5.6000000000000227
 30
0.0
 11
-77.399999999999977
 21
36.700000000000045
 31
0.0
  0
ARC
  8
0
  6
CONTINUOUS
 62
               7
  5
15D
 10
-114.0
 20
8.6000000000000227
 30
0.0
 40
6.0
 50
179.99999979431962
 51
314.99999964005934
  0
LINE
  8
0
  6
CONTINUOUS
 62
               7
  5
15E
 10
0.0
 20
-20.0
 30
0.0
 11
-91.399999999999977
 21
-20.0
 31
0.0
  0
ARC
  8
0
  6
CONTINUOUS
 62
               7
  5
15F
 10
-102.0
 20
-2.0
 30
0.0
 40
18.0
 50
191.28888867030901
 51
258.71111081549003
  0
ARC
  8
0
  6
CONTINUOUS
 62
               7
  5
160
 10
-91.399999999999977
 20
-14.0
 30
0.0
 40
6.0
 50
135.02222206793655
 51
269.99999969147945
  0
LINE
  8
0
  6
CONTINUOUS
 62
               7
  5
161
 10
-120.0
 20
100.0
 30
0.0
 11
-120.0
 21
8.6000000000000227
 31
0.0
  0
ARC
  8
0
  6
CONTINUOUS
 62
               7
  5
162
 10
-90.899999999999977
 20
9.1000000000000227
 30
0.0
 40
1.5
 50
134.99999984573972
 51
224.99999974289952
  0
LINE
  8
0
  6
CONTINUOUS
 62
               7
  5
163
 10
-89.799999999999955
 20
8.1000000000000227
 30
0.0
 11
-69.599999999999909
 21
28.200000000000045
 31
0.0
  0
ARC
  8
0
  6
CONTINUOUS
 62
               7
  5
164
 10
-90.799999999999955
 20
9.1000000000000227
 30
0.0
 40
1.5
 50
224.99999974289952
 51
314.99999964005934
  0
LINE
  8
0
  6
CONTINUOUS
 62
               7
  5
165
 10
-91.899999999999977
 20
10.200000000000045
 30
0.0
 11
-71.799999999999955
 21
30.299999999999955
 31
0.0
  0
LINE
  8
0
  6
CONTINUOUS
 62
               7
  5
166
 10
130.0
 20
0.0
 30
0.0
 11
130.0
 21
71.799999999999955
 31
0.0
  0
LINE
  8
0
  6
CONTINUOUS
 62
               7
  5
167
 10
0.0
 20
-30.0
 30
0.0
 11
100.0
 21
-30.0
 31
0.0
  0
ARC
  8
0
  6
CONTINUOUS
 62
               7
  5
168
 10
100.0
 20
0.0
 30
0.0
 40
30.0
 50
269.99999969147945
 51
359.99999958863924
  0
LINE
  8
0
  6
CONTINUOUS
 62
               7
  5
169
 10
105.5
 20
-19.700000000000045
 30
0.0
 11
63.299999999999955
 21
22.600000000000023
 31
0.0
  0
LINE
  8
0
  6
CONTINUOUS
 62
               7
  5
16A
 10
119.70000000000005
 20
-5.6000000000000227
 30
0.0
 11
77.400000000000091
 21
36.700000000000045
 31
0.0
  0
ARC
  8
0
  6
CONTINUOUS
 62
               7
  5
16B
 10
114.0
 20
8.6000000000000227
 30
0.0
 40
6.0
 50
224.99999974289952
 51
359.99999958863924
  0
LINE
  8
0
  6
CONTINUOUS
 62
               7
  5
16C
 10
0.0
 20
-20.0
 30
0.0
 11
91.400000000000091
 21
-20.0
 31
0.0
  0
ARC
  8
0
  6
CONTINUOUS
 62
               7
  5
16D
 10
102.0
 20
-2.0
 30
0.0
 40
18.0
 50
281.28888856746892
 51
348.71111071264983
  0
ARC
  8
0
  6
CONTINUOUS
 62
               7
  5
16E
 10
91.400000000000091
 20
-14.0
 30
0.0
 40
6.0
 50
269.99999969147945
 51
404.97777772638227
  0
LINE
  8
0
  6
CONTINUOUS
 62
               7
  5
16F
 10
120.0
 20
70.299999999999955
 30
0.0
 11
120.0
 21
8.6000000000000227
 31
0.0
  0
ARC
  8
0
  6
CONTINUOUS
 62
               7
  5
170
 10
90.900000000000091
 20
9.1000000000000227
 30
0.0
 40
1.5
 50
314.99999964005934
 51
404.9999999485791
  0
LINE
  8
0
  6
CONTINUOUS
 62
               7
  5
171
 10
89.799999999999955
 20
8.1000000000000227
 30
0.0
 11
69.700000000000045
 21
28.200000000000045
 31
0.0
  0
ARC
  8
0
  6
CONTINUOUS
 62
               7
  5
172
 10
90.900000000000091
 20
9.1000000000000227
 30
0.0
 40
1.5
 50
224.99999974289952
 51
314.99999964005934
  0
LINE
  8
0
  6
CONTINUOUS
 62
               7
  5
173
 10
91.900000000000091
 20
10.200000000000045
 30
0.0
 11
71.799999999999955
 21
30.299999999999955
 31
0.0
  0
ARC
  8
0
  6
CONTINUOUS
 62
               7
  5
174
 10
0.0
 20
100.0
 30
0.0
 40
81.0
 50
351.96293812537607
 51
368.0370618746224
  0
ARC
  8
0
  6
CONTINUOUS
 62
               7
  5
175
 10
0.0
 20
100.0
 30
0.0
 40
81.0
 50
18.411111090073305
 51
340.75555516618482
  0
CIRCLE
  8
0
  6
CONTINUOUS
 62
               7
  5
176
 10
-63.0
 20
100.0
 30
0.0
 40
9.0
  0
CIRCLE
  8
0
  6
CONTINUOUS
 62
               7
  5
177
 10
-63.0
 20
100.0
 30
0.0
 40
14.0
  0
LINE
  8
0
  6
CONTINUOUS
 62
               7
  5
178
 10
-14.5
 20
140.0
 30
0.0
 11
14.5
 21
140.0
 31
0.0
  0
ARC
  8
0
  6
CONTINUOUS
 62
               7
  5
179
 10
-14.5
 20
137.0
 30
0.0
 40
3.0
 50
89.99999989715981
 51
179.99999979431962
  0
LINE
  8
0
  6
CONTINUOUS
 62
               7
  5
17A
 10
17.5
 20
137.0
 30
0.0
 11
17.5
 21
63.0
 31
0.0
  0
ARC
  8
0
  6
CONTINUOUS
 62
               7
  5
17B
 10
14.5
 20
63.0
 30
0.0
 40
3.0
 50
269.99999969147945
 51
359.99999958863924
  0
ARC
  8
0
  6
CONTINUOUS
 62
               7
  5
17C
 10
14.5
 20
137.0
 30
0.0
 40
3.0
 50
0.0
 51
89.99999989715981
  0
LINE
  8
0
  6
CONTINUOUS
 62
               7
  5
17D
 10
14.5
 20
60.0
 30
0.0
 11
-14.5
 21
60.0
 31
0.0
  0
ARC
  8
0
  6
CONTINUOUS
 62
               7
  5
17E
 10
-14.5
 20
63.0
 30
0.0
 40
3.0
 50
179.99999979431962
 51
269.99999969147945
  0
LINE
  8
0
  6
CONTINUOUS
 62
               7
  5
17F
 10
-17.5
 20
63.0
 30
0.0
 11
-17.5
 21
137.0
 31
0.0
  0
LINE
  8
0
  6
CONTINUOUS
 62
               7
  5
180
 10
-14.5
 20
145.0
 30
0.0
 11
14.5
 21
145.0
 31
0.0
  0
ARC
  8
0
  6
CONTINUOUS
 62
               7
  5
181
 10
-14.5
 20
137.0
 30
0.0
 40
8.0
 50
89.99999989715981
 51
179.99999979431962
  0
LINE
  8
0
  6
CONTINUOUS
 62
               7
  5
182
 10
22.5
 20
137.0
 30
0.0
 11
22.5
 21
63.0
 31
0.0
  0
ARC
  8
0
  6
CONTINUOUS
 62
               7
  5
183
 10
14.5
 20
63.0
 30
0.0
 40
8.0
 50
269.99999969147945
 51
359.99999958863924
  0
ARC
  8
0
  6
CONTINUOUS
 62
               7
  5
184
 10
14.5
 20
137.0
 30
0.0
 40
8.0
 50
0.0
 51
89.99999989715981
  0
LINE
  8
0
  6
CONTINUOUS
 62
               7
  5
185
 10
14.5
 20
55.0
 30
0.0
 11
-14.5
 21
55.0
 31
0.0
  0
ARC
  8
0
  6
CONTINUOUS
 62
               7
  5
186
 10
-14.5
 20
63.0
 30
0.0
 40
8.0
 50
179.99999979431962
 51
269.99999969147945
  0
LINE
  8
0
  6
CONTINUOUS
 62
               7
  5
187
 10
-22.5
 20
63.0
 30
0.0
 11
-22.5
 21
137.0
 31
0.0
  0
LINE
  8
0
  6
CONTINUOUS
 62
               7
  5
188
 10
117.0
 20
120.0
 30
0.0
 11
85.900000000000091
 21
120.0
 31
0.0
  0
ARC
  8
0
  6
CONTINUOUS
 62
               7
  5
189
 10
85.900000000000091
 20
130.0
 30
0.0
 40
10.0
 50
199.24444421677404
 51
269.99999969147945
  0
LINE
  8
0
  6
CONTINUOUS
 62
               7
  5
18A
 10
85.900000000000091
 20
80.0
 30
0.0
 11
117.0
 21
80.0
 31
0.0
  0
ARC
  8
0
  6
CONTINUOUS
 62
               7
  5
18B
 10
85.900000000000091
 20
70.0
 30
0.0
 40
10.0
 50
89.99999989715981
 51
160.75555537186523
  0
LINE
  8
0
  6
CONTINUOUS
 62
               7
  5
18C
 10
120.0
 20
117.0
 30
0.0
 11
120.0
 21
83.0
 31
0.0
  0
ARC
  8
0
  6
CONTINUOUS
 62
               7
  5
18D
 10
117.0
 20
83.0
 30
0.0
 40
3.0
 50
269.99999969147945
 51
359.99999958863924
  0
ARC
  8
0
  6
CONTINUOUS
 62
               7
  5
18E
 10
117.0
 20
117.0
 30
0.0
 40
3.0
 50
0.0
 51
89.99999989715981
  0
LINE
  8
0
  6
CONTINUOUS
 62
               7
  5
18F
 10
132.0
 20
124.29999999999995
 30
0.0
 11
132.0
 21
76.299999999999955
 31
0.0
  0
ARC
  8
0
  6
CONTINUOUS
 62
               7
  5
190
 10
126.0
 20
76.299999999999955
 30
0.0
 40
6.0
 50
269.99999969147945
 51
359.99999958863924
  0
ARC
  8
0
  6
CONTINUOUS
 62
               7
  5
191
 10
126.0
 20
124.29999999999995
 30
0.0
 40
6.0
 50
0.0
 51
89.99999989715981
  0
LINE
  8
0
  6
CONTINUOUS
 62
               7
  5
192
 10
126.0
 20
130.29999999999995
 30
0.0
 11
102.40000000000009
 21
130.29999999999995
 31
0.0
  0
ARC
  8
0
  6
CONTINUOUS
 62
               7
  5
193
 10
102.40000000000009
 20
140.29999999999995
 30
0.0
 40
10.0
 50
201.48888865865385
 51
269.99999969147945
  0
LINE
  8
0
  6
CONTINUOUS
 62
               7
  5
194
 10
102.60000000000014
 20
70.299999999999955
 30
0.0
 11
126.0
 21
70.299999999999955
 31
0.0
  0
ARC
  8
0
  6
CONTINUOUS
 62
               7
  5
195
 10
102.60000000000014
 20
60.299999999999955
 30
0.0
 40
10.0
 50
89.99999989715981
 51
158.84444426293786
  0
LINE
  8
0
  6
CONTINUOUS
 62
               7
  5
196
 10
-8.0
 20
150.0
 30
0.0
 11
0.0
 21
150.0
 31
0.0
  0
LINE
  8
0
  6
CONTINUOUS
 62
               7
  5
197
 10
-8.0
 20
145.0
 30
0.0
 11
-8.0
 21
150.0
 31
0.0
  0
LINE
  8
0
  6
CONTINUOUS
 62
               7
  5
198
 10
-8.0
 20
171.0
 30
0.0
 11
0.0
 21
171.0
 31
0.0
  0
LINE
  8
0
  6
CONTINUOUS
 62
               7
  5
199
 10
0.0
 20
155.0
 30
0.0
 11
-8.0
 21
155.0
 31
0.0
  0
LINE
  8
0
  6
CONTINUOUS
 62
               7
  5
19A
 10
-8.0
 20
155.0
 30
0.0
 11
-8.0
 21
171.0
 31
0.0
  0
LINE
  8
0
  6
CONTINUOUS
 62
               7
  5
19B
 10
-22.5
 20
108.0
 30
0.0
 11
-29.0
 21
108.0
 31
0.0
  0
LINE
  8
0
  6
CONTINUOUS
 62
               7
  5
19C
 10
-29.0
 20
108.0
 30
0.0
 11
-29.0
 21
100.0
 31
0.0
  0
LINE
  8
0
  6
CONTINUOUS
 62
               7
  5
19D
 10
-22.5
 20
129.0
 30
0.0
 11
-29.0
 21
129.0
 31
0.0
  0
LINE
  8
0
  6
CONTINUOUS
 62
               7
  5
19E
 10
-29.0
 20
129.0
 30
0.0
 11
-29.0
 21
113.0
 31
0.0
  0
LINE
  8
0
  6
CONTINUOUS
 62
               7
  5
19F
 10
-29.0
 20
113.0
 30
0.0
 11
-22.5
 21
113.0
 31
0.0
  0
LINE
  8
0
  6
CONTINUOUS
 62
               7
  5
1A0
 10
-13.0
 20
150.0
 30
0.0
 11
-29.0
 21
150.0
 31
0.0
  0
LINE
  8
0
  6
CONTINUOUS
 62
               7
  5
1A1
 10
-29.0
 20
150.0
 30
0.0
 11
-29.0
 21
134.0
 31
0.0
  0
LINE
  8
0
  6
CONTINUOUS
 62
               7
  5
1A2
 10
-29.0
 20
134.0
 30
0.0
 11
-22.5
 21
134.0
 31
0.0
  0
LINE
  8
0
  6
CONTINUOUS
 62
               7
  5
1A3
 10
-13.0
 20
145.0
 30
0.0
 11
-13.0
 21
150.0
 31
0.0
  0
LINE
  8
0
  6
CONTINUOUS
 62
               7
  5
1A4
 10
-13.0
 20
171.0
 30
0.0
 11
-17.0
 21
171.0
 31
0.0
  0
LINE
  8
0
  6
CONTINUOUS
 62
               7
  5
1A5
 10
-29.0
 20
167.0
 30
0.0
 11
-29.0
 21
155.0
 31
0.0
  0
LINE
  8
0
  6
CONTINUOUS
 62
               7
  5
1A6
 10
-29.0
 20
155.0
 30
0.0
 11
-13.0
 21
155.0
 31
0.0
  0
LINE
  8
0
  6
CONTINUOUS
 62
               7
  5
1A7
 10
-13.0
 20
155.0
 30
0.0
 11
-13.0
 21
171.0
 31
0.0
  0
LINE
  8
0
  6
CONTINUOUS
 62
               7
  5
1A8
 10
-50.0
 20
108.0
 30
0.0
 11
-34.0
 21
108.0
 31
0.0
  0
LINE
  8
0
  6
CONTINUOUS
 62
               7
  5
1A9
 10
-34.0
 20
108.0
 30
0.0
 11
-34.0
 21
100.0
 31
0.0
  0
LINE
  8
0
  6
CONTINUOUS
 62
               7
  5
1AA
 10
-50.0
 20
105.20000000000005
 30
0.0
 11
-50.0
 21
108.0
 31
0.0
  0
LINE
  8
0
  6
CONTINUOUS
 62
               7
  5
1AB
 10
-50.0
 20
129.0
 30
0.0
 11
-34.0
 21
129.0
 31
0.0
  0
LINE
  8
0
  6
CONTINUOUS
 62
               7
  5
1AC
 10
-34.0
 20
129.0
 30
0.0
 11
-34.0
 21
113.0
 31
0.0
  0
LINE
  8
0
  6
CONTINUOUS
 62
               7
  5
1AD
 10
-34.0
 20
113.0
 30
0.0
 11
-50.0
 21
113.0
 31
0.0
  0
LINE
  8
0
  6
CONTINUOUS
 62
               7
  5
1AE
 10
-50.0
 20
113.0
 30
0.0
 11
-50.0
 21
129.0
 31
0.0
  0
LINE
  8
0
  6
CONTINUOUS
 62
               7
  5
1AF
 10
-50.0
 20
150.0
 30
0.0
 11
-34.0
 21
150.0
 31
0.0
  0
LINE
  8
0
  6
CONTINUOUS
 62
               7
  5
1B0
 10
-34.0
 20
150.0
 30
0.0
 11
-34.0
 21
134.0
 31
0.0
  0
LINE
  8
0
  6
CONTINUOUS
 62
               7
  5
1B1
 10
-34.0
 20
134.0
 30
0.0
 11
-50.0
 21
134.0
 31
0.0
  0
LINE
  8
0
  6
CONTINUOUS
 62
               7
  5
1B2
 10
-50.0
 20
134.0
 30
0.0
 11
-50.0
 21
150.0
 31
0.0
  0
LINE
  8
0
  6
CONTINUOUS
 62
               7
  5
1B3
 10
-34.0
 20
164.60000000000002
 30
0.0
 11
-34.0
 21
155.0
 31
0.0
  0
LINE
  8
0
  6
CONTINUOUS
 62
               7
  5
1B4
 10
-34.0
 20
155.0
 30
0.0
 11
-48.0
 21
155.0
 31
0.0
  0
LINE
  8
0
  6
CONTINUOUS
 62
               7
  5
1B5
 10
-55.0
 20
129.0
 30
0.0
 11
-67.0
 21
129.0
 31
0.0
  0
LINE
  8
0
  6
CONTINUOUS
 62
               7
  5
1B6
 10
-71.0
 20
117.0
 30
0.0
 11
-71.0
 21
113.0
 31
0.0
  0
LINE
  8
0
  6
CONTINUOUS
 62
               7
  5
1B7
 10
-71.0
 20
113.0
 30
0.0
 11
-68.200000000000045
 21
113.0
 31
0.0
  0
LINE
  8
0
  6
CONTINUOUS
 62
               7
  5
1B8
 10
-57.799999999999955
 20
113.0
 30
0.0
 11
-55.0
 21
113.0
 31
0.0
  0
LINE
  8
0
  6
CONTINUOUS
 62
               7
  5
1B9
 10
-55.0
 20
113.0
 30
0.0
 11
-55.0
 21
129.0
 31
0.0
  0
LINE
  8
0
  6
CONTINUOUS
 62
               7
  5
1BA
 10
-64.599999999999909
 20
134.0
 30
0.0
 11
-55.0
 21
134.0
 31
0.0
  0
LINE
  8
0
  6
CONTINUOUS
 62
               7
  5
1BB
 10
-55.0
 20
134.0
 30
0.0
 11
-55.0
 21
148.0
 31
0.0
  0
ARC
  8
0
  6
CONTINUOUS
 62
               7
  5
1BC
 10
0.0
 20
100.0
 30
0.0
 40
73.0
 50
103.44444432624171
 51
113.39999987042135
  0
ARC
  8
0
  6
CONTINUOUS
 62
               7
  5
1BD
 10
0.0
 20
100.0
 30
0.0
 40
73.0
 50
117.75555542099997
 51
131.11111096129454
  0
ARC
  8
0
  6
CONTINUOUS
 62
               7
  5
1BE
 10
0.0
 20
100.0
 30
0.0
 40
73.0
 50
138.88888873018487
 51
152.24444427047948
  0
ARC
  8
0
  6
CONTINUOUS
 62
               7
  5
1BF
 10
0.0
 20
100.0
 30
0.0
 40
73.0
 50
156.59999982105808
 51
166.55555536523772
  0
LINE
  8
0
  6
CONTINUOUS
 62
               7
  5
1C0
 10
8.0
 20
150.0
 30
0.0
 11
0.0
 21
150.0
 31
0.0
  0
LINE
  8
0
  6
CONTINUOUS
 62
               7
  5
1C1
 10
8.0
 20
145.0
 30
0.0
 11
8.0
 21
150.0
 31
0.0
  0
LINE
  8
0
  6
CONTINUOUS
 62
               7
  5
1C2
 10
8.0
 20
171.0
 30
0.0
 11
0.0
 21
171.0
 31
0.0
  0
LINE
  8
0
  6
CONTINUOUS
 62
               7
  5
1C3
 10
0.0
 20
155.0
 30
0.0
 11
8.0
 21
155.0
 31
0.0
  0
LINE
  8
0
  6
CONTINUOUS
 62
               7
  5
1C4
 10
8.0
 20
155.0
 30
0.0
 11
8.0
 21
171.0
 31
0.0
  0
LINE
  8
0
  6
CONTINUOUS
 62
               7
  5
1C5
 10
22.5
 20
108.0
 30
0.0
 11
29.0
 21
108.0
 31
0.0
  0
LINE
  8
0
  6
CONTINUOUS
 62
               7
  5
1C6
 10
29.0
 20
108.0
 30
0.0
 11
29.0
 21
100.0
 31
0.0
  0
LINE
  8
0
  6
CONTINUOUS
 62
               7
  5
1C7
 10
22.5
 20
129.0
 30
0.0
 11
29.0
 21
129.0
 31
0.0
  0
LINE
  8
0
  6
CONTINUOUS
 62
               7
  5
1C8
 10
29.0
 20
129.0
 30
0.0
 11
29.0
 21
113.0
 31
0.0
  0
LINE
  8
0
  6
CONTINUOUS
 62
               7
  5
1C9
 10
29.0
 20
113.0
 30
0.0
 11
22.5
 21
113.0
 31
0.0
  0
LINE
  8
0
  6
CONTINUOUS
 62
               7
  5
1CA
 10
13.0
 20
150.0
 30
0.0
 11
29.0
 21
150.0
 31
0.0
  0
LINE
  8
0
  6
CONTINUOUS
 62
               7
  5
1CB
 10
29.0
 20
150.0
 30
0.0
 11
29.0
 21
134.0
 31
0.0
  0
LINE
  8
0
  6
CONTINUOUS
 62
               7
  5
1CC
 10
29.0
 20
134.0
 30
0.0
 11
22.5
 21
134.0
 31
0.0
  0
LINE
  8
0
  6
CONTINUOUS
 62
               7
  5
1CD
 10
13.0
 20
145.0
 30
0.0
 11
13.0
 21
150.0
 31
0.0
  0
LINE
  8
0
  6
CONTINUOUS
 62
               7
  5
1CE
 10
13.0
 20
171.0
 30
0.0
 11
17.0
 21
171.0
 31
0.0
  0
LINE
  8
0
  6
CONTINUOUS
 62
               7
  5
1CF
 10
29.0
 20
167.0
 30
0.0
 11
29.0
 21
155.0
 31
0.0
  0
LINE
  8
0
  6
CONTINUOUS
 62
               7
  5
1D0
 10
29.0
 20
155.0
 30
0.0
 11
13.0
 21
155.0
 31
0.0
  0
LINE
  8
0
  6
CONTINUOUS
 62
               7
  5
1D1
 10
13.0
 20
155.0
 30
0.0
 11
13.0
 21
171.0
 31
0.0
  0
LINE
  8
0
  6
CONTINUOUS
 62
               7
  5
1D2
 10
50.0
 20
108.0
 30
0.0
 11
34.0
 21
108.0
 31
0.0
  0
LINE
  8
0
  6
CONTINUOUS
 62
               7
  5
1D3
 10
34.0
 20
108.0
 30
0.0
 11
34.0
 21
100.0
 31
0.0
  0
LINE
  8
0
  6
CONTINUOUS
 62
               7
  5
1D4
 10
50.0
 20
100.0
 30
0.0
 11
50.0
 21
108.0
 31
0.0
  0
LINE
  8
0
  6
CONTINUOUS
 62
               7
  5
1D5
 10
50.0
 20
129.0
 30
0.0
 11
34.0
 21
129.0
 31
0.0
  0
LINE
  8
0
  6
CONTINUOUS
 62
               7
  5
1D6
 10
34.0
 20
129.0
 30
0.0
 11
34.0
 21
113.0
 31
0.0
  0
LINE
  8
0
  6
CONTINUOUS
 62
               7
  5
1D7
 10
34.0
 20
113.0
 30
0.0
 11
50.0
 21
113.0
 31
0.0
  0
LINE
  8
0
  6
CONTINUOUS
 62
               7
  5
1D8
 10
50.0
 20
113.0
 30
0.0
 11
50.0
 21
129.0
 31
0.0
  0
LINE
  8
0
  6
CONTINUOUS
 62
               7
  5
1D9
 10
50.0
 20
150.0
 30
0.0
 11
34.0
 21
150.0
 31
0.0
  0
LINE
  8
0
  6
CONTINUOUS
 62
               7
  5
1DA
 10
34.0
 20
150.0
 30
0.0
 11
34.0
 21
134.0
 31
0.0
  0
LINE
  8
0
  6
CONTINUOUS
 62
               7
  5
1DB
 10
34.0
 20
134.0
 30
0.0
 11
50.0
 21
134.0
 31
0.0
  0
LINE
  8
0
  6
CONTINUOUS
 62
               7
  5
1DC
 10
50.0
 20
134.0
 30
0.0
 11
50.0
 21
150.0
 31
0.0
  0
LINE
  8
0
  6
CONTINUOUS
 62
               7
  5
1DD
 10
34.0
 20
164.60000000000002
 30
0.0
 11
34.0
 21
155.0
 31
0.0
  0
LINE
  8
0
  6
CONTINUOUS
 62
               7
  5
1DE
 10
34.0
 20
155.0
 30
0.0
 11
48.0
 21
155.0
 31
0.0
  0
LINE
  8
0
  6
CONTINUOUS
 62
               7
  5
1DF
 10
55.0
 20
129.0
 30
0.0
 11
67.0
 21
129.0
 31
0.0
  0
LINE
  8
0
  6
CONTINUOUS
 62
               7
  5
1E0
 10
71.0
 20
117.0
 30
0.0
 11
71.0
 21
113.0
 31
0.0
  0
LINE
  8
0
  6
CONTINUOUS
 62
               7
  5
1E1
 10
71.0
 20
113.0
 30
0.0
 11
55.0
 21
113.0
 31
0.0
  0
LINE
  8
0
  6
CONTINUOUS
 62
               7
  5
1E2
 10
55.0
 20
113.0
 30
0.0
 11
55.0
 21
129.0
 31
0.0
  0
LINE
  8
0
  6
CONTINUOUS
 62
               7
  5
1E3
 10
64.600000000000136
 20
134.0
 30
0.0
 11
55.0
 21
134.0
 31
0.0
  0
LINE
  8
0
  6
CONTINUOUS
 62
               7
  5
1E4
 10
55.0
 20
134.0
 30
0.0
 11
55.0
 21
148.0
 31
0.0
  0
ARC
  8
0
  6
CONTINUOUS
 62
               7
  5
1E5
 10
0.0
 20
100.0
 30
0.0
 40
73.0
 50
66.599999923898267
 51
76.555555468077912
  0
ARC
  8
0
  6
CONTINUOUS
 62
               7
  5
1E6
 10
0.0
 20
100.0
 30
0.0
 40
73.0
 50
48.888888833025085
 51
62.244444373319666
  0
ARC
  8
0
  6
CONTINUOUS
 62
               7
  5
1E7
 10
0.0
 20
100.0
 30
0.0
 40
73.0
 50
27.755555523840151
 51
41.111111064134725
  0
ARC
  8
0
  6
CONTINUOUS
 62
               7
  5
1E8
 10
0.0
 20
100.0
 30
0.0
 40
73.0
 50
13.4444444290819
 51
23.399999973261551
  0
LINE
  8
0
  6
CONTINUOUS
 62
               7
  5
1E9
 10
71.0
 20
108.0
 30
0.0
 11
55.0
 21
108.0
 31
0.0
  0
LINE
  8
0
  6
CONTINUOUS
 62
               7
  5
1EA
 10
55.0
 20
108.0
 30
0.0
 11
55.0
 21
100.0
 31
0.0
  0
LINE
  8
0
  6
CONTINUOUS
 62
               7
  5
1EB
 10
71.0
 20
100.0
 30
0.0
 11
71.0
 21
108.0
 31
0.0
  0
LINE
  8
0
  6
CONTINUOUS
 62
               7
  5
1EC
 10
-8.0
 20
50.0
 30
0.0
 11
0.0
 21
50.0
 31
0.0
  0
LINE
  8
0
  6
CONTINUOUS
 62
               7
  5
1ED
 10
-8.0
 20
55.0
 30
0.0
 11
-8.0
 21
50.0
 31
0.0
  0
LINE
  8
0
  6
CONTINUOUS
 62
               7
  5
1EE
 10
-8.0
 20
29.0
 30
0.0
 11
0.0
 21
29.0
 31
0.0
  0
LINE
  8
0
  6
CONTINUOUS
 62
               7
  5
1EF
 10
0.0
 20
45.0
 30
0.0
 11
-8.0
 21
45.0
 31
0.0
  0
LINE
  8
0
  6
CONTINUOUS
 62
               7
  5
1F0
 10
-8.0
 20
45.0
 30
0.0
 11
-8.0
 21
29.0
 31
0.0
  0
LINE
  8
0
  6
CONTINUOUS
 62
               7
  5
1F1
 10
-22.5
 20
92.0
 30
0.0
 11
-29.0
 21
92.0
 31
0.0
  0
LINE
  8
0
  6
CONTINUOUS
 62
               7
  5
1F2
 10
-29.0
 20
92.0
 30
0.0
 11
-29.0
 21
100.0
 31
0.0
  0
LINE
  8
0
  6
CONTINUOUS
 62
               7
  5
1F3
 10
-22.5
 20
71.0
 30
0.0
 11
-29.0
 21
71.0
 31
0.0
  0
LINE
  8
0
  6
CONTINUOUS
 62
               7
  5
1F4
 10
-29.0
 20
71.0
 30
0.0
 11
-29.0
 21
87.0
 31
0.0
  0
LINE
  8
0
  6
CONTINUOUS
 62
               7
  5
1F5
 10
-29.0
 20
87.0
 30
0.0
 11
-22.5
 21
87.0
 31
0.0
  0
LINE
  8
0
  6
CONTINUOUS
 62
               7
  5
1F6
 10
-13.0
 20
50.0
 30
0.0
 11
-29.0
 21
50.0
 31
0.0
  0
LINE
  8
0
  6
CONTINUOUS
 62
               7
  5
1F7
 10
-29.0
 20
50.0
 30
0.0
 11
-29.0
 21
66.0
 31
0.0
  0
LINE
  8
0
  6
CONTINUOUS
 62
               7
  5
1F8
 10
-29.0
 20
66.0
 30
0.0
 11
-22.5
 21
66.0
 31
0.0
  0
LINE
  8
0
  6
CONTINUOUS
 62
               7
  5
1F9
 10
-13.0
 20
55.0
 30
0.0
 11
-13.0
 21
50.0
 31
0.0
  0
LINE
  8
0
  6
CONTINUOUS
 62
               7
  5
1FA
 10
-13.0
 20
29.0
 30
0.0
 11
-17.0
 21
29.0
 31
0.0
  0
LINE
  8
0
  6
CONTINUOUS
 62
               7
  5
1FB
 10
-29.0
 20
32.899999999999977
 30
0.0
 11
-29.0
 21
45.0
 31
0.0
  0
LINE
  8
0
  6
CONTINUOUS
 62
               7
  5
1FC
 10
-29.0
 20
45.0
 30
0.0
 11
-13.0
 21
45.0
 31
0.0
  0
LINE
  8
0
  6
CONTINUOUS
 62
               7
  5
1FD
 10
-13.0
 20
45.0
 30
0.0
 11
-13.0
 21
29.0
 31
0.0
  0
LINE
  8
0
  6
CONTINUOUS
 62
               7
  5
1FE
 10
-50.0
 20
92.0
 30
0.0
 11
-34.0
 21
92.0
 31
0.0
  0
LINE
  8
0
  6
CONTINUOUS
 62
               7
  5
1FF
 10
-34.0
 20
92.0
 30
0.0
 11
-34.0
 21
100.0
 31
0.0
  0
LINE
  8
0
  6
CONTINUOUS
 62
               7
  5
200
 10
-50.0
 20
94.799999999999955
 30
0.0
 11
-50.0
 21
92.0
 31
0.0
  0
LINE
  8
0
  6
CONTINUOUS
 62
               7
  5
201
 10
-50.0
 20
71.0
 30
0.0
 11
-34.0
 21
71.0
 31
0.0
  0
LINE
  8
0
  6
CONTINUOUS
 62
               7
  5
202
 10
-34.0
 20
71.0
 30
0.0
 11
-34.0
 21
87.0
 31
0.0
  0
LINE
  8
0
  6
CONTINUOUS
 62
               7
  5
203
 10
-34.0
 20
87.0
 30
0.0
 11
-50.0
 21
87.0
 31
0.0
  0
LINE
  8
0
  6
CONTINUOUS
 62
               7
  5
204
 10
-50.0
 20
87.0
 30
0.0
 11
-50.0
 21
71.0
 31
0.0
  0
LINE
  8
0
  6
CONTINUOUS
 62
               7
  5
205
 10
-50.0
 20
50.0
 30
0.0
 11
-34.0
 21
50.0
 31
0.0
  0
LINE
  8
0
  6
CONTINUOUS
 62
               7
  5
206
 10
-34.0
 20
50.0
 30
0.0
 11
-34.0
 21
66.0
 31
0.0
  0
LINE
  8
0
  6
CONTINUOUS
 62
               7
  5
207
 10
-34.0
 20
66.0
 30
0.0
 11
-50.0
 21
66.0
 31
0.0
  0
LINE
  8
0
  6
CONTINUOUS
 62
               7
  5
208
 10
-50.0
 20
66.0
 30
0.0
 11
-50.0
 21
50.0
 31
0.0
  0
LINE
  8
0
  6
CONTINUOUS
 62
               7
  5
209
 10
-34.0
 20
35.399999999999977
 30
0.0
 11
-34.0
 21
45.0
 31
0.0
  0
LINE
  8
0
  6
CONTINUOUS
 62
               7
  5
20A
 10
-34.0
 20
45.0
 30
0.0
 11
-48.0
 21
45.0
 31
0.0
  0
LINE
  8
0
  6
CONTINUOUS
 62
               7
  5
20B
 10
-55.0
 20
71.0
 30
0.0
 11
-67.0
 21
71.0
 31
0.0
  0
LINE
  8
0
  6
CONTINUOUS
 62
               7
  5
20C
 10
-71.0
 20
83.0
 30
0.0
 11
-71.0
 21
87.0
 31
0.0
  0
LINE
  8
0
  6
CONTINUOUS
 62
               7
  5
20D
 10
-71.0
 20
87.0
 30
0.0
 11
-68.200000000000045
 21
87.0
 31
0.0
  0
LINE
  8
0
  6
CONTINUOUS
 62
               7
  5
20E
 10
-57.799999999999955
 20
87.0
 30
0.0
 11
-55.0
 21
87.0
 31
0.0
  0
LINE
  8
0
  6
CONTINUOUS
 62
               7
  5
20F
 10
-55.0
 20
87.0
 30
0.0
 11
-55.0
 21
71.0
 31
0.0
  0
LINE
  8
0
  6
CONTINUOUS
 62
               7
  5
210
 10
-64.599999999999909
 20
66.0
 30
0.0
 11
-55.0
 21
66.0
 31
0.0
  0
LINE
  8
0
  6
CONTINUOUS
 62
               7
  5
211
 10
-55.0
 20
66.0
 30
0.0
 11
-55.0
 21
52.0
 31
0.0
  0
ARC
  8
0
  6
CONTINUOUS
 62
               7
  5
212
 10
0.0
 20
100.0
 30
0.0
 40
73.0
 50
246.5999997182179
 51
256.55555526239755
  0
ARC
  8
0
  6
CONTINUOUS
 62
               7
  5
213
 10
0.0
 20
100.0
 30
0.0
 40
73.0
 50
228.88888862734467
 51
242.24444416763927
  0
ARC
  8
0
  6
CONTINUOUS
 62
               7
  5
214
 10
0.0
 20
100.0
 30
0.0
 40
73.0
 50
207.75555531815974
 51
221.11111085845431
  0
ARC
  8
0
  6
CONTINUOUS
 62
               7
  5
215
 10
0.0
 20
100.0
 30
0.0
 40
73.0
 50
193.44444422340149
 51
203.39999976758114
  0
LINE
  8
0
  6
CONTINUOUS
 62
               7
  5
216
 10
8.0
 20
50.0
 30
0.0
 11
0.0
 21
50.0
 31
0.0
  0
LINE
  8
0
  6
CONTINUOUS
 62
               7
  5
217
 10
8.0
 20
55.0
 30
0.0
 11
8.0
 21
50.0
 31
0.0
  0
LINE
  8
0
  6
CONTINUOUS
 62
               7
  5
218
 10
8.0
 20
29.0
 30
0.0
 11
0.0
 21
29.0
 31
0.0
  0
LINE
  8
0
  6
CONTINUOUS
 62
               7
  5
219
 10
0.0
 20
45.0
 30
0.0
 11
8.0
 21
45.0
 31
0.0
  0
LINE
  8
0
  6
CONTINUOUS
 62
               7
  5
21A
 10
8.0
 20
45.0
 30
0.0
 11
8.0
 21
29.0
 31
0.0
  0
LINE
  8
0
  6
CONTINUOUS
 62
               7
  5
21B
 10
22.5
 20
92.0
 30
0.0
 11
29.0
 21
92.0
 31
0.0
  0
LINE
  8
0
  6
CONTINUOUS
 62
               7
  5
21C
 10
29.0
 20
92.0
 30
0.0
 11
29.0
 21
100.0
 31
0.0
  0
LINE
  8
0
  6
CONTINUOUS
 62
               7
  5
21D
 10
22.5
 20
71.0
 30
0.0
 11
29.0
 21
71.0
 31
0.0
  0
LINE
  8
0
  6
CONTINUOUS
 62
               7
  5
21E
 10
29.0
 20
71.0
 30
0.0
 11
29.0
 21
87.0
 31
0.0
  0
LINE
  8
0
  6
CONTINUOUS
 62
               7
  5
21F
 10
29.0
 20
87.0
 30
0.0
 11
22.5
 21
87.0
 31
0.0
  0
LINE
  8
0
  6
CONTINUOUS
 62
               7
  5
220
 10
13.0
 20
50.0
 30
0.0
 11
29.0
 21
50.0
 31
0.0
  0
LINE
  8
0
  6
CONTINUOUS
 62
               7
  5
221
 10
29.0
 20
50.0
 30
0.0
 11
29.0
 21
66.0
 31
0.0
  0
LINE
  8
0
  6
CONTINUOUS
 62
               7
  5
222
 10
29.0
 20
66.0
 30
0.0
 11
22.5
 21
66.0
 31
0.0
  0
LINE
  8
0
  6
CONTINUOUS
 62
               7
  5
223
 10
13.0
 20
55.0
 30
0.0
 11
13.0
 21
50.0
 31
0.0
  0
LINE
  8
0
  6
CONTINUOUS
 62
               7
  5
224
 10
13.0
 20
29.0
 30
0.0
 11
17.0
 21
29.0
 31
0.0
  0
LINE
  8
0
  6
CONTINUOUS
 62
               7
  5
225
 10
29.0
 20
32.899999999999977
 30
0.0
 11
29.0
 21
45.0
 31
0.0
  0
LINE
  8
0
  6
CONTINUOUS
 62
               7
  5
226
 10
29.0
 20
45.0
 30
0.0
 11
13.0
 21
45.0
 31
0.0
  0
LINE
  8
0
  6
CONTINUOUS
 62
               7
  5
227
 10
13.0
 20
45.0
 30
0.0
 11
13.0
 21
29.0
 31
0.0
  0
LINE
  8
0
  6
CONTINUOUS
 62
               7
  5
228
 10
50.0
 20
92.0
 30
0.0
 11
34.0
 21
92.0
 31
0.0
  0
LINE
  8
0
  6
CONTINUOUS
 62
               7
  5
229
 10
34.0
 20
92.0
 30
0.0
 11
34.0
 21
100.0
 31
0.0
  0
LINE
  8
0
  6
CONTINUOUS
 62
               7
  5
22A
 10
50.0
 20
100.0
 30
0.0
 11
50.0
 21
92.0
 31
0.0
  0
LINE
  8
0
  6
CONTINUOUS
 62
               7
  5
22B
 10
50.0
 20
71.0
 30
0.0
 11
34.0
 21
71.0
 31
0.0
  0
LINE
  8
0
  6
CONTINUOUS
 62
               7
  5
22C
 10
34.0
 20
71.0
 30
0.0
 11
34.0
 21
87.0
 31
0.0
  0
LINE
  8
0
  6
CONTINUOUS
 62
               7
  5
22D
 10
34.0
 20
87.0
 30
0.0
 11
50.0
 21
87.0
 31
0.0
  0
LINE
  8
0
  6
CONTINUOUS
 62
               7
  5
22E
 10
50.0
 20
87.0
 30
0.0
 11
50.0
 21
71.0
 31
0.0
  0
LINE
  8
0
  6
CONTINUOUS
 62
               7
  5
22F
 10
50.0
 20
50.0
 30
0.0
 11
34.0
 21
50.0
 31
0.0
  0
LINE
  8
0
  6
CONTINUOUS
 62
               7
  5
230
 10
34.0
 20
50.0
 30
0.0
 11
34.0
 21
66.0
 31
0.0
  0
LINE
  8
0
  6
CONTINUOUS
 62
               7
  5
231
 10
34.0
 20
66.0
 30
0.0
 11
50.0
 21
66.0
 31
0.0
  0
LINE
  8
0
  6
CONTINUOUS
 62
               7
  5
232
 10
50.0
 20
66.0
 30
0.0
 11
50.0
 21
50.0
 31
0.0
  0
LINE
  8
0
  6
CONTINUOUS
 62
               7
  5
233
 10
34.0
 20
35.399999999999977
 30
0.0
 11
34.0
 21
45.0
 31
0.0
  0
LINE
  8
0
  6
CONTINUOUS
 62
               7
  5
234
 10
34.0
 20
45.0
 30
0.0
 11
48.0
 21
45.0
 31
0.0
  0
LINE
  8
0
  6
CONTINUOUS
 62
               7
  5
235
 10
55.0
 20
71.0
 30
0.0
 11
67.0
 21
71.0
 31
0.0
  0
LINE
  8
0
  6
CONTINUOUS
 62
               7
  5
236
 10
71.0
 20
83.0
 30
0.0
 11
71.0
 21
87.0
 31
0.0
  0
LINE
  8
0
  6
CONTINUOUS
 62
               7
  5
237
 10
71.0
 20
87.0
 30
0.0
 11
55.0
 21
87.0
 31
0.0
  0
LINE
  8
0
  6
CONTINUOUS
 62
               7
  5
238
 10
55.0
 20
87.0
 30
0.0
 11
55.0
 21
71.0
 31
0.0
  0
LINE
  8
0
  6
CONTINUOUS
 62
               7
  5
239
 10
64.600000000000136
 20
66.0
 30
0.0
 11
55.0
 21
66.0
 31
0.0
  0
LINE
  8
0
  6
CONTINUOUS
 62
               7
  5
23A
 10
55.0
 20
66.0
 30
0.0
 11
55.0
 21
52.0
 31
0.0
  0
ARC
  8
0
  6
CONTINUOUS
 62
               7
  5
23B
 10
0.0
 20
100.0
 30
0.0
 40
73.0
 50
283.44444412056129
 51
293.39999966474102
  0
ARC
  8
0
  6
CONTINUOUS
 62
               7
  5
23C
 10
0.0
 20
100.0
 30
0.0
 40
73.0
 50
297.75555521531959
 51
311.11111075561416
  0
ARC
  8
0
  6
CONTINUOUS
 62
               7
  5
23D
 10
0.0
 20
100.0
 30
0.0
 40
73.0
 50
318.88888852450452
 51
332.24444406479915
  0
ARC
  8
0
  6
CONTINUOUS
 62
               7
  5
23E
 10
0.0
 20
100.0
 30
0.0
 40
73.0
 50
336.59999961537773
 51
346.55555515955734
  0
LINE
  8
0
  6
CONTINUOUS
 62
               7
  5
23F
 10
71.0
 20
92.0
 30
0.0
 11
55.0
 21
92.0
 31
0.0
  0
LINE
  8
0
  6
CONTINUOUS
 62
               7
  5
240
 10
55.0
 20
92.0
 30
0.0
 11
55.0
 21
100.0
 31
0.0
  0
LINE
  8
0
  6
CONTINUOUS
 62
               7
  5
241
 10
71.0
 20
100.0
 30
0.0
 11
71.0
 21
92.0
 31
0.0
  0
LINE
  8
0
  6
CONTINUOUS
 62
               7
  5
242
 10
-130.0
 20
-193.70000000000005
 30
0.0
 11
130.0
 21
-193.70000000000005
 31
0.0
  0
LINE
  8
0
  6
CONTINUOUS
 62
               7
  5
243
 10
130.0
 20
-193.70000000000005
 30
0.0
 11
129.5
 21
-187.20000000000005
 31
0.0
  0
LINE
  8
0
  6
CONTINUOUS
 62
               7
  5
244
 10
-130.0
 20
-193.70000000000005
 30
0.0
 11
-129.5
 21
-187.20000000000005
 31
0.0
  0
LINE
  8
0
  6
CONTINUOUS
 62
               7
  5
245
 10
-129.5
 20
-187.20000000000005
 30
0.0
 11
129.5
 21
-187.20000000000005
 31
0.0
  0
LINE
  8
0
  6
CONTINUOUS
 62
               7
  5
246
 10
-100.0
 20
-133.70000000000005
 30
0.0
 11
132.0
 21
-133.70000000000005
 31
0.0
  0
LINE
  8
0
  6
CONTINUOUS
 62
               7
  5
247
 10
-100.0
 20
-133.70000000000005
 30
0.0
 11
-99.599999999999909
 21
-139.29999999999995
 31
0.0
  0
LINE
  8
0
  6
CONTINUOUS
 62
               7
  5
248
 10
-97.599999999999909
 20
-141.20000000000005
 30
0.0
 11
129.29999999999995
 21
-141.20000000000005
 31
0.0
  0
ARC
  8
0
  6
CONTINUOUS
 62
               7
  5
249
 10
-97.599999999999909
 20
-139.20000000000005
 30
0.0
 40
2.0
 50
183.81111090107586
 51
269.99999969147945
  0
LINE
  8
0
  6
CONTINUOUS
 62
               7
  5
24A
 10
-86.599999999999909
 20
-143.0
 30
0.0
 11
-85.899999999999977
 21
-150.10000000000002
 31
0.0
  0
ARC
  8
0
  6
CONTINUOUS
 62
               7
  5
24B
 10
-88.599999999999909
 20
-143.20000000000005
 30
0.0
 40
2.0
 50
5.6777777712899589
 51
89.99999989715981
  0
ARC
  8
0
  6
CONTINUOUS
 62
               7
  5
24C
 10
-81.899999999999977
 20
-149.70000000000005
 30
0.0
 40
4.0
 50
185.65555534341274
 51
240.02222194795635
  0
LINE
  8
0
  6
CONTINUOUS
 62
               7
  5
24D
 10
-101.94075235109719
 20
-187.20000000000005
 30
0.0
 11
-83.199999999999932
 21
-155.89999999999998
 31
0.0
  0
ARC
  8
0
  6
CONTINUOUS
 62
               7
  5
24E
 10
-84.899999999999977
 20
-154.89999999999998
 30
0.0
 40
2.0
 50
329.02222184625879
 51
420.02222215363588
  0
LINE
  8
0
  6
CONTINUOUS
 62
               7
  5
24F
 10
132.0
 20
-133.70000000000005
 30
0.0
 11
131.60000000000014
 21
-139.29999999999995
 31
0.0
  0
ARC
  8
0
  6
CONTINUOUS
 62
               7
  5
250
 10
129.60000000000014
 20
-139.20000000000005
 30
0.0
 40
2.0
 50
269.99999969147945
 51
356.188888481883
  0
LINE
  8
0
  6
CONTINUOUS
 62
               7
  5
251
 10
129.60000000000014
 20
-141.20000000000005
 30
0.0
 11
129.29999999999995
 21
-141.20000000000005
 31
0.0
  0
LINE
  8
0
  6
CONTINUOUS
 62
               7
  5
252
 10
84.165116163094453
 20
115.88415841584151
 30
0.0
 11
112.0
 21
115.88415841584151
 31
0.0
  0
LINE
  8
0
  6
CONTINUOUS
 62
               7
  5
253
 10
116.0
 20
111.88415841584151
 30
0.0
 11
116.0
 21
88.115841584158488
 31
0.0
  0
LINE
  8
0
  6
CONTINUOUS
 62
               7
  5
254
 10
84.165116163094453
 20
84.115841584158488
 30
0.0
 11
112.0
 21
84.115841584158488
 31
0.0
  0
ARC
  8
0
  6
CONTINUOUS
 62
               7
  5
255
 10
84.165116163094453
 20
111.88415841584151
 30
0.0
 40
4.0
 50
89.999999999999801
 51
188.03706187462257
  0
ARC
  8
0
  6
CONTINUOUS
 62
               7
  5
256
 10
84.165116163094453
 20
88.115841584158517
 30
0.0
 40
4.0
 50
171.96293812537661
 51
269.99999999999937
  0
ARC
  8
0
  6
CONTINUOUS
 62
               7
  5
257
 10
112.0
 20
111.88415841584151
 30
0.0
 40
4.0
 50
0.0
 51
89.999999999999801
  0
ARC
  8
0
  6
CONTINUOUS
 62
               7
  5
258
 10
112.0
 20
88.115841584158488
 30
0.0
 40
4.0
 50
269.99999999999937
 51
359.9999999999992
  0
LINE
  8
0
  6
CONTINUOUS
 62
               7
  5
259
 10
106.5
 20
100.0
 30
0.0
 11
98.5
 21
112.0
 31
0.0
  0
LINE
  8
0
  6
CONTINUOUS
 62
               7
  5
25A
 10
98.5
 20
112.0
 30
0.0
 11
90.5
 21
100.0
 31
0.0
  0
LINE
  8
0
  6
CONTINUOUS
 62
               7
  5
25B
 10
90.5
 20
100.0
 30
0.0
 11
98.5
 21
88.0
 31
0.0
  0
LINE
  8
0
  6
CONTINUOUS
 62
               7
  5
25C
 10
98.5
 20
88.0
 30
0.0
 11
106.5
 21
100.0
 31
0.0
  0
LINE
  8
0
  6
CONTINUOUS
 62
               7
  5
25D
 10
103.3
 20
104.80000000000001
 30
0.0
 11
93.700000000000003
 21
104.80000000000001
 31
0.0
  0
LINE
  8
0
  6
CONTINUOUS
 62
               7
  5
25E
 10
97.700000000000003
 20
104.80000000000001
 30
0.0
 11
103.3
 21
95.199999999999989
 31
0.0
  0
LINE
  8
0
  6
CONTINUOUS
 62
               7
  5
25F
 10
93.700000000000003
 20
95.199999999999989
 30
0.0
 11
100.5
 21
100.0
 31
0.0
  0
LINE
  8
0
  6
CONTINUOUS
 62
               7
  5
260
 10
-82.899999999999977
 20
-153.70000000000005
 30
0.0
 11
92.838120365340728
 21
-153.70000000000005
 31
0.0
  0
LINE
  8
0
  6
CONTINUOUS
 62
               7
  5
261
 10
97.912979379284323
 20
-178.01511344036726
 30
0.0
 11
102.39274787669783
 21
-187.20000000000005
 31
0.0
  0
ARC
  8
0
  6
CONTINUOUS
 62
               7
  5
262
 10
100.60936151818183
 20
-176.70000000000005
 30
0.0
 40
3.0
 50
89.999999999999801
 51
205.99999999999918
  0
LINE
  8
0
  6
CONTINUOUS
 62
               7
  5
263
 10
109.97782582877367
 20
-173.70000000000005
 30
0.0
 11
100.60936151818183
 21
-173.70000000000005
 31
0.0
  0
ARC
  8
0
  6
CONTINUOUS
 62
               7
  5
264
 10
109.97782582877367
 20
-158.70000000000005
 30
0.0
 40
15.0
 50
269.99999999999937
 51
352.19100753970292
  0
LINE
  8
0
  6
CONTINUOUS
 62
               7
  5
265
 10
127.2812117210492
 20
-142.92825786661217
 30
0.0
 11
124.83872374841437
 21
-160.73806600040805
 31
0.0
  0
LINE
  8
0
  6
CONTINUOUS
 62
               7
  5
266
 10
129.70901252194741
 20
-141.20000000000005
 30
0.0
 11
129.26266477700128
 21
-141.20000000000005
 31
0.0
  0
ARC
  8
0
  6
CONTINUOUS
 62
               7
  5
267
 10
129.26266477700128
 20
-143.19999999999993
 30
0.0
 40
2.0
 50
89.999999999999801
 51
172.19100753970253
  0
ARC
  8
0
  6
CONTINUOUS
 62
               7
  5
268
 10
129.70901252194741
 20
-139.20000000000005
 30
0.0
 40
2.0
 50
269.99999999999937
 51
357.00000000000665
  0
TEXT
  8
0
 62
               7
  5
269
 10
13.117833569071214
 20
135.95775577557771
 30
0.0
 40
24.0
  1
止水弁
 50
-89.999999999999801
 11
13.117833569071214
 21
135.95775577557771
 31
0.0
 73
               3
  0
ENDSEC
  0
EOF
