  0
SECTION
  2
HEADER
  9
$ACADVER
  1
AC1014
  9
$ACADMAINTVER
 70
               0
  9
$DWGCODEPAGE
  3
ANSI_932
  9
$INSBASE
 10
0.0
 20
0.0
 30
0.0
  9
$EXTMIN
 10
-112.58799999999991
 20
-386.0419999999998
 30
0.0
  9
$EXTMAX
 10
120.78800000000018
 20
229.74200000000056
 30
0.0
  9
$LIMMIN
 10
-119.88099999999991
 20
-405.28524999999979
  9
$LIMMAX
 10
128.08100000000019
 20
248.98525000000058
  9
$ORTHOMODE
 70
               0
  9
$REGENMODE
 70
               1
  9
$FILLMODE
 70
               1
  9
$QTEXTMODE
 70
               0
  9
$MIRRTEXT
 70
               1
  9
$DRAGMODE
 70
               2
  9
$LTSCALE
 40
1.0
  9
$OSMODE
 70
               0
  9
$ATTMODE
 70
               1
  9
$TEXTSIZE
 40
0.2
  9
$TRACEWID
 40
0.05
  9
$TEXTSTYLE
  7
STANDARD
  9
$CLAYER
  8
0
  9
$CELTYPE
  6
CONTINUOUS
  9
$CECOLOR
 62
             256
  9
$CELTSCALE
 40
1.0
  9
$DELOBJ
 70
               1
  9
$DISPSILH
 70
               0
  9
$DIMSCALE
 40
1.0
  9
$DIMASZ
 40
0.18
  9
$DIMEXO
 40
0.0625
  9
$DIMDLI
 40
0.38
  9
$DIMRND
 40
0.0
  9
$DIMDLE
 40
0.0
  9
$DIMEXE
 40
0.18
  9
$DIMTP
 40
0.0
  9
$DIMTM
 40
0.0
  9
$DIMTXT
 40
0.18
  9
$DIMCEN
 40
0.09
  9
$DIMTSZ
 40
0.0
  9
$DIMTOL
 70
               0
  9
$DIMLIM
 70
               0
  9
$DIMTIH
 70
               1
  9
$DIMTOH
 70
               1
  9
$DIMSE1
 70
               0
  9
$DIMSE2
 70
               0
  9
$DIMTAD
 70
               0
  9
$DIMZIN
 70
               0
  9
$DIMBLK
  1

  9
$DIMASO
 70
               1
  9
$DIMSHO
 70
               1
  9
$DIMPOST
  1

  9
$DIMAPOST
  1

  9
$DIMALT
 70
               0
  9
$DIMALTD
 70
               2
  9
$DIMALTF
 40
25.399999999999999
  9
$DIMLFAC
 40
1.0
  9
$DIMTOFL
 70
               0
  9
$DIMTVP
 40
0.0
  9
$DIMTIX
 70
               0
  9
$DIMSOXD
 70
               0
  9
$DIMSAH
 70
               0
  9
$DIMBLK1
  1

  9
$DIMBLK2
  1

  9
$DIMSTYLE
  2
STANDARD
  9
$DIMCLRD
 70
               0
  9
$DIMCLRE
 70
               0
  9
$DIMCLRT
 70
               0
  9
$DIMTFAC
 40
1.0
  9
$DIMGAP
 40
0.09
  9
$DIMJUST
 70
               0
  9
$DIMSD1
 70
               0
  9
$DIMSD2
 70
               0
  9
$DIMTOLJ
 70
               1
  9
$DIMTZIN
 70
               0
  9
$DIMALTZ
 70
               0
  9
$DIMALTTZ
 70
               0
  9
$DIMFIT
 70
               3
  9
$DIMUPT
 70
               0
  9
$DIMUNIT
 70
               2
  9
$DIMDEC
 70
               4
  9
$DIMTDEC
 70
               4
  9
$DIMALTU
 70
               2
  9
$DIMALTTD
 70
               2
  9
$DIMTXSTY
  7
STANDARD
  9
$DIMAUNIT
 70
               0
  9
$LUNITS
 70
               2
  9
$LUPREC
 70
               4
  9
$SKETCHINC
 40
0.1
  9
$FILLETRAD
 40
0.0
  9
$AUNITS
 70
               0
  9
$AUPREC
 70
               0
  9
$MENU
  1
acad
  9
$ELEVATION
 40
0.0
  9
$PELEVATION
 40
0.0
  9
$THICKNESS
 40
0.0
  9
$LIMCHECK
 70
               0
  9
$BLIPMODE
 70
               1
  9
$CHAMFERA
 40
0.0
  9
$CHAMFERB
 40
0.0
  9
$CHAMFERC
 40
0.0
  9
$CHAMFERD
 40
0.0
  9
$SKPOLY
 70
               0
  9
$TDCREATE
 40
0.000000000
  9
$TDUPDATE
 40
0.000000000
  9
$TDINDWG
 40
0.0000000000
  9
$TDUSRTIMER
 40
0.0000000000
  9
$USRTIMER
 70
               1
  9
$ANGBASE
 50
0.0
  9
$ANGDIR
 70
               0
  9
$PDMODE
 70
               0
  9
$PDSIZE
 40
1.0
  9
$PLINEWID
 40
0.0
  9
$COORDS
 70
               1
  9
$SPLFRAME
 70
               0
  9
$SPLINETYPE
 70
               6
  9
$SPLINESEGS
 70
               8
  9
$ATTDIA
 70
               0
  9
$ATTREQ
 70
               1
  9
$HANDLING
 70
               1
  9
$HANDSEED
  5
415
  9
$SURFTAB1
 70
               6
  9
$SURFTAB2
 70
               6
  9
$SURFTYPE
 70
               6
  9
$SURFU
 70
               6
  9
$SURFV
 70
               6
  9
$UCSNAME
  2

  9
$UCSORG
 10
0.0
 20
0.0
 30
0.0
  9
$UCSXDIR
 10
1.0
 20
0.0
 30
0.0
  9
$UCSYDIR
 10
0.0
 20
1.0
 30
0.0
  9
$PUCSNAME
  2

  9
$PUCSORG
 10
0.0
 20
0.0
 30
0.0
  9
$PUCSXDIR
 10
1.0
 20
0.0
 30
0.0
  9
$PUCSYDIR
 10
0.0
 20
1.0
 30
0.0
  9
$USERI1
 70
               0
  9
$USERI2
 70
               0
  9
$USERI3
 70
               0
  9
$USERI4
 70
               0
  9
$USERI5
 70
               0
  9
$USERR1
 40
0.0
  9
$USERR2
 40
0.0
  9
$USERR3
 40
0.0
  9
$USERR4
 40
0.0
  9
$USERR5
 40
0.0
  9
$WORLDVIEW
 70
               1
  9
$SHADEDGE
 70
               3
  9
$SHADEDIF
 70
              70
  9
$TILEMODE
 70
               1
  9
$MAXACTVP
 70
              16
  9
$PINSBASE
 10
0.0
 20
0.0
 30
0.0
  9
$PLIMCHECK
 70
               0
  9
$PEXTMIN
 10
1.0000000000000000E+20
 20
1.0000000000000000E+20
 30
1.0000000000000000E+20
  9
$PEXTMAX
 10
-1.0000000000000000E+20
 20
-1.0000000000000000E+20
 30
-1.0000000000000000E+20
  9
$PLIMMIN
 10
0.0
 20
0.0
  9
$PLIMMAX
 10
12.0
 20
9.0
  9
$UNITMODE
 70
               0
  9
$VISRETAIN
 70
               0
  9
$PLINEGEN
 70
               1
  9
$PSLTSCALE
 70
               0
  9
$TREEDEPTH
 70
            3020
  9
$PICKSTYLE
 70
               1
  9
$CMLSTYLE
  2
STANDARD
  9
$CMLJUST
 70
               0
  9
$CMLSCALE
 40
1.0
  9
$PROXYGRAPHICS
 70
               0
  9
$MEASUREMENT
 70
               0
  0
ENDSEC
  0
SECTION
  2
CLASSES
  0
CLASS
  1
LWPOLYLINE
  2
AcDbPolyline
  3
"AutoCAD"
 90
        0
280
               0
281
               1
  0
CLASS
  1
IMAGE
  2
AcDbRasterImage
  3
ISM
 90
      127
280
               0
281
               1
  0
CLASS
  1
OLE2FRAME
  2
AcDbOle2Frame
  3
""
 90
        0
280
               0
281
               1
  0
CLASS
  1
HATCH
  2
AcDbHatch
  3
"ACAD_SEDONA"
 90
        0
280
               0
281
               1
  0
CLASS
  1
DICTIONARYVAR
  2
AcDbDictionaryVar
  3
"AutoCAD"
 90
        0
280
               0
281
               0
  0
CLASS
  1
RASTERVARIABLES
  2
AcDbRasterVariables
  3
ISM
 90
        0
280
               0
281
               0
  0
CLASS
  1
IMAGEDEF
  2
AcDbRasterImageDef
  3
ISM
 90
        0
280
               0
281
               0
  0
CLASS
  1
IMAGEDEF_REACTOR
  2
AcDbRasterImageDefReactor
  3
ISM
 90
        1
280
               0
281
               0
  0
CLASS
  1
IDBUFFER
  2
AcDbIdBuffer
  3
"Acad"
 90
        0
280
               0
281
               0
  0
CLASS
  1
SPATIAL_FILTER
  2
AcDbSpatialFilter
  3
"Acad"
 90
        0
280
               0
281
               0
  0
CLASS
  1
XRECORD
  2
AcDbXrecord
  3
"<Built In>"
 90
        0
280
               0
281
               0
  0
CLASS
  1
SORTENTSTABLE
  2
AcDbSortentsTable
  3
"AutoCAD"
 90
        0
280
               0
281
               0
  0
CLASS
  1
LAYER_INDEX
  2
AcDbLayerIndex
  3
"Acad"
 90
        0
280
               0
281
               0
  0
CLASS
  1
SPATIAL_INDEX
  2
AcDbSpatialIndex
  3
"Acad"
 90
        0
280
               0
281
               0
  0
CLASS
  1
OBJECT_PTR
  2
CAseDLPNTableRecord
  3
"ASE-LPNTableRecord"
 90
        1
280
               0
281
               0
  0
ENDSEC
  0
SECTION
  2
TABLES
  0
TABLE
  2
VPORT
  5
7
100
AcDbSymbolTable
 70
               1
  0
VPORT
  5
15
100
AcDbSymbolTableRecord
100
AcDbViewportTableRecord
  2
*ACTIVE
 70
               0
 10
0.0
 20
0.0
 11
1.0
 21
1.0
 12
4.1000000000001364
 22
-78.149999999999608
 13
0.0
 23
0.0
 14
1.0
 24
1.0
 15
0.0
 25
0.0
 16
0.0
 26
0.0
 36
1.0
 17
0.0
 27
0.0
 37
0.0
 40
654.27050000000031
 41
0.3789900354669819
 42
50.0
 43
0.0
 44
0.0
 50
0.0
 51
0.0
 71
               0
 72
             100
 73
               1
 74
               1
 75
               0
 76
               0
 77
               0
 78
               0
  0
ENDTAB
  0
TABLE
  2
LTYPE
  5
4
100
AcDbSymbolTable
 70
              28
  0
LTYPE
  5
11
100
AcDbSymbolTableRecord
100
AcDbLinetypeTableRecord
  2
BYBLOCK
 70
               0
  3

 72
              65
 73
               0
 40
0.0
  0
LTYPE
  5
12
100
AcDbSymbolTableRecord
100
AcDbLinetypeTableRecord
  2
BYLAYER
 70
               0
  3

 72
              65
 73
               0
 40
0.0
  0
LTYPE
  5
13
100
AcDbSymbolTableRecord
100
AcDbLinetypeTableRecord
  2
CONTINUOUS
 70
               0
  3
Solid line
 72
              65
 73
               0
 40
0.0
  0
LTYPE
  5
1D
100
AcDbSymbolTableRecord
100
AcDbLinetypeTableRecord
  2
HIDDENX2
 70
               0
  3
CADPAC FUSION LINETYPE
 72
              65
 73
               2
 40
47.560000000000002
 49
35.670000000000002
 74
               0
 49
-11.890000000000001
 74
               0
  0
LTYPE
  5
1E
100
AcDbSymbolTableRecord
100
AcDbLinetypeTableRecord
  2
HIDDEN
 70
               0
  3
CADPAC FUSION LINETYPE
 72
              65
 73
               2
 40
35.670000000000002
 49
23.780000000000001
 74
               0
 49
-11.890000000000001
 74
               0
  0
LTYPE
  5
1F
100
AcDbSymbolTableRecord
100
AcDbLinetypeTableRecord
  2
HIDDEN2
 70
               0
  3
CADPAC FUSION LINETYPE
 72
              65
 73
               2
 40
29.725000000000001
 49
17.835000000000001
 74
               0
 49
-11.890000000000001
 74
               0
  0
LTYPE
  5
20
100
AcDbSymbolTableRecord
100
AcDbLinetypeTableRecord
  2
DASHED
 70
               0
  3
CADPAC FUSION LINETYPE
 72
              65
 73
               2
 40
35.670000000000002
 49
23.780000000000001
 74
               0
 49
-11.890000000000001
 74
               0
  0
LTYPE
  5
21
100
AcDbSymbolTableRecord
100
AcDbLinetypeTableRecord
  2
DASHED2
 70
               0
  3
CADPAC FUSION LINETYPE
 72
              65
 73
               2
 40
26.752500000000001
 49
17.835000000000001
 74
               0
 49
-8.9175000000000004
 74
               0
  0
LTYPE
  5
22
100
AcDbSymbolTableRecord
100
AcDbLinetypeTableRecord
  2
DASHEDX2
 70
               0
  3
CADPAC FUSION LINETYPE
 72
              65
 73
               2
 40
53.505000000000003
 49
35.670000000000002
 74
               0
 49
-17.835000000000001
 74
               0
  0
LTYPE
  5
23
100
AcDbSymbolTableRecord
100
AcDbLinetypeTableRecord
  2
DOTX2
 70
               0
  3
CADPAC FUSION LINETYPE
 72
              65
 73
               2
 40
14.862500000000001
 49
0.0
 74
               0
 49
-14.862500000000001
 74
               0
  0
LTYPE
  5
24
100
AcDbSymbolTableRecord
100
AcDbLinetypeTableRecord
  2
DOT
 70
               0
  3
CADPAC FUSION LINETYPE
 72
              65
 73
               2
 40
11.890000000000001
 49
0.0
 74
               0
 49
-11.890000000000001
 74
               0
  0
LTYPE
  5
25
100
AcDbSymbolTableRecord
100
AcDbLinetypeTableRecord
  2
DOTS
 70
               0
  3
CADPAC FUSION LINETYPE
 72
              65
 73
               2
 40
11.890000000000001
 49
0.0
 74
               0
 49
-11.890000000000001
 74
               0
  0
LTYPE
  5
26
100
AcDbSymbolTableRecord
100
AcDbLinetypeTableRecord
  2
DOT2
 70
               0
  3
CADPAC FUSION LINETYPE
 72
              65
 73
               2
 40
8.9175000000000004
 49
0.0
 74
               0
 49
-8.9175000000000004
 74
               0
  0
LTYPE
  5
27
100
AcDbSymbolTableRecord
100
AcDbLinetypeTableRecord
  2
CENTERX2
 70
               0
  3
CADPAC FUSION LINETYPE
 72
              65
 73
               4
 40
71.340000000000003
 49
29.725000000000001
 74
               0
 49
-14.862500000000001
 74
               0
 49
11.890000000000001
 74
               0
 49
-14.862500000000001
 74
               0
  0
LTYPE
  5
28
100
AcDbSymbolTableRecord
100
AcDbLinetypeTableRecord
  2
CENTER
 70
               0
  3
CADPAC FUSION LINETYPE
 72
              65
 73
               4
 40
54.694000000000003
 49
23.780000000000001
 74
               0
 49
-11.890000000000001
 74
               0
 49
7.1340000000000003
 74
               0
 49
-11.890000000000001
 74
               0
  0
LTYPE
  5
29
100
AcDbSymbolTableRecord
100
AcDbLinetypeTableRecord
  2
CENTER2
 70
               0
  3
CADPAC FUSION LINETYPE
 72
              65
 73
               4
 40
38.048000000000002
 49
17.835000000000001
 74
               0
 49
-8.9175000000000004
 74
               0
 49
2.3780000000000001
 74
               0
 49
-8.9175000000000004
 74
               0
  0
LTYPE
  5
2A
100
AcDbSymbolTableRecord
100
AcDbLinetypeTableRecord
  2
DASHDOTX2
 70
               0
  3
CADPAC FUSION LINETYPE
 72
              65
 73
               4
 40
59.450000000000003
 49
29.725000000000001
 74
               0
 49
-14.862500000000001
 74
               0
 49
0.0
 74
               0
 49
-14.862500000000001
 74
               0
  0
LTYPE
  5
2B
100
AcDbSymbolTableRecord
100
AcDbLinetypeTableRecord
  2
DASHDOT
 70
               0
  3
CADPAC FUSION LINETYPE
 72
              65
 73
               4
 40
47.560000000000002
 49
23.780000000000001
 74
               0
 49
-11.890000000000001
 74
               0
 49
0.0
 74
               0
 49
-11.890000000000001
 74
               0
  0
LTYPE
  5
2C
100
AcDbSymbolTableRecord
100
AcDbLinetypeTableRecord
  2
DASHDOT2
 70
               0
  3
CADPAC FUSION LINETYPE
 72
              65
 73
               4
 40
35.670000000000002
 49
17.835000000000001
 74
               0
 49
-8.9175000000000004
 74
               0
 49
0.0
 74
               0
 49
-8.9175000000000004
 74
               0
  0
LTYPE
  5
2D
100
AcDbSymbolTableRecord
100
AcDbLinetypeTableRecord
  2
DIVIDEX2
 70
               0
  3
CADPAC FUSION LINETYPE
 72
              65
 73
               6
 40
74.3125
 49
29.725000000000001
 74
               0
 49
-14.862500000000001
 74
               0
 49
0.0
 74
               0
 49
-14.862500000000001
 74
               0
 49
0.0
 74
               0
 49
-14.862500000000001
 74
               0
  0
LTYPE
  5
2E
100
AcDbSymbolTableRecord
100
AcDbLinetypeTableRecord
  2
DIVIDE
 70
               0
  3
CADPAC FUSION LINETYPE
 72
              65
 73
               6
 40
59.450000000000003
 49
23.780000000000001
 74
               0
 49
-11.890000000000001
 74
               0
 49
0.0
 74
               0
 49
-11.890000000000001
 74
               0
 49
0.0
 74
               0
 49
-11.890000000000001
 74
               0
  0
LTYPE
  5
2F
100
AcDbSymbolTableRecord
100
AcDbLinetypeTableRecord
  2
DIVIDE2
 70
               0
  3
CADPAC FUSION LINETYPE
 72
              65
 73
               6
 40
44.587500000000006
 49
17.835000000000001
 74
               0
 49
-8.9175000000000004
 74
               0
 49
0.0
 74
               0
 49
-8.9175000000000004
 74
               0
 49
0.0
 74
               0
 49
-8.9175000000000004
 74
               0
  0
LTYPE
  5
30
100
AcDbSymbolTableRecord
100
AcDbLinetypeTableRecord
  2
BORDERX2
 70
               0
  3
CADPAC FUSION LINETYPE
 72
              65
 73
               6
 40
104.03750000000001
 49
29.725000000000001
 74
               0
 49
-14.862500000000001
 74
               0
 49
29.725000000000001
 74
               0
 49
-14.862500000000001
 74
               0
 49
0.0
 74
               0
 49
-14.862500000000001
 74
               0
  0
LTYPE
  5
31
100
AcDbSymbolTableRecord
100
AcDbLinetypeTableRecord
  2
BORDER
 70
               0
  3
CADPAC FUSION LINETYPE
 72
              65
 73
               6
 40
83.230000000000004
 49
23.780000000000001
 74
               0
 49
-11.890000000000001
 74
               0
 49
23.780000000000001
 74
               0
 49
-11.890000000000001
 74
               0
 49
0.0
 74
               0
 49
-11.890000000000001
 74
               0
  0
LTYPE
  5
32
100
AcDbSymbolTableRecord
100
AcDbLinetypeTableRecord
  2
BORDER2
 70
               0
  3
CADPAC FUSION LINETYPE
 72
              65
 73
               6
 40
62.422499999999999
 49
17.835000000000001
 74
               0
 49
-8.9175000000000004
 74
               0
 49
17.835000000000001
 74
               0
 49
-8.9175000000000004
 74
               0
 49
0.0
 74
               0
 49
-8.9175000000000004
 74
               0
  0
LTYPE
  5
33
100
AcDbSymbolTableRecord
100
AcDbLinetypeTableRecord
  2
PHANTOMX2
 70
               0
  3
CADPAC FUSION LINETYPE
 72
              65
 73
               6
 40
89.175000000000011
 49
29.725000000000001
 74
               0
 49
-11.890000000000001
 74
               0
 49
11.890000000000001
 74
               0
 49
-11.890000000000001
 74
               0
 49
11.890000000000001
 74
               0
 49
-11.890000000000001
 74
               0
  0
LTYPE
  5
34
100
AcDbSymbolTableRecord
100
AcDbLinetypeTableRecord
  2
PHANTOM
 70
               0
  3
CADPAC FUSION LINETYPE
 72
              65
 73
               6
 40
73.718000000000004
 49
23.780000000000001
 74
               0
 49
-11.890000000000001
 74
               0
 49
7.1340000000000003
 74
               0
 49
-11.890000000000001
 74
               0
 49
7.1340000000000003
 74
               0
 49
-11.890000000000001
 74
               0
  0
LTYPE
  5
35
100
AcDbSymbolTableRecord
100
AcDbLinetypeTableRecord
  2
PHANTOM2
 70
               0
  3
CADPAC FUSION LINETYPE
 72
              65
 73
               6
 40
63.017000000000003
 49
17.835000000000001
 74
               0
 49
-11.890000000000001
 74
               0
 49
4.7560000000000002
 74
               0
 49
-11.890000000000001
 74
               0
 49
4.7560000000000002
 74
               0
 49
-11.890000000000001
 74
               0
  0
ENDTAB
  0
TABLE
  2
LAYER
  5
2
100
AcDbSymbolTable
 70
             256
  0
LAYER
  5
14
100
AcDbSymbolTableRecord
100
AcDbLayerTableRecord
  2
0
 70
               0
 62
               7
  6
CONTINUOUS
  0
LAYER
  5
36
100
AcDbSymbolTableRecord
100
AcDbLayerTableRecord
  2
LAYER001
 70
               0
 62
               7
  6
CONTINUOUS
  0
LAYER
  5
37
100
AcDbSymbolTableRecord
100
AcDbLayerTableRecord
  2
LAYER002
 70
               0
 62
               7
  6
CONTINUOUS
  0
LAYER
  5
38
100
AcDbSymbolTableRecord
100
AcDbLayerTableRecord
  2
LAYER003
 70
               0
 62
               7
  6
CONTINUOUS
  0
LAYER
  5
39
100
AcDbSymbolTableRecord
100
AcDbLayerTableRecord
  2
LAYER004
 70
               0
 62
               7
  6
CONTINUOUS
  0
LAYER
  5
3A
100
AcDbSymbolTableRecord
100
AcDbLayerTableRecord
  2
LAYER005
 70
               0
 62
               7
  6
CONTINUOUS
  0
LAYER
  5
3B
100
AcDbSymbolTableRecord
100
AcDbLayerTableRecord
  2
LAYER006
 70
               0
 62
               7
  6
CONTINUOUS
  0
LAYER
  5
3C
100
AcDbSymbolTableRecord
100
AcDbLayerTableRecord
  2
LAYER007
 70
               0
 62
               7
  6
CONTINUOUS
  0
LAYER
  5
3D
100
AcDbSymbolTableRecord
100
AcDbLayerTableRecord
  2
LAYER008
 70
               0
 62
               7
  6
CONTINUOUS
  0
LAYER
  5
3E
100
AcDbSymbolTableRecord
100
AcDbLayerTableRecord
  2
LAYER009
 70
               0
 62
               7
  6
CONTINUOUS
  0
LAYER
  5
3F
100
AcDbSymbolTableRecord
100
AcDbLayerTableRecord
  2
LAYER010
 70
               0
 62
               7
  6
CONTINUOUS
  0
LAYER
  5
40
100
AcDbSymbolTableRecord
100
AcDbLayerTableRecord
  2
LAYER011
 70
               0
 62
               7
  6
CONTINUOUS
  0
LAYER
  5
41
100
AcDbSymbolTableRecord
100
AcDbLayerTableRecord
  2
LAYER012
 70
               0
 62
               7
  6
CONTINUOUS
  0
LAYER
  5
42
100
AcDbSymbolTableRecord
100
AcDbLayerTableRecord
  2
LAYER013
 70
               0
 62
               7
  6
CONTINUOUS
  0
LAYER
  5
43
100
AcDbSymbolTableRecord
100
AcDbLayerTableRecord
  2
LAYER014
 70
               0
 62
               7
  6
CONTINUOUS
  0
LAYER
  5
44
100
AcDbSymbolTableRecord
100
AcDbLayerTableRecord
  2
LAYER015
 70
               0
 62
               7
  6
CONTINUOUS
  0
LAYER
  5
45
100
AcDbSymbolTableRecord
100
AcDbLayerTableRecord
  2
LAYER016
 70
               0
 62
               7
  6
CONTINUOUS
  0
LAYER
  5
46
100
AcDbSymbolTableRecord
100
AcDbLayerTableRecord
  2
LAYER017
 70
               0
 62
               7
  6
CONTINUOUS
  0
LAYER
  5
47
100
AcDbSymbolTableRecord
100
AcDbLayerTableRecord
  2
LAYER018
 70
               0
 62
               7
  6
CONTINUOUS
  0
LAYER
  5
48
100
AcDbSymbolTableRecord
100
AcDbLayerTableRecord
  2
LAYER019
 70
               0
 62
               7
  6
CONTINUOUS
  0
LAYER
  5
49
100
AcDbSymbolTableRecord
100
AcDbLayerTableRecord
  2
LAYER020
 70
               0
 62
               7
  6
CONTINUOUS
  0
LAYER
  5
4A
100
AcDbSymbolTableRecord
100
AcDbLayerTableRecord
  2
LAYER021
 70
               0
 62
               7
  6
CONTINUOUS
  0
LAYER
  5
4B
100
AcDbSymbolTableRecord
100
AcDbLayerTableRecord
  2
LAYER022
 70
               0
 62
               7
  6
CONTINUOUS
  0
LAYER
  5
4C
100
AcDbSymbolTableRecord
100
AcDbLayerTableRecord
  2
LAYER023
 70
               0
 62
               7
  6
CONTINUOUS
  0
LAYER
  5
4D
100
AcDbSymbolTableRecord
100
AcDbLayerTableRecord
  2
LAYER024
 70
               0
 62
               7
  6
CONTINUOUS
  0
LAYER
  5
4E
100
AcDbSymbolTableRecord
100
AcDbLayerTableRecord
  2
LAYER025
 70
               0
 62
               7
  6
CONTINUOUS
  0
LAYER
  5
4F
100
AcDbSymbolTableRecord
100
AcDbLayerTableRecord
  2
LAYER026
 70
               0
 62
               7
  6
CONTINUOUS
  0
LAYER
  5
50
100
AcDbSymbolTableRecord
100
AcDbLayerTableRecord
  2
LAYER027
 70
               0
 62
               7
  6
CONTINUOUS
  0
LAYER
  5
51
100
AcDbSymbolTableRecord
100
AcDbLayerTableRecord
  2
LAYER028
 70
               0
 62
               7
  6
CONTINUOUS
  0
LAYER
  5
52
100
AcDbSymbolTableRecord
100
AcDbLayerTableRecord
  2
LAYER029
 70
               0
 62
               7
  6
CONTINUOUS
  0
LAYER
  5
53
100
AcDbSymbolTableRecord
100
AcDbLayerTableRecord
  2
LAYER030
 70
               0
 62
               7
  6
CONTINUOUS
  0
LAYER
  5
54
100
AcDbSymbolTableRecord
100
AcDbLayerTableRecord
  2
LAYER031
 70
               0
 62
               7
  6
CONTINUOUS
  0
LAYER
  5
55
100
AcDbSymbolTableRecord
100
AcDbLayerTableRecord
  2
LAYER032
 70
               0
 62
               7
  6
CONTINUOUS
  0
LAYER
  5
56
100
AcDbSymbolTableRecord
100
AcDbLayerTableRecord
  2
LAYER033
 70
               0
 62
               7
  6
CONTINUOUS
  0
LAYER
  5
57
100
AcDbSymbolTableRecord
100
AcDbLayerTableRecord
  2
LAYER034
 70
               0
 62
               7
  6
CONTINUOUS
  0
LAYER
  5
58
100
AcDbSymbolTableRecord
100
AcDbLayerTableRecord
  2
LAYER035
 70
               0
 62
               7
  6
CONTINUOUS
  0
LAYER
  5
59
100
AcDbSymbolTableRecord
100
AcDbLayerTableRecord
  2
LAYER036
 70
               0
 62
               7
  6
CONTINUOUS
  0
LAYER
  5
5A
100
AcDbSymbolTableRecord
100
AcDbLayerTableRecord
  2
LAYER037
 70
               0
 62
               7
  6
CONTINUOUS
  0
LAYER
  5
5B
100
AcDbSymbolTableRecord
100
AcDbLayerTableRecord
  2
LAYER038
 70
               0
 62
               7
  6
CONTINUOUS
  0
LAYER
  5
5C
100
AcDbSymbolTableRecord
100
AcDbLayerTableRecord
  2
LAYER039
 70
               0
 62
               7
  6
CONTINUOUS
  0
LAYER
  5
5D
100
AcDbSymbolTableRecord
100
AcDbLayerTableRecord
  2
LAYER040
 70
               0
 62
               7
  6
CONTINUOUS
  0
LAYER
  5
5E
100
AcDbSymbolTableRecord
100
AcDbLayerTableRecord
  2
LAYER041
 70
               0
 62
               7
  6
CONTINUOUS
  0
LAYER
  5
5F
100
AcDbSymbolTableRecord
100
AcDbLayerTableRecord
  2
LAYER042
 70
               0
 62
               7
  6
CONTINUOUS
  0
LAYER
  5
60
100
AcDbSymbolTableRecord
100
AcDbLayerTableRecord
  2
LAYER043
 70
               0
 62
               7
  6
CONTINUOUS
  0
LAYER
  5
61
100
AcDbSymbolTableRecord
100
AcDbLayerTableRecord
  2
LAYER044
 70
               0
 62
               7
  6
CONTINUOUS
  0
LAYER
  5
62
100
AcDbSymbolTableRecord
100
AcDbLayerTableRecord
  2
LAYER045
 70
               0
 62
               7
  6
CONTINUOUS
  0
LAYER
  5
63
100
AcDbSymbolTableRecord
100
AcDbLayerTableRecord
  2
LAYER046
 70
               0
 62
               7
  6
CONTINUOUS
  0
LAYER
  5
64
100
AcDbSymbolTableRecord
100
AcDbLayerTableRecord
  2
LAYER047
 70
               0
 62
               7
  6
CONTINUOUS
  0
LAYER
  5
65
100
AcDbSymbolTableRecord
100
AcDbLayerTableRecord
  2
LAYER048
 70
               0
 62
               7
  6
CONTINUOUS
  0
LAYER
  5
66
100
AcDbSymbolTableRecord
100
AcDbLayerTableRecord
  2
LAYER049
 70
               0
 62
               7
  6
CONTINUOUS
  0
LAYER
  5
67
100
AcDbSymbolTableRecord
100
AcDbLayerTableRecord
  2
LAYER050
 70
               0
 62
               7
  6
CONTINUOUS
  0
LAYER
  5
68
100
AcDbSymbolTableRecord
100
AcDbLayerTableRecord
  2
LAYER051
 70
               0
 62
               7
  6
CONTINUOUS
  0
LAYER
  5
69
100
AcDbSymbolTableRecord
100
AcDbLayerTableRecord
  2
LAYER052
 70
               0
 62
               7
  6
CONTINUOUS
  0
LAYER
  5
6A
100
AcDbSymbolTableRecord
100
AcDbLayerTableRecord
  2
LAYER053
 70
               0
 62
               7
  6
CONTINUOUS
  0
LAYER
  5
6B
100
AcDbSymbolTableRecord
100
AcDbLayerTableRecord
  2
LAYER054
 70
               0
 62
               7
  6
CONTINUOUS
  0
LAYER
  5
6C
100
AcDbSymbolTableRecord
100
AcDbLayerTableRecord
  2
LAYER055
 70
               0
 62
               7
  6
CONTINUOUS
  0
LAYER
  5
6D
100
AcDbSymbolTableRecord
100
AcDbLayerTableRecord
  2
LAYER056
 70
               0
 62
               7
  6
CONTINUOUS
  0
LAYER
  5
6E
100
AcDbSymbolTableRecord
100
AcDbLayerTableRecord
  2
LAYER057
 70
               0
 62
               7
  6
CONTINUOUS
  0
LAYER
  5
6F
100
AcDbSymbolTableRecord
100
AcDbLayerTableRecord
  2
LAYER058
 70
               0
 62
               7
  6
CONTINUOUS
  0
LAYER
  5
70
100
AcDbSymbolTableRecord
100
AcDbLayerTableRecord
  2
LAYER059
 70
               0
 62
               7
  6
CONTINUOUS
  0
LAYER
  5
71
100
AcDbSymbolTableRecord
100
AcDbLayerTableRecord
  2
LAYER060
 70
               0
 62
               7
  6
CONTINUOUS
  0
LAYER
  5
72
100
AcDbSymbolTableRecord
100
AcDbLayerTableRecord
  2
LAYER061
 70
               0
 62
               7
  6
CONTINUOUS
  0
LAYER
  5
73
100
AcDbSymbolTableRecord
100
AcDbLayerTableRecord
  2
LAYER062
 70
               0
 62
               7
  6
CONTINUOUS
  0
LAYER
  5
74
100
AcDbSymbolTableRecord
100
AcDbLayerTableRecord
  2
LAYER063
 70
               0
 62
               7
  6
CONTINUOUS
  0
LAYER
  5
75
100
AcDbSymbolTableRecord
100
AcDbLayerTableRecord
  2
LAYER064
 70
               0
 62
               7
  6
CONTINUOUS
  0
LAYER
  5
76
100
AcDbSymbolTableRecord
100
AcDbLayerTableRecord
  2
LAYER065
 70
               0
 62
               7
  6
CONTINUOUS
  0
LAYER
  5
77
100
AcDbSymbolTableRecord
100
AcDbLayerTableRecord
  2
LAYER066
 70
               0
 62
               7
  6
CONTINUOUS
  0
LAYER
  5
78
100
AcDbSymbolTableRecord
100
AcDbLayerTableRecord
  2
LAYER067
 70
               0
 62
               7
  6
CONTINUOUS
  0
LAYER
  5
79
100
AcDbSymbolTableRecord
100
AcDbLayerTableRecord
  2
LAYER068
 70
               0
 62
               7
  6
CONTINUOUS
  0
LAYER
  5
7A
100
AcDbSymbolTableRecord
100
AcDbLayerTableRecord
  2
LAYER069
 70
               0
 62
               7
  6
CONTINUOUS
  0
LAYER
  5
7B
100
AcDbSymbolTableRecord
100
AcDbLayerTableRecord
  2
LAYER070
 70
               0
 62
               7
  6
CONTINUOUS
  0
LAYER
  5
7C
100
AcDbSymbolTableRecord
100
AcDbLayerTableRecord
  2
LAYER071
 70
               0
 62
               7
  6
CONTINUOUS
  0
LAYER
  5
7D
100
AcDbSymbolTableRecord
100
AcDbLayerTableRecord
  2
LAYER072
 70
               0
 62
               7
  6
CONTINUOUS
  0
LAYER
  5
7E
100
AcDbSymbolTableRecord
100
AcDbLayerTableRecord
  2
LAYER073
 70
               0
 62
               7
  6
CONTINUOUS
  0
LAYER
  5
7F
100
AcDbSymbolTableRecord
100
AcDbLayerTableRecord
  2
LAYER074
 70
               0
 62
               7
  6
CONTINUOUS
  0
LAYER
  5
80
100
AcDbSymbolTableRecord
100
AcDbLayerTableRecord
  2
LAYER075
 70
               0
 62
               7
  6
CONTINUOUS
  0
LAYER
  5
81
100
AcDbSymbolTableRecord
100
AcDbLayerTableRecord
  2
LAYER076
 70
               0
 62
               7
  6
CONTINUOUS
  0
LAYER
  5
82
100
AcDbSymbolTableRecord
100
AcDbLayerTableRecord
  2
LAYER077
 70
               0
 62
               7
  6
CONTINUOUS
  0
LAYER
  5
83
100
AcDbSymbolTableRecord
100
AcDbLayerTableRecord
  2
LAYER078
 70
               0
 62
               7
  6
CONTINUOUS
  0
LAYER
  5
84
100
AcDbSymbolTableRecord
100
AcDbLayerTableRecord
  2
LAYER079
 70
               0
 62
               7
  6
CONTINUOUS
  0
LAYER
  5
85
100
AcDbSymbolTableRecord
100
AcDbLayerTableRecord
  2
LAYER080
 70
               0
 62
               7
  6
CONTINUOUS
  0
LAYER
  5
86
100
AcDbSymbolTableRecord
100
AcDbLayerTableRecord
  2
LAYER081
 70
               0
 62
               7
  6
CONTINUOUS
  0
LAYER
  5
87
100
AcDbSymbolTableRecord
100
AcDbLayerTableRecord
  2
LAYER082
 70
               0
 62
               7
  6
CONTINUOUS
  0
LAYER
  5
88
100
AcDbSymbolTableRecord
100
AcDbLayerTableRecord
  2
LAYER083
 70
               0
 62
               7
  6
CONTINUOUS
  0
LAYER
  5
89
100
AcDbSymbolTableRecord
100
AcDbLayerTableRecord
  2
LAYER084
 70
               0
 62
               7
  6
CONTINUOUS
  0
LAYER
  5
8A
100
AcDbSymbolTableRecord
100
AcDbLayerTableRecord
  2
LAYER085
 70
               0
 62
               7
  6
CONTINUOUS
  0
LAYER
  5
8B
100
AcDbSymbolTableRecord
100
AcDbLayerTableRecord
  2
LAYER086
 70
               0
 62
               7
  6
CONTINUOUS
  0
LAYER
  5
8C
100
AcDbSymbolTableRecord
100
AcDbLayerTableRecord
  2
LAYER087
 70
               0
 62
               7
  6
CONTINUOUS
  0
LAYER
  5
8D
100
AcDbSymbolTableRecord
100
AcDbLayerTableRecord
  2
LAYER088
 70
               0
 62
               7
  6
CONTINUOUS
  0
LAYER
  5
8E
100
AcDbSymbolTableRecord
100
AcDbLayerTableRecord
  2
LAYER089
 70
               0
 62
               7
  6
CONTINUOUS
  0
LAYER
  5
8F
100
AcDbSymbolTableRecord
100
AcDbLayerTableRecord
  2
LAYER090
 70
               0
 62
               7
  6
CONTINUOUS
  0
LAYER
  5
90
100
AcDbSymbolTableRecord
100
AcDbLayerTableRecord
  2
LAYER091
 70
               0
 62
               7
  6
CONTINUOUS
  0
LAYER
  5
91
100
AcDbSymbolTableRecord
100
AcDbLayerTableRecord
  2
LAYER092
 70
               0
 62
               7
  6
CONTINUOUS
  0
LAYER
  5
92
100
AcDbSymbolTableRecord
100
AcDbLayerTableRecord
  2
LAYER093
 70
               0
 62
               7
  6
CONTINUOUS
  0
LAYER
  5
93
100
AcDbSymbolTableRecord
100
AcDbLayerTableRecord
  2
LAYER094
 70
               0
 62
               7
  6
CONTINUOUS
  0
LAYER
  5
94
100
AcDbSymbolTableRecord
100
AcDbLayerTableRecord
  2
LAYER095
 70
               0
 62
               7
  6
CONTINUOUS
  0
LAYER
  5
95
100
AcDbSymbolTableRecord
100
AcDbLayerTableRecord
  2
LAYER096
 70
               0
 62
               7
  6
CONTINUOUS
  0
LAYER
  5
96
100
AcDbSymbolTableRecord
100
AcDbLayerTableRecord
  2
LAYER097
 70
               0
 62
               7
  6
CONTINUOUS
  0
LAYER
  5
97
100
AcDbSymbolTableRecord
100
AcDbLayerTableRecord
  2
LAYER098
 70
               0
 62
               7
  6
CONTINUOUS
  0
LAYER
  5
98
100
AcDbSymbolTableRecord
100
AcDbLayerTableRecord
  2
LAYER099
 70
               0
 62
               7
  6
CONTINUOUS
  0
LAYER
  5
99
100
AcDbSymbolTableRecord
100
AcDbLayerTableRecord
  2
LAYER100
 70
               0
 62
               7
  6
CONTINUOUS
  0
LAYER
  5
9A
100
AcDbSymbolTableRecord
100
AcDbLayerTableRecord
  2
LAYER101
 70
               0
 62
               7
  6
CONTINUOUS
  0
LAYER
  5
9B
100
AcDbSymbolTableRecord
100
AcDbLayerTableRecord
  2
LAYER102
 70
               0
 62
               7
  6
CONTINUOUS
  0
LAYER
  5
9C
100
AcDbSymbolTableRecord
100
AcDbLayerTableRecord
  2
LAYER103
 70
               0
 62
               7
  6
CONTINUOUS
  0
LAYER
  5
9D
100
AcDbSymbolTableRecord
100
AcDbLayerTableRecord
  2
LAYER104
 70
               0
 62
               7
  6
CONTINUOUS
  0
LAYER
  5
9E
100
AcDbSymbolTableRecord
100
AcDbLayerTableRecord
  2
LAYER105
 70
               0
 62
               7
  6
CONTINUOUS
  0
LAYER
  5
9F
100
AcDbSymbolTableRecord
100
AcDbLayerTableRecord
  2
LAYER106
 70
               0
 62
               7
  6
CONTINUOUS
  0
LAYER
  5
A0
100
AcDbSymbolTableRecord
100
AcDbLayerTableRecord
  2
LAYER107
 70
               0
 62
               7
  6
CONTINUOUS
  0
LAYER
  5
A1
100
AcDbSymbolTableRecord
100
AcDbLayerTableRecord
  2
LAYER108
 70
               0
 62
               7
  6
CONTINUOUS
  0
LAYER
  5
A2
100
AcDbSymbolTableRecord
100
AcDbLayerTableRecord
  2
LAYER109
 70
               0
 62
               7
  6
CONTINUOUS
  0
LAYER
  5
A3
100
AcDbSymbolTableRecord
100
AcDbLayerTableRecord
  2
LAYER110
 70
               0
 62
               7
  6
CONTINUOUS
  0
LAYER
  5
A4
100
AcDbSymbolTableRecord
100
AcDbLayerTableRecord
  2
LAYER111
 70
               0
 62
               7
  6
CONTINUOUS
  0
LAYER
  5
A5
100
AcDbSymbolTableRecord
100
AcDbLayerTableRecord
  2
LAYER112
 70
               0
 62
               7
  6
CONTINUOUS
  0
LAYER
  5
A6
100
AcDbSymbolTableRecord
100
AcDbLayerTableRecord
  2
LAYER113
 70
               0
 62
               7
  6
CONTINUOUS
  0
LAYER
  5
A7
100
AcDbSymbolTableRecord
100
AcDbLayerTableRecord
  2
LAYER114
 70
               0
 62
               7
  6
CONTINUOUS
  0
LAYER
  5
A8
100
AcDbSymbolTableRecord
100
AcDbLayerTableRecord
  2
LAYER115
 70
               0
 62
               7
  6
CONTINUOUS
  0
LAYER
  5
A9
100
AcDbSymbolTableRecord
100
AcDbLayerTableRecord
  2
LAYER116
 70
               0
 62
               7
  6
CONTINUOUS
  0
LAYER
  5
AA
100
AcDbSymbolTableRecord
100
AcDbLayerTableRecord
  2
LAYER117
 70
               0
 62
               7
  6
CONTINUOUS
  0
LAYER
  5
AB
100
AcDbSymbolTableRecord
100
AcDbLayerTableRecord
  2
LAYER118
 70
               0
 62
               7
  6
CONTINUOUS
  0
LAYER
  5
AC
100
AcDbSymbolTableRecord
100
AcDbLayerTableRecord
  2
LAYER119
 70
               0
 62
               7
  6
CONTINUOUS
  0
LAYER
  5
AD
100
AcDbSymbolTableRecord
100
AcDbLayerTableRecord
  2
LAYER120
 70
               0
 62
               7
  6
CONTINUOUS
  0
LAYER
  5
AE
100
AcDbSymbolTableRecord
100
AcDbLayerTableRecord
  2
LAYER121
 70
               0
 62
               7
  6
CONTINUOUS
  0
LAYER
  5
AF
100
AcDbSymbolTableRecord
100
AcDbLayerTableRecord
  2
LAYER122
 70
               0
 62
               7
  6
CONTINUOUS
  0
LAYER
  5
B0
100
AcDbSymbolTableRecord
100
AcDbLayerTableRecord
  2
LAYER123
 70
               0
 62
               7
  6
CONTINUOUS
  0
LAYER
  5
B1
100
AcDbSymbolTableRecord
100
AcDbLayerTableRecord
  2
LAYER124
 70
               0
 62
               7
  6
CONTINUOUS
  0
LAYER
  5
B2
100
AcDbSymbolTableRecord
100
AcDbLayerTableRecord
  2
LAYER125
 70
               0
 62
               7
  6
CONTINUOUS
  0
LAYER
  5
B3
100
AcDbSymbolTableRecord
100
AcDbLayerTableRecord
  2
LAYER126
 70
               0
 62
               7
  6
CONTINUOUS
  0
LAYER
  5
B4
100
AcDbSymbolTableRecord
100
AcDbLayerTableRecord
  2
LAYER127
 70
               0
 62
               7
  6
CONTINUOUS
  0
LAYER
  5
B5
100
AcDbSymbolTableRecord
100
AcDbLayerTableRecord
  2
LAYER128
 70
               0
 62
               7
  6
CONTINUOUS
  0
LAYER
  5
B6
100
AcDbSymbolTableRecord
100
AcDbLayerTableRecord
  2
LAYER129
 70
               0
 62
               7
  6
CONTINUOUS
  0
LAYER
  5
B7
100
AcDbSymbolTableRecord
100
AcDbLayerTableRecord
  2
LAYER130
 70
               0
 62
               7
  6
CONTINUOUS
  0
LAYER
  5
B8
100
AcDbSymbolTableRecord
100
AcDbLayerTableRecord
  2
LAYER131
 70
               0
 62
               7
  6
CONTINUOUS
  0
LAYER
  5
B9
100
AcDbSymbolTableRecord
100
AcDbLayerTableRecord
  2
LAYER132
 70
               0
 62
               7
  6
CONTINUOUS
  0
LAYER
  5
BA
100
AcDbSymbolTableRecord
100
AcDbLayerTableRecord
  2
LAYER133
 70
               0
 62
               7
  6
CONTINUOUS
  0
LAYER
  5
BB
100
AcDbSymbolTableRecord
100
AcDbLayerTableRecord
  2
LAYER134
 70
               0
 62
               7
  6
CONTINUOUS
  0
LAYER
  5
BC
100
AcDbSymbolTableRecord
100
AcDbLayerTableRecord
  2
LAYER135
 70
               0
 62
               7
  6
CONTINUOUS
  0
LAYER
  5
BD
100
AcDbSymbolTableRecord
100
AcDbLayerTableRecord
  2
LAYER136
 70
               0
 62
               7
  6
CONTINUOUS
  0
LAYER
  5
BE
100
AcDbSymbolTableRecord
100
AcDbLayerTableRecord
  2
LAYER137
 70
               0
 62
               7
  6
CONTINUOUS
  0
LAYER
  5
BF
100
AcDbSymbolTableRecord
100
AcDbLayerTableRecord
  2
LAYER138
 70
               0
 62
               7
  6
CONTINUOUS
  0
LAYER
  5
C0
100
AcDbSymbolTableRecord
100
AcDbLayerTableRecord
  2
LAYER139
 70
               0
 62
               7
  6
CONTINUOUS
  0
LAYER
  5
C1
100
AcDbSymbolTableRecord
100
AcDbLayerTableRecord
  2
LAYER140
 70
               0
 62
               7
  6
CONTINUOUS
  0
LAYER
  5
C2
100
AcDbSymbolTableRecord
100
AcDbLayerTableRecord
  2
LAYER141
 70
               0
 62
               7
  6
CONTINUOUS
  0
LAYER
  5
C3
100
AcDbSymbolTableRecord
100
AcDbLayerTableRecord
  2
LAYER142
 70
               0
 62
               7
  6
CONTINUOUS
  0
LAYER
  5
C4
100
AcDbSymbolTableRecord
100
AcDbLayerTableRecord
  2
LAYER143
 70
               0
 62
               7
  6
CONTINUOUS
  0
LAYER
  5
C5
100
AcDbSymbolTableRecord
100
AcDbLayerTableRecord
  2
LAYER144
 70
               0
 62
               7
  6
CONTINUOUS
  0
LAYER
  5
C6
100
AcDbSymbolTableRecord
100
AcDbLayerTableRecord
  2
LAYER145
 70
               0
 62
               7
  6
CONTINUOUS
  0
LAYER
  5
C7
100
AcDbSymbolTableRecord
100
AcDbLayerTableRecord
  2
LAYER146
 70
               0
 62
               7
  6
CONTINUOUS
  0
LAYER
  5
C8
100
AcDbSymbolTableRecord
100
AcDbLayerTableRecord
  2
LAYER147
 70
               0
 62
               7
  6
CONTINUOUS
  0
LAYER
  5
C9
100
AcDbSymbolTableRecord
100
AcDbLayerTableRecord
  2
LAYER148
 70
               0
 62
               7
  6
CONTINUOUS
  0
LAYER
  5
CA
100
AcDbSymbolTableRecord
100
AcDbLayerTableRecord
  2
LAYER149
 70
               0
 62
               7
  6
CONTINUOUS
  0
LAYER
  5
CB
100
AcDbSymbolTableRecord
100
AcDbLayerTableRecord
  2
LAYER150
 70
               0
 62
               7
  6
CONTINUOUS
  0
LAYER
  5
CC
100
AcDbSymbolTableRecord
100
AcDbLayerTableRecord
  2
LAYER151
 70
               0
 62
               7
  6
CONTINUOUS
  0
LAYER
  5
CD
100
AcDbSymbolTableRecord
100
AcDbLayerTableRecord
  2
LAYER152
 70
               0
 62
               7
  6
CONTINUOUS
  0
LAYER
  5
CE
100
AcDbSymbolTableRecord
100
AcDbLayerTableRecord
  2
LAYER153
 70
               0
 62
               7
  6
CONTINUOUS
  0
LAYER
  5
CF
100
AcDbSymbolTableRecord
100
AcDbLayerTableRecord
  2
LAYER154
 70
               0
 62
               7
  6
CONTINUOUS
  0
LAYER
  5
D0
100
AcDbSymbolTableRecord
100
AcDbLayerTableRecord
  2
LAYER155
 70
               0
 62
               7
  6
CONTINUOUS
  0
LAYER
  5
D1
100
AcDbSymbolTableRecord
100
AcDbLayerTableRecord
  2
LAYER156
 70
               0
 62
               7
  6
CONTINUOUS
  0
LAYER
  5
D2
100
AcDbSymbolTableRecord
100
AcDbLayerTableRecord
  2
LAYER157
 70
               0
 62
               7
  6
CONTINUOUS
  0
LAYER
  5
D3
100
AcDbSymbolTableRecord
100
AcDbLayerTableRecord
  2
LAYER158
 70
               0
 62
               7
  6
CONTINUOUS
  0
LAYER
  5
D4
100
AcDbSymbolTableRecord
100
AcDbLayerTableRecord
  2
LAYER159
 70
               0
 62
               7
  6
CONTINUOUS
  0
LAYER
  5
D5
100
AcDbSymbolTableRecord
100
AcDbLayerTableRecord
  2
LAYER160
 70
               0
 62
               7
  6
CONTINUOUS
  0
LAYER
  5
D6
100
AcDbSymbolTableRecord
100
AcDbLayerTableRecord
  2
LAYER161
 70
               0
 62
               7
  6
CONTINUOUS
  0
LAYER
  5
D7
100
AcDbSymbolTableRecord
100
AcDbLayerTableRecord
  2
LAYER162
 70
               0
 62
               7
  6
CONTINUOUS
  0
LAYER
  5
D8
100
AcDbSymbolTableRecord
100
AcDbLayerTableRecord
  2
LAYER163
 70
               0
 62
               7
  6
CONTINUOUS
  0
LAYER
  5
D9
100
AcDbSymbolTableRecord
100
AcDbLayerTableRecord
  2
LAYER164
 70
               0
 62
               7
  6
CONTINUOUS
  0
LAYER
  5
DA
100
AcDbSymbolTableRecord
100
AcDbLayerTableRecord
  2
LAYER165
 70
               0
 62
               7
  6
CONTINUOUS
  0
LAYER
  5
DB
100
AcDbSymbolTableRecord
100
AcDbLayerTableRecord
  2
LAYER166
 70
               0
 62
               7
  6
CONTINUOUS
  0
LAYER
  5
DC
100
AcDbSymbolTableRecord
100
AcDbLayerTableRecord
  2
LAYER167
 70
               0
 62
               7
  6
CONTINUOUS
  0
LAYER
  5
DD
100
AcDbSymbolTableRecord
100
AcDbLayerTableRecord
  2
LAYER168
 70
               0
 62
               7
  6
CONTINUOUS
  0
LAYER
  5
DE
100
AcDbSymbolTableRecord
100
AcDbLayerTableRecord
  2
LAYER169
 70
               0
 62
               7
  6
CONTINUOUS
  0
LAYER
  5
DF
100
AcDbSymbolTableRecord
100
AcDbLayerTableRecord
  2
LAYER170
 70
               0
 62
               7
  6
CONTINUOUS
  0
LAYER
  5
E0
100
AcDbSymbolTableRecord
100
AcDbLayerTableRecord
  2
LAYER171
 70
               0
 62
               7
  6
CONTINUOUS
  0
LAYER
  5
E1
100
AcDbSymbolTableRecord
100
AcDbLayerTableRecord
  2
LAYER172
 70
               0
 62
               7
  6
CONTINUOUS
  0
LAYER
  5
E2
100
AcDbSymbolTableRecord
100
AcDbLayerTableRecord
  2
LAYER173
 70
               0
 62
               7
  6
CONTINUOUS
  0
LAYER
  5
E3
100
AcDbSymbolTableRecord
100
AcDbLayerTableRecord
  2
LAYER174
 70
               0
 62
               7
  6
CONTINUOUS
  0
LAYER
  5
E4
100
AcDbSymbolTableRecord
100
AcDbLayerTableRecord
  2
LAYER175
 70
               0
 62
               7
  6
CONTINUOUS
  0
LAYER
  5
E5
100
AcDbSymbolTableRecord
100
AcDbLayerTableRecord
  2
LAYER176
 70
               0
 62
               7
  6
CONTINUOUS
  0
LAYER
  5
E6
100
AcDbSymbolTableRecord
100
AcDbLayerTableRecord
  2
LAYER177
 70
               0
 62
               7
  6
CONTINUOUS
  0
LAYER
  5
E7
100
AcDbSymbolTableRecord
100
AcDbLayerTableRecord
  2
LAYER178
 70
               0
 62
               7
  6
CONTINUOUS
  0
LAYER
  5
E8
100
AcDbSymbolTableRecord
100
AcDbLayerTableRecord
  2
LAYER179
 70
               0
 62
               7
  6
CONTINUOUS
  0
LAYER
  5
E9
100
AcDbSymbolTableRecord
100
AcDbLayerTableRecord
  2
LAYER180
 70
               0
 62
               7
  6
CONTINUOUS
  0
LAYER
  5
EA
100
AcDbSymbolTableRecord
100
AcDbLayerTableRecord
  2
LAYER181
 70
               0
 62
               7
  6
CONTINUOUS
  0
LAYER
  5
EB
100
AcDbSymbolTableRecord
100
AcDbLayerTableRecord
  2
LAYER182
 70
               0
 62
               7
  6
CONTINUOUS
  0
LAYER
  5
EC
100
AcDbSymbolTableRecord
100
AcDbLayerTableRecord
  2
LAYER183
 70
               0
 62
               7
  6
CONTINUOUS
  0
LAYER
  5
ED
100
AcDbSymbolTableRecord
100
AcDbLayerTableRecord
  2
LAYER184
 70
               0
 62
               7
  6
CONTINUOUS
  0
LAYER
  5
EE
100
AcDbSymbolTableRecord
100
AcDbLayerTableRecord
  2
LAYER185
 70
               0
 62
               7
  6
CONTINUOUS
  0
LAYER
  5
EF
100
AcDbSymbolTableRecord
100
AcDbLayerTableRecord
  2
LAYER186
 70
               0
 62
               7
  6
CONTINUOUS
  0
LAYER
  5
F0
100
AcDbSymbolTableRecord
100
AcDbLayerTableRecord
  2
LAYER187
 70
               0
 62
               7
  6
CONTINUOUS
  0
LAYER
  5
F1
100
AcDbSymbolTableRecord
100
AcDbLayerTableRecord
  2
LAYER188
 70
               0
 62
               7
  6
CONTINUOUS
  0
LAYER
  5
F2
100
AcDbSymbolTableRecord
100
AcDbLayerTableRecord
  2
LAYER189
 70
               0
 62
               7
  6
CONTINUOUS
  0
LAYER
  5
F3
100
AcDbSymbolTableRecord
100
AcDbLayerTableRecord
  2
LAYER190
 70
               0
 62
               7
  6
CONTINUOUS
  0
LAYER
  5
F4
100
AcDbSymbolTableRecord
100
AcDbLayerTableRecord
  2
LAYER191
 70
               0
 62
               7
  6
CONTINUOUS
  0
LAYER
  5
F5
100
AcDbSymbolTableRecord
100
AcDbLayerTableRecord
  2
LAYER192
 70
               0
 62
               7
  6
CONTINUOUS
  0
LAYER
  5
F6
100
AcDbSymbolTableRecord
100
AcDbLayerTableRecord
  2
LAYER193
 70
               0
 62
               7
  6
CONTINUOUS
  0
LAYER
  5
F7
100
AcDbSymbolTableRecord
100
AcDbLayerTableRecord
  2
LAYER194
 70
               0
 62
               7
  6
CONTINUOUS
  0
LAYER
  5
F8
100
AcDbSymbolTableRecord
100
AcDbLayerTableRecord
  2
LAYER195
 70
               0
 62
               7
  6
CONTINUOUS
  0
LAYER
  5
F9
100
AcDbSymbolTableRecord
100
AcDbLayerTableRecord
  2
LAYER196
 70
               0
 62
               7
  6
CONTINUOUS
  0
LAYER
  5
FA
100
AcDbSymbolTableRecord
100
AcDbLayerTableRecord
  2
LAYER197
 70
               0
 62
               7
  6
CONTINUOUS
  0
LAYER
  5
FB
100
AcDbSymbolTableRecord
100
AcDbLayerTableRecord
  2
LAYER198
 70
               0
 62
               7
  6
CONTINUOUS
  0
LAYER
  5
FC
100
AcDbSymbolTableRecord
100
AcDbLayerTableRecord
  2
LAYER199
 70
               0
 62
               7
  6
CONTINUOUS
  0
LAYER
  5
FD
100
AcDbSymbolTableRecord
100
AcDbLayerTableRecord
  2
LAYER200
 70
               0
 62
               7
  6
CONTINUOUS
  0
LAYER
  5
FE
100
AcDbSymbolTableRecord
100
AcDbLayerTableRecord
  2
LAYER201
 70
               0
 62
               7
  6
CONTINUOUS
  0
LAYER
  5
FF
100
AcDbSymbolTableRecord
100
AcDbLayerTableRecord
  2
LAYER202
 70
               0
 62
               7
  6
CONTINUOUS
  0
LAYER
  5
100
100
AcDbSymbolTableRecord
100
AcDbLayerTableRecord
  2
LAYER203
 70
               0
 62
               7
  6
CONTINUOUS
  0
LAYER
  5
101
100
AcDbSymbolTableRecord
100
AcDbLayerTableRecord
  2
LAYER204
 70
               0
 62
               7
  6
CONTINUOUS
  0
LAYER
  5
102
100
AcDbSymbolTableRecord
100
AcDbLayerTableRecord
  2
LAYER205
 70
               0
 62
               7
  6
CONTINUOUS
  0
LAYER
  5
103
100
AcDbSymbolTableRecord
100
AcDbLayerTableRecord
  2
LAYER206
 70
               0
 62
               7
  6
CONTINUOUS
  0
LAYER
  5
104
100
AcDbSymbolTableRecord
100
AcDbLayerTableRecord
  2
LAYER207
 70
               0
 62
               7
  6
CONTINUOUS
  0
LAYER
  5
105
100
AcDbSymbolTableRecord
100
AcDbLayerTableRecord
  2
LAYER208
 70
               0
 62
               7
  6
CONTINUOUS
  0
LAYER
  5
106
100
AcDbSymbolTableRecord
100
AcDbLayerTableRecord
  2
LAYER209
 70
               0
 62
               7
  6
CONTINUOUS
  0
LAYER
  5
107
100
AcDbSymbolTableRecord
100
AcDbLayerTableRecord
  2
LAYER210
 70
               0
 62
               7
  6
CONTINUOUS
  0
LAYER
  5
108
100
AcDbSymbolTableRecord
100
AcDbLayerTableRecord
  2
LAYER211
 70
               0
 62
               7
  6
CONTINUOUS
  0
LAYER
  5
109
100
AcDbSymbolTableRecord
100
AcDbLayerTableRecord
  2
LAYER212
 70
               0
 62
               7
  6
CONTINUOUS
  0
LAYER
  5
10A
100
AcDbSymbolTableRecord
100
AcDbLayerTableRecord
  2
LAYER213
 70
               0
 62
               7
  6
CONTINUOUS
  0
LAYER
  5
10B
100
AcDbSymbolTableRecord
100
AcDbLayerTableRecord
  2
LAYER214
 70
               0
 62
               7
  6
CONTINUOUS
  0
LAYER
  5
10C
100
AcDbSymbolTableRecord
100
AcDbLayerTableRecord
  2
LAYER215
 70
               0
 62
               7
  6
CONTINUOUS
  0
LAYER
  5
10D
100
AcDbSymbolTableRecord
100
AcDbLayerTableRecord
  2
LAYER216
 70
               0
 62
               7
  6
CONTINUOUS
  0
LAYER
  5
10E
100
AcDbSymbolTableRecord
100
AcDbLayerTableRecord
  2
LAYER217
 70
               0
 62
               7
  6
CONTINUOUS
  0
LAYER
  5
10F
100
AcDbSymbolTableRecord
100
AcDbLayerTableRecord
  2
LAYER218
 70
               0
 62
               7
  6
CONTINUOUS
  0
LAYER
  5
110
100
AcDbSymbolTableRecord
100
AcDbLayerTableRecord
  2
LAYER219
 70
               0
 62
               7
  6
CONTINUOUS
  0
LAYER
  5
111
100
AcDbSymbolTableRecord
100
AcDbLayerTableRecord
  2
LAYER220
 70
               0
 62
               7
  6
CONTINUOUS
  0
LAYER
  5
112
100
AcDbSymbolTableRecord
100
AcDbLayerTableRecord
  2
LAYER221
 70
               0
 62
               7
  6
CONTINUOUS
  0
LAYER
  5
113
100
AcDbSymbolTableRecord
100
AcDbLayerTableRecord
  2
LAYER222
 70
               0
 62
               7
  6
CONTINUOUS
  0
LAYER
  5
114
100
AcDbSymbolTableRecord
100
AcDbLayerTableRecord
  2
LAYER223
 70
               0
 62
               7
  6
CONTINUOUS
  0
LAYER
  5
115
100
AcDbSymbolTableRecord
100
AcDbLayerTableRecord
  2
LAYER224
 70
               0
 62
               7
  6
CONTINUOUS
  0
LAYER
  5
116
100
AcDbSymbolTableRecord
100
AcDbLayerTableRecord
  2
LAYER225
 70
               0
 62
               7
  6
CONTINUOUS
  0
LAYER
  5
117
100
AcDbSymbolTableRecord
100
AcDbLayerTableRecord
  2
LAYER226
 70
               0
 62
               7
  6
CONTINUOUS
  0
LAYER
  5
118
100
AcDbSymbolTableRecord
100
AcDbLayerTableRecord
  2
LAYER227
 70
               0
 62
               7
  6
CONTINUOUS
  0
LAYER
  5
119
100
AcDbSymbolTableRecord
100
AcDbLayerTableRecord
  2
LAYER228
 70
               0
 62
               7
  6
CONTINUOUS
  0
LAYER
  5
11A
100
AcDbSymbolTableRecord
100
AcDbLayerTableRecord
  2
LAYER229
 70
               0
 62
               7
  6
CONTINUOUS
  0
LAYER
  5
11B
100
AcDbSymbolTableRecord
100
AcDbLayerTableRecord
  2
LAYER230
 70
               0
 62
               7
  6
CONTINUOUS
  0
LAYER
  5
11C
100
AcDbSymbolTableRecord
100
AcDbLayerTableRecord
  2
LAYER231
 70
               0
 62
               7
  6
CONTINUOUS
  0
LAYER
  5
11D
100
AcDbSymbolTableRecord
100
AcDbLayerTableRecord
  2
LAYER232
 70
               0
 62
               7
  6
CONTINUOUS
  0
LAYER
  5
11E
100
AcDbSymbolTableRecord
100
AcDbLayerTableRecord
  2
LAYER233
 70
               0
 62
               7
  6
CONTINUOUS
  0
LAYER
  5
11F
100
AcDbSymbolTableRecord
100
AcDbLayerTableRecord
  2
LAYER234
 70
               0
 62
               7
  6
CONTINUOUS
  0
LAYER
  5
120
100
AcDbSymbolTableRecord
100
AcDbLayerTableRecord
  2
LAYER235
 70
               0
 62
               7
  6
CONTINUOUS
  0
LAYER
  5
121
100
AcDbSymbolTableRecord
100
AcDbLayerTableRecord
  2
LAYER236
 70
               0
 62
               7
  6
CONTINUOUS
  0
LAYER
  5
122
100
AcDbSymbolTableRecord
100
AcDbLayerTableRecord
  2
LAYER237
 70
               0
 62
               7
  6
CONTINUOUS
  0
LAYER
  5
123
100
AcDbSymbolTableRecord
100
AcDbLayerTableRecord
  2
LAYER238
 70
               0
 62
               7
  6
CONTINUOUS
  0
LAYER
  5
124
100
AcDbSymbolTableRecord
100
AcDbLayerTableRecord
  2
LAYER239
 70
               0
 62
               7
  6
CONTINUOUS
  0
LAYER
  5
125
100
AcDbSymbolTableRecord
100
AcDbLayerTableRecord
  2
LAYER240
 70
               0
 62
               7
  6
CONTINUOUS
  0
LAYER
  5
126
100
AcDbSymbolTableRecord
100
AcDbLayerTableRecord
  2
LAYER241
 70
               0
 62
               7
  6
CONTINUOUS
  0
LAYER
  5
127
100
AcDbSymbolTableRecord
100
AcDbLayerTableRecord
  2
LAYER242
 70
               0
 62
               7
  6
CONTINUOUS
  0
LAYER
  5
128
100
AcDbSymbolTableRecord
100
AcDbLayerTableRecord
  2
LAYER243
 70
               0
 62
               7
  6
CONTINUOUS
  0
LAYER
  5
129
100
AcDbSymbolTableRecord
100
AcDbLayerTableRecord
  2
LAYER244
 70
               0
 62
               7
  6
CONTINUOUS
  0
LAYER
  5
12A
100
AcDbSymbolTableRecord
100
AcDbLayerTableRecord
  2
LAYER245
 70
               0
 62
               7
  6
CONTINUOUS
  0
LAYER
  5
12B
100
AcDbSymbolTableRecord
100
AcDbLayerTableRecord
  2
LAYER246
 70
               0
 62
               7
  6
CONTINUOUS
  0
LAYER
  5
12C
100
AcDbSymbolTableRecord
100
AcDbLayerTableRecord
  2
LAYER247
 70
               0
 62
               7
  6
CONTINUOUS
  0
LAYER
  5
12D
100
AcDbSymbolTableRecord
100
AcDbLayerTableRecord
  2
LAYER248
 70
               0
 62
               7
  6
CONTINUOUS
  0
LAYER
  5
12E
100
AcDbSymbolTableRecord
100
AcDbLayerTableRecord
  2
LAYER249
 70
               0
 62
               7
  6
CONTINUOUS
  0
LAYER
  5
12F
100
AcDbSymbolTableRecord
100
AcDbLayerTableRecord
  2
LAYER250
 70
               0
 62
               7
  6
CONTINUOUS
  0
LAYER
  5
130
100
AcDbSymbolTableRecord
100
AcDbLayerTableRecord
  2
LAYER251
 70
               0
 62
               7
  6
CONTINUOUS
  0
LAYER
  5
131
100
AcDbSymbolTableRecord
100
AcDbLayerTableRecord
  2
LAYER252
 70
               0
 62
               7
  6
CONTINUOUS
  0
LAYER
  5
132
100
AcDbSymbolTableRecord
100
AcDbLayerTableRecord
  2
LAYER253
 70
               0
 62
               7
  6
CONTINUOUS
  0
LAYER
  5
133
100
AcDbSymbolTableRecord
100
AcDbLayerTableRecord
  2
LAYER254
 70
               0
 62
               7
  6
CONTINUOUS
  0
LAYER
  5
134
100
AcDbSymbolTableRecord
100
AcDbLayerTableRecord
  2
LAYER255
 70
               0
 62
               7
  6
CONTINUOUS
  0
ENDTAB
  0
TABLE
  2
STYLE
  5
3
100
AcDbSymbolTable
 70
               1
  0
STYLE
  5
17
100
AcDbSymbolTableRecord
100
AcDbTextStyleTableRecord
  2
STANDARD
 70
               0
 40
0.0
 41
1.0
 50
0.0
 71
               0
 42
0.0
  3
txt
  4

  0
ENDTAB
  0
TABLE
  2
VIEW
  5
5
100
AcDbSymbolTable
 70
               1
  0
VIEW
  5
135
100
AcDbSymbolTableRecord
100
AcDbViewTableRecord
  2
QQQQ
 70
               0
 40
654.27050000000031
 10
4.1000000000001364
 20
-78.149999999999608
 41
247.9620000000001
 11
0.0
 21
0.0
 31
1.0
 12
100.0
 22
100.0
 32
0.0
 42
50.0
 43
0.0
 44
0.0
 50
0.0
 71
               0
  0
ENDTAB
  0
TABLE
  2
UCS
  5
6
100
AcDbSymbolTable
 70
               0
  0
ENDTAB
  0
TABLE
  2
APPID
  5
8
100
AcDbSymbolTable
 70
               1
  0
APPID
  5
16
100
AcDbSymbolTableRecord
100
AcDbRegAppTableRecord
  2
ACAD
 70
               0
  0
ENDTAB
  0
TABLE
  2
DIMSTYLE
  5
9
100
AcDbSymbolTable
 70
               1
  0
DIMSTYLE
105
18
100
AcDbSymbolTableRecord
100
AcDbDimStyleTableRecord
  2
STANDARD
 70
               0
  3

  4

  5

  6

  7

 40
1.0
 41
0.18
 42
0.0625
 43
0.38
 44
0.18
 45
0.0
 46
0.0
 47
0.0
 48
0.0
140
0.18
141
0.09
142
0.0
143
25.399999999999999
144
1.0
145
0.0
146
1.0
147
0.09
 71
               0
 72
               0
 73
               1
 74
               1
 75
               0
 76
               0
 77
               0
 78
               0
170
               0
171
               2
172
               0
173
               0
174
               0
175
               0
176
               0
177
               0
178
               0
270
               2
271
               4
272
               4
273
               2
274
               2
340
17
275
               0
280
               0
281
               0
282
               0
283
               1
284
               0
285
               0
286
               0
287
               0
288
               0
  0
ENDTAB
  0
TABLE
  2
BLOCK_RECORD
  5
1
100
AcDbSymbolTable
 70
               1
  0
BLOCK_RECORD
  5
A
100
AcDbSymbolTableRecord
100
AcDbBlockTableRecord
  2
*MODEL_SPACE
  0
BLOCK_RECORD
  5
B
100
AcDbSymbolTableRecord
100
AcDbBlockTableRecord
  2
*PAPER_SPACE
  0
BLOCK_RECORD
  5
136
100
AcDbSymbolTableRecord
100
AcDbBlockTableRecord
  2
GROUP_1
  0
ENDTAB
  0
ENDSEC
  0
SECTION
  2
BLOCKS
  0
BLOCK
  5
D
100
AcDbEntity
  8
0
100
AcDbBlockBegin
  2
*MODEL_SPACE
 70
               0
 10
0.0
 20
0.0
 30
0.0
  3
*MODEL_SPACE
  1

  0
ENDBLK
  5
E
100
AcDbEntity
  8
0
100
AcDbBlockEnd
  0
BLOCK
  5
F
100
AcDbEntity
 67
               1
  8
0
100
AcDbBlockBegin
  2
*PAPER_SPACE
 70
               0
 10
0.0
 20
0.0
 30
0.0
  3
*PAPER_SPACE
  1

  0
ENDBLK
  5
10
100
AcDbEntity
 67
               1
  8
0
100
AcDbBlockEnd
  0
BLOCK
  5
137
100
AcDbEntity
  8
0
100
AcDbBlockBegin
  2
GROUP_1
 70
               0
 10
0.0
 20
0.0
 30
0.0
  3
GROUP_1
  1

  0
LINE
  5
138
100
AcDbEntity
  8
LAYER001
  6
CONTINUOUS
 62
               7
100
AcDbLine
 10
-5.7735029999998915
 20
-203.19999999999982
 30
0.0
 11
-2.8867510000000038
 21
-208.19999999999982
 31
0.0
  0
LINE
  5
139
100
AcDbEntity
  8
LAYER001
  6
CONTINUOUS
 62
               7
100
AcDbLine
 10
-2.8867510000000038
 20
-208.19999999999982
 30
0.0
 11
2.8867510000000038
 21
-208.19999999999982
 31
0.0
  0
LINE
  5
13A
100
AcDbEntity
  8
LAYER001
  6
CONTINUOUS
 62
               7
100
AcDbLine
 10
2.8867510000000038
 20
-208.19999999999982
 30
0.0
 11
5.7735029999998915
 21
-203.19999999999982
 31
0.0
  0
LINE
  5
13B
100
AcDbEntity
  8
LAYER001
  6
CONTINUOUS
 62
               7
100
AcDbLine
 10
5.7735029999998915
 20
-203.19999999999982
 30
0.0
 11
2.8867510000000038
 21
-198.19999999999982
 31
0.0
  0
LINE
  5
13C
100
AcDbEntity
  8
LAYER001
  6
CONTINUOUS
 62
               7
100
AcDbLine
 10
2.8867510000000038
 20
-198.19999999999982
 30
0.0
 11
-2.8867510000000038
 21
-198.19999999999982
 31
0.0
  0
LINE
  5
13D
100
AcDbEntity
  8
LAYER001
  6
CONTINUOUS
 62
               7
100
AcDbLine
 10
-2.8867510000000038
 20
-198.19999999999982
 30
0.0
 11
-5.7735029999998915
 21
-203.19999999999982
 31
0.0
  0
ENDBLK
  5
13E
100
AcDbEntity
  8
0
100
AcDbBlockEnd
  0
ENDSEC
  0
SECTION
  2
ENTITIES
  0
LINE
  5
13F
100
AcDbEntity
  8
LAYER001
  6
CONTINUOUS
 62
               7
100
AcDbLine
 10
0.0
 20
0.0
 30
0.0
 11
0.0
 21
217.90000000000055
 31
0.0
  0
LINE
  5
140
100
AcDbEntity
  8
LAYER001
  6
CONTINUOUS
 62
               7
100
AcDbLine
 10
-108.09999999999991
 20
108.80000000000018
 30
0.0
 11
116.30000000000018
 21
108.80000000000018
 31
0.0
  0
LINE
  5
141
100
AcDbEntity
  8
LAYER001
  6
CONTINUOUS
 62
               7
100
AcDbLine
 10
0.0
 20
-133.35696299999972
 30
0.0
 11
0.0
 21
-374.19999999999982
 31
0.0
  0
LINE
  5
142
100
AcDbEntity
  8
LAYER001
  6
CONTINUOUS
 62
               7
100
AcDbLine
 10
-96.0
 20
-196.19999999999982
 30
0.0
 11
-96.0
 21
-203.90803599999981
 31
0.0
  0
LINE
  5
143
100
AcDbEntity
  8
LAYER001
  6
CONTINUOUS
 62
               7
100
AcDbLine
 10
-95.0
 20
-195.19999999999982
 30
0.0
 11
95.0
 21
-195.19999999999982
 31
0.0
  0
LINE
  5
144
100
AcDbEntity
  8
LAYER001
  6
CONTINUOUS
 62
               7
100
AcDbLine
 10
96.0
 20
-196.19999999999982
 30
0.0
 11
96.0
 21
-203.90803599999981
 31
0.0
  0
ARC
  5
145
100
AcDbEntity
  8
LAYER001
  6
CONTINUOUS
 62
               7
100
AcDbCircle
 10
-95.0
 20
-196.19999999999982
 30
0.0
 40
1.0
100
AcDbArc
 50
89.999999999973738
 51
179.99999999997354
  0
ARC
  5
146
100
AcDbEntity
  8
LAYER001
  6
CONTINUOUS
 62
               7
100
AcDbCircle
 10
95.0
 20
-196.19999999999982
 30
0.0
 40
1.0
100
AcDbArc
 50
0.0
 51
89.999999999973738
  0
CIRCLE
  5
147
100
AcDbEntity
  8
LAYER001
  6
CONTINUOUS
 62
               7
100
AcDbCircle
 10
0.0
 20
108.80000000000018
 30
0.0
 40
96.0
  0
LINE
  5
148
100
AcDbEntity
  8
LAYER001
  6
CONTINUOUS
 62
               7
100
AcDbLine
 10
-86.366042999999991
 20
-203.19999999999982
 30
0.0
 11
-96.0
 21
-203.19999999999982
 31
0.0
  0
ARC
  5
149
100
AcDbEntity
  8
LAYER001
  6
CONTINUOUS
 62
               7
100
AcDbCircle
 10
-10.583004999999957
 20
-206.19999999999982
 30
0.0
 40
3.0
100
AcDbArc
 50
15.826619999997536
 51
89.999999999982435
  0
ARC
  5
14A
100
AcDbEntity
  8
LAYER001
  6
CONTINUOUS
 62
               7
100
AcDbCircle
 10
0.0
 20
-203.19999999999982
 30
0.0
 40
8.0
100
AcDbArc
 50
195.82661999996196
 51
344.17337999993487
  0
ARC
  5
14B
100
AcDbEntity
  8
LAYER001
  6
CONTINUOUS
 62
               7
100
AcDbCircle
 10
10.583004999999957
 20
-206.19999999999982
 30
0.0
 40
3.0
100
AcDbArc
 50
89.999999999982435
 51
164.17337999996627
  0
LINE
  5
14C
100
AcDbEntity
  8
LAYER001
  6
CONTINUOUS
 62
               7
100
AcDbLine
 10
-82.484767999999804
 20
-223.19999999999982
 30
0.0
 11
-84.179807999999866
 21
-223.19999999999982
 31
0.0
  0
LINE
  5
14D
100
AcDbEntity
  8
LAYER001
  6
CONTINUOUS
 62
               7
100
AcDbLine
 10
-80.733862999999928
 20
-204.63600699999961
 30
0.0
 11
-81.485678000000007
 21
-222.24266199999965
 31
0.0
  0
LINE
  5
14E
100
AcDbEntity
  8
LAYER001
  6
CONTINUOUS
 62
               7
100
AcDbLine
 10
-85.366727999999966
 20
-204.1629869999997
 30
0.0
 11
-84.679465000000164
 21
-222.71850599999971
 31
0.0
  0
ARC
  5
14F
100
AcDbEntity
  8
LAYER001
  6
CONTINUOUS
 62
               7
100
AcDbCircle
 10
-82.484767999999804
 20
-222.19999999999982
 30
0.0
 40
1.0
100
AcDbArc
 50
269.99999999994731
 51
357.5549189999212
  0
ARC
  5
150
100
AcDbEntity
  8
LAYER001
  6
CONTINUOUS
 62
               7
100
AcDbCircle
 10
-84.179807999999866
 20
-222.69999999999982
 30
0.0
 40
0.5
100
AcDbArc
 50
182.12116299996097
 51
269.99999999994731
  0
LINE
  5
151
100
AcDbEntity
  8
LAYER001
  6
CONTINUOUS
 62
               7
100
AcDbLine
 10
-79.235228000000006
 20
-203.19999999999982
 30
0.0
 11
-10.583004999999957
 21
-203.19999999999982
 31
0.0
  0
ARC
  5
152
100
AcDbEntity
  8
LAYER001
  6
CONTINUOUS
 62
               7
100
AcDbCircle
 10
-79.235228000000006
 20
-204.69999999999982
 30
0.0
 40
1.5
100
AcDbArc
 50
89.999999999982435
 51
177.5549189999733
  0
ARC
  5
153
100
AcDbEntity
  8
LAYER001
  6
CONTINUOUS
 62
               7
100
AcDbCircle
 10
-86.366042999999991
 20
-204.19999999999982
 30
0.0
 40
1.0
100
AcDbArc
 50
2.1211629999864567
 51
89.999999999973738
  0
LINE
  5
154
100
AcDbEntity
  8
LAYER001
  6
CONTINUOUS
 62
               7
100
AcDbLine
 10
-77.879669999999805
 20
-208.11467599999969
 30
0.0
 11
-78.529288000000179
 21
-223.3279849999999
 31
0.0
  0
LINE
  5
155
100
AcDbEntity
  8
LAYER001
  6
CONTINUOUS
 62
               7
100
AcDbLine
 10
10.583004999999957
 20
-203.19999999999982
 30
0.0
 11
79.235228000000006
 21
-203.19999999999982
 31
0.0
  0
LINE
  5
156
100
AcDbEntity
  8
LAYER001
  6
CONTINUOUS
 62
               7
100
AcDbLine
 10
-12.649111000000175
 20
-206.19999999999982
 30
0.0
 11
-75.881491000000096
 21
-206.19999999999982
 31
0.0
  0
LINE
  5
157
100
AcDbEntity
  8
LAYER001
  6
CONTINUOUS
 62
               7
100
AcDbLine
 10
-85.291280999999799
 20
-206.19999999999982
 30
0.0
 11
-92.554434000000128
 21
-206.19999999999982
 31
0.0
  0
LINE
  5
158
100
AcDbEntity
  8
LAYER001
  6
CONTINUOUS
 62
               7
100
AcDbLine
 10
-81.526557000000139
 20
-226.19999999999982
 30
0.0
 11
-83.286969000000227
 21
-226.19999999999982
 31
0.0
  0
ARC
  5
159
100
AcDbEntity
  8
LAYER001
  6
CONTINUOUS
 62
               7
100
AcDbCircle
 10
-81.526557000000139
 20
-223.19999999999982
 30
0.0
 40
3.0
100
AcDbArc
 50
269.99999999994731
 51
357.5549189999299
  0
LINE
  5
15A
100
AcDbEntity
  8
LAYER001
  6
CONTINUOUS
 62
               7
100
AcDbLine
 10
-81.691338000000087
 20
-222.80866199999991
 30
0.0
 11
-79.294984999999997
 21
-225.205015
 31
0.0
  0
LINE
  5
15B
100
AcDbEntity
  8
LAYER001
  6
CONTINUOUS
 62
               7
100
AcDbLine
 10
-84.679740000000038
 20
-222.71108699999968
 30
0.0
 11
-84.275447999999869
 21
-225.351361
 31
0.0
  0
ARC
  5
15C
100
AcDbEntity
  8
LAYER001
  6
CONTINUOUS
 62
               7
100
AcDbCircle
 10
-83.286969000000227
 20
-225.19999999999982
 30
0.0
 40
1.0
100
AcDbArc
 50
188.70579399995896
 51
269.99999999994731
  0
ARC
  5
15D
100
AcDbEntity
  8
LAYER001
  6
CONTINUOUS
 62
               7
100
AcDbCircle
 10
-75.881491000000096
 20
-208.19999999999982
 30
0.0
 40
2.0
100
AcDbArc
 50
89.99999999998677
 51
177.55491899996065
  0
LINE
  5
15E
100
AcDbEntity
  8
LAYER001
  6
CONTINUOUS
 62
               7
100
AcDbLine
 10
-80.165133999999853
 20
-203.52302299999974
 30
0.0
 11
-77.353419000000031
 21
-206.84595899999977
 31
0.0
  0
ARC
  5
15F
100
AcDbEntity
  8
LAYER001
  6
CONTINUOUS
 62
               7
100
AcDbCircle
 10
0.0
 20
-203.19999999999982
 30
0.0
 40
11.0
100
AcDbArc
 50
205.37693399995976
 51
328.21908499993856
  0
ARC
  5
160
100
AcDbEntity
  8
LAYER001
  6
CONTINUOUS
 62
               7
100
AcDbCircle
 10
-12.649111000000175
 20
-209.19999999999982
 30
0.0
 40
3.0
100
AcDbArc
 50
25.376933999994694
 51
89.999999999982435
  0
ARC
  5
161
100
AcDbEntity
  8
LAYER001
  6
CONTINUOUS
 62
               7
100
AcDbCircle
 10
12.649111000000175
 20
-209.19999999999982
 30
0.0
 40
3.0
100
AcDbArc
 50
89.999999999982435
 51
154.62306599996978
  0
LINE
  5
162
100
AcDbEntity
  8
LAYER001
  6
CONTINUOUS
 62
               7
100
AcDbLine
 10
12.649111000000175
 20
-206.19999999999982
 30
0.0
 11
75.881491000000096
 21
-206.19999999999982
 31
0.0
  0
ARC
  5
163
100
AcDbEntity
  8
LAYER001
  6
CONTINUOUS
 62
               7
100
AcDbCircle
 10
82.484767999999804
 20
-222.19999999999982
 30
0.0
 40
1.0
100
AcDbArc
 50
182.44508099997347
 51
269.99999999994731
  0
LINE
  5
164
100
AcDbEntity
  8
LAYER001
  6
CONTINUOUS
 62
               7
100
AcDbLine
 10
82.484767999999804
 20
-223.19999999999982
 30
0.0
 11
84.179807999999866
 21
-223.19999999999982
 31
0.0
  0
ARC
  5
165
100
AcDbEntity
  8
LAYER001
  6
CONTINUOUS
 62
               7
100
AcDbCircle
 10
84.179807999999866
 20
-222.69999999999982
 30
0.0
 40
0.5
100
AcDbArc
 50
269.99999999994731
 51
357.87883699993364
  0
LINE
  5
166
100
AcDbEntity
  8
LAYER001
  6
CONTINUOUS
 62
               7
100
AcDbLine
 10
80.733862999999928
 20
-204.63600699999961
 30
0.0
 11
81.485678000000007
 21
-222.24266199999965
 31
0.0
  0
ARC
  5
167
100
AcDbEntity
  8
LAYER001
  6
CONTINUOUS
 62
               7
100
AcDbCircle
 10
79.235228000000006
 20
-204.69999999999982
 30
0.0
 40
1.5
100
AcDbArc
 50
2.4450809999916041
 51
89.999999999982435
  0
LINE
  5
168
100
AcDbEntity
  8
LAYER001
  6
CONTINUOUS
 62
               7
100
AcDbLine
 10
85.366727999999966
 20
-204.1629869999997
 30
0.0
 11
84.679465000000164
 21
-222.71850599999971
 31
0.0
  0
ARC
  5
169
100
AcDbEntity
  8
LAYER001
  6
CONTINUOUS
 62
               7
100
AcDbCircle
 10
86.366042999999991
 20
-204.19999999999982
 30
0.0
 40
1.0
100
AcDbArc
 50
89.999999999973738
 51
177.87883699996107
  0
LINE
  5
16A
100
AcDbEntity
  8
LAYER001
  6
CONTINUOUS
 62
               7
100
AcDbLine
 10
86.366042999999991
 20
-203.19999999999982
 30
0.0
 11
96.0
 21
-203.19999999999982
 31
0.0
  0
LINE
  5
16B
100
AcDbEntity
  8
LAYER001
  6
CONTINUOUS
 62
               7
100
AcDbLine
 10
85.291280999999799
 20
-206.19999999999982
 30
0.0
 11
92.554434000000128
 21
-206.19999999999982
 31
0.0
  0
ARC
  5
16C
100
AcDbEntity
  8
LAYER001
  6
CONTINUOUS
 62
               7
100
AcDbCircle
 10
81.526557000000139
 20
-223.19999999999982
 30
0.0
 40
3.0
100
AcDbArc
 50
182.4450809999648
 51
269.99999999994731
  0
LINE
  5
16D
100
AcDbEntity
  8
LAYER001
  6
CONTINUOUS
 62
               7
100
AcDbLine
 10
81.691338000000087
 20
-222.80866199999991
 30
0.0
 11
79.294984999999997
 21
-225.205015
 31
0.0
  0
LINE
  5
16E
100
AcDbEntity
  8
LAYER001
  6
CONTINUOUS
 62
               7
100
AcDbLine
 10
84.679740000000038
 20
-222.71108699999968
 30
0.0
 11
84.275447999999869
 21
-225.351361
 31
0.0
  0
LINE
  5
16F
100
AcDbEntity
  8
LAYER001
  6
CONTINUOUS
 62
               7
100
AcDbLine
 10
81.526557000000139
 20
-226.19999999999982
 30
0.0
 11
83.286969000000227
 21
-226.19999999999982
 31
0.0
  0
ARC
  5
170
100
AcDbEntity
  8
LAYER001
  6
CONTINUOUS
 62
               7
100
AcDbCircle
 10
83.286969000000227
 20
-225.19999999999982
 30
0.0
 40
1.0
100
AcDbArc
 50
269.99999999994731
 51
351.2942059999329
  0
LINE
  5
171
100
AcDbEntity
  8
LAYER001
  6
CONTINUOUS
 62
               7
100
AcDbLine
 10
77.879669999999805
 20
-208.11467599999969
 30
0.0
 11
78.529288000000179
 21
-223.3279849999999
 31
0.0
  0
ARC
  5
172
100
AcDbEntity
  8
LAYER001
  6
CONTINUOUS
 62
               7
100
AcDbCircle
 10
75.881491000000096
 20
-208.19999999999982
 30
0.0
 40
2.0
100
AcDbArc
 50
2.4450809999999112
 51
89.99999999998677
  0
LINE
  5
173
100
AcDbEntity
  8
LAYER001
  6
CONTINUOUS
 62
               7
100
AcDbLine
 10
80.165133999999853
 20
-203.52302299999974
 30
0.0
 11
77.353419000000031
 21
-206.84595899999977
 31
0.0
  0
LINE
  5
174
100
AcDbEntity
  8
LAYER001
  6
CONTINUOUS
 62
               7
100
AcDbLine
 10
-82.599999999999909
 20
-163.19999999999982
 30
0.0
 11
-82.599999999999909
 21
-195.19999999999982
 31
0.0
  0
LINE
  5
175
100
AcDbEntity
  8
LAYER001
  6
CONTINUOUS
 62
               7
100
AcDbLine
 10
82.599999999999909
 20
-163.19999999999982
 30
0.0
 11
82.599999999999909
 21
-195.19999999999982
 31
0.0
  0
CIRCLE
  5
176
100
AcDbEntity
  8
LAYER001
  6
CONTINUOUS
 62
               7
100
AcDbCircle
 10
0.0
 20
108.80000000000018
 30
0.0
 40
83.500015000000005
  0
CIRCLE
  5
177
100
AcDbEntity
  8
LAYER001
  6
CONTINUOUS
 62
               7
100
AcDbCircle
 10
0.0
 20
108.80000000000018
 30
0.0
 40
83.999992000000006
  0
CIRCLE
  5
178
100
AcDbEntity
  8
LAYER001
  6
CONTINUOUS
 62
               7
100
AcDbCircle
 10
0.0
 20
108.80000000000018
 30
0.0
 40
89.999992000000006
  0
LINE
  5
179
100
AcDbEntity
  8
LAYER001
  6
CONTINUOUS
 62
               7
100
AcDbLine
 10
84.50001599999996
 20
-163.19999999999982
 30
0.0
 11
-84.5
 21
-163.19999999999982
 31
0.0
  0
LINE
  5
17A
100
AcDbEntity
  8
LAYER001
  6
CONTINUOUS
 62
               7
100
AcDbLine
 10
90.00001599999996
 20
-137.19999599999983
 30
0.0
 11
-90.0
 21
-137.2000109999999
 31
0.0
  0
LINE
  5
17B
100
AcDbEntity
  8
LAYER001
  6
CONTINUOUS
 62
               7
100
AcDbLine
 10
-90.0
 20
-140.20001899999988
 30
0.0
 11
-90.0
 21
-137.2000109999999
 31
0.0
  0
LINE
  5
17C
100
AcDbEntity
  8
LAYER001
  6
CONTINUOUS
 62
               7
100
AcDbLine
 10
90.00001599999996
 20
-140.2000109999999
 30
0.0
 11
90.00001599999996
 21
-137.20000299999992
 31
0.0
  0
LINE
  5
17D
100
AcDbEntity
  8
LAYER001
  6
CONTINUOUS
 62
               7
100
AcDbLine
 10
-86.5
 20
-151.49191199999996
 30
0.0
 11
-86.5
 21
-142.20001899999988
 31
0.0
  0
LINE
  5
17E
100
AcDbEntity
  8
LAYER001
  6
CONTINUOUS
 62
               7
100
AcDbLine
 10
86.50001599999996
 20
-151.491896
 30
0.0
 11
86.50001599999996
 21
-142.20000299999992
 31
0.0
  0
LINE
  5
17F
100
AcDbEntity
  8
LAYER001
  6
CONTINUOUS
 62
               7
100
AcDbLine
 10
-84.0
 20
-155.2000109999999
 30
0.0
 11
-84.0
 21
-162.19999599999983
 31
0.0
  0
LINE
  5
180
100
AcDbEntity
  8
LAYER001
  6
CONTINUOUS
 62
               7
100
AcDbLine
 10
-85.5
 20
-153.22395999999981
 30
0.0
 11
-85.5
 21
-162.19999599999983
 31
0.0
  0
LINE
  5
181
100
AcDbEntity
  8
LAYER001
  6
CONTINUOUS
 62
               7
100
AcDbLine
 10
84.00001599999996
 20
-155.19999599999983
 30
0.0
 11
84.00001599999996
 21
-162.19999599999983
 31
0.0
  0
LINE
  5
182
100
AcDbEntity
  8
LAYER001
  6
CONTINUOUS
 62
               7
100
AcDbLine
 10
85.50001599999996
 20
-153.22394399999985
 30
0.0
 11
85.50001599999996
 21
-162.19999599999983
 31
0.0
  0
ARC
  5
183
100
AcDbEntity
  8
LAYER001
  6
CONTINUOUS
 62
               7
100
AcDbCircle
 10
-88.5
 20
-142.20001899999988
 30
0.0
 40
2.0
100
AcDbArc
 50
0.0
 51
89.999980999979641
  0
ARC
  5
184
100
AcDbEntity
  8
LAYER001
  6
CONTINUOUS
 62
               7
100
AcDbCircle
 10
-83.0
 20
-162.19999599999983
 30
0.0
 40
1.0
100
AcDbArc
 50
180.00001999997556
 51
269.99999999994731
  0
ARC
  5
185
100
AcDbEntity
  8
LAYER001
  6
CONTINUOUS
 62
               7
100
AcDbCircle
 10
-84.5
 20
-162.19999599999983
 30
0.0
 40
1.0
100
AcDbArc
 50
180.00001999997556
 51
269.99999999994731
  0
ARC
  5
186
100
AcDbEntity
  8
LAYER001
  6
CONTINUOUS
 62
               7
100
AcDbCircle
 10
-86.0
 20
-155.2000109999999
 30
0.0
 40
2.0
100
AcDbArc
 50
0.0
 51
67.975712999991075
  0
ARC
  5
187
100
AcDbEntity
  8
LAYER001
  6
CONTINUOUS
 62
               7
100
AcDbCircle
 10
-84.5
 20
-151.49191199999996
 30
0.0
 40
2.0
100
AcDbArc
 50
180.00001999996252
 51
247.97567499994696
  0
ARC
  5
188
100
AcDbEntity
  8
LAYER001
  6
CONTINUOUS
 62
               7
100
AcDbCircle
 10
88.50001599999996
 20
-142.20000299999992
 30
0.0
 40
2.0
100
AcDbArc
 50
89.999980999979641
 51
180.00001999996252
  0
ARC
  5
189
100
AcDbEntity
  8
LAYER001
  6
CONTINUOUS
 62
               7
100
AcDbCircle
 10
83.00001599999996
 20
-162.19999599999983
 30
0.0
 40
1.0
100
AcDbArc
 50
269.99999999994731
 51
359.9999999999992
  0
ARC
  5
18A
100
AcDbEntity
  8
LAYER001
  6
CONTINUOUS
 62
               7
100
AcDbCircle
 10
84.50001599999996
 20
-162.19999599999983
 30
0.0
 40
1.0
100
AcDbArc
 50
269.99999999994731
 51
359.9999999999992
  0
ARC
  5
18B
100
AcDbEntity
  8
LAYER001
  6
CONTINUOUS
 62
               7
100
AcDbCircle
 10
86.00001599999996
 20
-155.19999599999983
 30
0.0
 40
2.0
100
AcDbArc
 50
112.02430699998264
 51
180.00001999996252
  0
ARC
  5
18C
100
AcDbEntity
  8
LAYER001
  6
CONTINUOUS
 62
               7
100
AcDbCircle
 10
84.50001599999996
 20
-151.491896
 30
0.0
 40
2.0
100
AcDbArc
 50
292.02432699994426
 51
359.9999999999992
  0
LINE
  5
18D
100
AcDbEntity
  8
LAYER001
  6
CONTINUOUS
 62
               7
100
AcDbLine
 10
-90.0
 20
-140.20001899999988
 30
0.0
 11
90.00001599999996
 21
-140.20001899999988
 31
0.0
  0
LINE
  5
18E
100
AcDbEntity
  8
LAYER001
  6
CONTINUOUS
 62
               7
100
AcDbLine
 10
-85.5
 20
-152.58808399999998
 30
0.0
 11
85.50001599999996
 21
-152.58808399999998
 31
0.0
  0
ARC
  5
18F
100
AcDbEntity
  8
LAYER001
  6
CONTINUOUS
 62
               7
100
AcDbCircle
 10
-5.0
 20
-153.58808399999998
 30
0.0
 40
1.0
100
AcDbArc
 50
0.0
 51
89.999999999973738
  0
ARC
  5
190
100
AcDbEntity
  8
LAYER001
  6
CONTINUOUS
 62
               7
100
AcDbCircle
 10
5.0
 20
-153.58808399999998
 30
0.0
 40
1.0
100
AcDbArc
 50
89.999999999973738
 51
179.99999999997354
  0
LINE
  5
191
100
AcDbEntity
  8
LAYER001
  6
CONTINUOUS
 62
               7
100
AcDbLine
 10
-4.0
 20
-153.58808399999998
 30
0.0
 11
-4.0
 21
-162.19999999999982
 31
0.0
  0
ARC
  5
192
100
AcDbEntity
  8
LAYER001
  6
CONTINUOUS
 62
               7
100
AcDbCircle
 10
-3.0
 20
-162.19999999999982
 30
0.0
 40
1.0
100
AcDbArc
 50
179.99999999997354
 51
269.99999999994731
  0
LINE
  5
193
100
AcDbEntity
  8
LAYER001
  6
CONTINUOUS
 62
               7
100
AcDbLine
 10
4.0
 20
-153.58808399999998
 30
0.0
 11
4.0
 21
-162.19999999999982
 31
0.0
  0
ARC
  5
194
100
AcDbEntity
  8
LAYER001
  6
CONTINUOUS
 62
               7
100
AcDbCircle
 10
3.0
 20
-162.19999999999982
 30
0.0
 40
1.0
100
AcDbArc
 50
269.99999999994731
 51
359.9999999999992
  0
LINE
  5
195
100
AcDbEntity
  8
LAYER001
  6
CONTINUOUS
 62
               7
100
AcDbLine
 10
-4.0
 20
-153.95574099999976
 30
0.0
 11
-84.0
 21
-153.95574099999976
 31
0.0
  0
LINE
  5
196
100
AcDbEntity
  8
LAYER001
  6
CONTINUOUS
 62
               7
100
AcDbLine
 10
84.00001599999996
 20
-153.95574099999976
 30
0.0
 11
4.0
 21
-153.95574099999976
 31
0.0
  0
ARC
  5
197
100
AcDbEntity
  8
LAYER001
  6
CONTINUOUS
 62
               7
100
AcDbCircle
 10
99.695862000000034
 20
-213.19999999999982
 30
0.0
 40
10.0
100
AcDbArc
 50
111.69010099997756
 51
174.26435399996788
  0
ARC
  5
198
100
AcDbEntity
  8
LAYER001
  6
CONTINUOUS
 62
               7
100
AcDbCircle
 10
-99.695862000000034
 20
-213.19999999999982
 30
0.0
 40
10.0
100
AcDbArc
 50
355.98095299993196
 51
428.30989899998497
  0
ARC
  5
199
100
AcDbEntity
  8
LAYER001
  6
CONTINUOUS
 62
               7
100
AcDbCircle
 10
72.648690999999872
 20
-318.69999999999982
 30
0.0
 40
15.5
100
AcDbArc
 50
269.99999999994895
 51
359.14169999993106
  0
ARC
  5
19A
100
AcDbEntity
  8
LAYER001
  6
CONTINUOUS
 62
               7
100
AcDbCircle
 10
62.311388999999963
 20
-339.19999999999982
 30
0.0
 40
5.0
100
AcDbArc
 50
89.999999999984169
 51
177.79740199996832
  0
LINE
  5
19B
100
AcDbEntity
  8
LAYER001
  6
CONTINUOUS
 62
               7
100
AcDbLine
 10
57.315082999999959
 20
-339.007834
 30
0.0
 11
57.036982999999964
 21
-346.23843299999999
 31
0.0
  0
ARC
  5
19C
100
AcDbEntity
  8
LAYER001
  6
CONTINUOUS
 62
               7
100
AcDbCircle
 10
53.96722200000022
 20
-348.19999999999982
 30
0.0
 40
1.0
100
AcDbArc
 50
89.999999999973738
 51
178.09084799997578
  0
LINE
  5
19D
100
AcDbEntity
  8
LAYER001
  6
CONTINUOUS
 62
               7
100
AcDbLine
 10
52.532223000000158
 20
-361.23331499999995
 30
0.0
 11
52.967776999999842
 21
-348.16668499999969
 31
0.0
  0
LINE
  5
19E
100
AcDbEntity
  8
LAYER001
  6
CONTINUOUS
 62
               7
100
AcDbLine
 10
-51.53277799999978
 20
-362.19999999999982
 30
0.0
 11
51.53277799999978
 21
-362.19999999999982
 31
0.0
  0
ARC
  5
19F
100
AcDbEntity
  8
LAYER001
  6
CONTINUOUS
 62
               7
100
AcDbCircle
 10
51.53277799999978
 20
-361.19999999999982
 30
0.0
 40
1.0
100
AcDbArc
 50
269.99999999994731
 51
358.09084799992331
  0
ARC
  5
1A0
100
AcDbEntity
  8
LAYER001
  6
CONTINUOUS
 62
               7
100
AcDbCircle
 10
56.037722000000031
 20
-346.19999999999982
 30
0.0
 40
1.0
100
AcDbArc
 50
269.99999999994731
 51
357.79740199992108
  0
ARC
  5
1A1
100
AcDbEntity
  8
LAYER001
  6
CONTINUOUS
 62
               7
100
AcDbCircle
 10
-72.648690999999872
 20
-318.69999999999982
 30
0.0
 40
15.5
100
AcDbArc
 50
180.8582999999652
 51
269.99999999994895
  0
ARC
  5
1A2
100
AcDbEntity
  8
LAYER001
  6
CONTINUOUS
 62
               7
100
AcDbCircle
 10
-62.311388999999963
 20
-339.19999999999982
 30
0.0
 40
5.0
100
AcDbArc
 50
2.2025980000000338
 51
89.999999999984169
  0
LINE
  5
1A3
100
AcDbEntity
  8
LAYER001
  6
CONTINUOUS
 62
               7
100
AcDbLine
 10
-57.315082999999959
 20
-339.007834
 30
0.0
 11
-57.036982999999964
 21
-346.23843299999999
 31
0.0
  0
ARC
  5
1A4
100
AcDbEntity
  8
LAYER001
  6
CONTINUOUS
 62
               7
100
AcDbCircle
 10
-53.96722200000022
 20
-348.19999999999982
 30
0.0
 40
1.0
100
AcDbArc
 50
1.9091519999978026
 51
89.999999999973738
  0
LINE
  5
1A5
100
AcDbEntity
  8
LAYER001
  6
CONTINUOUS
 62
               7
100
AcDbLine
 10
-52.532223000000158
 20
-361.23331499999995
 30
0.0
 11
-52.967776999999842
 21
-348.16668499999969
 31
0.0
  0
ARC
  5
1A6
100
AcDbEntity
  8
LAYER001
  6
CONTINUOUS
 62
               7
100
AcDbCircle
 10
-51.53277799999978
 20
-361.19999999999982
 30
0.0
 40
1.0
100
AcDbArc
 50
181.90915199997136
 51
269.99999999994731
  0
ARC
  5
1A7
100
AcDbEntity
  8
LAYER001
  6
CONTINUOUS
 62
               7
100
AcDbCircle
 10
-56.037722000000031
 20
-346.19999999999982
 30
0.0
 40
1.0
100
AcDbArc
 50
182.20259799997359
 51
269.99999999994731
  0
LINE
  5
1A8
100
AcDbEntity
  8
LAYER001
  6
CONTINUOUS
 62
               7
100
AcDbLine
 10
72.648690999999872
 20
-334.19999999999982
 30
0.0
 11
-72.648690999999872
 21
-334.19999999999982
 31
0.0
  0
LINE
  5
1A9
100
AcDbEntity
  8
LAYER001
  6
CONTINUOUS
 62
               7
100
AcDbLine
 10
-56.037722000000031
 20
-347.19999999999982
 30
0.0
 11
56.037722000000031
 21
-347.19999999999982
 31
0.0
  0
LINE
  5
1AA
100
AcDbEntity
  8
LAYER001
  6
CONTINUOUS
 62
               7
100
AcDbLine
 10
89.745926000000054
 20
-212.20061199999964
 30
0.0
 11
88.146951000000172
 21
-318.93218399999978
 31
0.0
  0
LINE
  5
1AB
100
AcDbEntity
  8
LAYER001
  6
CONTINUOUS
 62
               7
100
AcDbLine
 10
-89.745926000000054
 20
-212.20061199999964
 30
0.0
 11
-88.146951000000172
 21
-318.93218399999978
 31
0.0
  0
CIRCLE
  5
1AC
100
AcDbEntity
  8
LAYER001
  6
CONTINUOUS
 62
               7
100
AcDbCircle
 10
0.0
 20
-203.19999999999982
 30
0.0
 40
5.0
  0
LINE
  5
1AD
100
AcDbEntity
  8
LAYER001
  6
CONTINUOUS
 62
               7
100
AcDbLine
 10
-2.4585000000001855
 20
12.831485000000612
 30
0.0
 11
-2.4585000000001855
 21
10.199999999999818
 31
0.0
  0
LINE
  5
1AE
100
AcDbEntity
  8
LAYER001
  6
CONTINUOUS
 62
               7
100
AcDbLine
 10
-3.0
 20
12.846886000000268
 30
0.0
 11
-3.0
 21
10.199999999999818
 31
0.0
  0
LINE
  5
1AF
100
AcDbEntity
  8
LAYER001
  6
CONTINUOUS
 62
               7
100
AcDbLine
 10
-5.7735029999998915
 20
6.1043170000002647
 30
0.0
 11
-5.7735029999998915
 21
10.199999999999818
 31
0.0
  0
LINE
  5
1B0
100
AcDbEntity
  8
LAYER001
  6
CONTINUOUS
 62
               7
100
AcDbLine
 10
-2.8867510000000038
 20
6.1043170000002647
 30
0.0
 11
-2.8867510000000038
 21
10.199999999999818
 31
0.0
  0
LINE
  5
1B1
100
AcDbEntity
  8
LAYER001
  6
CONTINUOUS
 62
               7
100
AcDbLine
 10
-5.7735029999998915
 20
6.1043170000002647
 30
0.0
 11
-4.9000000000000909
 21
5.6000000000003638
 31
0.0
  0
ARC
  5
1B2
100
AcDbEntity
  8
LAYER001
  6
CONTINUOUS
 62
               7
100
AcDbCircle
 10
-4.9000000000000909
 20
9.8706330000004527
 30
0.0
 40
4.2706330000000001
100
AcDbArc
 50
269.9999999999506
 51
298.12631099994752
  0
LINE
  5
1B3
100
AcDbEntity
  8
LAYER001
  6
CONTINUOUS
 62
               7
100
AcDbLine
 10
2.4585000000001855
 20
12.831485000000612
 30
0.0
 11
2.4585000000001855
 21
10.199999999999818
 31
0.0
  0
LINE
  5
1B4
100
AcDbEntity
  8
LAYER001
  6
CONTINUOUS
 62
               7
100
AcDbLine
 10
3.0
 20
12.846886000000268
 30
0.0
 11
3.0
 21
10.199999999999818
 31
0.0
  0
LINE
  5
1B5
100
AcDbEntity
  8
LAYER001
  6
CONTINUOUS
 62
               7
100
AcDbLine
 10
2.8867510000000038
 20
6.1043170000002647
 30
0.0
 11
2.8867510000000038
 21
10.199999999999818
 31
0.0
  0
LINE
  5
1B6
100
AcDbEntity
  8
LAYER001
  6
CONTINUOUS
 62
               7
100
AcDbLine
 10
5.7735029999998915
 20
6.1043170000002647
 30
0.0
 11
5.7735029999998915
 21
10.199999999999818
 31
0.0
  0
LINE
  5
1B7
100
AcDbEntity
  8
LAYER001
  6
CONTINUOUS
 62
               7
100
AcDbLine
 10
5.7735029999998915
 20
6.1043170000002647
 30
0.0
 11
4.9000000000000909
 21
5.6000000000003638
 31
0.0
  0
ARC
  5
1B8
100
AcDbEntity
  8
LAYER001
  6
CONTINUOUS
 62
               7
100
AcDbCircle
 10
4.9000000000000909
 20
9.8706330000004527
 30
0.0
 40
4.2706330000000001
100
AcDbArc
 50
241.87368899995292
 51
269.9999999999506
  0
LINE
  5
1B9
100
AcDbEntity
  8
LAYER001
  6
CONTINUOUS
 62
               7
100
AcDbLine
 10
-5.7735029999998915
 20
10.199999999999818
 30
0.0
 11
5.7735029999998915
 21
10.199999999999818
 31
0.0
  0
ARC
  5
1BA
100
AcDbEntity
  8
LAYER001
  6
CONTINUOUS
 62
               7
100
AcDbCircle
 10
0.0
 20
14.114158000000316
 30
0.0
 40
8.5141580000000001
100
AcDbArc
 50
250.18080699995429
 51
289.8191929999449
  0
LINE
  5
1BB
100
AcDbEntity
  8
LAYER001
  6
CONTINUOUS
 62
               7
100
AcDbLine
 10
-4.9000000000000909
 20
5.6000000000003638
 30
0.0
 11
4.9000000000000909
 21
5.6000000000003638
 31
0.0
  0
LINE
  5
1BC
100
AcDbEntity
  8
LAYER001
  6
CONTINUOUS
 62
               7
100
AcDbLine
 10
84.340422000000217
 20
154.65513400000054
 30
0.0
 11
86.619354999999814
 21
155.97087699999975
 31
0.0
  0
LINE
  5
1BD
100
AcDbEntity
  8
LAYER001
  6
CONTINUOUS
 62
               7
100
AcDbLine
 10
84.597834000000148
 20
154.17848099999992
 30
0.0
 11
86.890104999999949
 21
155.50192400000014
 31
0.0
  0
LINE
  5
1BE
100
AcDbEntity
  8
LAYER001
  6
CONTINUOUS
 62
               7
100
AcDbLine
 10
91.823821999999836
 20
155.14784099999997
 30
0.0
 11
88.276855999999952
 21
153.10000000000036
 31
0.0
  0
LINE
  5
1BF
100
AcDbEntity
  8
LAYER001
  6
CONTINUOUS
 62
               7
100
AcDbLine
 10
90.38044600000012
 20
157.64784099999997
 30
0.0
 11
86.833479999999781
 21
155.60000000000036
 31
0.0
  0
LINE
  5
1C0
100
AcDbEntity
  8
LAYER001
  6
CONTINUOUS
 62
               7
100
AcDbLine
 10
91.823821999999836
 20
155.14784099999997
 30
0.0
 11
91.823821999999836
 21
156.15647600000011
 31
0.0
  0
ARC
  5
1C1
100
AcDbEntity
  8
LAYER001
  6
CONTINUOUS
 62
               7
100
AcDbCircle
 10
88.125344999999925
 20
154.0211589999999
 30
0.0
 40
4.2706330000000001
100
AcDbArc
 50
29.999999999999122
 51
58.126310999990892
  0
LINE
  5
1C2
100
AcDbEntity
  8
LAYER001
  6
CONTINUOUS
 62
               7
100
AcDbLine
 10
81.881922000000031
 20
158.9133810000003
 30
0.0
 11
84.160855000000083
 21
160.22912300000007
 31
0.0
  0
LINE
  5
1C3
100
AcDbEntity
  8
LAYER001
  6
CONTINUOUS
 62
               7
100
AcDbLine
 10
81.597834000000148
 20
159.37463300000036
 30
0.0
 11
83.890104999999949
 21
160.69807600000058
 31
0.0
  0
LINE
  5
1C4
100
AcDbEntity
  8
LAYER001
  6
CONTINUOUS
 62
               7
100
AcDbLine
 10
87.493695000000116
 20
162.64784099999997
 30
0.0
 11
83.946728999999777
 21
160.60000000000036
 31
0.0
  0
LINE
  5
1C5
100
AcDbEntity
  8
LAYER001
  6
CONTINUOUS
 62
               7
100
AcDbLine
 10
86.050318999999945
 20
165.14784099999997
 30
0.0
 11
82.503353000000061
 21
163.10000000000036
 31
0.0
  0
LINE
  5
1C6
100
AcDbEntity
  8
LAYER001
  6
CONTINUOUS
 62
               7
100
AcDbLine
 10
86.050318999999945
 20
165.14784099999997
 30
0.0
 11
86.9238220000002
 21
164.64352400000007
 31
0.0
  0
ARC
  5
1C7
100
AcDbEntity
  8
LAYER001
  6
CONTINUOUS
 62
               7
100
AcDbCircle
 10
83.225344999999834
 20
162.5082080000002
 30
0.0
 40
4.2706330000000001
100
AcDbArc
 50
1.873689000002839
 51
29.999999999999122
  0
LINE
  5
1C8
100
AcDbEntity
  8
LAYER001
  6
CONTINUOUS
 62
               7
100
AcDbLine
 10
88.276855999999952
 20
153.10000000000036
 30
0.0
 11
82.503353000000061
 21
163.10000000000036
 31
0.0
  0
ARC
  5
1C9
100
AcDbEntity
  8
LAYER001
  6
CONTINUOUS
 62
               7
100
AcDbCircle
 10
82.000344999999925
 20
156.14292100000057
 30
0.0
 40
8.5141580000000001
100
AcDbArc
 50
10.180806999995845
 51
49.819192999991621
  0
LINE
  5
1CA
100
AcDbEntity
  8
LAYER001
  6
CONTINUOUS
 62
               7
100
AcDbLine
 10
91.823821999999836
 20
156.15647600000011
 30
0.0
 11
86.9238220000002
 21
164.64352400000007
 31
0.0
  0
LINE
  5
1CB
100
AcDbEntity
  8
LAYER001
  6
CONTINUOUS
 62
               7
100
AcDbLine
 10
-81.881922000000031
 20
158.9133810000003
 30
0.0
 11
-84.160855000000083
 21
160.22912300000007
 31
0.0
  0
LINE
  5
1CC
100
AcDbEntity
  8
LAYER001
  6
CONTINUOUS
 62
               7
100
AcDbLine
 10
-81.597834000000148
 20
159.37463300000036
 30
0.0
 11
-83.890104999999949
 21
160.69807600000058
 31
0.0
  0
LINE
  5
1CD
100
AcDbEntity
  8
LAYER001
  6
CONTINUOUS
 62
               7
100
AcDbLine
 10
-86.050318999999945
 20
165.14784099999997
 30
0.0
 11
-82.503353000000061
 21
163.10000000000036
 31
0.0
  0
LINE
  5
1CE
100
AcDbEntity
  8
LAYER001
  6
CONTINUOUS
 62
               7
100
AcDbLine
 10
-87.493695000000116
 20
162.64784099999997
 30
0.0
 11
-83.946728999999777
 21
160.60000000000036
 31
0.0
  0
LINE
  5
1CF
100
AcDbEntity
  8
LAYER001
  6
CONTINUOUS
 62
               7
100
AcDbLine
 10
-86.050318999999945
 20
165.14784099999997
 30
0.0
 11
-86.9238220000002
 21
164.64352400000007
 31
0.0
  0
ARC
  5
1D0
100
AcDbEntity
  8
LAYER001
  6
CONTINUOUS
 62
               7
100
AcDbCircle
 10
-83.225344999999834
 20
162.5082080000002
 30
0.0
 40
4.2706330000000001
100
AcDbArc
 50
149.99999999997019
 51
178.12631099995997
  0
LINE
  5
1D1
100
AcDbEntity
  8
LAYER001
  6
CONTINUOUS
 62
               7
100
AcDbLine
 10
-84.340422000000217
 20
154.65513400000054
 30
0.0
 11
-86.619354999999814
 21
155.97087699999975
 31
0.0
  0
LINE
  5
1D2
100
AcDbEntity
  8
LAYER001
  6
CONTINUOUS
 62
               7
100
AcDbLine
 10
-84.597834000000148
 20
154.17848099999992
 30
0.0
 11
-86.890104999999949
 21
155.50192400000014
 31
0.0
  0
LINE
  5
1D3
100
AcDbEntity
  8
LAYER001
  6
CONTINUOUS
 62
               7
100
AcDbLine
 10
-90.38044600000012
 20
157.64784099999997
 30
0.0
 11
-86.833479999999781
 21
155.60000000000036
 31
0.0
  0
LINE
  5
1D4
100
AcDbEntity
  8
LAYER001
  6
CONTINUOUS
 62
               7
100
AcDbLine
 10
-91.823821999999836
 20
155.14784099999997
 30
0.0
 11
-88.276855999999952
 21
153.10000000000036
 31
0.0
  0
LINE
  5
1D5
100
AcDbEntity
  8
LAYER001
  6
CONTINUOUS
 62
               7
100
AcDbLine
 10
-91.823821999999836
 20
155.14784099999997
 30
0.0
 11
-91.823821999999836
 21
156.15647600000011
 31
0.0
  0
ARC
  5
1D6
100
AcDbEntity
  8
LAYER001
  6
CONTINUOUS
 62
               7
100
AcDbCircle
 10
-88.125344999999925
 20
154.0211589999999
 30
0.0
 40
4.2706330000000001
100
AcDbArc
 50
121.87368899998154
 51
149.99999999997019
  0
LINE
  5
1D7
100
AcDbEntity
  8
LAYER001
  6
CONTINUOUS
 62
               7
100
AcDbLine
 10
-82.503353000000061
 20
163.10000000000036
 30
0.0
 11
-88.276855999999952
 21
153.10000000000036
 31
0.0
  0
ARC
  5
1D8
100
AcDbEntity
  8
LAYER001
  6
CONTINUOUS
 62
               7
100
AcDbCircle
 10
-82.000344999999925
 20
156.14292100000057
 30
0.0
 40
8.5141580000000001
100
AcDbArc
 50
130.18080699997509
 51
169.81919299996653
  0
LINE
  5
1D9
100
AcDbEntity
  8
LAYER001
  6
CONTINUOUS
 62
               7
100
AcDbLine
 10
-86.9238220000002
 20
164.64352400000007
 30
0.0
 11
-91.823821999999836
 21
156.15647600000011
 31
0.0
  0
LINE
  5
1DA
100
AcDbEntity
  8
LAYER001
  6
CONTINUOUS
 62
               7
100
AcDbLine
 10
-4.0
 20
138.60000000000036
 30
0.0
 11
-4.0
 21
124.19999999999982
 31
0.0
  0
LINE
  5
1DB
100
AcDbEntity
  8
LAYER001
  6
CONTINUOUS
 62
               7
100
AcDbLine
 10
4.0
 20
138.60000000000036
 30
0.0
 11
4.0
 21
124.19999999999982
 31
0.0
  0
LINE
  5
1DC
100
AcDbEntity
  8
LAYER001
  6
CONTINUOUS
 62
               7
100
AcDbLine
 10
-1.5
 20
141.10000000000036
 30
0.0
 11
1.5
 21
141.10000000000036
 31
0.0
  0
LINE
  5
1DD
100
AcDbEntity
  8
LAYER001
  6
CONTINUOUS
 62
               7
100
AcDbLine
 10
-1.5
 20
121.69999999999982
 30
0.0
 11
1.5
 21
121.69999999999982
 31
0.0
  0
ARC
  5
1DE
100
AcDbEntity
  8
LAYER001
  6
CONTINUOUS
 62
               7
100
AcDbCircle
 10
-1.5
 20
124.19999999999982
 30
0.0
 40
2.5
100
AcDbArc
 50
179.99999999995791
 51
269.99999999994731
  0
ARC
  5
1DF
100
AcDbEntity
  8
LAYER001
  6
CONTINUOUS
 62
               7
100
AcDbCircle
 10
1.5
 20
124.19999999999982
 30
0.0
 40
2.5
100
AcDbArc
 50
269.99999999994731
 51
359.9999999999992
  0
ARC
  5
1E0
100
AcDbEntity
  8
LAYER001
  6
CONTINUOUS
 62
               7
100
AcDbCircle
 10
-1.5
 20
138.60000000000036
 30
0.0
 40
2.5
100
AcDbArc
 50
89.999999999978954
 51
179.99999999995791
  0
ARC
  5
1E1
100
AcDbEntity
  8
LAYER001
  6
CONTINUOUS
 62
               7
100
AcDbCircle
 10
1.5
 20
138.60000000000036
 30
0.0
 40
2.5
100
AcDbArc
 50
0.0
 51
89.999999999978954
  0
LINE
  5
1E2
100
AcDbEntity
  8
LAYER001
  6
CONTINUOUS
 62
               7
100
AcDbLine
 10
-4.0
 20
161.19999999999982
 30
0.0
 11
-4.0
 21
146.80000000000018
 31
0.0
  0
LINE
  5
1E3
100
AcDbEntity
  8
LAYER001
  6
CONTINUOUS
 62
               7
100
AcDbLine
 10
4.0
 20
161.19999999999982
 30
0.0
 11
4.0
 21
146.80000000000018
 31
0.0
  0
LINE
  5
1E4
100
AcDbEntity
  8
LAYER001
  6
CONTINUOUS
 62
               7
100
AcDbLine
 10
-1.5
 20
163.69999999999982
 30
0.0
 11
1.5
 21
163.69999999999982
 31
0.0
  0
LINE
  5
1E5
100
AcDbEntity
  8
LAYER001
  6
CONTINUOUS
 62
               7
100
AcDbLine
 10
-1.5
 20
144.30000000000018
 30
0.0
 11
1.5
 21
144.30000000000018
 31
0.0
  0
ARC
  5
1E6
100
AcDbEntity
  8
LAYER001
  6
CONTINUOUS
 62
               7
100
AcDbCircle
 10
-1.5
 20
146.80000000000018
 30
0.0
 40
2.5
100
AcDbArc
 50
179.99999999995791
 51
269.99999999994731
  0
ARC
  5
1E7
100
AcDbEntity
  8
LAYER001
  6
CONTINUOUS
 62
               7
100
AcDbCircle
 10
1.5
 20
146.80000000000018
 30
0.0
 40
2.5
100
AcDbArc
 50
269.99999999994731
 51
359.9999999999992
  0
ARC
  5
1E8
100
AcDbEntity
  8
LAYER001
  6
CONTINUOUS
 62
               7
100
AcDbCircle
 10
-1.5
 20
161.19999999999982
 30
0.0
 40
2.5
100
AcDbArc
 50
89.999999999978954
 51
179.99999999995791
  0
ARC
  5
1E9
100
AcDbEntity
  8
LAYER001
  6
CONTINUOUS
 62
               7
100
AcDbCircle
 10
1.5
 20
161.19999999999982
 30
0.0
 40
2.5
100
AcDbArc
 50
0.0
 51
89.999999999978954
  0
LINE
  5
1EA
100
AcDbEntity
  8
LAYER001
  6
CONTINUOUS
 62
               7
100
AcDbLine
 10
-4.0
 20
183.80000000000018
 30
0.0
 11
-4.0
 21
169.40000000000055
 31
0.0
  0
LINE
  5
1EB
100
AcDbEntity
  8
LAYER001
  6
CONTINUOUS
 62
               7
100
AcDbLine
 10
4.0
 20
183.80000000000018
 30
0.0
 11
4.0
 21
169.40000000000055
 31
0.0
  0
LINE
  5
1EC
100
AcDbEntity
  8
LAYER001
  6
CONTINUOUS
 62
               7
100
AcDbLine
 10
-1.5
 20
186.30000000000018
 30
0.0
 11
1.5
 21
186.30000000000018
 31
0.0
  0
LINE
  5
1ED
100
AcDbEntity
  8
LAYER001
  6
CONTINUOUS
 62
               7
100
AcDbLine
 10
-1.5
 20
166.90000000000055
 30
0.0
 11
1.5
 21
166.90000000000055
 31
0.0
  0
ARC
  5
1EE
100
AcDbEntity
  8
LAYER001
  6
CONTINUOUS
 62
               7
100
AcDbCircle
 10
-1.5
 20
169.40000000000055
 30
0.0
 40
2.5
100
AcDbArc
 50
179.99999999995791
 51
269.99999999994731
  0
ARC
  5
1EF
100
AcDbEntity
  8
LAYER001
  6
CONTINUOUS
 62
               7
100
AcDbCircle
 10
1.5
 20
169.40000000000055
 30
0.0
 40
2.5
100
AcDbArc
 50
269.99999999994731
 51
359.9999999999992
  0
ARC
  5
1F0
100
AcDbEntity
  8
LAYER001
  6
CONTINUOUS
 62
               7
100
AcDbCircle
 10
-1.5
 20
183.80000000000018
 30
0.0
 40
2.5
100
AcDbArc
 50
89.999999999978954
 51
179.99999999995791
  0
ARC
  5
1F1
100
AcDbEntity
  8
LAYER001
  6
CONTINUOUS
 62
               7
100
AcDbCircle
 10
1.5
 20
183.80000000000018
 30
0.0
 40
2.5
100
AcDbArc
 50
0.0
 51
89.999999999978954
  0
LINE
  5
1F2
100
AcDbEntity
  8
LAYER001
  6
CONTINUOUS
 62
               7
100
AcDbLine
 10
8.1999999999998181
 20
183.03280900000027
 30
0.0
 11
8.1999999999998181
 21
180.69999999999982
 31
0.0
  0
LINE
  5
1F3
100
AcDbEntity
  8
LAYER001
  6
CONTINUOUS
 62
               7
100
AcDbLine
 10
16.199999999999818
 20
182.5381180000004
 30
0.0
 11
16.199999999999818
 21
180.69999999999982
 31
0.0
  0
LINE
  5
1F4
100
AcDbEntity
  8
LAYER001
  6
CONTINUOUS
 62
               7
100
AcDbLine
 10
10.699999999999818
 20
178.19999999999982
 30
0.0
 11
13.699999999999818
 21
178.19999999999982
 31
0.0
  0
ARC
  5
1F5
100
AcDbEntity
  8
LAYER001
  6
CONTINUOUS
 62
               7
100
AcDbCircle
 10
10.699999999999818
 20
180.69999999999982
 30
0.0
 40
2.5
100
AcDbArc
 50
179.99999999995791
 51
269.99999999994731
  0
ARC
  5
1F6
100
AcDbEntity
  8
LAYER001
  6
CONTINUOUS
 62
               7
100
AcDbCircle
 10
13.699999999999818
 20
180.69999999999982
 30
0.0
 40
2.5
100
AcDbArc
 50
269.99999999994731
 51
359.9999999999992
  0
LINE
  5
1F7
100
AcDbEntity
  8
LAYER001
  6
CONTINUOUS
 62
               7
100
AcDbLine
 10
8.1999999999998181
 20
172.5
 30
0.0
 11
8.1999999999998181
 21
158.10000000000036
 31
0.0
  0
LINE
  5
1F8
100
AcDbEntity
  8
LAYER001
  6
CONTINUOUS
 62
               7
100
AcDbLine
 10
16.199999999999818
 20
172.5
 30
0.0
 11
16.199999999999818
 21
158.10000000000036
 31
0.0
  0
LINE
  5
1F9
100
AcDbEntity
  8
LAYER001
  6
CONTINUOUS
 62
               7
100
AcDbLine
 10
10.699999999999818
 20
175.0
 30
0.0
 11
13.699999999999818
 21
175.0
 31
0.0
  0
LINE
  5
1FA
100
AcDbEntity
  8
LAYER001
  6
CONTINUOUS
 62
               7
100
AcDbLine
 10
10.699999999999818
 20
155.60000000000036
 30
0.0
 11
13.699999999999818
 21
155.60000000000036
 31
0.0
  0
ARC
  5
1FB
100
AcDbEntity
  8
LAYER001
  6
CONTINUOUS
 62
               7
100
AcDbCircle
 10
10.699999999999818
 20
158.10000000000036
 30
0.0
 40
2.5
100
AcDbArc
 50
179.99999999995791
 51
269.99999999994731
  0
ARC
  5
1FC
100
AcDbEntity
  8
LAYER001
  6
CONTINUOUS
 62
               7
100
AcDbCircle
 10
13.699999999999818
 20
158.10000000000036
 30
0.0
 40
2.5
100
AcDbArc
 50
269.99999999994731
 51
359.9999999999992
  0
ARC
  5
1FD
100
AcDbEntity
  8
LAYER001
  6
CONTINUOUS
 62
               7
100
AcDbCircle
 10
10.699999999999818
 20
172.5
 30
0.0
 40
2.5
100
AcDbArc
 50
89.999999999978954
 51
179.99999999995791
  0
ARC
  5
1FE
100
AcDbEntity
  8
LAYER001
  6
CONTINUOUS
 62
               7
100
AcDbCircle
 10
13.699999999999818
 20
172.5
 30
0.0
 40
2.5
100
AcDbArc
 50
0.0
 51
89.999999999978954
  0
LINE
  5
1FF
100
AcDbEntity
  8
LAYER001
  6
CONTINUOUS
 62
               7
100
AcDbLine
 10
8.1999999999998181
 20
149.90000000000055
 30
0.0
 11
8.1999999999998181
 21
135.5
 31
0.0
  0
LINE
  5
200
100
AcDbEntity
  8
LAYER001
  6
CONTINUOUS
 62
               7
100
AcDbLine
 10
16.199999999999818
 20
149.90000000000055
 30
0.0
 11
16.199999999999818
 21
135.5
 31
0.0
  0
LINE
  5
201
100
AcDbEntity
  8
LAYER001
  6
CONTINUOUS
 62
               7
100
AcDbLine
 10
10.699999999999818
 20
152.40000000000055
 30
0.0
 11
13.699999999999818
 21
152.40000000000055
 31
0.0
  0
LINE
  5
202
100
AcDbEntity
  8
LAYER001
  6
CONTINUOUS
 62
               7
100
AcDbLine
 10
10.699999999999818
 20
133.0
 30
0.0
 11
13.699999999999818
 21
133.0
 31
0.0
  0
ARC
  5
203
100
AcDbEntity
  8
LAYER001
  6
CONTINUOUS
 62
               7
100
AcDbCircle
 10
10.699999999999818
 20
135.5
 30
0.0
 40
2.5
100
AcDbArc
 50
179.99999999995791
 51
269.99999999994731
  0
ARC
  5
204
100
AcDbEntity
  8
LAYER001
  6
CONTINUOUS
 62
               7
100
AcDbCircle
 10
13.699999999999818
 20
135.5
 30
0.0
 40
2.5
100
AcDbArc
 50
269.99999999994731
 51
359.9999999999992
  0
ARC
  5
205
100
AcDbEntity
  8
LAYER001
  6
CONTINUOUS
 62
               7
100
AcDbCircle
 10
10.699999999999818
 20
149.90000000000055
 30
0.0
 40
2.5
100
AcDbArc
 50
89.999999999978954
 51
179.99999999995791
  0
ARC
  5
206
100
AcDbEntity
  8
LAYER001
  6
CONTINUOUS
 62
               7
100
AcDbCircle
 10
13.699999999999818
 20
149.90000000000055
 30
0.0
 40
2.5
100
AcDbArc
 50
0.0
 51
89.999999999978954
  0
LINE
  5
207
100
AcDbEntity
  8
LAYER001
  6
CONTINUOUS
 62
               7
100
AcDbLine
 10
8.1999999999998181
 20
127.30000000000018
 30
0.0
 11
8.1999999999998181
 21
112.90000000000055
 31
0.0
  0
LINE
  5
208
100
AcDbEntity
  8
LAYER001
  6
CONTINUOUS
 62
               7
100
AcDbLine
 10
16.199999999999818
 20
127.30000000000018
 30
0.0
 11
16.199999999999818
 21
112.90000000000055
 31
0.0
  0
LINE
  5
209
100
AcDbEntity
  8
LAYER001
  6
CONTINUOUS
 62
               7
100
AcDbLine
 10
10.699999999999818
 20
129.80000000000018
 30
0.0
 11
13.699999999999818
 21
129.80000000000018
 31
0.0
  0
LINE
  5
20A
100
AcDbEntity
  8
LAYER001
  6
CONTINUOUS
 62
               7
100
AcDbLine
 10
10.699999999999818
 20
110.40000000000055
 30
0.0
 11
13.699999999999818
 21
110.40000000000055
 31
0.0
  0
ARC
  5
20B
100
AcDbEntity
  8
LAYER001
  6
CONTINUOUS
 62
               7
100
AcDbCircle
 10
10.699999999999818
 20
112.90000000000055
 30
0.0
 40
2.5
100
AcDbArc
 50
179.99999999995791
 51
269.99999999994731
  0
ARC
  5
20C
100
AcDbEntity
  8
LAYER001
  6
CONTINUOUS
 62
               7
100
AcDbCircle
 10
13.699999999999818
 20
112.90000000000055
 30
0.0
 40
2.5
100
AcDbArc
 50
269.99999999994731
 51
359.9999999999992
  0
ARC
  5
20D
100
AcDbEntity
  8
LAYER001
  6
CONTINUOUS
 62
               7
100
AcDbCircle
 10
10.699999999999818
 20
127.30000000000018
 30
0.0
 40
2.5
100
AcDbArc
 50
89.999999999978954
 51
179.99999999995791
  0
ARC
  5
20E
100
AcDbEntity
  8
LAYER001
  6
CONTINUOUS
 62
               7
100
AcDbCircle
 10
13.699999999999818
 20
127.30000000000018
 30
0.0
 40
2.5
100
AcDbArc
 50
0.0
 51
89.999999999978954
  0
LINE
  5
20F
100
AcDbEntity
  8
LAYER001
  6
CONTINUOUS
 62
               7
100
AcDbLine
 10
25.341668999999911
 20
118.5
 30
0.0
 11
22.900000000000091
 21
118.5
 31
0.0
  0
ARC
  5
210
100
AcDbEntity
  8
LAYER001
  6
CONTINUOUS
 62
               7
100
AcDbCircle
 10
22.900000000000091
 20
116.0
 30
0.0
 40
2.5
100
AcDbArc
 50
89.999999999978954
 51
179.99999999995791
  0
ARC
  5
211
100
AcDbEntity
  8
LAYER001
  6
CONTINUOUS
 62
               7
100
AcDbCircle
 10
25.900000000000091
 20
124.19999999999982
 30
0.0
 40
2.5
100
AcDbArc
 50
269.99999999994731
 51
359.9999999999992
  0
LINE
  5
212
100
AcDbEntity
  8
LAYER001
  6
CONTINUOUS
 62
               7
100
AcDbLine
 10
25.900000000000091
 20
121.69999999999982
 30
0.0
 11
22.900000000000091
 21
121.69999999999982
 31
0.0
  0
ARC
  5
213
100
AcDbEntity
  8
LAYER001
  6
CONTINUOUS
 62
               7
100
AcDbCircle
 10
22.900000000000091
 20
124.19999999999982
 30
0.0
 40
2.5
100
AcDbArc
 50
179.99999999995791
 51
269.99999999994731
  0
LINE
  5
214
100
AcDbEntity
  8
LAYER001
  6
CONTINUOUS
 62
               7
100
AcDbLine
 10
28.400000000000091
 20
138.60000000000036
 30
0.0
 11
28.400000000000091
 21
124.19999999999982
 31
0.0
  0
ARC
  5
215
100
AcDbEntity
  8
LAYER001
  6
CONTINUOUS
 62
               7
100
AcDbCircle
 10
25.900000000000091
 20
138.60000000000036
 30
0.0
 40
2.5
100
AcDbArc
 50
0.0
 51
89.999999999978954
  0
LINE
  5
216
100
AcDbEntity
  8
LAYER001
  6
CONTINUOUS
 62
               7
100
AcDbLine
 10
20.400000000000091
 20
138.60000000000036
 30
0.0
 11
20.400000000000091
 21
124.19999999999982
 31
0.0
  0
LINE
  5
217
100
AcDbEntity
  8
LAYER001
  6
CONTINUOUS
 62
               7
100
AcDbLine
 10
25.900000000000091
 20
141.10000000000036
 30
0.0
 11
22.900000000000091
 21
141.10000000000036
 31
0.0
  0
ARC
  5
218
100
AcDbEntity
  8
LAYER001
  6
CONTINUOUS
 62
               7
100
AcDbCircle
 10
22.900000000000091
 20
138.60000000000036
 30
0.0
 40
2.5
100
AcDbArc
 50
89.999999999978954
 51
179.99999999995791
  0
ARC
  5
219
100
AcDbEntity
  8
LAYER001
  6
CONTINUOUS
 62
               7
100
AcDbCircle
 10
25.900000000000091
 20
146.80000000000018
 30
0.0
 40
2.5
100
AcDbArc
 50
269.99999999994731
 51
359.9999999999992
  0
LINE
  5
21A
100
AcDbEntity
  8
LAYER001
  6
CONTINUOUS
 62
               7
100
AcDbLine
 10
25.900000000000091
 20
144.30000000000018
 30
0.0
 11
22.900000000000091
 21
144.30000000000018
 31
0.0
  0
ARC
  5
21B
100
AcDbEntity
  8
LAYER001
  6
CONTINUOUS
 62
               7
100
AcDbCircle
 10
22.900000000000091
 20
146.80000000000018
 30
0.0
 40
2.5
100
AcDbArc
 50
179.99999999995791
 51
269.99999999994731
  0
LINE
  5
21C
100
AcDbEntity
  8
LAYER001
  6
CONTINUOUS
 62
               7
100
AcDbLine
 10
28.400000000000091
 20
161.19999999999982
 30
0.0
 11
28.400000000000091
 21
146.80000000000018
 31
0.0
  0
ARC
  5
21D
100
AcDbEntity
  8
LAYER001
  6
CONTINUOUS
 62
               7
100
AcDbCircle
 10
25.900000000000091
 20
161.19999999999982
 30
0.0
 40
2.5
100
AcDbArc
 50
0.0
 51
89.999999999978954
  0
LINE
  5
21E
100
AcDbEntity
  8
LAYER001
  6
CONTINUOUS
 62
               7
100
AcDbLine
 10
20.400000000000091
 20
161.19999999999982
 30
0.0
 11
20.400000000000091
 21
146.80000000000018
 31
0.0
  0
LINE
  5
21F
100
AcDbEntity
  8
LAYER001
  6
CONTINUOUS
 62
               7
100
AcDbLine
 10
25.900000000000091
 20
163.69999999999982
 30
0.0
 11
22.900000000000091
 21
163.69999999999982
 31
0.0
  0
ARC
  5
220
100
AcDbEntity
  8
LAYER001
  6
CONTINUOUS
 62
               7
100
AcDbCircle
 10
22.900000000000091
 20
161.19999999999982
 30
0.0
 40
2.5
100
AcDbArc
 50
89.999999999978954
 51
179.99999999995791
  0
ARC
  5
221
100
AcDbEntity
  8
LAYER001
  6
CONTINUOUS
 62
               7
100
AcDbCircle
 10
25.900000000000091
 20
169.40000000000055
 30
0.0
 40
2.5
100
AcDbArc
 50
269.99999999994731
 51
359.9999999999992
  0
LINE
  5
222
100
AcDbEntity
  8
LAYER001
  6
CONTINUOUS
 62
               7
100
AcDbLine
 10
25.900000000000091
 20
166.90000000000055
 30
0.0
 11
22.900000000000091
 21
166.90000000000055
 31
0.0
  0
ARC
  5
223
100
AcDbEntity
  8
LAYER001
  6
CONTINUOUS
 62
               7
100
AcDbCircle
 10
22.900000000000091
 20
169.40000000000055
 30
0.0
 40
2.5
100
AcDbArc
 50
179.99999999995791
 51
269.99999999994731
  0
LINE
  5
224
100
AcDbEntity
  8
LAYER001
  6
CONTINUOUS
 62
               7
100
AcDbLine
 10
28.400000000000091
 20
179.18600700000025
 30
0.0
 11
28.400000000000091
 21
169.40000000000055
 31
0.0
  0
LINE
  5
225
100
AcDbEntity
  8
LAYER001
  6
CONTINUOUS
 62
               7
100
AcDbLine
 10
20.400000000000091
 20
180.21841500000028
 30
0.0
 11
20.400000000000091
 21
169.40000000000055
 31
0.0
  0
ARC
  5
226
100
AcDbEntity
  8
LAYER001
  6
CONTINUOUS
 62
               7
100
AcDbCircle
 10
38.099999999999909
 20
158.10000000000036
 30
0.0
 40
2.5
100
AcDbArc
 50
269.99999999994731
 51
359.9999999999992
  0
LINE
  5
227
100
AcDbEntity
  8
LAYER001
  6
CONTINUOUS
 62
               7
100
AcDbLine
 10
38.099999999999909
 20
155.60000000000036
 30
0.0
 11
35.099999999999909
 21
155.60000000000036
 31
0.0
  0
ARC
  5
228
100
AcDbEntity
  8
LAYER001
  6
CONTINUOUS
 62
               7
100
AcDbCircle
 10
35.099999999999909
 20
158.10000000000036
 30
0.0
 40
2.5
100
AcDbArc
 50
179.99999999995791
 51
269.99999999994731
  0
LINE
  5
229
100
AcDbEntity
  8
LAYER001
  6
CONTINUOUS
 62
               7
100
AcDbLine
 10
40.599999999999909
 20
172.5
 30
0.0
 11
40.599999999999909
 21
158.10000000000036
 31
0.0
  0
ARC
  5
22A
100
AcDbEntity
  8
LAYER001
  6
CONTINUOUS
 62
               7
100
AcDbCircle
 10
38.099999999999909
 20
172.5
 30
0.0
 40
2.5
100
AcDbArc
 50
0.0
 51
89.999999999978954
  0
LINE
  5
22B
100
AcDbEntity
  8
LAYER001
  6
CONTINUOUS
 62
               7
100
AcDbLine
 10
32.599999999999909
 20
172.5
 30
0.0
 11
32.599999999999909
 21
158.10000000000036
 31
0.0
  0
LINE
  5
22C
100
AcDbEntity
  8
LAYER001
  6
CONTINUOUS
 62
               7
100
AcDbLine
 10
38.099999999999909
 20
175.0
 30
0.0
 11
35.099999999999909
 21
175.0
 31
0.0
  0
ARC
  5
22D
100
AcDbEntity
  8
LAYER001
  6
CONTINUOUS
 62
               7
100
AcDbCircle
 10
35.099999999999909
 20
172.5
 30
0.0
 40
2.5
100
AcDbArc
 50
89.999999999978954
 51
179.99999999995791
  0
ARC
  5
22E
100
AcDbEntity
  8
LAYER001
  6
CONTINUOUS
 62
               7
100
AcDbCircle
 10
38.099999999999909
 20
135.5
 30
0.0
 40
2.5
100
AcDbArc
 50
269.99999999994731
 51
359.9999999999992
  0
LINE
  5
22F
100
AcDbEntity
  8
LAYER001
  6
CONTINUOUS
 62
               7
100
AcDbLine
 10
38.099999999999909
 20
133.0
 30
0.0
 11
35.099999999999909
 21
133.0
 31
0.0
  0
ARC
  5
230
100
AcDbEntity
  8
LAYER001
  6
CONTINUOUS
 62
               7
100
AcDbCircle
 10
35.099999999999909
 20
135.5
 30
0.0
 40
2.5
100
AcDbArc
 50
179.99999999995791
 51
269.99999999994731
  0
LINE
  5
231
100
AcDbEntity
  8
LAYER001
  6
CONTINUOUS
 62
               7
100
AcDbLine
 10
40.599999999999909
 20
149.90000000000055
 30
0.0
 11
40.599999999999909
 21
135.5
 31
0.0
  0
ARC
  5
232
100
AcDbEntity
  8
LAYER001
  6
CONTINUOUS
 62
               7
100
AcDbCircle
 10
38.099999999999909
 20
149.90000000000055
 30
0.0
 40
2.5
100
AcDbArc
 50
0.0
 51
89.999999999978954
  0
LINE
  5
233
100
AcDbEntity
  8
LAYER001
  6
CONTINUOUS
 62
               7
100
AcDbLine
 10
32.599999999999909
 20
149.90000000000055
 30
0.0
 11
32.599999999999909
 21
135.5
 31
0.0
  0
LINE
  5
234
100
AcDbEntity
  8
LAYER001
  6
CONTINUOUS
 62
               7
100
AcDbLine
 10
38.099999999999909
 20
152.40000000000055
 30
0.0
 11
35.099999999999909
 21
152.40000000000055
 31
0.0
  0
ARC
  5
235
100
AcDbEntity
  8
LAYER001
  6
CONTINUOUS
 62
               7
100
AcDbCircle
 10
35.099999999999909
 20
149.90000000000055
 30
0.0
 40
2.5
100
AcDbArc
 50
89.999999999978954
 51
179.99999999995791
  0
LINE
  5
236
100
AcDbEntity
  8
LAYER001
  6
CONTINUOUS
 62
               7
100
AcDbLine
 10
40.599999999999909
 20
127.30000000000018
 30
0.0
 11
40.599999999999909
 21
124.5
 31
0.0
  0
ARC
  5
237
100
AcDbEntity
  8
LAYER001
  6
CONTINUOUS
 62
               7
100
AcDbCircle
 10
38.099999999999909
 20
127.30000000000018
 30
0.0
 40
2.5
100
AcDbArc
 50
0.0
 51
89.999999999978954
  0
LINE
  5
238
100
AcDbEntity
  8
LAYER001
  6
CONTINUOUS
 62
               7
100
AcDbLine
 10
32.599999999999909
 20
127.30000000000018
 30
0.0
 11
32.599999999999909
 21
124.5
 31
0.0
  0
LINE
  5
239
100
AcDbEntity
  8
LAYER001
  6
CONTINUOUS
 62
               7
100
AcDbLine
 10
38.099999999999909
 20
129.80000000000018
 30
0.0
 11
35.099999999999909
 21
129.80000000000018
 31
0.0
  0
ARC
  5
23A
100
AcDbEntity
  8
LAYER001
  6
CONTINUOUS
 62
               7
100
AcDbCircle
 10
35.099999999999909
 20
127.30000000000018
 30
0.0
 40
2.5
100
AcDbArc
 50
89.999999999978954
 51
179.99999999995791
  0
ARC
  5
23B
100
AcDbEntity
  8
LAYER001
  6
CONTINUOUS
 62
               7
100
AcDbCircle
 10
47.300000000000182
 20
124.19999999999982
 30
0.0
 40
2.5
100
AcDbArc
 50
179.99999999995791
 51
269.99999999994731
  0
LINE
  5
23C
100
AcDbEntity
  8
LAYER001
  6
CONTINUOUS
 62
               7
100
AcDbLine
 10
47.300000000000182
 20
121.69999999999982
 30
0.0
 11
50.300000000000182
 21
121.69999999999982
 31
0.0
  0
ARC
  5
23D
100
AcDbEntity
  8
LAYER001
  6
CONTINUOUS
 62
               7
100
AcDbCircle
 10
50.300000000000182
 20
124.19999999999982
 30
0.0
 40
2.5
100
AcDbArc
 50
269.99999999994731
 51
359.9999999999992
  0
LINE
  5
23E
100
AcDbEntity
  8
LAYER001
  6
CONTINUOUS
 62
               7
100
AcDbLine
 10
44.800000000000182
 20
138.60000000000036
 30
0.0
 11
44.800000000000182
 21
124.19999999999982
 31
0.0
  0
ARC
  5
23F
100
AcDbEntity
  8
LAYER001
  6
CONTINUOUS
 62
               7
100
AcDbCircle
 10
47.300000000000182
 20
138.60000000000036
 30
0.0
 40
2.5
100
AcDbArc
 50
89.999999999978954
 51
179.99999999995791
  0
LINE
  5
240
100
AcDbEntity
  8
LAYER001
  6
CONTINUOUS
 62
               7
100
AcDbLine
 10
52.800000000000182
 20
138.60000000000036
 30
0.0
 11
52.800000000000182
 21
124.19999999999982
 31
0.0
  0
LINE
  5
241
100
AcDbEntity
  8
LAYER001
  6
CONTINUOUS
 62
               7
100
AcDbLine
 10
47.300000000000182
 20
141.10000000000036
 30
0.0
 11
50.300000000000182
 21
141.10000000000036
 31
0.0
  0
ARC
  5
242
100
AcDbEntity
  8
LAYER001
  6
CONTINUOUS
 62
               7
100
AcDbCircle
 10
50.300000000000182
 20
138.60000000000036
 30
0.0
 40
2.5
100
AcDbArc
 50
0.0
 51
89.999999999978954
  0
ARC
  5
243
100
AcDbEntity
  8
LAYER001
  6
CONTINUOUS
 62
               7
100
AcDbCircle
 10
47.300000000000182
 20
146.80000000000018
 30
0.0
 40
2.5
100
AcDbArc
 50
179.99999999995791
 51
269.99999999994731
  0
LINE
  5
244
100
AcDbEntity
  8
LAYER001
  6
CONTINUOUS
 62
               7
100
AcDbLine
 10
47.300000000000182
 20
144.30000000000018
 30
0.0
 11
50.300000000000182
 21
144.30000000000018
 31
0.0
  0
ARC
  5
245
100
AcDbEntity
  8
LAYER001
  6
CONTINUOUS
 62
               7
100
AcDbCircle
 10
50.300000000000182
 20
146.80000000000018
 30
0.0
 40
2.5
100
AcDbArc
 50
269.99999999994731
 51
359.9999999999992
  0
LINE
  5
246
100
AcDbEntity
  8
LAYER001
  6
CONTINUOUS
 62
               7
100
AcDbLine
 10
44.800000000000182
 20
161.19999999999982
 30
0.0
 11
44.800000000000182
 21
146.80000000000018
 31
0.0
  0
ARC
  5
247
100
AcDbEntity
  8
LAYER001
  6
CONTINUOUS
 62
               7
100
AcDbCircle
 10
47.300000000000182
 20
161.19999999999982
 30
0.0
 40
2.5
100
AcDbArc
 50
89.999999999978954
 51
179.99999999995791
  0
LINE
  5
248
100
AcDbEntity
  8
LAYER001
  6
CONTINUOUS
 62
               7
100
AcDbLine
 10
52.800000000000182
 20
161.19999999999982
 30
0.0
 11
52.800000000000182
 21
146.80000000000018
 31
0.0
  0
LINE
  5
249
100
AcDbEntity
  8
LAYER001
  6
CONTINUOUS
 62
               7
100
AcDbLine
 10
47.300000000000182
 20
163.69999999999982
 30
0.0
 11
50.300000000000182
 21
163.69999999999982
 31
0.0
  0
ARC
  5
24A
100
AcDbEntity
  8
LAYER001
  6
CONTINUOUS
 62
               7
100
AcDbCircle
 10
50.300000000000182
 20
161.19999999999982
 30
0.0
 40
2.5
100
AcDbArc
 50
0.0
 51
89.999999999978954
  0
ARC
  5
24B
100
AcDbEntity
  8
LAYER001
  6
CONTINUOUS
 62
               7
100
AcDbCircle
 10
59.5
 20
135.5
 30
0.0
 40
2.5
100
AcDbArc
 50
179.99999999995791
 51
269.99999999994731
  0
LINE
  5
24C
100
AcDbEntity
  8
LAYER001
  6
CONTINUOUS
 62
               7
100
AcDbLine
 10
59.5
 20
133.0
 30
0.0
 11
62.5
 21
133.0
 31
0.0
  0
ARC
  5
24D
100
AcDbEntity
  8
LAYER001
  6
CONTINUOUS
 62
               7
100
AcDbCircle
 10
62.5
 20
135.5
 30
0.0
 40
2.5
100
AcDbArc
 50
269.99999999994731
 51
359.9999999999992
  0
LINE
  5
24E
100
AcDbEntity
  8
LAYER001
  6
CONTINUOUS
 62
               7
100
AcDbLine
 10
57.0
 20
149.90000000000055
 30
0.0
 11
57.0
 21
135.5
 31
0.0
  0
ARC
  5
24F
100
AcDbEntity
  8
LAYER001
  6
CONTINUOUS
 62
               7
100
AcDbCircle
 10
59.5
 20
149.90000000000055
 30
0.0
 40
2.5
100
AcDbArc
 50
89.999999999978954
 51
179.99999999995791
  0
LINE
  5
250
100
AcDbEntity
  8
LAYER001
  6
CONTINUOUS
 62
               7
100
AcDbLine
 10
65.0
 20
149.90000000000055
 30
0.0
 11
65.0
 21
135.5
 31
0.0
  0
LINE
  5
251
100
AcDbEntity
  8
LAYER001
  6
CONTINUOUS
 62
               7
100
AcDbLine
 10
59.5
 20
152.40000000000055
 30
0.0
 11
62.5
 21
152.40000000000055
 31
0.0
  0
ARC
  5
252
100
AcDbEntity
  8
LAYER001
  6
CONTINUOUS
 62
               7
100
AcDbCircle
 10
62.5
 20
149.90000000000055
 30
0.0
 40
2.5
100
AcDbArc
 50
0.0
 51
89.999999999978954
  0
ARC
  5
253
100
AcDbEntity
  8
LAYER001
  6
CONTINUOUS
 62
               7
100
AcDbCircle
 10
59.5
 20
112.90000000000055
 30
0.0
 40
2.5
100
AcDbArc
 50
179.99999999995791
 51
269.99999999994731
  0
LINE
  5
254
100
AcDbEntity
  8
LAYER001
  6
CONTINUOUS
 62
               7
100
AcDbLine
 10
59.5
 20
110.40000000000055
 30
0.0
 11
62.5
 21
110.40000000000055
 31
0.0
  0
ARC
  5
255
100
AcDbEntity
  8
LAYER001
  6
CONTINUOUS
 62
               7
100
AcDbCircle
 10
62.5
 20
112.90000000000055
 30
0.0
 40
2.5
100
AcDbArc
 50
269.99999999994731
 51
359.9999999999992
  0
LINE
  5
256
100
AcDbEntity
  8
LAYER001
  6
CONTINUOUS
 62
               7
100
AcDbLine
 10
57.0
 20
127.30000000000018
 30
0.0
 11
57.0
 21
112.90000000000055
 31
0.0
  0
ARC
  5
257
100
AcDbEntity
  8
LAYER001
  6
CONTINUOUS
 62
               7
100
AcDbCircle
 10
59.5
 20
127.30000000000018
 30
0.0
 40
2.5
100
AcDbArc
 50
89.999999999978954
 51
179.99999999995791
  0
LINE
  5
258
100
AcDbEntity
  8
LAYER001
  6
CONTINUOUS
 62
               7
100
AcDbLine
 10
65.0
 20
127.30000000000018
 30
0.0
 11
65.0
 21
112.90000000000055
 31
0.0
  0
LINE
  5
259
100
AcDbEntity
  8
LAYER001
  6
CONTINUOUS
 62
               7
100
AcDbLine
 10
59.5
 20
129.80000000000018
 30
0.0
 11
62.5
 21
129.80000000000018
 31
0.0
  0
ARC
  5
25A
100
AcDbEntity
  8
LAYER001
  6
CONTINUOUS
 62
               7
100
AcDbCircle
 10
62.5
 20
127.30000000000018
 30
0.0
 40
2.5
100
AcDbArc
 50
0.0
 51
89.999999999978954
  0
LINE
  5
25B
100
AcDbEntity
  8
LAYER001
  6
CONTINUOUS
 62
               7
100
AcDbLine
 10
74.653600000000097
 20
118.5
 30
0.0
 11
71.699999999999818
 21
118.5
 31
0.0
  0
ARC
  5
25C
100
AcDbEntity
  8
LAYER001
  6
CONTINUOUS
 62
               7
100
AcDbCircle
 10
71.699999999999818
 20
116.0
 30
0.0
 40
2.5
100
AcDbArc
 50
89.999999999978954
 51
179.99999999995791
  0
LINE
  5
25D
100
AcDbEntity
  8
LAYER001
  6
CONTINUOUS
 62
               7
100
AcDbLine
 10
73.401906999999937
 20
121.69999999999982
 30
0.0
 11
71.699999999999818
 21
121.69999999999982
 31
0.0
  0
ARC
  5
25E
100
AcDbEntity
  8
LAYER001
  6
CONTINUOUS
 62
               7
100
AcDbCircle
 10
71.699999999999818
 20
124.19999999999982
 30
0.0
 40
2.5
100
AcDbArc
 50
179.99999999995791
 51
269.99999999994731
  0
LINE
  5
25F
100
AcDbEntity
  8
LAYER001
  6
CONTINUOUS
 62
               7
100
AcDbLine
 10
69.199999999999818
 20
136.68386600000031
 30
0.0
 11
69.199999999999818
 21
124.19999999999982
 31
0.0
  0
LINE
  5
260
100
AcDbEntity
  8
LAYER001
  6
CONTINUOUS
 62
               7
100
AcDbLine
 10
35.099999999999909
 20
122.0
 30
0.0
 11
38.099999999999909
 21
122.0
 31
0.0
  0
ARC
  5
261
100
AcDbEntity
  8
LAYER001
  6
CONTINUOUS
 62
               7
100
AcDbCircle
 10
35.099999999999909
 20
124.5
 30
0.0
 40
2.5
100
AcDbArc
 50
179.99999999995791
 51
269.99999999994731
  0
ARC
  5
262
100
AcDbEntity
  8
LAYER001
  6
CONTINUOUS
 62
               7
100
AcDbCircle
 10
38.099999999999909
 20
124.5
 30
0.0
 40
2.5
100
AcDbArc
 50
269.99999999994731
 51
359.9999999999992
  0
ARC
  5
263
100
AcDbEntity
  8
LAYER001
  6
CONTINUOUS
 62
               7
100
AcDbCircle
 10
50.300000000000182
 20
116.0
 30
0.0
 40
2.5
100
AcDbArc
 50
0.0
 51
89.999999999978954
  0
LINE
  5
264
100
AcDbEntity
  8
LAYER001
  6
CONTINUOUS
 62
               7
100
AcDbLine
 10
47.858330999999907
 20
118.5
 30
0.0
 11
50.300000000000182
 21
118.5
 31
0.0
  0
ARC
  5
265
100
AcDbEntity
  8
LAYER001
  6
CONTINUOUS
 62
               7
100
AcDbCircle
 10
0.0
 20
108.80000000000018
 30
0.0
 40
77.5
100
AcDbArc
 50
11.849012999997615
 51
21.524125999995714
  0
ARC
  5
266
100
AcDbEntity
  8
LAYER001
  6
CONTINUOUS
 62
               7
100
AcDbCircle
 10
74.653600000000097
 20
116.0
 30
0.0
 40
2.5
100
AcDbArc
 50
5.5088789999901371
 51
89.999999999978954
  0
ARC
  5
267
100
AcDbEntity
  8
LAYER001
  6
CONTINUOUS
 62
               7
100
AcDbCircle
 10
73.401906999999937
 20
124.19999999999982
 30
0.0
 40
2.5
100
AcDbArc
 50
269.99999999994731
 51
371.84901299999643
  0
ARC
  5
268
100
AcDbEntity
  8
LAYER001
  6
CONTINUOUS
 62
               7
100
AcDbCircle
 10
70.699999999999818
 20
136.68386600000031
 30
0.0
 40
1.5
100
AcDbArc
 50
21.524125999987234
 51
179.99999999996487
  0
ARC
  5
269
100
AcDbEntity
  8
LAYER001
  6
CONTINUOUS
 62
               7
100
AcDbCircle
 10
0.0
 20
108.80000000000018
 30
0.0
 40
77.5
100
AcDbArc
 50
69.797854999986484
 51
72.221780999986379
  0
ARC
  5
26A
100
AcDbEntity
  8
LAYER001
  6
CONTINUOUS
 62
               7
100
AcDbCircle
 10
0.0
 20
108.80000000000018
 30
0.0
 40
77.5
100
AcDbArc
 50
79.474875999984704
 51
81.797815999984323
  0
ARC
  5
26B
100
AcDbEntity
  8
LAYER001
  6
CONTINUOUS
 62
               7
100
AcDbCircle
 10
10.699999999999818
 20
183.03280900000027
 30
0.0
 40
2.5
100
AcDbArc
 50
81.797815999988941
 51
179.99999999995791
  0
ARC
  5
26C
100
AcDbEntity
  8
LAYER001
  6
CONTINUOUS
 62
               7
100
AcDbCircle
 10
13.699999999999818
 20
182.5381180000004
 30
0.0
 40
2.5
100
AcDbArc
 50
0.0
 51
79.474875999988456
  0
ARC
  5
26D
100
AcDbEntity
  8
LAYER001
  6
CONTINUOUS
 62
               7
100
AcDbCircle
 10
22.900000000000091
 20
180.21841500000028
 30
0.0
 40
2.5
100
AcDbArc
 50
72.22178099998807
 51
179.99999999995791
  0
ARC
  5
26E
100
AcDbEntity
  8
LAYER001
  6
CONTINUOUS
 62
               7
100
AcDbCircle
 10
25.900000000000091
 20
179.18600700000025
 30
0.0
 40
2.5
100
AcDbArc
 50
0.0
 51
69.797854999982121
  0
LINE
  5
26F
100
AcDbEntity
  8
LAYER001
  6
CONTINUOUS
 62
               7
100
AcDbLine
 10
-10.699999999999818
 20
178.19999999999982
 30
0.0
 11
-13.699999999999818
 21
178.19999999999982
 31
0.0
  0
ARC
  5
270
100
AcDbEntity
  8
LAYER001
  6
CONTINUOUS
 62
               7
100
AcDbCircle
 10
-10.699999999999818
 20
180.69999999999982
 30
0.0
 40
2.5
100
AcDbArc
 50
269.99999999994731
 51
359.9999999999992
  0
ARC
  5
271
100
AcDbEntity
  8
LAYER001
  6
CONTINUOUS
 62
               7
100
AcDbCircle
 10
-13.699999999999818
 20
180.69999999999982
 30
0.0
 40
2.5
100
AcDbArc
 50
179.99999999995791
 51
269.99999999994731
  0
LINE
  5
272
100
AcDbEntity
  8
LAYER001
  6
CONTINUOUS
 62
               7
100
AcDbLine
 10
-8.1999999999998181
 20
172.5
 30
0.0
 11
-8.1999999999998181
 21
158.10000000000036
 31
0.0
  0
LINE
  5
273
100
AcDbEntity
  8
LAYER001
  6
CONTINUOUS
 62
               7
100
AcDbLine
 10
-16.199999999999818
 20
172.5
 30
0.0
 11
-16.199999999999818
 21
158.10000000000036
 31
0.0
  0
LINE
  5
274
100
AcDbEntity
  8
LAYER001
  6
CONTINUOUS
 62
               7
100
AcDbLine
 10
-10.699999999999818
 20
175.0
 30
0.0
 11
-13.699999999999818
 21
175.0
 31
0.0
  0
LINE
  5
275
100
AcDbEntity
  8
LAYER001
  6
CONTINUOUS
 62
               7
100
AcDbLine
 10
-10.699999999999818
 20
155.60000000000036
 30
0.0
 11
-13.699999999999818
 21
155.60000000000036
 31
0.0
  0
ARC
  5
276
100
AcDbEntity
  8
LAYER001
  6
CONTINUOUS
 62
               7
100
AcDbCircle
 10
-10.699999999999818
 20
158.10000000000036
 30
0.0
 40
2.5
100
AcDbArc
 50
269.99999999994731
 51
359.9999999999992
  0
ARC
  5
277
100
AcDbEntity
  8
LAYER001
  6
CONTINUOUS
 62
               7
100
AcDbCircle
 10
-13.699999999999818
 20
158.10000000000036
 30
0.0
 40
2.5
100
AcDbArc
 50
179.99999999995791
 51
269.99999999994731
  0
ARC
  5
278
100
AcDbEntity
  8
LAYER001
  6
CONTINUOUS
 62
               7
100
AcDbCircle
 10
-10.699999999999818
 20
172.5
 30
0.0
 40
2.5
100
AcDbArc
 50
0.0
 51
89.999999999978954
  0
ARC
  5
279
100
AcDbEntity
  8
LAYER001
  6
CONTINUOUS
 62
               7
100
AcDbCircle
 10
-13.699999999999818
 20
172.5
 30
0.0
 40
2.5
100
AcDbArc
 50
89.999999999978954
 51
179.99999999995791
  0
LINE
  5
27A
100
AcDbEntity
  8
LAYER001
  6
CONTINUOUS
 62
               7
100
AcDbLine
 10
-8.1999999999998181
 20
149.90000000000055
 30
0.0
 11
-8.1999999999998181
 21
135.5
 31
0.0
  0
LINE
  5
27B
100
AcDbEntity
  8
LAYER001
  6
CONTINUOUS
 62
               7
100
AcDbLine
 10
-16.199999999999818
 20
149.90000000000055
 30
0.0
 11
-16.199999999999818
 21
135.5
 31
0.0
  0
LINE
  5
27C
100
AcDbEntity
  8
LAYER001
  6
CONTINUOUS
 62
               7
100
AcDbLine
 10
-10.699999999999818
 20
152.40000000000055
 30
0.0
 11
-13.699999999999818
 21
152.40000000000055
 31
0.0
  0
LINE
  5
27D
100
AcDbEntity
  8
LAYER001
  6
CONTINUOUS
 62
               7
100
AcDbLine
 10
-10.699999999999818
 20
133.0
 30
0.0
 11
-13.699999999999818
 21
133.0
 31
0.0
  0
ARC
  5
27E
100
AcDbEntity
  8
LAYER001
  6
CONTINUOUS
 62
               7
100
AcDbCircle
 10
-10.699999999999818
 20
135.5
 30
0.0
 40
2.5
100
AcDbArc
 50
269.99999999994731
 51
359.9999999999992
  0
ARC
  5
27F
100
AcDbEntity
  8
LAYER001
  6
CONTINUOUS
 62
               7
100
AcDbCircle
 10
-13.699999999999818
 20
135.5
 30
0.0
 40
2.5
100
AcDbArc
 50
179.99999999995791
 51
269.99999999994731
  0
ARC
  5
280
100
AcDbEntity
  8
LAYER001
  6
CONTINUOUS
 62
               7
100
AcDbCircle
 10
-10.699999999999818
 20
149.90000000000055
 30
0.0
 40
2.5
100
AcDbArc
 50
0.0
 51
89.999999999978954
  0
ARC
  5
281
100
AcDbEntity
  8
LAYER001
  6
CONTINUOUS
 62
               7
100
AcDbCircle
 10
-13.699999999999818
 20
149.90000000000055
 30
0.0
 40
2.5
100
AcDbArc
 50
89.999999999978954
 51
179.99999999995791
  0
LINE
  5
282
100
AcDbEntity
  8
LAYER001
  6
CONTINUOUS
 62
               7
100
AcDbLine
 10
-16.199999999999818
 20
127.30000000000018
 30
0.0
 11
-16.199999999999818
 21
112.90000000000055
 31
0.0
  0
LINE
  5
283
100
AcDbEntity
  8
LAYER001
  6
CONTINUOUS
 62
               7
100
AcDbLine
 10
-10.699999999999818
 20
129.80000000000018
 30
0.0
 11
-13.699999999999818
 21
129.80000000000018
 31
0.0
  0
LINE
  5
284
100
AcDbEntity
  8
LAYER001
  6
CONTINUOUS
 62
               7
100
AcDbLine
 10
-10.699999999999818
 20
110.40000000000055
 30
0.0
 11
-13.699999999999818
 21
110.40000000000055
 31
0.0
  0
ARC
  5
285
100
AcDbEntity
  8
LAYER001
  6
CONTINUOUS
 62
               7
100
AcDbCircle
 10
-10.699999999999818
 20
112.90000000000055
 30
0.0
 40
2.5
100
AcDbArc
 50
269.99999999994731
 51
359.9999999999992
  0
ARC
  5
286
100
AcDbEntity
  8
LAYER001
  6
CONTINUOUS
 62
               7
100
AcDbCircle
 10
-13.699999999999818
 20
112.90000000000055
 30
0.0
 40
2.5
100
AcDbArc
 50
179.99999999995791
 51
269.99999999994731
  0
ARC
  5
287
100
AcDbEntity
  8
LAYER001
  6
CONTINUOUS
 62
               7
100
AcDbCircle
 10
-10.699999999999818
 20
127.30000000000018
 30
0.0
 40
2.5
100
AcDbArc
 50
0.0
 51
89.999999999978954
  0
ARC
  5
288
100
AcDbEntity
  8
LAYER001
  6
CONTINUOUS
 62
               7
100
AcDbCircle
 10
-13.699999999999818
 20
127.30000000000018
 30
0.0
 40
2.5
100
AcDbArc
 50
89.999999999978954
 51
179.99999999995791
  0
LINE
  5
289
100
AcDbEntity
  8
LAYER001
  6
CONTINUOUS
 62
               7
100
AcDbLine
 10
-25.341668999999911
 20
118.5
 30
0.0
 11
-22.900000000000091
 21
118.5
 31
0.0
  0
ARC
  5
28A
100
AcDbEntity
  8
LAYER001
  6
CONTINUOUS
 62
               7
100
AcDbCircle
 10
-22.900000000000091
 20
116.0
 30
0.0
 40
2.5
100
AcDbArc
 50
0.0
 51
89.999999999978954
  0
ARC
  5
28B
100
AcDbEntity
  8
LAYER001
  6
CONTINUOUS
 62
               7
100
AcDbCircle
 10
-25.900000000000091
 20
124.19999999999982
 30
0.0
 40
2.5
100
AcDbArc
 50
179.99999999995791
 51
269.99999999994731
  0
LINE
  5
28C
100
AcDbEntity
  8
LAYER001
  6
CONTINUOUS
 62
               7
100
AcDbLine
 10
-25.900000000000091
 20
121.69999999999982
 30
0.0
 11
-22.900000000000091
 21
121.69999999999982
 31
0.0
  0
ARC
  5
28D
100
AcDbEntity
  8
LAYER001
  6
CONTINUOUS
 62
               7
100
AcDbCircle
 10
-22.900000000000091
 20
124.19999999999982
 30
0.0
 40
2.5
100
AcDbArc
 50
269.99999999994731
 51
359.9999999999992
  0
LINE
  5
28E
100
AcDbEntity
  8
LAYER001
  6
CONTINUOUS
 62
               7
100
AcDbLine
 10
-28.400000000000091
 20
138.60000000000036
 30
0.0
 11
-28.400000000000091
 21
124.19999999999982
 31
0.0
  0
ARC
  5
28F
100
AcDbEntity
  8
LAYER001
  6
CONTINUOUS
 62
               7
100
AcDbCircle
 10
-25.900000000000091
 20
138.60000000000036
 30
0.0
 40
2.5
100
AcDbArc
 50
89.999999999978954
 51
179.99999999995791
  0
LINE
  5
290
100
AcDbEntity
  8
LAYER001
  6
CONTINUOUS
 62
               7
100
AcDbLine
 10
-20.400000000000091
 20
138.60000000000036
 30
0.0
 11
-20.400000000000091
 21
124.19999999999982
 31
0.0
  0
LINE
  5
291
100
AcDbEntity
  8
LAYER001
  6
CONTINUOUS
 62
               7
100
AcDbLine
 10
-25.900000000000091
 20
141.10000000000036
 30
0.0
 11
-22.900000000000091
 21
141.10000000000036
 31
0.0
  0
ARC
  5
292
100
AcDbEntity
  8
LAYER001
  6
CONTINUOUS
 62
               7
100
AcDbCircle
 10
-22.900000000000091
 20
138.60000000000036
 30
0.0
 40
2.5
100
AcDbArc
 50
0.0
 51
89.999999999978954
  0
ARC
  5
293
100
AcDbEntity
  8
LAYER001
  6
CONTINUOUS
 62
               7
100
AcDbCircle
 10
-25.900000000000091
 20
146.80000000000018
 30
0.0
 40
2.5
100
AcDbArc
 50
179.99999999995791
 51
269.99999999994731
  0
LINE
  5
294
100
AcDbEntity
  8
LAYER001
  6
CONTINUOUS
 62
               7
100
AcDbLine
 10
-25.900000000000091
 20
144.30000000000018
 30
0.0
 11
-22.900000000000091
 21
144.30000000000018
 31
0.0
  0
ARC
  5
295
100
AcDbEntity
  8
LAYER001
  6
CONTINUOUS
 62
               7
100
AcDbCircle
 10
-22.900000000000091
 20
146.80000000000018
 30
0.0
 40
2.5
100
AcDbArc
 50
269.99999999994731
 51
359.9999999999992
  0
LINE
  5
296
100
AcDbEntity
  8
LAYER001
  6
CONTINUOUS
 62
               7
100
AcDbLine
 10
-28.400000000000091
 20
161.19999999999982
 30
0.0
 11
-28.400000000000091
 21
146.80000000000018
 31
0.0
  0
ARC
  5
297
100
AcDbEntity
  8
LAYER001
  6
CONTINUOUS
 62
               7
100
AcDbCircle
 10
-25.900000000000091
 20
161.19999999999982
 30
0.0
 40
2.5
100
AcDbArc
 50
89.999999999978954
 51
179.99999999995791
  0
LINE
  5
298
100
AcDbEntity
  8
LAYER001
  6
CONTINUOUS
 62
               7
100
AcDbLine
 10
-20.400000000000091
 20
161.19999999999982
 30
0.0
 11
-20.400000000000091
 21
146.80000000000018
 31
0.0
  0
LINE
  5
299
100
AcDbEntity
  8
LAYER001
  6
CONTINUOUS
 62
               7
100
AcDbLine
 10
-25.900000000000091
 20
163.69999999999982
 30
0.0
 11
-22.900000000000091
 21
163.69999999999982
 31
0.0
  0
ARC
  5
29A
100
AcDbEntity
  8
LAYER001
  6
CONTINUOUS
 62
               7
100
AcDbCircle
 10
-22.900000000000091
 20
161.19999999999982
 30
0.0
 40
2.5
100
AcDbArc
 50
0.0
 51
89.999999999978954
  0
ARC
  5
29B
100
AcDbEntity
  8
LAYER001
  6
CONTINUOUS
 62
               7
100
AcDbCircle
 10
-25.900000000000091
 20
169.40000000000055
 30
0.0
 40
2.5
100
AcDbArc
 50
179.99999999995791
 51
269.99999999994731
  0
LINE
  5
29C
100
AcDbEntity
  8
LAYER001
  6
CONTINUOUS
 62
               7
100
AcDbLine
 10
-25.900000000000091
 20
166.90000000000055
 30
0.0
 11
-22.900000000000091
 21
166.90000000000055
 31
0.0
  0
ARC
  5
29D
100
AcDbEntity
  8
LAYER001
  6
CONTINUOUS
 62
               7
100
AcDbCircle
 10
-22.900000000000091
 20
169.40000000000055
 30
0.0
 40
2.5
100
AcDbArc
 50
269.99999999994731
 51
359.9999999999992
  0
LINE
  5
29E
100
AcDbEntity
  8
LAYER001
  6
CONTINUOUS
 62
               7
100
AcDbLine
 10
-8.1999999999998181
 20
183.03280900000027
 30
0.0
 11
-8.1999999999998181
 21
180.69999999999982
 31
0.0
  0
ARC
  5
29F
100
AcDbEntity
  8
LAYER001
  6
CONTINUOUS
 62
               7
100
AcDbCircle
 10
-10.699999999999818
 20
183.03280900000027
 30
0.0
 40
2.5
100
AcDbArc
 50
0.0
 51
98.202183999979709
  0
ARC
  5
2A0
100
AcDbEntity
  8
LAYER001
  6
CONTINUOUS
 62
               7
100
AcDbCircle
 10
0.0
 20
108.80000000000018
 30
0.0
 40
77.5
100
AcDbArc
 50
98.20218399998133
 51
100.52512399998075
  0
LINE
  5
2A1
100
AcDbEntity
  8
LAYER001
  6
CONTINUOUS
 62
               7
100
AcDbLine
 10
-16.199999999999818
 20
182.5381180000004
 30
0.0
 11
-16.199999999999818
 21
180.69999999999982
 31
0.0
  0
ARC
  5
2A2
100
AcDbEntity
  8
LAYER001
  6
CONTINUOUS
 62
               7
100
AcDbCircle
 10
-13.699999999999818
 20
182.5381180000004
 30
0.0
 40
2.5
100
AcDbArc
 50
100.52512399998041
 51
179.99999999995791
  0
LINE
  5
2A3
100
AcDbEntity
  8
LAYER001
  6
CONTINUOUS
 62
               7
100
AcDbLine
 10
-20.400000000000091
 20
180.21841500000028
 30
0.0
 11
-20.400000000000091
 21
169.40000000000055
 31
0.0
  0
ARC
  5
2A4
100
AcDbEntity
  8
LAYER001
  6
CONTINUOUS
 62
               7
100
AcDbCircle
 10
-22.900000000000091
 20
180.21841500000028
 30
0.0
 40
2.5
100
AcDbArc
 50
0.0
 51
107.77821899997541
  0
ARC
  5
2A5
100
AcDbEntity
  8
LAYER001
  6
CONTINUOUS
 62
               7
100
AcDbCircle
 10
0.0
 20
108.80000000000018
 30
0.0
 40
77.5
100
AcDbArc
 50
107.7782189999794
 51
110.20214499997897
  0
LINE
  5
2A6
100
AcDbEntity
  8
LAYER001
  6
CONTINUOUS
 62
               7
100
AcDbLine
 10
-28.400000000000091
 20
179.18600700000025
 30
0.0
 11
-28.400000000000091
 21
169.40000000000055
 31
0.0
  0
ARC
  5
2A7
100
AcDbEntity
  8
LAYER001
  6
CONTINUOUS
 62
               7
100
AcDbCircle
 10
-25.900000000000091
 20
179.18600700000025
 30
0.0
 40
2.5
100
AcDbArc
 50
110.20214499998093
 51
179.99999999995791
  0
ARC
  5
2A8
100
AcDbEntity
  8
LAYER001
  6
CONTINUOUS
 62
               7
100
AcDbCircle
 10
-38.099999999999909
 20
158.10000000000036
 30
0.0
 40
2.5
100
AcDbArc
 50
179.99999999995791
 51
269.99999999994731
  0
LINE
  5
2A9
100
AcDbEntity
  8
LAYER001
  6
CONTINUOUS
 62
               7
100
AcDbLine
 10
-38.099999999999909
 20
155.60000000000036
 30
0.0
 11
-35.099999999999909
 21
155.60000000000036
 31
0.0
  0
ARC
  5
2AA
100
AcDbEntity
  8
LAYER001
  6
CONTINUOUS
 62
               7
100
AcDbCircle
 10
-35.099999999999909
 20
158.10000000000036
 30
0.0
 40
2.5
100
AcDbArc
 50
269.99999999994731
 51
359.9999999999992
  0
LINE
  5
2AB
100
AcDbEntity
  8
LAYER001
  6
CONTINUOUS
 62
               7
100
AcDbLine
 10
-40.599999999999909
 20
172.5
 30
0.0
 11
-40.599999999999909
 21
158.10000000000036
 31
0.0
  0
ARC
  5
2AC
100
AcDbEntity
  8
LAYER001
  6
CONTINUOUS
 62
               7
100
AcDbCircle
 10
-38.099999999999909
 20
172.5
 30
0.0
 40
2.5
100
AcDbArc
 50
89.999999999978954
 51
179.99999999995791
  0
LINE
  5
2AD
100
AcDbEntity
  8
LAYER001
  6
CONTINUOUS
 62
               7
100
AcDbLine
 10
-32.599999999999909
 20
172.5
 30
0.0
 11
-32.599999999999909
 21
158.10000000000036
 31
0.0
  0
LINE
  5
2AE
100
AcDbEntity
  8
LAYER001
  6
CONTINUOUS
 62
               7
100
AcDbLine
 10
-38.099999999999909
 20
175.0
 30
0.0
 11
-35.099999999999909
 21
175.0
 31
0.0
  0
ARC
  5
2AF
100
AcDbEntity
  8
LAYER001
  6
CONTINUOUS
 62
               7
100
AcDbCircle
 10
-35.099999999999909
 20
172.5
 30
0.0
 40
2.5
100
AcDbArc
 50
0.0
 51
89.999999999978954
  0
ARC
  5
2B0
100
AcDbEntity
  8
LAYER001
  6
CONTINUOUS
 62
               7
100
AcDbCircle
 10
-38.099999999999909
 20
135.5
 30
0.0
 40
2.5
100
AcDbArc
 50
179.99999999995791
 51
269.99999999994731
  0
LINE
  5
2B1
100
AcDbEntity
  8
LAYER001
  6
CONTINUOUS
 62
               7
100
AcDbLine
 10
-38.099999999999909
 20
133.0
 30
0.0
 11
-35.099999999999909
 21
133.0
 31
0.0
  0
ARC
  5
2B2
100
AcDbEntity
  8
LAYER001
  6
CONTINUOUS
 62
               7
100
AcDbCircle
 10
-35.099999999999909
 20
135.5
 30
0.0
 40
2.5
100
AcDbArc
 50
269.99999999994731
 51
359.9999999999992
  0
LINE
  5
2B3
100
AcDbEntity
  8
LAYER001
  6
CONTINUOUS
 62
               7
100
AcDbLine
 10
-40.599999999999909
 20
149.90000000000055
 30
0.0
 11
-40.599999999999909
 21
135.5
 31
0.0
  0
ARC
  5
2B4
100
AcDbEntity
  8
LAYER001
  6
CONTINUOUS
 62
               7
100
AcDbCircle
 10
-38.099999999999909
 20
149.90000000000055
 30
0.0
 40
2.5
100
AcDbArc
 50
89.999999999978954
 51
179.99999999995791
  0
LINE
  5
2B5
100
AcDbEntity
  8
LAYER001
  6
CONTINUOUS
 62
               7
100
AcDbLine
 10
-32.599999999999909
 20
149.90000000000055
 30
0.0
 11
-32.599999999999909
 21
135.5
 31
0.0
  0
LINE
  5
2B6
100
AcDbEntity
  8
LAYER001
  6
CONTINUOUS
 62
               7
100
AcDbLine
 10
-38.099999999999909
 20
152.40000000000055
 30
0.0
 11
-35.099999999999909
 21
152.40000000000055
 31
0.0
  0
ARC
  5
2B7
100
AcDbEntity
  8
LAYER001
  6
CONTINUOUS
 62
               7
100
AcDbCircle
 10
-35.099999999999909
 20
149.90000000000055
 30
0.0
 40
2.5
100
AcDbArc
 50
0.0
 51
89.999999999978954
  0
LINE
  5
2B8
100
AcDbEntity
  8
LAYER001
  6
CONTINUOUS
 62
               7
100
AcDbLine
 10
-40.599999999999909
 20
127.30000000000018
 30
0.0
 11
-40.599999999999909
 21
124.5
 31
0.0
  0
ARC
  5
2B9
100
AcDbEntity
  8
LAYER001
  6
CONTINUOUS
 62
               7
100
AcDbCircle
 10
-38.099999999999909
 20
127.30000000000018
 30
0.0
 40
2.5
100
AcDbArc
 50
89.999999999978954
 51
179.99999999995791
  0
LINE
  5
2BA
100
AcDbEntity
  8
LAYER001
  6
CONTINUOUS
 62
               7
100
AcDbLine
 10
-32.599999999999909
 20
127.30000000000018
 30
0.0
 11
-32.599999999999909
 21
124.5
 31
0.0
  0
LINE
  5
2BB
100
AcDbEntity
  8
LAYER001
  6
CONTINUOUS
 62
               7
100
AcDbLine
 10
-38.099999999999909
 20
129.80000000000018
 30
0.0
 11
-35.099999999999909
 21
129.80000000000018
 31
0.0
  0
ARC
  5
2BC
100
AcDbEntity
  8
LAYER001
  6
CONTINUOUS
 62
               7
100
AcDbCircle
 10
-35.099999999999909
 20
127.30000000000018
 30
0.0
 40
2.5
100
AcDbArc
 50
0.0
 51
89.999999999978954
  0
LINE
  5
2BD
100
AcDbEntity
  8
LAYER001
  6
CONTINUOUS
 62
               7
100
AcDbLine
 10
-35.099999999999909
 20
122.0
 30
0.0
 11
-38.099999999999909
 21
122.0
 31
0.0
  0
ARC
  5
2BE
100
AcDbEntity
  8
LAYER001
  6
CONTINUOUS
 62
               7
100
AcDbCircle
 10
-35.099999999999909
 20
124.5
 30
0.0
 40
2.5
100
AcDbArc
 50
269.99999999994731
 51
359.9999999999992
  0
ARC
  5
2BF
100
AcDbEntity
  8
LAYER001
  6
CONTINUOUS
 62
               7
100
AcDbCircle
 10
-38.099999999999909
 20
124.5
 30
0.0
 40
2.5
100
AcDbArc
 50
179.99999999995791
 51
269.99999999994731
  0
ARC
  5
2C0
100
AcDbEntity
  8
LAYER001
  6
CONTINUOUS
 62
               7
100
AcDbCircle
 10
-47.300000000000182
 20
124.19999999999982
 30
0.0
 40
2.5
100
AcDbArc
 50
269.99999999994731
 51
359.9999999999992
  0
LINE
  5
2C1
100
AcDbEntity
  8
LAYER001
  6
CONTINUOUS
 62
               7
100
AcDbLine
 10
-47.300000000000182
 20
121.69999999999982
 30
0.0
 11
-50.300000000000182
 21
121.69999999999982
 31
0.0
  0
ARC
  5
2C2
100
AcDbEntity
  8
LAYER001
  6
CONTINUOUS
 62
               7
100
AcDbCircle
 10
-50.300000000000182
 20
124.19999999999982
 30
0.0
 40
2.5
100
AcDbArc
 50
179.99999999995791
 51
269.99999999994731
  0
LINE
  5
2C3
100
AcDbEntity
  8
LAYER001
  6
CONTINUOUS
 62
               7
100
AcDbLine
 10
-44.800000000000182
 20
138.60000000000036
 30
0.0
 11
-44.800000000000182
 21
124.19999999999982
 31
0.0
  0
ARC
  5
2C4
100
AcDbEntity
  8
LAYER001
  6
CONTINUOUS
 62
               7
100
AcDbCircle
 10
-47.300000000000182
 20
138.60000000000036
 30
0.0
 40
2.5
100
AcDbArc
 50
0.0
 51
89.999999999978954
  0
LINE
  5
2C5
100
AcDbEntity
  8
LAYER001
  6
CONTINUOUS
 62
               7
100
AcDbLine
 10
-52.800000000000182
 20
138.60000000000036
 30
0.0
 11
-52.800000000000182
 21
124.19999999999982
 31
0.0
  0
LINE
  5
2C6
100
AcDbEntity
  8
LAYER001
  6
CONTINUOUS
 62
               7
100
AcDbLine
 10
-47.300000000000182
 20
141.10000000000036
 30
0.0
 11
-50.300000000000182
 21
141.10000000000036
 31
0.0
  0
ARC
  5
2C7
100
AcDbEntity
  8
LAYER001
  6
CONTINUOUS
 62
               7
100
AcDbCircle
 10
-50.300000000000182
 20
138.60000000000036
 30
0.0
 40
2.5
100
AcDbArc
 50
89.999999999978954
 51
179.99999999995791
  0
ARC
  5
2C8
100
AcDbEntity
  8
LAYER001
  6
CONTINUOUS
 62
               7
100
AcDbCircle
 10
-47.300000000000182
 20
146.80000000000018
 30
0.0
 40
2.5
100
AcDbArc
 50
269.99999999994731
 51
359.9999999999992
  0
LINE
  5
2C9
100
AcDbEntity
  8
LAYER001
  6
CONTINUOUS
 62
               7
100
AcDbLine
 10
-47.300000000000182
 20
144.30000000000018
 30
0.0
 11
-50.300000000000182
 21
144.30000000000018
 31
0.0
  0
ARC
  5
2CA
100
AcDbEntity
  8
LAYER001
  6
CONTINUOUS
 62
               7
100
AcDbCircle
 10
-50.300000000000182
 20
146.80000000000018
 30
0.0
 40
2.5
100
AcDbArc
 50
179.99999999995791
 51
269.99999999994731
  0
LINE
  5
2CB
100
AcDbEntity
  8
LAYER001
  6
CONTINUOUS
 62
               7
100
AcDbLine
 10
-44.800000000000182
 20
161.19999999999982
 30
0.0
 11
-44.800000000000182
 21
146.80000000000018
 31
0.0
  0
ARC
  5
2CC
100
AcDbEntity
  8
LAYER001
  6
CONTINUOUS
 62
               7
100
AcDbCircle
 10
-47.300000000000182
 20
161.19999999999982
 30
0.0
 40
2.5
100
AcDbArc
 50
0.0
 51
89.999999999978954
  0
LINE
  5
2CD
100
AcDbEntity
  8
LAYER001
  6
CONTINUOUS
 62
               7
100
AcDbLine
 10
-52.800000000000182
 20
161.19999999999982
 30
0.0
 11
-52.800000000000182
 21
146.80000000000018
 31
0.0
  0
LINE
  5
2CE
100
AcDbEntity
  8
LAYER001
  6
CONTINUOUS
 62
               7
100
AcDbLine
 10
-47.300000000000182
 20
163.69999999999982
 30
0.0
 11
-50.300000000000182
 21
163.69999999999982
 31
0.0
  0
ARC
  5
2CF
100
AcDbEntity
  8
LAYER001
  6
CONTINUOUS
 62
               7
100
AcDbCircle
 10
-50.300000000000182
 20
161.19999999999982
 30
0.0
 40
2.5
100
AcDbArc
 50
89.999999999978954
 51
179.99999999995791
  0
ARC
  5
2D0
100
AcDbEntity
  8
LAYER001
  6
CONTINUOUS
 62
               7
100
AcDbCircle
 10
-50.300000000000182
 20
116.0
 30
0.0
 40
2.5
100
AcDbArc
 50
89.999999999978954
 51
179.99999999995791
  0
LINE
  5
2D1
100
AcDbEntity
  8
LAYER001
  6
CONTINUOUS
 62
               7
100
AcDbLine
 10
-47.858330999999907
 20
118.5
 30
0.0
 11
-50.300000000000182
 21
118.5
 31
0.0
  0
ARC
  5
2D2
100
AcDbEntity
  8
LAYER001
  6
CONTINUOUS
 62
               7
100
AcDbCircle
 10
-59.5
 20
135.5
 30
0.0
 40
2.5
100
AcDbArc
 50
269.99999999994731
 51
359.9999999999992
  0
LINE
  5
2D3
100
AcDbEntity
  8
LAYER001
  6
CONTINUOUS
 62
               7
100
AcDbLine
 10
-59.5
 20
133.0
 30
0.0
 11
-62.5
 21
133.0
 31
0.0
  0
ARC
  5
2D4
100
AcDbEntity
  8
LAYER001
  6
CONTINUOUS
 62
               7
100
AcDbCircle
 10
-62.5
 20
135.5
 30
0.0
 40
2.5
100
AcDbArc
 50
179.99999999995791
 51
269.99999999994731
  0
LINE
  5
2D5
100
AcDbEntity
  8
LAYER001
  6
CONTINUOUS
 62
               7
100
AcDbLine
 10
-57.0
 20
149.90000000000055
 30
0.0
 11
-57.0
 21
135.5
 31
0.0
  0
ARC
  5
2D6
100
AcDbEntity
  8
LAYER001
  6
CONTINUOUS
 62
               7
100
AcDbCircle
 10
-59.5
 20
149.90000000000055
 30
0.0
 40
2.5
100
AcDbArc
 50
0.0
 51
89.999999999978954
  0
LINE
  5
2D7
100
AcDbEntity
  8
LAYER001
  6
CONTINUOUS
 62
               7
100
AcDbLine
 10
-65.0
 20
149.90000000000055
 30
0.0
 11
-65.0
 21
135.5
 31
0.0
  0
LINE
  5
2D8
100
AcDbEntity
  8
LAYER001
  6
CONTINUOUS
 62
               7
100
AcDbLine
 10
-59.5
 20
152.40000000000055
 30
0.0
 11
-62.5
 21
152.40000000000055
 31
0.0
  0
ARC
  5
2D9
100
AcDbEntity
  8
LAYER001
  6
CONTINUOUS
 62
               7
100
AcDbCircle
 10
-62.5
 20
149.90000000000055
 30
0.0
 40
2.5
100
AcDbArc
 50
89.999999999978954
 51
179.99999999995791
  0
ARC
  5
2DA
100
AcDbEntity
  8
LAYER001
  6
CONTINUOUS
 62
               7
100
AcDbCircle
 10
-59.5
 20
112.90000000000055
 30
0.0
 40
2.5
100
AcDbArc
 50
269.99999999994731
 51
359.9999999999992
  0
LINE
  5
2DB
100
AcDbEntity
  8
LAYER001
  6
CONTINUOUS
 62
               7
100
AcDbLine
 10
-59.5
 20
110.40000000000055
 30
0.0
 11
-62.5
 21
110.40000000000055
 31
0.0
  0
ARC
  5
2DC
100
AcDbEntity
  8
LAYER001
  6
CONTINUOUS
 62
               7
100
AcDbCircle
 10
-62.5
 20
112.90000000000055
 30
0.0
 40
2.5
100
AcDbArc
 50
179.99999999995791
 51
269.99999999994731
  0
LINE
  5
2DD
100
AcDbEntity
  8
LAYER001
  6
CONTINUOUS
 62
               7
100
AcDbLine
 10
-57.0
 20
127.30000000000018
 30
0.0
 11
-57.0
 21
112.90000000000055
 31
0.0
  0
ARC
  5
2DE
100
AcDbEntity
  8
LAYER001
  6
CONTINUOUS
 62
               7
100
AcDbCircle
 10
-59.5
 20
127.30000000000018
 30
0.0
 40
2.5
100
AcDbArc
 50
0.0
 51
89.999999999978954
  0
LINE
  5
2DF
100
AcDbEntity
  8
LAYER001
  6
CONTINUOUS
 62
               7
100
AcDbLine
 10
-65.0
 20
127.30000000000018
 30
0.0
 11
-65.0
 21
112.90000000000055
 31
0.0
  0
LINE
  5
2E0
100
AcDbEntity
  8
LAYER001
  6
CONTINUOUS
 62
               7
100
AcDbLine
 10
-59.5
 20
129.80000000000018
 30
0.0
 11
-62.5
 21
129.80000000000018
 31
0.0
  0
ARC
  5
2E1
100
AcDbEntity
  8
LAYER001
  6
CONTINUOUS
 62
               7
100
AcDbCircle
 10
-62.5
 20
127.30000000000018
 30
0.0
 40
2.5
100
AcDbArc
 50
89.999999999978954
 51
179.99999999995791
  0
ARC
  5
2E2
100
AcDbEntity
  8
LAYER001
  6
CONTINUOUS
 62
               7
100
AcDbCircle
 10
-71.699999999999818
 20
116.0
 30
0.0
 40
2.5
100
AcDbArc
 50
0.0
 51
89.999999999978954
  0
ARC
  5
2E3
100
AcDbEntity
  8
LAYER001
  6
CONTINUOUS
 62
               7
100
AcDbCircle
 10
-71.699999999999818
 20
124.19999999999982
 30
0.0
 40
2.5
100
AcDbArc
 50
269.99999999994731
 51
359.9999999999992
  0
LINE
  5
2E4
100
AcDbEntity
  8
LAYER001
  6
CONTINUOUS
 62
               7
100
AcDbLine
 10
-74.653600000000097
 20
118.5
 30
0.0
 11
-71.699999999999818
 21
118.5
 31
0.0
  0
ARC
  5
2E5
100
AcDbEntity
  8
LAYER001
  6
CONTINUOUS
 62
               7
100
AcDbCircle
 10
-74.653600000000097
 20
116.0
 30
0.0
 40
2.5
100
AcDbArc
 50
89.999999999978954
 51
174.49112099996796
  0
LINE
  5
2E6
100
AcDbEntity
  8
LAYER001
  6
CONTINUOUS
 62
               7
100
AcDbLine
 10
-73.401906999999937
 20
121.69999999999982
 30
0.0
 11
-71.699999999999818
 21
121.69999999999982
 31
0.0
  0
ARC
  5
2E7
100
AcDbEntity
  8
LAYER001
  6
CONTINUOUS
 62
               7
100
AcDbCircle
 10
-73.401906999999937
 20
124.19999999999982
 30
0.0
 40
2.5
100
AcDbArc
 50
168.15098699996153
 51
269.99999999994731
  0
ARC
  5
2E8
100
AcDbEntity
  8
LAYER001
  6
CONTINUOUS
 62
               7
100
AcDbCircle
 10
0.0
 20
108.80000000000018
 30
0.0
 40
77.5
100
AcDbArc
 50
158.47587399996993
 51
168.1509869999677
  0
LINE
  5
2E9
100
AcDbEntity
  8
LAYER001
  6
CONTINUOUS
 62
               7
100
AcDbLine
 10
-69.199999999999818
 20
136.68386600000031
 30
0.0
 11
-69.199999999999818
 21
124.19999999999982
 31
0.0
  0
ARC
  5
2EA
100
AcDbEntity
  8
LAYER001
  6
CONTINUOUS
 62
               7
100
AcDbCircle
 10
-70.699999999999818
 20
136.68386600000031
 30
0.0
 40
1.5
100
AcDbArc
 50
0.0
 51
158.47587399997369
  0
ARC
  5
2EB
100
AcDbEntity
  8
LAYER001
  6
CONTINUOUS
 62
               7
100
AcDbCircle
 10
47.858330999999907
 20
116.0
 30
0.0
 40
2.5
100
AcDbArc
 50
89.999999999978954
 51
202.64539999996299
  0
ARC
  5
2EC
100
AcDbEntity
  8
LAYER001
  6
CONTINUOUS
 62
               7
100
AcDbCircle
 10
25.341668999999911
 20
116.0
 30
0.0
 40
2.5
100
AcDbArc
 50
337.35459999994282
 51
449.99999999997812
  0
ARC
  5
2ED
100
AcDbEntity
  8
LAYER001
  6
CONTINUOUS
 62
               7
100
AcDbCircle
 10
-25.341668999999911
 20
116.0
 30
0.0
 40
2.5
100
AcDbArc
 50
89.999999999978954
 51
202.64539999996299
  0
ARC
  5
2EE
100
AcDbEntity
  8
LAYER001
  6
CONTINUOUS
 62
               7
100
AcDbCircle
 10
-47.858330999999907
 20
116.0
 30
0.0
 40
2.5
100
AcDbArc
 50
337.35459999994282
 51
449.99999999997812
  0
LINE
  5
2EF
100
AcDbEntity
  8
LAYER001
  6
CONTINUOUS
 62
               7
100
AcDbLine
 10
-8.1999999999998181
 20
127.30000000000018
 30
0.0
 11
-8.1999999999998181
 21
112.90000000000055
 31
0.0
  0
LINE
  5
2F0
100
AcDbEntity
  8
LAYER001
  6
CONTINUOUS
 62
               7
100
AcDbLine
 10
-4.0
 20
79.0
 30
0.0
 11
-4.0
 21
93.400000000000546
 31
0.0
  0
LINE
  5
2F1
100
AcDbEntity
  8
LAYER001
  6
CONTINUOUS
 62
               7
100
AcDbLine
 10
4.0
 20
79.0
 30
0.0
 11
4.0
 21
93.400000000000546
 31
0.0
  0
LINE
  5
2F2
100
AcDbEntity
  8
LAYER001
  6
CONTINUOUS
 62
               7
100
AcDbLine
 10
-1.5
 20
76.5
 30
0.0
 11
1.5
 21
76.5
 31
0.0
  0
LINE
  5
2F3
100
AcDbEntity
  8
LAYER001
  6
CONTINUOUS
 62
               7
100
AcDbLine
 10
-1.5
 20
95.900000000000546
 30
0.0
 11
1.5
 21
95.900000000000546
 31
0.0
  0
ARC
  5
2F4
100
AcDbEntity
  8
LAYER001
  6
CONTINUOUS
 62
               7
100
AcDbCircle
 10
-1.5
 20
93.400000000000546
 30
0.0
 40
2.5
100
AcDbArc
 50
89.999999999978954
 51
179.99999999995791
  0
ARC
  5
2F5
100
AcDbEntity
  8
LAYER001
  6
CONTINUOUS
 62
               7
100
AcDbCircle
 10
1.5
 20
93.400000000000546
 30
0.0
 40
2.5
100
AcDbArc
 50
0.0
 51
89.999999999978954
  0
ARC
  5
2F6
100
AcDbEntity
  8
LAYER001
  6
CONTINUOUS
 62
               7
100
AcDbCircle
 10
-1.5
 20
79.0
 30
0.0
 40
2.5
100
AcDbArc
 50
179.99999999995791
 51
269.99999999994731
  0
ARC
  5
2F7
100
AcDbEntity
  8
LAYER001
  6
CONTINUOUS
 62
               7
100
AcDbCircle
 10
1.5
 20
79.0
 30
0.0
 40
2.5
100
AcDbArc
 50
269.99999999994731
 51
359.9999999999992
  0
LINE
  5
2F8
100
AcDbEntity
  8
LAYER001
  6
CONTINUOUS
 62
               7
100
AcDbLine
 10
-4.0
 20
56.400000000000546
 30
0.0
 11
-4.0
 21
70.800000000000182
 31
0.0
  0
LINE
  5
2F9
100
AcDbEntity
  8
LAYER001
  6
CONTINUOUS
 62
               7
100
AcDbLine
 10
4.0
 20
56.400000000000546
 30
0.0
 11
4.0
 21
70.800000000000182
 31
0.0
  0
LINE
  5
2FA
100
AcDbEntity
  8
LAYER001
  6
CONTINUOUS
 62
               7
100
AcDbLine
 10
-1.5
 20
53.900000000000546
 30
0.0
 11
1.5
 21
53.900000000000546
 31
0.0
  0
LINE
  5
2FB
100
AcDbEntity
  8
LAYER001
  6
CONTINUOUS
 62
               7
100
AcDbLine
 10
-1.5
 20
73.300000000000182
 30
0.0
 11
1.5
 21
73.300000000000182
 31
0.0
  0
ARC
  5
2FC
100
AcDbEntity
  8
LAYER001
  6
CONTINUOUS
 62
               7
100
AcDbCircle
 10
-1.5
 20
70.800000000000182
 30
0.0
 40
2.5
100
AcDbArc
 50
89.999999999978954
 51
179.99999999995791
  0
ARC
  5
2FD
100
AcDbEntity
  8
LAYER001
  6
CONTINUOUS
 62
               7
100
AcDbCircle
 10
1.5
 20
70.800000000000182
 30
0.0
 40
2.5
100
AcDbArc
 50
0.0
 51
89.999999999978954
  0
ARC
  5
2FE
100
AcDbEntity
  8
LAYER001
  6
CONTINUOUS
 62
               7
100
AcDbCircle
 10
-1.5
 20
56.400000000000546
 30
0.0
 40
2.5
100
AcDbArc
 50
179.99999999995791
 51
269.99999999994731
  0
ARC
  5
2FF
100
AcDbEntity
  8
LAYER001
  6
CONTINUOUS
 62
               7
100
AcDbCircle
 10
1.5
 20
56.400000000000546
 30
0.0
 40
2.5
100
AcDbArc
 50
269.99999999994731
 51
359.9999999999992
  0
LINE
  5
300
100
AcDbEntity
  8
LAYER001
  6
CONTINUOUS
 62
               7
100
AcDbLine
 10
-4.0
 20
33.800000000000182
 30
0.0
 11
-4.0
 21
48.199999999999818
 31
0.0
  0
LINE
  5
301
100
AcDbEntity
  8
LAYER001
  6
CONTINUOUS
 62
               7
100
AcDbLine
 10
4.0
 20
33.800000000000182
 30
0.0
 11
4.0
 21
48.199999999999818
 31
0.0
  0
LINE
  5
302
100
AcDbEntity
  8
LAYER001
  6
CONTINUOUS
 62
               7
100
AcDbLine
 10
-1.5
 20
31.300000000000182
 30
0.0
 11
1.5
 21
31.300000000000182
 31
0.0
  0
LINE
  5
303
100
AcDbEntity
  8
LAYER001
  6
CONTINUOUS
 62
               7
100
AcDbLine
 10
-1.5
 20
50.699999999999818
 30
0.0
 11
1.5
 21
50.699999999999818
 31
0.0
  0
ARC
  5
304
100
AcDbEntity
  8
LAYER001
  6
CONTINUOUS
 62
               7
100
AcDbCircle
 10
-1.5
 20
48.199999999999818
 30
0.0
 40
2.5
100
AcDbArc
 50
89.999999999978954
 51
179.99999999995791
  0
ARC
  5
305
100
AcDbEntity
  8
LAYER001
  6
CONTINUOUS
 62
               7
100
AcDbCircle
 10
1.5
 20
48.199999999999818
 30
0.0
 40
2.5
100
AcDbArc
 50
0.0
 51
89.999999999978954
  0
ARC
  5
306
100
AcDbEntity
  8
LAYER001
  6
CONTINUOUS
 62
               7
100
AcDbCircle
 10
-1.5
 20
33.800000000000182
 30
0.0
 40
2.5
100
AcDbArc
 50
179.99999999995791
 51
269.99999999994731
  0
ARC
  5
307
100
AcDbEntity
  8
LAYER001
  6
CONTINUOUS
 62
               7
100
AcDbCircle
 10
1.5
 20
33.800000000000182
 30
0.0
 40
2.5
100
AcDbArc
 50
269.99999999994731
 51
359.9999999999992
  0
LINE
  5
308
100
AcDbEntity
  8
LAYER001
  6
CONTINUOUS
 62
               7
100
AcDbLine
 10
8.1999999999998181
 20
34.567191000000093
 30
0.0
 11
8.1999999999998181
 21
36.900000000000546
 31
0.0
  0
LINE
  5
309
100
AcDbEntity
  8
LAYER001
  6
CONTINUOUS
 62
               7
100
AcDbLine
 10
16.199999999999818
 20
35.061881999999969
 30
0.0
 11
16.199999999999818
 21
36.900000000000546
 31
0.0
  0
LINE
  5
30A
100
AcDbEntity
  8
LAYER001
  6
CONTINUOUS
 62
               7
100
AcDbLine
 10
10.699999999999818
 20
39.400000000000546
 30
0.0
 11
13.699999999999818
 21
39.400000000000546
 31
0.0
  0
ARC
  5
30B
100
AcDbEntity
  8
LAYER001
  6
CONTINUOUS
 62
               7
100
AcDbCircle
 10
10.699999999999818
 20
36.900000000000546
 30
0.0
 40
2.5
100
AcDbArc
 50
89.999999999978954
 51
179.99999999995791
  0
ARC
  5
30C
100
AcDbEntity
  8
LAYER001
  6
CONTINUOUS
 62
               7
100
AcDbCircle
 10
13.699999999999818
 20
36.900000000000546
 30
0.0
 40
2.5
100
AcDbArc
 50
0.0
 51
89.999999999978954
  0
LINE
  5
30D
100
AcDbEntity
  8
LAYER001
  6
CONTINUOUS
 62
               7
100
AcDbLine
 10
8.1999999999998181
 20
45.100000000000364
 30
0.0
 11
8.1999999999998181
 21
59.5
 31
0.0
  0
LINE
  5
30E
100
AcDbEntity
  8
LAYER001
  6
CONTINUOUS
 62
               7
100
AcDbLine
 10
16.199999999999818
 20
45.100000000000364
 30
0.0
 11
16.199999999999818
 21
59.5
 31
0.0
  0
LINE
  5
30F
100
AcDbEntity
  8
LAYER001
  6
CONTINUOUS
 62
               7
100
AcDbLine
 10
10.699999999999818
 20
42.600000000000364
 30
0.0
 11
13.699999999999818
 21
42.600000000000364
 31
0.0
  0
LINE
  5
310
100
AcDbEntity
  8
LAYER001
  6
CONTINUOUS
 62
               7
100
AcDbLine
 10
10.699999999999818
 20
62.0
 30
0.0
 11
13.699999999999818
 21
62.0
 31
0.0
  0
ARC
  5
311
100
AcDbEntity
  8
LAYER001
  6
CONTINUOUS
 62
               7
100
AcDbCircle
 10
10.699999999999818
 20
59.5
 30
0.0
 40
2.5
100
AcDbArc
 50
89.999999999978954
 51
179.99999999995791
  0
ARC
  5
312
100
AcDbEntity
  8
LAYER001
  6
CONTINUOUS
 62
               7
100
AcDbCircle
 10
13.699999999999818
 20
59.5
 30
0.0
 40
2.5
100
AcDbArc
 50
0.0
 51
89.999999999978954
  0
ARC
  5
313
100
AcDbEntity
  8
LAYER001
  6
CONTINUOUS
 62
               7
100
AcDbCircle
 10
10.699999999999818
 20
45.100000000000364
 30
0.0
 40
2.5
100
AcDbArc
 50
179.99999999995791
 51
269.99999999994731
  0
ARC
  5
314
100
AcDbEntity
  8
LAYER001
  6
CONTINUOUS
 62
               7
100
AcDbCircle
 10
13.699999999999818
 20
45.100000000000364
 30
0.0
 40
2.5
100
AcDbArc
 50
269.99999999994731
 51
359.9999999999992
  0
LINE
  5
315
100
AcDbEntity
  8
LAYER001
  6
CONTINUOUS
 62
               7
100
AcDbLine
 10
8.1999999999998181
 20
67.699999999999818
 30
0.0
 11
8.1999999999998181
 21
82.100000000000364
 31
0.0
  0
LINE
  5
316
100
AcDbEntity
  8
LAYER001
  6
CONTINUOUS
 62
               7
100
AcDbLine
 10
16.199999999999818
 20
67.699999999999818
 30
0.0
 11
16.199999999999818
 21
82.100000000000364
 31
0.0
  0
LINE
  5
317
100
AcDbEntity
  8
LAYER001
  6
CONTINUOUS
 62
               7
100
AcDbLine
 10
10.699999999999818
 20
65.199999999999818
 30
0.0
 11
13.699999999999818
 21
65.199999999999818
 31
0.0
  0
LINE
  5
318
100
AcDbEntity
  8
LAYER001
  6
CONTINUOUS
 62
               7
100
AcDbLine
 10
10.699999999999818
 20
84.600000000000364
 30
0.0
 11
13.699999999999818
 21
84.600000000000364
 31
0.0
  0
ARC
  5
319
100
AcDbEntity
  8
LAYER001
  6
CONTINUOUS
 62
               7
100
AcDbCircle
 10
10.699999999999818
 20
82.100000000000364
 30
0.0
 40
2.5
100
AcDbArc
 50
89.999999999978954
 51
179.99999999995791
  0
ARC
  5
31A
100
AcDbEntity
  8
LAYER001
  6
CONTINUOUS
 62
               7
100
AcDbCircle
 10
13.699999999999818
 20
82.100000000000364
 30
0.0
 40
2.5
100
AcDbArc
 50
0.0
 51
89.999999999978954
  0
ARC
  5
31B
100
AcDbEntity
  8
LAYER001
  6
CONTINUOUS
 62
               7
100
AcDbCircle
 10
10.699999999999818
 20
67.699999999999818
 30
0.0
 40
2.5
100
AcDbArc
 50
179.99999999995791
 51
269.99999999994731
  0
ARC
  5
31C
100
AcDbEntity
  8
LAYER001
  6
CONTINUOUS
 62
               7
100
AcDbCircle
 10
13.699999999999818
 20
67.699999999999818
 30
0.0
 40
2.5
100
AcDbArc
 50
269.99999999994731
 51
359.9999999999992
  0
LINE
  5
31D
100
AcDbEntity
  8
LAYER001
  6
CONTINUOUS
 62
               7
100
AcDbLine
 10
8.1999999999998181
 20
90.300000000000182
 30
0.0
 11
8.1999999999998181
 21
104.69999999999982
 31
0.0
  0
LINE
  5
31E
100
AcDbEntity
  8
LAYER001
  6
CONTINUOUS
 62
               7
100
AcDbLine
 10
16.199999999999818
 20
90.300000000000182
 30
0.0
 11
16.199999999999818
 21
104.69999999999982
 31
0.0
  0
LINE
  5
31F
100
AcDbEntity
  8
LAYER001
  6
CONTINUOUS
 62
               7
100
AcDbLine
 10
10.699999999999818
 20
87.800000000000182
 30
0.0
 11
13.699999999999818
 21
87.800000000000182
 31
0.0
  0
LINE
  5
320
100
AcDbEntity
  8
LAYER001
  6
CONTINUOUS
 62
               7
100
AcDbLine
 10
10.699999999999818
 20
107.19999999999982
 30
0.0
 11
13.699999999999818
 21
107.19999999999982
 31
0.0
  0
ARC
  5
321
100
AcDbEntity
  8
LAYER001
  6
CONTINUOUS
 62
               7
100
AcDbCircle
 10
10.699999999999818
 20
104.69999999999982
 30
0.0
 40
2.5
100
AcDbArc
 50
89.999999999978954
 51
179.99999999995791
  0
ARC
  5
322
100
AcDbEntity
  8
LAYER001
  6
CONTINUOUS
 62
               7
100
AcDbCircle
 10
13.699999999999818
 20
104.69999999999982
 30
0.0
 40
2.5
100
AcDbArc
 50
0.0
 51
89.999999999978954
  0
ARC
  5
323
100
AcDbEntity
  8
LAYER001
  6
CONTINUOUS
 62
               7
100
AcDbCircle
 10
10.699999999999818
 20
90.300000000000182
 30
0.0
 40
2.5
100
AcDbArc
 50
179.99999999995791
 51
269.99999999994731
  0
ARC
  5
324
100
AcDbEntity
  8
LAYER001
  6
CONTINUOUS
 62
               7
100
AcDbCircle
 10
13.699999999999818
 20
90.300000000000182
 30
0.0
 40
2.5
100
AcDbArc
 50
269.99999999994731
 51
359.9999999999992
  0
LINE
  5
325
100
AcDbEntity
  8
LAYER001
  6
CONTINUOUS
 62
               7
100
AcDbLine
 10
25.341668999999911
 20
99.100000000000364
 30
0.0
 11
22.900000000000091
 21
99.100000000000364
 31
0.0
  0
ARC
  5
326
100
AcDbEntity
  8
LAYER001
  6
CONTINUOUS
 62
               7
100
AcDbCircle
 10
22.900000000000091
 20
101.60000000000036
 30
0.0
 40
2.5
100
AcDbArc
 50
179.99999999995791
 51
269.99999999994731
  0
ARC
  5
327
100
AcDbEntity
  8
LAYER001
  6
CONTINUOUS
 62
               7
100
AcDbCircle
 10
25.900000000000091
 20
93.400000000000546
 30
0.0
 40
2.5
100
AcDbArc
 50
0.0
 51
89.999999999978954
  0
LINE
  5
328
100
AcDbEntity
  8
LAYER001
  6
CONTINUOUS
 62
               7
100
AcDbLine
 10
25.900000000000091
 20
95.900000000000546
 30
0.0
 11
22.900000000000091
 21
95.900000000000546
 31
0.0
  0
ARC
  5
329
100
AcDbEntity
  8
LAYER001
  6
CONTINUOUS
 62
               7
100
AcDbCircle
 10
22.900000000000091
 20
93.400000000000546
 30
0.0
 40
2.5
100
AcDbArc
 50
89.999999999978954
 51
179.99999999995791
  0
LINE
  5
32A
100
AcDbEntity
  8
LAYER001
  6
CONTINUOUS
 62
               7
100
AcDbLine
 10
28.400000000000091
 20
79.0
 30
0.0
 11
28.400000000000091
 21
93.400000000000546
 31
0.0
  0
ARC
  5
32B
100
AcDbEntity
  8
LAYER001
  6
CONTINUOUS
 62
               7
100
AcDbCircle
 10
25.900000000000091
 20
79.0
 30
0.0
 40
2.5
100
AcDbArc
 50
269.99999999994731
 51
359.9999999999992
  0
LINE
  5
32C
100
AcDbEntity
  8
LAYER001
  6
CONTINUOUS
 62
               7
100
AcDbLine
 10
20.400000000000091
 20
79.0
 30
0.0
 11
20.400000000000091
 21
93.400000000000546
 31
0.0
  0
LINE
  5
32D
100
AcDbEntity
  8
LAYER001
  6
CONTINUOUS
 62
               7
100
AcDbLine
 10
25.900000000000091
 20
76.5
 30
0.0
 11
22.900000000000091
 21
76.5
 31
0.0
  0
ARC
  5
32E
100
AcDbEntity
  8
LAYER001
  6
CONTINUOUS
 62
               7
100
AcDbCircle
 10
22.900000000000091
 20
79.0
 30
0.0
 40
2.5
100
AcDbArc
 50
179.99999999995791
 51
269.99999999994731
  0
ARC
  5
32F
100
AcDbEntity
  8
LAYER001
  6
CONTINUOUS
 62
               7
100
AcDbCircle
 10
25.900000000000091
 20
70.800000000000182
 30
0.0
 40
2.5
100
AcDbArc
 50
0.0
 51
89.999999999978954
  0
LINE
  5
330
100
AcDbEntity
  8
LAYER001
  6
CONTINUOUS
 62
               7
100
AcDbLine
 10
25.900000000000091
 20
73.300000000000182
 30
0.0
 11
22.900000000000091
 21
73.300000000000182
 31
0.0
  0
ARC
  5
331
100
AcDbEntity
  8
LAYER001
  6
CONTINUOUS
 62
               7
100
AcDbCircle
 10
22.900000000000091
 20
70.800000000000182
 30
0.0
 40
2.5
100
AcDbArc
 50
89.999999999978954
 51
179.99999999995791
  0
LINE
  5
332
100
AcDbEntity
  8
LAYER001
  6
CONTINUOUS
 62
               7
100
AcDbLine
 10
28.400000000000091
 20
56.400000000000546
 30
0.0
 11
28.400000000000091
 21
70.800000000000182
 31
0.0
  0
ARC
  5
333
100
AcDbEntity
  8
LAYER001
  6
CONTINUOUS
 62
               7
100
AcDbCircle
 10
25.900000000000091
 20
56.400000000000546
 30
0.0
 40
2.5
100
AcDbArc
 50
269.99999999994731
 51
359.9999999999992
  0
LINE
  5
334
100
AcDbEntity
  8
LAYER001
  6
CONTINUOUS
 62
               7
100
AcDbLine
 10
20.400000000000091
 20
56.400000000000546
 30
0.0
 11
20.400000000000091
 21
70.800000000000182
 31
0.0
  0
LINE
  5
335
100
AcDbEntity
  8
LAYER001
  6
CONTINUOUS
 62
               7
100
AcDbLine
 10
25.900000000000091
 20
53.900000000000546
 30
0.0
 11
22.900000000000091
 21
53.900000000000546
 31
0.0
  0
ARC
  5
336
100
AcDbEntity
  8
LAYER001
  6
CONTINUOUS
 62
               7
100
AcDbCircle
 10
22.900000000000091
 20
56.400000000000546
 30
0.0
 40
2.5
100
AcDbArc
 50
179.99999999995791
 51
269.99999999994731
  0
ARC
  5
337
100
AcDbEntity
  8
LAYER001
  6
CONTINUOUS
 62
               7
100
AcDbCircle
 10
25.900000000000091
 20
48.199999999999818
 30
0.0
 40
2.5
100
AcDbArc
 50
0.0
 51
89.999999999978954
  0
LINE
  5
338
100
AcDbEntity
  8
LAYER001
  6
CONTINUOUS
 62
               7
100
AcDbLine
 10
25.900000000000091
 20
50.699999999999818
 30
0.0
 11
22.900000000000091
 21
50.699999999999818
 31
0.0
  0
ARC
  5
339
100
AcDbEntity
  8
LAYER001
  6
CONTINUOUS
 62
               7
100
AcDbCircle
 10
22.900000000000091
 20
48.199999999999818
 30
0.0
 40
2.5
100
AcDbArc
 50
89.999999999978954
 51
179.99999999995791
  0
LINE
  5
33A
100
AcDbEntity
  8
LAYER001
  6
CONTINUOUS
 62
               7
100
AcDbLine
 10
28.400000000000091
 20
38.413993000000119
 30
0.0
 11
28.400000000000091
 21
48.199999999999818
 31
0.0
  0
LINE
  5
33B
100
AcDbEntity
  8
LAYER001
  6
CONTINUOUS
 62
               7
100
AcDbLine
 10
20.400000000000091
 20
37.381585000000086
 30
0.0
 11
20.400000000000091
 21
48.199999999999818
 31
0.0
  0
ARC
  5
33C
100
AcDbEntity
  8
LAYER001
  6
CONTINUOUS
 62
               7
100
AcDbCircle
 10
38.099999999999909
 20
59.5
 30
0.0
 40
2.5
100
AcDbArc
 50
0.0
 51
89.999999999978954
  0
LINE
  5
33D
100
AcDbEntity
  8
LAYER001
  6
CONTINUOUS
 62
               7
100
AcDbLine
 10
38.099999999999909
 20
62.0
 30
0.0
 11
35.099999999999909
 21
62.0
 31
0.0
  0
ARC
  5
33E
100
AcDbEntity
  8
LAYER001
  6
CONTINUOUS
 62
               7
100
AcDbCircle
 10
35.099999999999909
 20
59.5
 30
0.0
 40
2.5
100
AcDbArc
 50
89.999999999978954
 51
179.99999999995791
  0
LINE
  5
33F
100
AcDbEntity
  8
LAYER001
  6
CONTINUOUS
 62
               7
100
AcDbLine
 10
40.599999999999909
 20
45.100000000000364
 30
0.0
 11
40.599999999999909
 21
59.5
 31
0.0
  0
ARC
  5
340
100
AcDbEntity
  8
LAYER001
  6
CONTINUOUS
 62
               7
100
AcDbCircle
 10
38.099999999999909
 20
45.100000000000364
 30
0.0
 40
2.5
100
AcDbArc
 50
269.99999999994731
 51
359.9999999999992
  0
LINE
  5
341
100
AcDbEntity
  8
LAYER001
  6
CONTINUOUS
 62
               7
100
AcDbLine
 10
32.599999999999909
 20
45.100000000000364
 30
0.0
 11
32.599999999999909
 21
59.5
 31
0.0
  0
LINE
  5
342
100
AcDbEntity
  8
LAYER001
  6
CONTINUOUS
 62
               7
100
AcDbLine
 10
38.099999999999909
 20
42.600000000000364
 30
0.0
 11
35.099999999999909
 21
42.600000000000364
 31
0.0
  0
ARC
  5
343
100
AcDbEntity
  8
LAYER001
  6
CONTINUOUS
 62
               7
100
AcDbCircle
 10
35.099999999999909
 20
45.100000000000364
 30
0.0
 40
2.5
100
AcDbArc
 50
179.99999999995791
 51
269.99999999994731
  0
ARC
  5
344
100
AcDbEntity
  8
LAYER001
  6
CONTINUOUS
 62
               7
100
AcDbCircle
 10
38.099999999999909
 20
82.100000000000364
 30
0.0
 40
2.5
100
AcDbArc
 50
0.0
 51
89.999999999978954
  0
LINE
  5
345
100
AcDbEntity
  8
LAYER001
  6
CONTINUOUS
 62
               7
100
AcDbLine
 10
38.099999999999909
 20
84.600000000000364
 30
0.0
 11
35.099999999999909
 21
84.600000000000364
 31
0.0
  0
ARC
  5
346
100
AcDbEntity
  8
LAYER001
  6
CONTINUOUS
 62
               7
100
AcDbCircle
 10
35.099999999999909
 20
82.100000000000364
 30
0.0
 40
2.5
100
AcDbArc
 50
89.999999999978954
 51
179.99999999995791
  0
LINE
  5
347
100
AcDbEntity
  8
LAYER001
  6
CONTINUOUS
 62
               7
100
AcDbLine
 10
40.599999999999909
 20
67.699999999999818
 30
0.0
 11
40.599999999999909
 21
82.100000000000364
 31
0.0
  0
ARC
  5
348
100
AcDbEntity
  8
LAYER001
  6
CONTINUOUS
 62
               7
100
AcDbCircle
 10
38.099999999999909
 20
67.699999999999818
 30
0.0
 40
2.5
100
AcDbArc
 50
269.99999999994731
 51
359.9999999999992
  0
LINE
  5
349
100
AcDbEntity
  8
LAYER001
  6
CONTINUOUS
 62
               7
100
AcDbLine
 10
32.599999999999909
 20
67.699999999999818
 30
0.0
 11
32.599999999999909
 21
82.100000000000364
 31
0.0
  0
LINE
  5
34A
100
AcDbEntity
  8
LAYER001
  6
CONTINUOUS
 62
               7
100
AcDbLine
 10
38.099999999999909
 20
65.199999999999818
 30
0.0
 11
35.099999999999909
 21
65.199999999999818
 31
0.0
  0
ARC
  5
34B
100
AcDbEntity
  8
LAYER001
  6
CONTINUOUS
 62
               7
100
AcDbCircle
 10
35.099999999999909
 20
67.699999999999818
 30
0.0
 40
2.5
100
AcDbArc
 50
179.99999999995791
 51
269.99999999994731
  0
LINE
  5
34C
100
AcDbEntity
  8
LAYER001
  6
CONTINUOUS
 62
               7
100
AcDbLine
 10
40.599999999999909
 20
90.300000000000182
 30
0.0
 11
40.599999999999909
 21
93.100000000000364
 31
0.0
  0
ARC
  5
34D
100
AcDbEntity
  8
LAYER001
  6
CONTINUOUS
 62
               7
100
AcDbCircle
 10
38.099999999999909
 20
90.300000000000182
 30
0.0
 40
2.5
100
AcDbArc
 50
269.99999999994731
 51
359.9999999999992
  0
LINE
  5
34E
100
AcDbEntity
  8
LAYER001
  6
CONTINUOUS
 62
               7
100
AcDbLine
 10
32.599999999999909
 20
90.300000000000182
 30
0.0
 11
32.599999999999909
 21
93.100000000000364
 31
0.0
  0
LINE
  5
34F
100
AcDbEntity
  8
LAYER001
  6
CONTINUOUS
 62
               7
100
AcDbLine
 10
38.099999999999909
 20
87.800000000000182
 30
0.0
 11
35.099999999999909
 21
87.800000000000182
 31
0.0
  0
ARC
  5
350
100
AcDbEntity
  8
LAYER001
  6
CONTINUOUS
 62
               7
100
AcDbCircle
 10
35.099999999999909
 20
90.300000000000182
 30
0.0
 40
2.5
100
AcDbArc
 50
179.99999999995791
 51
269.99999999994731
  0
ARC
  5
351
100
AcDbEntity
  8
LAYER001
  6
CONTINUOUS
 62
               7
100
AcDbCircle
 10
47.300000000000182
 20
93.400000000000546
 30
0.0
 40
2.5
100
AcDbArc
 50
89.999999999978954
 51
179.99999999995791
  0
LINE
  5
352
100
AcDbEntity
  8
LAYER001
  6
CONTINUOUS
 62
               7
100
AcDbLine
 10
47.300000000000182
 20
95.900000000000546
 30
0.0
 11
50.300000000000182
 21
95.900000000000546
 31
0.0
  0
ARC
  5
353
100
AcDbEntity
  8
LAYER001
  6
CONTINUOUS
 62
               7
100
AcDbCircle
 10
50.300000000000182
 20
93.400000000000546
 30
0.0
 40
2.5
100
AcDbArc
 50
0.0
 51
89.999999999978954
  0
LINE
  5
354
100
AcDbEntity
  8
LAYER001
  6
CONTINUOUS
 62
               7
100
AcDbLine
 10
44.800000000000182
 20
79.0
 30
0.0
 11
44.800000000000182
 21
93.400000000000546
 31
0.0
  0
ARC
  5
355
100
AcDbEntity
  8
LAYER001
  6
CONTINUOUS
 62
               7
100
AcDbCircle
 10
47.300000000000182
 20
79.0
 30
0.0
 40
2.5
100
AcDbArc
 50
179.99999999995791
 51
269.99999999994731
  0
LINE
  5
356
100
AcDbEntity
  8
LAYER001
  6
CONTINUOUS
 62
               7
100
AcDbLine
 10
52.800000000000182
 20
79.0
 30
0.0
 11
52.800000000000182
 21
93.400000000000546
 31
0.0
  0
LINE
  5
357
100
AcDbEntity
  8
LAYER001
  6
CONTINUOUS
 62
               7
100
AcDbLine
 10
47.300000000000182
 20
76.5
 30
0.0
 11
50.300000000000182
 21
76.5
 31
0.0
  0
ARC
  5
358
100
AcDbEntity
  8
LAYER001
  6
CONTINUOUS
 62
               7
100
AcDbCircle
 10
50.300000000000182
 20
79.0
 30
0.0
 40
2.5
100
AcDbArc
 50
269.99999999994731
 51
359.9999999999992
  0
ARC
  5
359
100
AcDbEntity
  8
LAYER001
  6
CONTINUOUS
 62
               7
100
AcDbCircle
 10
47.300000000000182
 20
70.800000000000182
 30
0.0
 40
2.5
100
AcDbArc
 50
89.999999999978954
 51
179.99999999995791
  0
LINE
  5
35A
100
AcDbEntity
  8
LAYER001
  6
CONTINUOUS
 62
               7
100
AcDbLine
 10
47.300000000000182
 20
73.300000000000182
 30
0.0
 11
50.300000000000182
 21
73.300000000000182
 31
0.0
  0
ARC
  5
35B
100
AcDbEntity
  8
LAYER001
  6
CONTINUOUS
 62
               7
100
AcDbCircle
 10
50.300000000000182
 20
70.800000000000182
 30
0.0
 40
2.5
100
AcDbArc
 50
0.0
 51
89.999999999978954
  0
LINE
  5
35C
100
AcDbEntity
  8
LAYER001
  6
CONTINUOUS
 62
               7
100
AcDbLine
 10
44.800000000000182
 20
56.400000000000546
 30
0.0
 11
44.800000000000182
 21
70.800000000000182
 31
0.0
  0
ARC
  5
35D
100
AcDbEntity
  8
LAYER001
  6
CONTINUOUS
 62
               7
100
AcDbCircle
 10
47.300000000000182
 20
56.400000000000546
 30
0.0
 40
2.5
100
AcDbArc
 50
179.99999999995791
 51
269.99999999994731
  0
LINE
  5
35E
100
AcDbEntity
  8
LAYER001
  6
CONTINUOUS
 62
               7
100
AcDbLine
 10
52.800000000000182
 20
56.400000000000546
 30
0.0
 11
52.800000000000182
 21
70.800000000000182
 31
0.0
  0
LINE
  5
35F
100
AcDbEntity
  8
LAYER001
  6
CONTINUOUS
 62
               7
100
AcDbLine
 10
47.300000000000182
 20
53.900000000000546
 30
0.0
 11
50.300000000000182
 21
53.900000000000546
 31
0.0
  0
ARC
  5
360
100
AcDbEntity
  8
LAYER001
  6
CONTINUOUS
 62
               7
100
AcDbCircle
 10
50.300000000000182
 20
56.400000000000546
 30
0.0
 40
2.5
100
AcDbArc
 50
269.99999999994731
 51
359.9999999999992
  0
ARC
  5
361
100
AcDbEntity
  8
LAYER001
  6
CONTINUOUS
 62
               7
100
AcDbCircle
 10
59.5
 20
82.100000000000364
 30
0.0
 40
2.5
100
AcDbArc
 50
89.999999999978954
 51
179.99999999995791
  0
LINE
  5
362
100
AcDbEntity
  8
LAYER001
  6
CONTINUOUS
 62
               7
100
AcDbLine
 10
59.5
 20
84.600000000000364
 30
0.0
 11
62.5
 21
84.600000000000364
 31
0.0
  0
ARC
  5
363
100
AcDbEntity
  8
LAYER001
  6
CONTINUOUS
 62
               7
100
AcDbCircle
 10
62.5
 20
82.100000000000364
 30
0.0
 40
2.5
100
AcDbArc
 50
0.0
 51
89.999999999978954
  0
LINE
  5
364
100
AcDbEntity
  8
LAYER001
  6
CONTINUOUS
 62
               7
100
AcDbLine
 10
57.0
 20
67.699999999999818
 30
0.0
 11
57.0
 21
82.100000000000364
 31
0.0
  0
ARC
  5
365
100
AcDbEntity
  8
LAYER001
  6
CONTINUOUS
 62
               7
100
AcDbCircle
 10
59.5
 20
67.699999999999818
 30
0.0
 40
2.5
100
AcDbArc
 50
179.99999999995791
 51
269.99999999994731
  0
LINE
  5
366
100
AcDbEntity
  8
LAYER001
  6
CONTINUOUS
 62
               7
100
AcDbLine
 10
65.0
 20
67.699999999999818
 30
0.0
 11
65.0
 21
82.100000000000364
 31
0.0
  0
LINE
  5
367
100
AcDbEntity
  8
LAYER001
  6
CONTINUOUS
 62
               7
100
AcDbLine
 10
59.5
 20
65.199999999999818
 30
0.0
 11
62.5
 21
65.199999999999818
 31
0.0
  0
ARC
  5
368
100
AcDbEntity
  8
LAYER001
  6
CONTINUOUS
 62
               7
100
AcDbCircle
 10
62.5
 20
67.699999999999818
 30
0.0
 40
2.5
100
AcDbArc
 50
269.99999999994731
 51
359.9999999999992
  0
ARC
  5
369
100
AcDbEntity
  8
LAYER001
  6
CONTINUOUS
 62
               7
100
AcDbCircle
 10
59.5
 20
104.69999999999982
 30
0.0
 40
2.5
100
AcDbArc
 50
89.999999999978954
 51
179.99999999995791
  0
LINE
  5
36A
100
AcDbEntity
  8
LAYER001
  6
CONTINUOUS
 62
               7
100
AcDbLine
 10
59.5
 20
107.19999999999982
 30
0.0
 11
62.5
 21
107.19999999999982
 31
0.0
  0
ARC
  5
36B
100
AcDbEntity
  8
LAYER001
  6
CONTINUOUS
 62
               7
100
AcDbCircle
 10
62.5
 20
104.69999999999982
 30
0.0
 40
2.5
100
AcDbArc
 50
0.0
 51
89.999999999978954
  0
LINE
  5
36C
100
AcDbEntity
  8
LAYER001
  6
CONTINUOUS
 62
               7
100
AcDbLine
 10
57.0
 20
90.300000000000182
 30
0.0
 11
57.0
 21
104.69999999999982
 31
0.0
  0
ARC
  5
36D
100
AcDbEntity
  8
LAYER001
  6
CONTINUOUS
 62
               7
100
AcDbCircle
 10
59.5
 20
90.300000000000182
 30
0.0
 40
2.5
100
AcDbArc
 50
179.99999999995791
 51
269.99999999994731
  0
LINE
  5
36E
100
AcDbEntity
  8
LAYER001
  6
CONTINUOUS
 62
               7
100
AcDbLine
 10
65.0
 20
90.300000000000182
 30
0.0
 11
65.0
 21
104.69999999999982
 31
0.0
  0
LINE
  5
36F
100
AcDbEntity
  8
LAYER001
  6
CONTINUOUS
 62
               7
100
AcDbLine
 10
59.5
 20
87.800000000000182
 30
0.0
 11
62.5
 21
87.800000000000182
 31
0.0
  0
ARC
  5
370
100
AcDbEntity
  8
LAYER001
  6
CONTINUOUS
 62
               7
100
AcDbCircle
 10
62.5
 20
90.300000000000182
 30
0.0
 40
2.5
100
AcDbArc
 50
269.99999999994731
 51
359.9999999999992
  0
LINE
  5
371
100
AcDbEntity
  8
LAYER001
  6
CONTINUOUS
 62
               7
100
AcDbLine
 10
74.653600000000097
 20
99.100000000000364
 30
0.0
 11
71.699999999999818
 21
99.100000000000364
 31
0.0
  0
ARC
  5
372
100
AcDbEntity
  8
LAYER001
  6
CONTINUOUS
 62
               7
100
AcDbCircle
 10
71.699999999999818
 20
101.60000000000036
 30
0.0
 40
2.5
100
AcDbArc
 50
179.99999999995791
 51
269.99999999994731
  0
LINE
  5
373
100
AcDbEntity
  8
LAYER001
  6
CONTINUOUS
 62
               7
100
AcDbLine
 10
73.401906999999937
 20
95.900000000000546
 30
0.0
 11
71.699999999999818
 21
95.900000000000546
 31
0.0
  0
ARC
  5
374
100
AcDbEntity
  8
LAYER001
  6
CONTINUOUS
 62
               7
100
AcDbCircle
 10
71.699999999999818
 20
93.400000000000546
 30
0.0
 40
2.5
100
AcDbArc
 50
89.999999999978954
 51
179.99999999995791
  0
LINE
  5
375
100
AcDbEntity
  8
LAYER001
  6
CONTINUOUS
 62
               7
100
AcDbLine
 10
69.199999999999818
 20
80.916134000000056
 30
0.0
 11
69.199999999999818
 21
93.400000000000546
 31
0.0
  0
LINE
  5
376
100
AcDbEntity
  8
LAYER001
  6
CONTINUOUS
 62
               7
100
AcDbLine
 10
35.099999999999909
 20
95.600000000000364
 30
0.0
 11
38.099999999999909
 21
95.600000000000364
 31
0.0
  0
ARC
  5
377
100
AcDbEntity
  8
LAYER001
  6
CONTINUOUS
 62
               7
100
AcDbCircle
 10
35.099999999999909
 20
93.100000000000364
 30
0.0
 40
2.5
100
AcDbArc
 50
89.999999999978954
 51
179.99999999995791
  0
ARC
  5
378
100
AcDbEntity
  8
LAYER001
  6
CONTINUOUS
 62
               7
100
AcDbCircle
 10
38.099999999999909
 20
93.100000000000364
 30
0.0
 40
2.5
100
AcDbArc
 50
0.0
 51
89.999999999978954
  0
ARC
  5
379
100
AcDbEntity
  8
LAYER001
  6
CONTINUOUS
 62
               7
100
AcDbCircle
 10
50.300000000000182
 20
101.60000000000036
 30
0.0
 40
2.5
100
AcDbArc
 50
269.99999999994731
 51
359.9999999999992
  0
LINE
  5
37A
100
AcDbEntity
  8
LAYER001
  6
CONTINUOUS
 62
               7
100
AcDbLine
 10
47.858330999999907
 20
99.100000000000364
 30
0.0
 11
50.300000000000182
 21
99.100000000000364
 31
0.0
  0
ARC
  5
37B
100
AcDbEntity
  8
LAYER001
  6
CONTINUOUS
 62
               7
100
AcDbCircle
 10
0.0
 20
108.80000000000018
 30
0.0
 40
77.5
100
AcDbArc
 50
338.47587399993557
 51
348.15098699993359
  0
ARC
  5
37C
100
AcDbEntity
  8
LAYER001
  6
CONTINUOUS
 62
               7
100
AcDbCircle
 10
74.653600000000097
 20
101.60000000000036
 30
0.0
 40
2.5
100
AcDbArc
 50
269.99999999994731
 51
354.49112099992607
  0
ARC
  5
37D
100
AcDbEntity
  8
LAYER001
  6
CONTINUOUS
 62
               7
100
AcDbCircle
 10
73.401906999999937
 20
93.400000000000546
 30
0.0
 40
2.5
100
AcDbArc
 50
348.1509869999386
 51
449.99999999997812
  0
ARC
  5
37E
100
AcDbEntity
  8
LAYER001
  6
CONTINUOUS
 62
               7
100
AcDbCircle
 10
70.699999999999818
 20
80.916134000000056
 30
0.0
 40
1.5
100
AcDbArc
 50
179.99999999996487
 51
338.47587399994097
  0
ARC
  5
37F
100
AcDbEntity
  8
LAYER001
  6
CONTINUOUS
 62
               7
100
AcDbCircle
 10
0.0
 20
108.80000000000018
 30
0.0
 40
77.5
100
AcDbArc
 50
287.77821899994495
 51
290.20214499994461
  0
ARC
  5
380
100
AcDbEntity
  8
LAYER001
  6
CONTINUOUS
 62
               7
100
AcDbCircle
 10
0.0
 20
108.80000000000018
 30
0.0
 40
77.5
100
AcDbArc
 50
278.2021839999469
 51
280.52512399994652
  0
ARC
  5
381
100
AcDbEntity
  8
LAYER001
  6
CONTINUOUS
 62
               7
100
AcDbCircle
 10
10.699999999999818
 20
34.567191000000093
 30
0.0
 40
2.5
100
AcDbArc
 50
179.99999999995791
 51
278.20218399994837
  0
ARC
  5
382
100
AcDbEntity
  8
LAYER001
  6
CONTINUOUS
 62
               7
100
AcDbCircle
 10
13.699999999999818
 20
35.061881999999969
 30
0.0
 40
2.5
100
AcDbArc
 50
280.52512399994924
 51
359.9999999999992
  0
ARC
  5
383
100
AcDbEntity
  8
LAYER001
  6
CONTINUOUS
 62
               7
100
AcDbCircle
 10
22.900000000000091
 20
37.381585000000086
 30
0.0
 40
2.5
100
AcDbArc
 50
179.99999999995791
 51
287.77821899994524
  0
ARC
  5
384
100
AcDbEntity
  8
LAYER001
  6
CONTINUOUS
 62
               7
100
AcDbCircle
 10
25.900000000000091
 20
38.413993000000119
 30
0.0
 40
2.5
100
AcDbArc
 50
290.20214499994398
 51
359.9999999999992
  0
LINE
  5
385
100
AcDbEntity
  8
LAYER001
  6
CONTINUOUS
 62
               7
100
AcDbLine
 10
-10.699999999999818
 20
39.400000000000546
 30
0.0
 11
-13.699999999999818
 21
39.400000000000546
 31
0.0
  0
ARC
  5
386
100
AcDbEntity
  8
LAYER001
  6
CONTINUOUS
 62
               7
100
AcDbCircle
 10
-10.699999999999818
 20
36.900000000000546
 30
0.0
 40
2.5
100
AcDbArc
 50
0.0
 51
89.999999999978954
  0
ARC
  5
387
100
AcDbEntity
  8
LAYER001
  6
CONTINUOUS
 62
               7
100
AcDbCircle
 10
-13.699999999999818
 20
36.900000000000546
 30
0.0
 40
2.5
100
AcDbArc
 50
89.999999999978954
 51
179.99999999995791
  0
LINE
  5
388
100
AcDbEntity
  8
LAYER001
  6
CONTINUOUS
 62
               7
100
AcDbLine
 10
-8.1999999999998181
 20
45.100000000000364
 30
0.0
 11
-8.1999999999998181
 21
59.5
 31
0.0
  0
LINE
  5
389
100
AcDbEntity
  8
LAYER001
  6
CONTINUOUS
 62
               7
100
AcDbLine
 10
-16.199999999999818
 20
45.100000000000364
 30
0.0
 11
-16.199999999999818
 21
59.5
 31
0.0
  0
LINE
  5
38A
100
AcDbEntity
  8
LAYER001
  6
CONTINUOUS
 62
               7
100
AcDbLine
 10
-10.699999999999818
 20
42.600000000000364
 30
0.0
 11
-13.699999999999818
 21
42.600000000000364
 31
0.0
  0
LINE
  5
38B
100
AcDbEntity
  8
LAYER001
  6
CONTINUOUS
 62
               7
100
AcDbLine
 10
-10.699999999999818
 20
62.0
 30
0.0
 11
-13.699999999999818
 21
62.0
 31
0.0
  0
ARC
  5
38C
100
AcDbEntity
  8
LAYER001
  6
CONTINUOUS
 62
               7
100
AcDbCircle
 10
-10.699999999999818
 20
59.5
 30
0.0
 40
2.5
100
AcDbArc
 50
0.0
 51
89.999999999978954
  0
ARC
  5
38D
100
AcDbEntity
  8
LAYER001
  6
CONTINUOUS
 62
               7
100
AcDbCircle
 10
-13.699999999999818
 20
59.5
 30
0.0
 40
2.5
100
AcDbArc
 50
89.999999999978954
 51
179.99999999995791
  0
ARC
  5
38E
100
AcDbEntity
  8
LAYER001
  6
CONTINUOUS
 62
               7
100
AcDbCircle
 10
-10.699999999999818
 20
45.100000000000364
 30
0.0
 40
2.5
100
AcDbArc
 50
269.99999999994731
 51
359.9999999999992
  0
ARC
  5
38F
100
AcDbEntity
  8
LAYER001
  6
CONTINUOUS
 62
               7
100
AcDbCircle
 10
-13.699999999999818
 20
45.100000000000364
 30
0.0
 40
2.5
100
AcDbArc
 50
179.99999999995791
 51
269.99999999994731
  0
LINE
  5
390
100
AcDbEntity
  8
LAYER001
  6
CONTINUOUS
 62
               7
100
AcDbLine
 10
-8.1999999999998181
 20
67.699999999999818
 30
0.0
 11
-8.1999999999998181
 21
82.100000000000364
 31
0.0
  0
LINE
  5
391
100
AcDbEntity
  8
LAYER001
  6
CONTINUOUS
 62
               7
100
AcDbLine
 10
-16.199999999999818
 20
67.699999999999818
 30
0.0
 11
-16.199999999999818
 21
82.100000000000364
 31
0.0
  0
LINE
  5
392
100
AcDbEntity
  8
LAYER001
  6
CONTINUOUS
 62
               7
100
AcDbLine
 10
-10.699999999999818
 20
65.199999999999818
 30
0.0
 11
-13.699999999999818
 21
65.199999999999818
 31
0.0
  0
LINE
  5
393
100
AcDbEntity
  8
LAYER001
  6
CONTINUOUS
 62
               7
100
AcDbLine
 10
-10.699999999999818
 20
84.600000000000364
 30
0.0
 11
-13.699999999999818
 21
84.600000000000364
 31
0.0
  0
ARC
  5
394
100
AcDbEntity
  8
LAYER001
  6
CONTINUOUS
 62
               7
100
AcDbCircle
 10
-10.699999999999818
 20
82.100000000000364
 30
0.0
 40
2.5
100
AcDbArc
 50
0.0
 51
89.999999999978954
  0
ARC
  5
395
100
AcDbEntity
  8
LAYER001
  6
CONTINUOUS
 62
               7
100
AcDbCircle
 10
-13.699999999999818
 20
82.100000000000364
 30
0.0
 40
2.5
100
AcDbArc
 50
89.999999999978954
 51
179.99999999995791
  0
ARC
  5
396
100
AcDbEntity
  8
LAYER001
  6
CONTINUOUS
 62
               7
100
AcDbCircle
 10
-10.699999999999818
 20
67.699999999999818
 30
0.0
 40
2.5
100
AcDbArc
 50
269.99999999994731
 51
359.9999999999992
  0
ARC
  5
397
100
AcDbEntity
  8
LAYER001
  6
CONTINUOUS
 62
               7
100
AcDbCircle
 10
-13.699999999999818
 20
67.699999999999818
 30
0.0
 40
2.5
100
AcDbArc
 50
179.99999999995791
 51
269.99999999994731
  0
LINE
  5
398
100
AcDbEntity
  8
LAYER001
  6
CONTINUOUS
 62
               7
100
AcDbLine
 10
-16.199999999999818
 20
90.300000000000182
 30
0.0
 11
-16.199999999999818
 21
104.69999999999982
 31
0.0
  0
LINE
  5
399
100
AcDbEntity
  8
LAYER001
  6
CONTINUOUS
 62
               7
100
AcDbLine
 10
-10.699999999999818
 20
87.800000000000182
 30
0.0
 11
-13.699999999999818
 21
87.800000000000182
 31
0.0
  0
LINE
  5
39A
100
AcDbEntity
  8
LAYER001
  6
CONTINUOUS
 62
               7
100
AcDbLine
 10
-10.699999999999818
 20
107.19999999999982
 30
0.0
 11
-13.699999999999818
 21
107.19999999999982
 31
0.0
  0
ARC
  5
39B
100
AcDbEntity
  8
LAYER001
  6
CONTINUOUS
 62
               7
100
AcDbCircle
 10
-10.699999999999818
 20
104.69999999999982
 30
0.0
 40
2.5
100
AcDbArc
 50
0.0
 51
89.999999999978954
  0
ARC
  5
39C
100
AcDbEntity
  8
LAYER001
  6
CONTINUOUS
 62
               7
100
AcDbCircle
 10
-13.699999999999818
 20
104.69999999999982
 30
0.0
 40
2.5
100
AcDbArc
 50
89.999999999978954
 51
179.99999999995791
  0
ARC
  5
39D
100
AcDbEntity
  8
LAYER001
  6
CONTINUOUS
 62
               7
100
AcDbCircle
 10
-10.699999999999818
 20
90.300000000000182
 30
0.0
 40
2.5
100
AcDbArc
 50
269.99999999994731
 51
359.9999999999992
  0
ARC
  5
39E
100
AcDbEntity
  8
LAYER001
  6
CONTINUOUS
 62
               7
100
AcDbCircle
 10
-13.699999999999818
 20
90.300000000000182
 30
0.0
 40
2.5
100
AcDbArc
 50
179.99999999995791
 51
269.99999999994731
  0
LINE
  5
39F
100
AcDbEntity
  8
LAYER001
  6
CONTINUOUS
 62
               7
100
AcDbLine
 10
-25.341668999999911
 20
99.100000000000364
 30
0.0
 11
-22.900000000000091
 21
99.100000000000364
 31
0.0
  0
ARC
  5
3A0
100
AcDbEntity
  8
LAYER001
  6
CONTINUOUS
 62
               7
100
AcDbCircle
 10
-22.900000000000091
 20
101.60000000000036
 30
0.0
 40
2.5
100
AcDbArc
 50
269.99999999994731
 51
359.9999999999992
  0
ARC
  5
3A1
100
AcDbEntity
  8
LAYER001
  6
CONTINUOUS
 62
               7
100
AcDbCircle
 10
-25.900000000000091
 20
93.400000000000546
 30
0.0
 40
2.5
100
AcDbArc
 50
89.999999999978954
 51
179.99999999995791
  0
LINE
  5
3A2
100
AcDbEntity
  8
LAYER001
  6
CONTINUOUS
 62
               7
100
AcDbLine
 10
-25.900000000000091
 20
95.900000000000546
 30
0.0
 11
-22.900000000000091
 21
95.900000000000546
 31
0.0
  0
ARC
  5
3A3
100
AcDbEntity
  8
LAYER001
  6
CONTINUOUS
 62
               7
100
AcDbCircle
 10
-22.900000000000091
 20
93.400000000000546
 30
0.0
 40
2.5
100
AcDbArc
 50
0.0
 51
89.999999999978954
  0
LINE
  5
3A4
100
AcDbEntity
  8
LAYER001
  6
CONTINUOUS
 62
               7
100
AcDbLine
 10
-28.400000000000091
 20
79.0
 30
0.0
 11
-28.400000000000091
 21
93.400000000000546
 31
0.0
  0
ARC
  5
3A5
100
AcDbEntity
  8
LAYER001
  6
CONTINUOUS
 62
               7
100
AcDbCircle
 10
-25.900000000000091
 20
79.0
 30
0.0
 40
2.5
100
AcDbArc
 50
179.99999999995791
 51
269.99999999994731
  0
LINE
  5
3A6
100
AcDbEntity
  8
LAYER001
  6
CONTINUOUS
 62
               7
100
AcDbLine
 10
-20.400000000000091
 20
79.0
 30
0.0
 11
-20.400000000000091
 21
93.400000000000546
 31
0.0
  0
LINE
  5
3A7
100
AcDbEntity
  8
LAYER001
  6
CONTINUOUS
 62
               7
100
AcDbLine
 10
-25.900000000000091
 20
76.5
 30
0.0
 11
-22.900000000000091
 21
76.5
 31
0.0
  0
ARC
  5
3A8
100
AcDbEntity
  8
LAYER001
  6
CONTINUOUS
 62
               7
100
AcDbCircle
 10
-22.900000000000091
 20
79.0
 30
0.0
 40
2.5
100
AcDbArc
 50
269.99999999994731
 51
359.9999999999992
  0
ARC
  5
3A9
100
AcDbEntity
  8
LAYER001
  6
CONTINUOUS
 62
               7
100
AcDbCircle
 10
-25.900000000000091
 20
70.800000000000182
 30
0.0
 40
2.5
100
AcDbArc
 50
89.999999999978954
 51
179.99999999995791
  0
LINE
  5
3AA
100
AcDbEntity
  8
LAYER001
  6
CONTINUOUS
 62
               7
100
AcDbLine
 10
-25.900000000000091
 20
73.300000000000182
 30
0.0
 11
-22.900000000000091
 21
73.300000000000182
 31
0.0
  0
ARC
  5
3AB
100
AcDbEntity
  8
LAYER001
  6
CONTINUOUS
 62
               7
100
AcDbCircle
 10
-22.900000000000091
 20
70.800000000000182
 30
0.0
 40
2.5
100
AcDbArc
 50
0.0
 51
89.999999999978954
  0
LINE
  5
3AC
100
AcDbEntity
  8
LAYER001
  6
CONTINUOUS
 62
               7
100
AcDbLine
 10
-28.400000000000091
 20
56.400000000000546
 30
0.0
 11
-28.400000000000091
 21
70.800000000000182
 31
0.0
  0
ARC
  5
3AD
100
AcDbEntity
  8
LAYER001
  6
CONTINUOUS
 62
               7
100
AcDbCircle
 10
-25.900000000000091
 20
56.400000000000546
 30
0.0
 40
2.5
100
AcDbArc
 50
179.99999999995791
 51
269.99999999994731
  0
LINE
  5
3AE
100
AcDbEntity
  8
LAYER001
  6
CONTINUOUS
 62
               7
100
AcDbLine
 10
-20.400000000000091
 20
56.400000000000546
 30
0.0
 11
-20.400000000000091
 21
70.800000000000182
 31
0.0
  0
LINE
  5
3AF
100
AcDbEntity
  8
LAYER001
  6
CONTINUOUS
 62
               7
100
AcDbLine
 10
-25.900000000000091
 20
53.900000000000546
 30
0.0
 11
-22.900000000000091
 21
53.900000000000546
 31
0.0
  0
ARC
  5
3B0
100
AcDbEntity
  8
LAYER001
  6
CONTINUOUS
 62
               7
100
AcDbCircle
 10
-22.900000000000091
 20
56.400000000000546
 30
0.0
 40
2.5
100
AcDbArc
 50
269.99999999994731
 51
359.9999999999992
  0
ARC
  5
3B1
100
AcDbEntity
  8
LAYER001
  6
CONTINUOUS
 62
               7
100
AcDbCircle
 10
-25.900000000000091
 20
48.199999999999818
 30
0.0
 40
2.5
100
AcDbArc
 50
89.999999999978954
 51
179.99999999995791
  0
LINE
  5
3B2
100
AcDbEntity
  8
LAYER001
  6
CONTINUOUS
 62
               7
100
AcDbLine
 10
-25.900000000000091
 20
50.699999999999818
 30
0.0
 11
-22.900000000000091
 21
50.699999999999818
 31
0.0
  0
ARC
  5
3B3
100
AcDbEntity
  8
LAYER001
  6
CONTINUOUS
 62
               7
100
AcDbCircle
 10
-22.900000000000091
 20
48.199999999999818
 30
0.0
 40
2.5
100
AcDbArc
 50
0.0
 51
89.999999999978954
  0
LINE
  5
3B4
100
AcDbEntity
  8
LAYER001
  6
CONTINUOUS
 62
               7
100
AcDbLine
 10
-8.1999999999998181
 20
34.567191000000093
 30
0.0
 11
-8.1999999999998181
 21
36.900000000000546
 31
0.0
  0
ARC
  5
3B5
100
AcDbEntity
  8
LAYER001
  6
CONTINUOUS
 62
               7
100
AcDbCircle
 10
-10.699999999999818
 20
34.567191000000093
 30
0.0
 40
2.5
100
AcDbArc
 50
261.79781599994431
 51
359.9999999999992
  0
ARC
  5
3B6
100
AcDbEntity
  8
LAYER001
  6
CONTINUOUS
 62
               7
100
AcDbCircle
 10
0.0
 20
108.80000000000018
 30
0.0
 40
77.5
100
AcDbArc
 50
259.47487599995037
 51
261.79781599994999
  0
LINE
  5
3B7
100
AcDbEntity
  8
LAYER001
  6
CONTINUOUS
 62
               7
100
AcDbLine
 10
-16.199999999999818
 20
35.061881999999969
 30
0.0
 11
-16.199999999999818
 21
36.900000000000546
 31
0.0
  0
ARC
  5
3B8
100
AcDbEntity
  8
LAYER001
  6
CONTINUOUS
 62
               7
100
AcDbCircle
 10
-13.699999999999818
 20
35.061881999999969
 30
0.0
 40
2.5
100
AcDbArc
 50
179.99999999995791
 51
259.4748759999535
  0
LINE
  5
3B9
100
AcDbEntity
  8
LAYER001
  6
CONTINUOUS
 62
               7
100
AcDbLine
 10
-20.400000000000091
 20
37.381585000000086
 30
0.0
 11
-20.400000000000091
 21
48.199999999999818
 31
0.0
  0
ARC
  5
3BA
100
AcDbEntity
  8
LAYER001
  6
CONTINUOUS
 62
               7
100
AcDbCircle
 10
-22.900000000000091
 20
37.381585000000086
 30
0.0
 40
2.5
100
AcDbArc
 50
252.2217809999579
 51
359.9999999999992
  0
ARC
  5
3BB
100
AcDbEntity
  8
LAYER001
  6
CONTINUOUS
 62
               7
100
AcDbCircle
 10
0.0
 20
108.80000000000018
 30
0.0
 40
77.5
100
AcDbArc
 50
249.79785499995245
 51
252.22178099995162
  0
LINE
  5
3BC
100
AcDbEntity
  8
LAYER001
  6
CONTINUOUS
 62
               7
100
AcDbLine
 10
-28.400000000000091
 20
38.413993000000119
 30
0.0
 11
-28.400000000000091
 21
48.199999999999818
 31
0.0
  0
ARC
  5
3BD
100
AcDbEntity
  8
LAYER001
  6
CONTINUOUS
 62
               7
100
AcDbCircle
 10
-25.900000000000091
 20
38.413993000000119
 30
0.0
 40
2.5
100
AcDbArc
 50
179.99999999995791
 51
249.79785499995234
  0
ARC
  5
3BE
100
AcDbEntity
  8
LAYER001
  6
CONTINUOUS
 62
               7
100
AcDbCircle
 10
-38.099999999999909
 20
59.5
 30
0.0
 40
2.5
100
AcDbArc
 50
89.999999999978954
 51
179.99999999995791
  0
LINE
  5
3BF
100
AcDbEntity
  8
LAYER001
  6
CONTINUOUS
 62
               7
100
AcDbLine
 10
-38.099999999999909
 20
62.0
 30
0.0
 11
-35.099999999999909
 21
62.0
 31
0.0
  0
ARC
  5
3C0
100
AcDbEntity
  8
LAYER001
  6
CONTINUOUS
 62
               7
100
AcDbCircle
 10
-35.099999999999909
 20
59.5
 30
0.0
 40
2.5
100
AcDbArc
 50
0.0
 51
89.999999999978954
  0
LINE
  5
3C1
100
AcDbEntity
  8
LAYER001
  6
CONTINUOUS
 62
               7
100
AcDbLine
 10
-40.599999999999909
 20
45.100000000000364
 30
0.0
 11
-40.599999999999909
 21
59.5
 31
0.0
  0
ARC
  5
3C2
100
AcDbEntity
  8
LAYER001
  6
CONTINUOUS
 62
               7
100
AcDbCircle
 10
-38.099999999999909
 20
45.100000000000364
 30
0.0
 40
2.5
100
AcDbArc
 50
179.99999999995791
 51
269.99999999994731
  0
LINE
  5
3C3
100
AcDbEntity
  8
LAYER001
  6
CONTINUOUS
 62
               7
100
AcDbLine
 10
-32.599999999999909
 20
45.100000000000364
 30
0.0
 11
-32.599999999999909
 21
59.5
 31
0.0
  0
LINE
  5
3C4
100
AcDbEntity
  8
LAYER001
  6
CONTINUOUS
 62
               7
100
AcDbLine
 10
-38.099999999999909
 20
42.600000000000364
 30
0.0
 11
-35.099999999999909
 21
42.600000000000364
 31
0.0
  0
ARC
  5
3C5
100
AcDbEntity
  8
LAYER001
  6
CONTINUOUS
 62
               7
100
AcDbCircle
 10
-35.099999999999909
 20
45.100000000000364
 30
0.0
 40
2.5
100
AcDbArc
 50
269.99999999994731
 51
359.9999999999992
  0
ARC
  5
3C6
100
AcDbEntity
  8
LAYER001
  6
CONTINUOUS
 62
               7
100
AcDbCircle
 10
-38.099999999999909
 20
82.100000000000364
 30
0.0
 40
2.5
100
AcDbArc
 50
89.999999999978954
 51
179.99999999995791
  0
LINE
  5
3C7
100
AcDbEntity
  8
LAYER001
  6
CONTINUOUS
 62
               7
100
AcDbLine
 10
-38.099999999999909
 20
84.600000000000364
 30
0.0
 11
-35.099999999999909
 21
84.600000000000364
 31
0.0
  0
ARC
  5
3C8
100
AcDbEntity
  8
LAYER001
  6
CONTINUOUS
 62
               7
100
AcDbCircle
 10
-35.099999999999909
 20
82.100000000000364
 30
0.0
 40
2.5
100
AcDbArc
 50
0.0
 51
89.999999999978954
  0
LINE
  5
3C9
100
AcDbEntity
  8
LAYER001
  6
CONTINUOUS
 62
               7
100
AcDbLine
 10
-40.599999999999909
 20
67.699999999999818
 30
0.0
 11
-40.599999999999909
 21
82.100000000000364
 31
0.0
  0
ARC
  5
3CA
100
AcDbEntity
  8
LAYER001
  6
CONTINUOUS
 62
               7
100
AcDbCircle
 10
-38.099999999999909
 20
67.699999999999818
 30
0.0
 40
2.5
100
AcDbArc
 50
179.99999999995791
 51
269.99999999994731
  0
LINE
  5
3CB
100
AcDbEntity
  8
LAYER001
  6
CONTINUOUS
 62
               7
100
AcDbLine
 10
-32.599999999999909
 20
67.699999999999818
 30
0.0
 11
-32.599999999999909
 21
82.100000000000364
 31
0.0
  0
LINE
  5
3CC
100
AcDbEntity
  8
LAYER001
  6
CONTINUOUS
 62
               7
100
AcDbLine
 10
-38.099999999999909
 20
65.199999999999818
 30
0.0
 11
-35.099999999999909
 21
65.199999999999818
 31
0.0
  0
ARC
  5
3CD
100
AcDbEntity
  8
LAYER001
  6
CONTINUOUS
 62
               7
100
AcDbCircle
 10
-35.099999999999909
 20
67.699999999999818
 30
0.0
 40
2.5
100
AcDbArc
 50
269.99999999994731
 51
359.9999999999992
  0
LINE
  5
3CE
100
AcDbEntity
  8
LAYER001
  6
CONTINUOUS
 62
               7
100
AcDbLine
 10
-40.599999999999909
 20
90.300000000000182
 30
0.0
 11
-40.599999999999909
 21
93.100000000000364
 31
0.0
  0
ARC
  5
3CF
100
AcDbEntity
  8
LAYER001
  6
CONTINUOUS
 62
               7
100
AcDbCircle
 10
-38.099999999999909
 20
90.300000000000182
 30
0.0
 40
2.5
100
AcDbArc
 50
179.99999999995791
 51
269.99999999994731
  0
LINE
  5
3D0
100
AcDbEntity
  8
LAYER001
  6
CONTINUOUS
 62
               7
100
AcDbLine
 10
-32.599999999999909
 20
90.300000000000182
 30
0.0
 11
-32.599999999999909
 21
93.100000000000364
 31
0.0
  0
LINE
  5
3D1
100
AcDbEntity
  8
LAYER001
  6
CONTINUOUS
 62
               7
100
AcDbLine
 10
-38.099999999999909
 20
87.800000000000182
 30
0.0
 11
-35.099999999999909
 21
87.800000000000182
 31
0.0
  0
ARC
  5
3D2
100
AcDbEntity
  8
LAYER001
  6
CONTINUOUS
 62
               7
100
AcDbCircle
 10
-35.099999999999909
 20
90.300000000000182
 30
0.0
 40
2.5
100
AcDbArc
 50
269.99999999994731
 51
359.9999999999992
  0
LINE
  5
3D3
100
AcDbEntity
  8
LAYER001
  6
CONTINUOUS
 62
               7
100
AcDbLine
 10
-35.099999999999909
 20
95.600000000000364
 30
0.0
 11
-38.099999999999909
 21
95.600000000000364
 31
0.0
  0
ARC
  5
3D4
100
AcDbEntity
  8
LAYER001
  6
CONTINUOUS
 62
               7
100
AcDbCircle
 10
-35.099999999999909
 20
93.100000000000364
 30
0.0
 40
2.5
100
AcDbArc
 50
0.0
 51
89.999999999978954
  0
ARC
  5
3D5
100
AcDbEntity
  8
LAYER001
  6
CONTINUOUS
 62
               7
100
AcDbCircle
 10
-38.099999999999909
 20
93.100000000000364
 30
0.0
 40
2.5
100
AcDbArc
 50
89.999999999978954
 51
179.99999999995791
  0
ARC
  5
3D6
100
AcDbEntity
  8
LAYER001
  6
CONTINUOUS
 62
               7
100
AcDbCircle
 10
-47.300000000000182
 20
93.400000000000546
 30
0.0
 40
2.5
100
AcDbArc
 50
0.0
 51
89.999999999978954
  0
LINE
  5
3D7
100
AcDbEntity
  8
LAYER001
  6
CONTINUOUS
 62
               7
100
AcDbLine
 10
-47.300000000000182
 20
95.900000000000546
 30
0.0
 11
-50.300000000000182
 21
95.900000000000546
 31
0.0
  0
ARC
  5
3D8
100
AcDbEntity
  8
LAYER001
  6
CONTINUOUS
 62
               7
100
AcDbCircle
 10
-50.300000000000182
 20
93.400000000000546
 30
0.0
 40
2.5
100
AcDbArc
 50
89.999999999978954
 51
179.99999999995791
  0
LINE
  5
3D9
100
AcDbEntity
  8
LAYER001
  6
CONTINUOUS
 62
               7
100
AcDbLine
 10
-44.800000000000182
 20
79.0
 30
0.0
 11
-44.800000000000182
 21
93.400000000000546
 31
0.0
  0
ARC
  5
3DA
100
AcDbEntity
  8
LAYER001
  6
CONTINUOUS
 62
               7
100
AcDbCircle
 10
-47.300000000000182
 20
79.0
 30
0.0
 40
2.5
100
AcDbArc
 50
269.99999999994731
 51
359.9999999999992
  0
LINE
  5
3DB
100
AcDbEntity
  8
LAYER001
  6
CONTINUOUS
 62
               7
100
AcDbLine
 10
-52.800000000000182
 20
79.0
 30
0.0
 11
-52.800000000000182
 21
93.400000000000546
 31
0.0
  0
LINE
  5
3DC
100
AcDbEntity
  8
LAYER001
  6
CONTINUOUS
 62
               7
100
AcDbLine
 10
-47.300000000000182
 20
76.5
 30
0.0
 11
-50.300000000000182
 21
76.5
 31
0.0
  0
ARC
  5
3DD
100
AcDbEntity
  8
LAYER001
  6
CONTINUOUS
 62
               7
100
AcDbCircle
 10
-50.300000000000182
 20
79.0
 30
0.0
 40
2.5
100
AcDbArc
 50
179.99999999995791
 51
269.99999999994731
  0
ARC
  5
3DE
100
AcDbEntity
  8
LAYER001
  6
CONTINUOUS
 62
               7
100
AcDbCircle
 10
-47.300000000000182
 20
70.800000000000182
 30
0.0
 40
2.5
100
AcDbArc
 50
0.0
 51
89.999999999978954
  0
LINE
  5
3DF
100
AcDbEntity
  8
LAYER001
  6
CONTINUOUS
 62
               7
100
AcDbLine
 10
-47.300000000000182
 20
73.300000000000182
 30
0.0
 11
-50.300000000000182
 21
73.300000000000182
 31
0.0
  0
ARC
  5
3E0
100
AcDbEntity
  8
LAYER001
  6
CONTINUOUS
 62
               7
100
AcDbCircle
 10
-50.300000000000182
 20
70.800000000000182
 30
0.0
 40
2.5
100
AcDbArc
 50
89.999999999978954
 51
179.99999999995791
  0
LINE
  5
3E1
100
AcDbEntity
  8
LAYER001
  6
CONTINUOUS
 62
               7
100
AcDbLine
 10
-44.800000000000182
 20
56.400000000000546
 30
0.0
 11
-44.800000000000182
 21
70.800000000000182
 31
0.0
  0
ARC
  5
3E2
100
AcDbEntity
  8
LAYER001
  6
CONTINUOUS
 62
               7
100
AcDbCircle
 10
-47.300000000000182
 20
56.400000000000546
 30
0.0
 40
2.5
100
AcDbArc
 50
269.99999999994731
 51
359.9999999999992
  0
LINE
  5
3E3
100
AcDbEntity
  8
LAYER001
  6
CONTINUOUS
 62
               7
100
AcDbLine
 10
-52.800000000000182
 20
56.400000000000546
 30
0.0
 11
-52.800000000000182
 21
70.800000000000182
 31
0.0
  0
LINE
  5
3E4
100
AcDbEntity
  8
LAYER001
  6
CONTINUOUS
 62
               7
100
AcDbLine
 10
-47.300000000000182
 20
53.900000000000546
 30
0.0
 11
-50.300000000000182
 21
53.900000000000546
 31
0.0
  0
ARC
  5
3E5
100
AcDbEntity
  8
LAYER001
  6
CONTINUOUS
 62
               7
100
AcDbCircle
 10
-50.300000000000182
 20
56.400000000000546
 30
0.0
 40
2.5
100
AcDbArc
 50
179.99999999995791
 51
269.99999999994731
  0
ARC
  5
3E6
100
AcDbEntity
  8
LAYER001
  6
CONTINUOUS
 62
               7
100
AcDbCircle
 10
-50.300000000000182
 20
101.60000000000036
 30
0.0
 40
2.5
100
AcDbArc
 50
179.99999999995791
 51
269.99999999994731
  0
LINE
  5
3E7
100
AcDbEntity
  8
LAYER001
  6
CONTINUOUS
 62
               7
100
AcDbLine
 10
-47.858330999999907
 20
99.100000000000364
 30
0.0
 11
-50.300000000000182
 21
99.100000000000364
 31
0.0
  0
ARC
  5
3E8
100
AcDbEntity
  8
LAYER001
  6
CONTINUOUS
 62
               7
100
AcDbCircle
 10
-59.5
 20
82.100000000000364
 30
0.0
 40
2.5
100
AcDbArc
 50
0.0
 51
89.999999999978954
  0
LINE
  5
3E9
100
AcDbEntity
  8
LAYER001
  6
CONTINUOUS
 62
               7
100
AcDbLine
 10
-59.5
 20
84.600000000000364
 30
0.0
 11
-62.5
 21
84.600000000000364
 31
0.0
  0
ARC
  5
3EA
100
AcDbEntity
  8
LAYER001
  6
CONTINUOUS
 62
               7
100
AcDbCircle
 10
-62.5
 20
82.100000000000364
 30
0.0
 40
2.5
100
AcDbArc
 50
89.999999999978954
 51
179.99999999995791
  0
LINE
  5
3EB
100
AcDbEntity
  8
LAYER001
  6
CONTINUOUS
 62
               7
100
AcDbLine
 10
-57.0
 20
67.699999999999818
 30
0.0
 11
-57.0
 21
82.100000000000364
 31
0.0
  0
ARC
  5
3EC
100
AcDbEntity
  8
LAYER001
  6
CONTINUOUS
 62
               7
100
AcDbCircle
 10
-59.5
 20
67.699999999999818
 30
0.0
 40
2.5
100
AcDbArc
 50
269.99999999994731
 51
359.9999999999992
  0
LINE
  5
3ED
100
AcDbEntity
  8
LAYER001
  6
CONTINUOUS
 62
               7
100
AcDbLine
 10
-65.0
 20
67.699999999999818
 30
0.0
 11
-65.0
 21
82.100000000000364
 31
0.0
  0
LINE
  5
3EE
100
AcDbEntity
  8
LAYER001
  6
CONTINUOUS
 62
               7
100
AcDbLine
 10
-59.5
 20
65.199999999999818
 30
0.0
 11
-62.5
 21
65.199999999999818
 31
0.0
  0
ARC
  5
3EF
100
AcDbEntity
  8
LAYER001
  6
CONTINUOUS
 62
               7
100
AcDbCircle
 10
-62.5
 20
67.699999999999818
 30
0.0
 40
2.5
100
AcDbArc
 50
179.99999999995791
 51
269.99999999994731
  0
ARC
  5
3F0
100
AcDbEntity
  8
LAYER001
  6
CONTINUOUS
 62
               7
100
AcDbCircle
 10
-59.5
 20
104.69999999999982
 30
0.0
 40
2.5
100
AcDbArc
 50
0.0
 51
89.999999999978954
  0
LINE
  5
3F1
100
AcDbEntity
  8
LAYER001
  6
CONTINUOUS
 62
               7
100
AcDbLine
 10
-59.5
 20
107.19999999999982
 30
0.0
 11
-62.5
 21
107.19999999999982
 31
0.0
  0
ARC
  5
3F2
100
AcDbEntity
  8
LAYER001
  6
CONTINUOUS
 62
               7
100
AcDbCircle
 10
-62.5
 20
104.69999999999982
 30
0.0
 40
2.5
100
AcDbArc
 50
89.999999999978954
 51
179.99999999995791
  0
LINE
  5
3F3
100
AcDbEntity
  8
LAYER001
  6
CONTINUOUS
 62
               7
100
AcDbLine
 10
-57.0
 20
90.300000000000182
 30
0.0
 11
-57.0
 21
104.69999999999982
 31
0.0
  0
ARC
  5
3F4
100
AcDbEntity
  8
LAYER001
  6
CONTINUOUS
 62
               7
100
AcDbCircle
 10
-59.5
 20
90.300000000000182
 30
0.0
 40
2.5
100
AcDbArc
 50
269.99999999994731
 51
359.9999999999992
  0
LINE
  5
3F5
100
AcDbEntity
  8
LAYER001
  6
CONTINUOUS
 62
               7
100
AcDbLine
 10
-65.0
 20
90.300000000000182
 30
0.0
 11
-65.0
 21
104.69999999999982
 31
0.0
  0
LINE
  5
3F6
100
AcDbEntity
  8
LAYER001
  6
CONTINUOUS
 62
               7
100
AcDbLine
 10
-59.5
 20
87.800000000000182
 30
0.0
 11
-62.5
 21
87.800000000000182
 31
0.0
  0
ARC
  5
3F7
100
AcDbEntity
  8
LAYER001
  6
CONTINUOUS
 62
               7
100
AcDbCircle
 10
-62.5
 20
90.300000000000182
 30
0.0
 40
2.5
100
AcDbArc
 50
179.99999999995791
 51
269.99999999994731
  0
ARC
  5
3F8
100
AcDbEntity
  8
LAYER001
  6
CONTINUOUS
 62
               7
100
AcDbCircle
 10
-71.699999999999818
 20
101.60000000000036
 30
0.0
 40
2.5
100
AcDbArc
 50
269.99999999994731
 51
359.9999999999992
  0
ARC
  5
3F9
100
AcDbEntity
  8
LAYER001
  6
CONTINUOUS
 62
               7
100
AcDbCircle
 10
-71.699999999999818
 20
93.400000000000546
 30
0.0
 40
2.5
100
AcDbArc
 50
0.0
 51
89.999999999978954
  0
LINE
  5
3FA
100
AcDbEntity
  8
LAYER001
  6
CONTINUOUS
 62
               7
100
AcDbLine
 10
-74.653600000000097
 20
99.100000000000364
 30
0.0
 11
-71.699999999999818
 21
99.100000000000364
 31
0.0
  0
ARC
  5
3FB
100
AcDbEntity
  8
LAYER001
  6
CONTINUOUS
 62
               7
100
AcDbCircle
 10
-74.653600000000097
 20
101.60000000000036
 30
0.0
 40
2.5
100
AcDbArc
 50
185.508878999968
 51
269.99999999994731
  0
LINE
  5
3FC
100
AcDbEntity
  8
LAYER001
  6
CONTINUOUS
 62
               7
100
AcDbLine
 10
-73.401906999999937
 20
95.900000000000546
 30
0.0
 11
-71.699999999999818
 21
95.900000000000546
 31
0.0
  0
ARC
  5
3FD
100
AcDbEntity
  8
LAYER001
  6
CONTINUOUS
 62
               7
100
AcDbCircle
 10
-73.401906999999937
 20
93.400000000000546
 30
0.0
 40
2.5
100
AcDbArc
 50
89.999999999978954
 51
191.84901299995391
  0
ARC
  5
3FE
100
AcDbEntity
  8
LAYER001
  6
CONTINUOUS
 62
               7
100
AcDbCircle
 10
0.0
 20
108.80000000000018
 30
0.0
 40
77.5
100
AcDbArc
 50
191.84901299996352
 51
201.52412599996123
  0
LINE
  5
3FF
100
AcDbEntity
  8
LAYER001
  6
CONTINUOUS
 62
               7
100
AcDbLine
 10
-69.199999999999818
 20
80.916134000000056
 30
0.0
 11
-69.199999999999818
 21
93.400000000000546
 31
0.0
  0
ARC
  5
400
100
AcDbEntity
  8
LAYER001
  6
CONTINUOUS
 62
               7
100
AcDbCircle
 10
-70.699999999999818
 20
80.916134000000056
 30
0.0
 40
1.5
100
AcDbArc
 50
201.52412599994815
 51
359.9999999999992
  0
ARC
  5
401
100
AcDbEntity
  8
LAYER001
  6
CONTINUOUS
 62
               7
100
AcDbCircle
 10
47.858330999999907
 20
101.60000000000036
 30
0.0
 40
2.5
100
AcDbArc
 50
157.35459999997047
 51
269.99999999994731
  0
ARC
  5
402
100
AcDbEntity
  8
LAYER001
  6
CONTINUOUS
 62
               7
100
AcDbCircle
 10
25.341668999999911
 20
101.60000000000036
 30
0.0
 40
2.5
100
AcDbArc
 50
269.99999999994731
 51
382.64539999998584
  0
ARC
  5
403
100
AcDbEntity
  8
LAYER001
  6
CONTINUOUS
 62
               7
100
AcDbCircle
 10
-25.341668999999911
 20
101.60000000000036
 30
0.0
 40
2.5
100
AcDbArc
 50
157.35459999997047
 51
269.99999999994731
  0
ARC
  5
404
100
AcDbEntity
  8
LAYER001
  6
CONTINUOUS
 62
               7
100
AcDbCircle
 10
-47.858330999999907
 20
101.60000000000036
 30
0.0
 40
2.5
100
AcDbArc
 50
269.99999999994731
 51
382.64539999998584
  0
LINE
  5
405
100
AcDbEntity
  8
LAYER001
  6
CONTINUOUS
 62
               7
100
AcDbLine
 10
-8.1999999999998181
 20
90.300000000000182
 30
0.0
 11
-8.1999999999998181
 21
104.69999999999982
 31
0.0
  0
ARC
  5
406
100
AcDbEntity
  8
LAYER001
  6
CONTINUOUS
 62
               7
100
AcDbCircle
 10
0.0
 20
108.80000000000018
 30
0.0
 40
77.5
100
AcDbArc
 50
174.4911209999668
 51
185.50887899996485
  0
LINE
  5
407
100
AcDbEntity
  8
LAYER001
  6
CONTINUOUS
 62
               7
100
AcDbLine
 10
-69.199999999999818
 20
101.60000000000036
 30
0.0
 11
-69.199999999999818
 21
116.0
 31
0.0
  0
LINE
  5
408
100
AcDbEntity
  8
LAYER001
  6
CONTINUOUS
 62
               7
100
AcDbLine
 10
-52.800000000000182
 20
101.60000000000036
 30
0.0
 11
-52.800000000000182
 21
116.0
 31
0.0
  0
ARC
  5
409
100
AcDbEntity
  8
LAYER001
  6
CONTINUOUS
 62
               7
100
AcDbCircle
 10
-30.599999999999909
 20
108.80000000000018
 30
0.0
 40
16.199999999999999
100
AcDbArc
 50
157.35459999996945
 51
202.64539999996046
  0
ELLIPSE
  5
40A
100
AcDbEntity
  8
LAYER001
  6
CONTINUOUS
 62
               7
100
AcDbEllipse
 10
-36.599999999999909
 20
108.80000000000018
 30
0.0
 11
0.0
 21
10.0
 31
0.0
210
0.0
220
0.0
230
1.0
 40
0.6
 41
0.0
 42
6.2831853071796004
  0
ARC
  5
40B
100
AcDbEntity
  8
LAYER001
  6
CONTINUOUS
 62
               7
100
AcDbCircle
 10
-42.599999999999909
 20
108.80000000000018
 30
0.0
 40
16.199999999999999
100
AcDbArc
 50
337.5380029999356
 51
382.64539999999471
  0
LINE
  5
40C
100
AcDbEntity
  8
LAYER001
  6
CONTINUOUS
 62
               7
100
AcDbLine
 10
-20.400000000000091
 20
101.60000000000036
 30
0.0
 11
-20.400000000000091
 21
116.0
 31
0.0
  0
LINE
  5
40D
100
AcDbEntity
  8
LAYER001
  6
CONTINUOUS
 62
               7
100
AcDbLine
 10
20.400000000000091
 20
101.60000000000036
 30
0.0
 11
20.400000000000091
 21
116.0
 31
0.0
  0
ARC
  5
40E
100
AcDbEntity
  8
LAYER001
  6
CONTINUOUS
 62
               7
100
AcDbCircle
 10
42.599999999999909
 20
108.80000000000018
 30
0.0
 40
16.199999999999999
100
AcDbArc
 50
157.35459999996945
 51
202.64539999996046
  0
ELLIPSE
  5
40F
100
AcDbEntity
  8
LAYER001
  6
CONTINUOUS
 62
               7
100
AcDbEllipse
 10
36.599999999999909
 20
108.80000000000018
 30
0.0
 11
0.0
 21
10.0
 31
0.0
210
0.0
220
0.0
230
1.0
 40
0.6
 41
0.0
 42
6.2831853071796004
  0
ARC
  5
410
100
AcDbEntity
  8
LAYER001
  6
CONTINUOUS
 62
               7
100
AcDbCircle
 10
30.599999999999909
 20
108.80000000000018
 30
0.0
 40
16.199999999999999
100
AcDbArc
 50
337.35459999993441
 51
382.64539999999471
  0
LINE
  5
411
100
AcDbEntity
  8
LAYER001
  6
CONTINUOUS
 62
               7
100
AcDbLine
 10
52.800000000000182
 20
101.60000000000036
 30
0.0
 11
52.800000000000182
 21
116.0
 31
0.0
  0
LINE
  5
412
100
AcDbEntity
  8
LAYER001
  6
CONTINUOUS
 62
               7
100
AcDbLine
 10
69.199999999999818
 20
101.60000000000036
 30
0.0
 11
69.199999999999818
 21
116.0
 31
0.0
  0
ARC
  5
413
100
AcDbEntity
  8
LAYER001
  6
CONTINUOUS
 62
               7
100
AcDbCircle
 10
0.0
 20
108.80000000000018
 30
0.0
 40
77.5
100
AcDbArc
 50
354.28358299993238
 51
365.50887899999822
  0
INSERT
  5
414
100
AcDbEntity
  8
LAYER001
  6
CONTINUOUS
100
AcDbBlockReference
  2
GROUP_1
 10
0.0
 20
0.0
 30
0.0
  0
ENDSEC
  0
SECTION
  2
OBJECTS
  0
DICTIONARY
  5
19
100
AcDbDictionary
  3
ACAD_GROUP
350
1A
  3
ACAD_MLINESTYLE
350
1B
  0
DICTIONARY
  5
1A
102
{ACAD_REACTORS
330
19
102
}
100
AcDbDictionary
  0
DICTIONARY
  5
1B
102
{ACAD_REACTORS
330
19
102
}
100
AcDbDictionary
  3
STANDARD
350
1C
  0
MLINESTYLE
  5
1C
102
{ACAD_REACTORS
330
1B
102
}
100
AcDbMlineStyle
  2
STANDARD
 70
               0
  3

 62
               0
 51
90.0
 52
90.0
 71
               2
 49
0.5
 62
             256
  6
BYLAYER
 49
-0.5
 62
             256
  6
BYLAYER
  0
ENDSEC
  0
EOF
