  0
SECTION
  2
HEADER
  9
$ACADVER
  1
AC1014
  9
$ACADMAINTVER
 70
               0
  9
$DWGCODEPAGE
  3
ANSI_932
  9
$INSBASE
 10
0.0
 20
0.0
 30
0.0
  9
$EXTMIN
 10
-138.43742205246321
 20
-288.20647211646138
 30
0.0
  9
$EXTMAX
 10
173.4285246756242
 20
327.81007793952972
 30
0.0
  9
$LIMMIN
 10
-148.18323288771595
 20
-307.45698930571109
  9
$LIMMAX
 10
183.17433551087694
 20
347.06059512877943
  9
$ORTHOMODE
 70
               0
  9
$REGENMODE
 70
               1
  9
$FILLMODE
 70
               1
  9
$QTEXTMODE
 70
               0
  9
$MIRRTEXT
 70
               1
  9
$DRAGMODE
 70
               2
  9
$LTSCALE
 40
1.0
  9
$OSMODE
 70
               0
  9
$ATTMODE
 70
               1
  9
$TEXTSIZE
 40
0.2
  9
$TRACEWID
 40
0.05
  9
$TEXTSTYLE
  7
STANDARD
  9
$CLAYER
  8
0
  9
$CELTYPE
  6
CONTINUOUS
  9
$CECOLOR
 62
             256
  9
$CELTSCALE
 40
1.0
  9
$DELOBJ
 70
               1
  9
$DISPSILH
 70
               0
  9
$DIMSCALE
 40
1.0
  9
$DIMASZ
 40
0.18
  9
$DIMEXO
 40
0.0625
  9
$DIMDLI
 40
0.38
  9
$DIMRND
 40
0.0
  9
$DIMDLE
 40
0.0
  9
$DIMEXE
 40
0.18
  9
$DIMTP
 40
0.0
  9
$DIMTM
 40
0.0
  9
$DIMTXT
 40
0.18
  9
$DIMCEN
 40
0.09
  9
$DIMTSZ
 40
0.0
  9
$DIMTOL
 70
               0
  9
$DIMLIM
 70
               0
  9
$DIMTIH
 70
               1
  9
$DIMTOH
 70
               1
  9
$DIMSE1
 70
               0
  9
$DIMSE2
 70
               0
  9
$DIMTAD
 70
               0
  9
$DIMZIN
 70
               0
  9
$DIMBLK
  1

  9
$DIMASO
 70
               1
  9
$DIMSHO
 70
               1
  9
$DIMPOST
  1

  9
$DIMAPOST
  1

  9
$DIMALT
 70
               0
  9
$DIMALTD
 70
               2
  9
$DIMALTF
 40
25.399999999999999
  9
$DIMLFAC
 40
1.0
  9
$DIMTOFL
 70
               0
  9
$DIMTVP
 40
0.0
  9
$DIMTIX
 70
               0
  9
$DIMSOXD
 70
               0
  9
$DIMSAH
 70
               0
  9
$DIMBLK1
  1

  9
$DIMBLK2
  1

  9
$DIMSTYLE
  2
STANDARD
  9
$DIMCLRD
 70
               0
  9
$DIMCLRE
 70
               0
  9
$DIMCLRT
 70
               0
  9
$DIMTFAC
 40
1.0
  9
$DIMGAP
 40
0.09
  9
$DIMJUST
 70
               0
  9
$DIMSD1
 70
               0
  9
$DIMSD2
 70
               0
  9
$DIMTOLJ
 70
               1
  9
$DIMTZIN
 70
               0
  9
$DIMALTZ
 70
               0
  9
$DIMALTTZ
 70
               0
  9
$DIMFIT
 70
               3
  9
$DIMUPT
 70
               0
  9
$DIMUNIT
 70
               2
  9
$DIMDEC
 70
               4
  9
$DIMTDEC
 70
               4
  9
$DIMALTU
 70
               2
  9
$DIMALTTD
 70
               2
  9
$DIMTXSTY
  7
STANDARD
  9
$DIMAUNIT
 70
               0
  9
$LUNITS
 70
               2
  9
$LUPREC
 70
               4
  9
$SKETCHINC
 40
0.1
  9
$FILLETRAD
 40
0.0
  9
$AUNITS
 70
               0
  9
$AUPREC
 70
               0
  9
$MENU
  1
acad
  9
$ELEVATION
 40
0.0
  9
$PELEVATION
 40
0.0
  9
$THICKNESS
 40
0.0
  9
$LIMCHECK
 70
               0
  9
$BLIPMODE
 70
               1
  9
$CHAMFERA
 40
0.0
  9
$CHAMFERB
 40
0.0
  9
$CHAMFERC
 40
0.0
  9
$CHAMFERD
 40
0.0
  9
$SKPOLY
 70
               0
  9
$TDCREATE
 40
0.000000000
  9
$TDUPDATE
 40
0.000000000
  9
$TDINDWG
 40
0.0000000000
  9
$TDUSRTIMER
 40
0.0000000000
  9
$USRTIMER
 70
               1
  9
$ANGBASE
 50
0.0
  9
$ANGDIR
 70
               0
  9
$PDMODE
 70
               0
  9
$PDSIZE
 40
1.0
  9
$PLINEWID
 40
0.0
  9
$COORDS
 70
               1
  9
$SPLFRAME
 70
               0
  9
$SPLINETYPE
 70
               6
  9
$SPLINESEGS
 70
               8
  9
$ATTDIA
 70
               0
  9
$ATTREQ
 70
               1
  9
$HANDLING
 70
               1
  9
$HANDSEED
  5
395
  9
$SURFTAB1
 70
               6
  9
$SURFTAB2
 70
               6
  9
$SURFTYPE
 70
               6
  9
$SURFU
 70
               6
  9
$SURFV
 70
               6
  9
$UCSNAME
  2

  9
$UCSORG
 10
0.0
 20
0.0
 30
0.0
  9
$UCSXDIR
 10
1.0
 20
0.0
 30
0.0
  9
$UCSYDIR
 10
0.0
 20
1.0
 30
0.0
  9
$PUCSNAME
  2

  9
$PUCSORG
 10
0.0
 20
0.0
 30
0.0
  9
$PUCSXDIR
 10
1.0
 20
0.0
 30
0.0
  9
$PUCSYDIR
 10
0.0
 20
1.0
 30
0.0
  9
$USERI1
 70
               0
  9
$USERI2
 70
               0
  9
$USERI3
 70
               0
  9
$USERI4
 70
               0
  9
$USERI5
 70
               0
  9
$USERR1
 40
0.0
  9
$USERR2
 40
0.0
  9
$USERR3
 40
0.0
  9
$USERR4
 40
0.0
  9
$USERR5
 40
0.0
  9
$WORLDVIEW
 70
               1
  9
$SHADEDGE
 70
               3
  9
$SHADEDIF
 70
              70
  9
$TILEMODE
 70
               1
  9
$MAXACTVP
 70
              16
  9
$PINSBASE
 10
0.0
 20
0.0
 30
0.0
  9
$PLIMCHECK
 70
               0
  9
$PEXTMIN
 10
1.0000000000000000E+20
 20
1.0000000000000000E+20
 30
1.0000000000000000E+20
  9
$PEXTMAX
 10
-1.0000000000000000E+20
 20
-1.0000000000000000E+20
 30
-1.0000000000000000E+20
  9
$PLIMMIN
 10
0.0
 20
0.0
  9
$PLIMMAX
 10
12.0
 20
9.0
  9
$UNITMODE
 70
               0
  9
$VISRETAIN
 70
               0
  9
$PLINEGEN
 70
               1
  9
$PSLTSCALE
 70
               0
  9
$TREEDEPTH
 70
            3020
  9
$PICKSTYLE
 70
               1
  9
$CMLSTYLE
  2
STANDARD
  9
$CMLJUST
 70
               0
  9
$CMLSCALE
 40
1.0
  9
$PROXYGRAPHICS
 70
               0
  9
$MEASUREMENT
 70
               0
  0
ENDSEC
  0
SECTION
  2
CLASSES
  0
CLASS
  1
LWPOLYLINE
  2
AcDbPolyline
  3
"AutoCAD"
 90
        0
280
               0
281
               1
  0
CLASS
  1
IMAGE
  2
AcDbRasterImage
  3
ISM
 90
      127
280
               0
281
               1
  0
CLASS
  1
OLE2FRAME
  2
AcDbOle2Frame
  3
""
 90
        0
280
               0
281
               1
  0
CLASS
  1
HATCH
  2
AcDbHatch
  3
"ACAD_SEDONA"
 90
        0
280
               0
281
               1
  0
CLASS
  1
DICTIONARYVAR
  2
AcDbDictionaryVar
  3
"AutoCAD"
 90
        0
280
               0
281
               0
  0
CLASS
  1
RASTERVARIABLES
  2
AcDbRasterVariables
  3
ISM
 90
        0
280
               0
281
               0
  0
CLASS
  1
IMAGEDEF
  2
AcDbRasterImageDef
  3
ISM
 90
        0
280
               0
281
               0
  0
CLASS
  1
IMAGEDEF_REACTOR
  2
AcDbRasterImageDefReactor
  3
ISM
 90
        1
280
               0
281
               0
  0
CLASS
  1
IDBUFFER
  2
AcDbIdBuffer
  3
"Acad"
 90
        0
280
               0
281
               0
  0
CLASS
  1
SPATIAL_FILTER
  2
AcDbSpatialFilter
  3
"Acad"
 90
        0
280
               0
281
               0
  0
CLASS
  1
XRECORD
  2
AcDbXrecord
  3
"<Built In>"
 90
        0
280
               0
281
               0
  0
CLASS
  1
SORTENTSTABLE
  2
AcDbSortentsTable
  3
"AutoCAD"
 90
        0
280
               0
281
               0
  0
CLASS
  1
LAYER_INDEX
  2
AcDbLayerIndex
  3
"Acad"
 90
        0
280
               0
281
               0
  0
CLASS
  1
SPATIAL_INDEX
  2
AcDbSpatialIndex
  3
"Acad"
 90
        0
280
               0
281
               0
  0
CLASS
  1
OBJECT_PTR
  2
CAseDLPNTableRecord
  3
"ASE-LPNTableRecord"
 90
        1
280
               0
281
               0
  0
ENDSEC
  0
SECTION
  2
TABLES
  0
TABLE
  2
VPORT
  5
7
100
AcDbSymbolTable
 70
               1
  0
VPORT
  5
15
100
AcDbSymbolTableRecord
100
AcDbViewportTableRecord
  2
*ACTIVE
 70
               0
 10
0.0
 20
0.0
 11
1.0
 21
1.0
 12
17.495551311580499
 22
19.801802911534168
 13
0.0
 23
0.0
 14
1.0
 24
1.0
 15
0.0
 25
0.0
 16
0.0
 26
0.0
 36
1.0
 17
0.0
 27
0.0
 37
0.0
 40
654.51758443449057
 41
0.5062622858099206
 42
50.0
 43
0.0
 44
0.0
 50
0.0
 51
0.0
 71
               0
 72
             100
 73
               1
 74
               1
 75
               0
 76
               0
 77
               0
 78
               0
  0
ENDTAB
  0
TABLE
  2
LTYPE
  5
4
100
AcDbSymbolTable
 70
              28
  0
LTYPE
  5
11
100
AcDbSymbolTableRecord
100
AcDbLinetypeTableRecord
  2
BYBLOCK
 70
               0
  3

 72
              65
 73
               0
 40
0.0
  0
LTYPE
  5
12
100
AcDbSymbolTableRecord
100
AcDbLinetypeTableRecord
  2
BYLAYER
 70
               0
  3

 72
              65
 73
               0
 40
0.0
  0
LTYPE
  5
13
100
AcDbSymbolTableRecord
100
AcDbLinetypeTableRecord
  2
CONTINUOUS
 70
               0
  3
Solid line
 72
              65
 73
               0
 40
0.0
  0
LTYPE
  5
1D
100
AcDbSymbolTableRecord
100
AcDbLinetypeTableRecord
  2
HIDDENX2
 70
               0
  3
CADPAC FUSION LINETYPE
 72
              65
 73
               2
 40
33.640000000000001
 49
25.23
 74
               0
 49
-8.4100000000000001
 74
               0
  0
LTYPE
  5
1E
100
AcDbSymbolTableRecord
100
AcDbLinetypeTableRecord
  2
HIDDEN
 70
               0
  3
CADPAC FUSION LINETYPE
 72
              65
 73
               2
 40
25.23
 49
16.82
 74
               0
 49
-8.4100000000000001
 74
               0
  0
LTYPE
  5
1F
100
AcDbSymbolTableRecord
100
AcDbLinetypeTableRecord
  2
HIDDEN2
 70
               0
  3
CADPAC FUSION LINETYPE
 72
              65
 73
               2
 40
21.024999999999999
 49
12.615
 74
               0
 49
-8.4100000000000001
 74
               0
  0
LTYPE
  5
20
100
AcDbSymbolTableRecord
100
AcDbLinetypeTableRecord
  2
DASHED
 70
               0
  3
CADPAC FUSION LINETYPE
 72
              65
 73
               2
 40
25.23
 49
16.82
 74
               0
 49
-8.4100000000000001
 74
               0
  0
LTYPE
  5
21
100
AcDbSymbolTableRecord
100
AcDbLinetypeTableRecord
  2
DASHED2
 70
               0
  3
CADPAC FUSION LINETYPE
 72
              65
 73
               2
 40
18.922499999999999
 49
12.615
 74
               0
 49
-6.3075000000000001
 74
               0
  0
LTYPE
  5
22
100
AcDbSymbolTableRecord
100
AcDbLinetypeTableRecord
  2
DASHEDX2
 70
               0
  3
CADPAC FUSION LINETYPE
 72
              65
 73
               2
 40
37.844999999999999
 49
25.23
 74
               0
 49
-12.615
 74
               0
  0
LTYPE
  5
23
100
AcDbSymbolTableRecord
100
AcDbLinetypeTableRecord
  2
DOTX2
 70
               0
  3
CADPAC FUSION LINETYPE
 72
              65
 73
               2
 40
10.512499999999999
 49
0.0
 74
               0
 49
-10.512499999999999
 74
               0
  0
LTYPE
  5
24
100
AcDbSymbolTableRecord
100
AcDbLinetypeTableRecord
  2
DOT
 70
               0
  3
CADPAC FUSION LINETYPE
 72
              65
 73
               2
 40
8.4100000000000001
 49
0.0
 74
               0
 49
-8.4100000000000001
 74
               0
  0
LTYPE
  5
25
100
AcDbSymbolTableRecord
100
AcDbLinetypeTableRecord
  2
DOTS
 70
               0
  3
CADPAC FUSION LINETYPE
 72
              65
 73
               2
 40
8.4100000000000001
 49
0.0
 74
               0
 49
-8.4100000000000001
 74
               0
  0
LTYPE
  5
26
100
AcDbSymbolTableRecord
100
AcDbLinetypeTableRecord
  2
DOT2
 70
               0
  3
CADPAC FUSION LINETYPE
 72
              65
 73
               2
 40
6.3075000000000001
 49
0.0
 74
               0
 49
-6.3075000000000001
 74
               0
  0
LTYPE
  5
27
100
AcDbSymbolTableRecord
100
AcDbLinetypeTableRecord
  2
CENTERX2
 70
               0
  3
CADPAC FUSION LINETYPE
 72
              65
 73
               4
 40
50.459999999999994
 49
21.024999999999999
 74
               0
 49
-10.512499999999999
 74
               0
 49
8.4100000000000001
 74
               0
 49
-10.512499999999999
 74
               0
  0
LTYPE
  5
28
100
AcDbSymbolTableRecord
100
AcDbLinetypeTableRecord
  2
CENTER
 70
               0
  3
CADPAC FUSION LINETYPE
 72
              65
 73
               4
 40
38.686
 49
16.82
 74
               0
 49
-8.4100000000000001
 74
               0
 49
5.0460000000000003
 74
               0
 49
-8.4100000000000001
 74
               0
  0
LTYPE
  5
29
100
AcDbSymbolTableRecord
100
AcDbLinetypeTableRecord
  2
CENTER2
 70
               0
  3
CADPAC FUSION LINETYPE
 72
              65
 73
               4
 40
26.911999999999999
 49
12.615
 74
               0
 49
-6.3075000000000001
 74
               0
 49
1.6820000000000002
 74
               0
 49
-6.3075000000000001
 74
               0
  0
LTYPE
  5
2A
100
AcDbSymbolTableRecord
100
AcDbLinetypeTableRecord
  2
DASHDOTX2
 70
               0
  3
CADPAC FUSION LINETYPE
 72
              65
 73
               4
 40
42.049999999999997
 49
21.024999999999999
 74
               0
 49
-10.512499999999999
 74
               0
 49
0.0
 74
               0
 49
-10.512499999999999
 74
               0
  0
LTYPE
  5
2B
100
AcDbSymbolTableRecord
100
AcDbLinetypeTableRecord
  2
DASHDOT
 70
               0
  3
CADPAC FUSION LINETYPE
 72
              65
 73
               4
 40
33.640000000000001
 49
16.82
 74
               0
 49
-8.4100000000000001
 74
               0
 49
0.0
 74
               0
 49
-8.4100000000000001
 74
               0
  0
LTYPE
  5
2C
100
AcDbSymbolTableRecord
100
AcDbLinetypeTableRecord
  2
DASHDOT2
 70
               0
  3
CADPAC FUSION LINETYPE
 72
              65
 73
               4
 40
25.23
 49
12.615
 74
               0
 49
-6.3075000000000001
 74
               0
 49
0.0
 74
               0
 49
-6.3075000000000001
 74
               0
  0
LTYPE
  5
2D
100
AcDbSymbolTableRecord
100
AcDbLinetypeTableRecord
  2
DIVIDEX2
 70
               0
  3
CADPAC FUSION LINETYPE
 72
              65
 73
               6
 40
52.5625
 49
21.024999999999999
 74
               0
 49
-10.512499999999999
 74
               0
 49
0.0
 74
               0
 49
-10.512499999999999
 74
               0
 49
0.0
 74
               0
 49
-10.512499999999999
 74
               0
  0
LTYPE
  5
2E
100
AcDbSymbolTableRecord
100
AcDbLinetypeTableRecord
  2
DIVIDE
 70
               0
  3
CADPAC FUSION LINETYPE
 72
              65
 73
               6
 40
42.049999999999997
 49
16.82
 74
               0
 49
-8.4100000000000001
 74
               0
 49
0.0
 74
               0
 49
-8.4100000000000001
 74
               0
 49
0.0
 74
               0
 49
-8.4100000000000001
 74
               0
  0
LTYPE
  5
2F
100
AcDbSymbolTableRecord
100
AcDbLinetypeTableRecord
  2
DIVIDE2
 70
               0
  3
CADPAC FUSION LINETYPE
 72
              65
 73
               6
 40
31.537500000000001
 49
12.615
 74
               0
 49
-6.3075000000000001
 74
               0
 49
0.0
 74
               0
 49
-6.3075000000000001
 74
               0
 49
0.0
 74
               0
 49
-6.3075000000000001
 74
               0
  0
LTYPE
  5
30
100
AcDbSymbolTableRecord
100
AcDbLinetypeTableRecord
  2
BORDERX2
 70
               0
  3
CADPAC FUSION LINETYPE
 72
              65
 73
               6
 40
73.587499999999991
 49
21.024999999999999
 74
               0
 49
-10.512499999999999
 74
               0
 49
21.024999999999999
 74
               0
 49
-10.512499999999999
 74
               0
 49
0.0
 74
               0
 49
-10.512499999999999
 74
               0
  0
LTYPE
  5
31
100
AcDbSymbolTableRecord
100
AcDbLinetypeTableRecord
  2
BORDER
 70
               0
  3
CADPAC FUSION LINETYPE
 72
              65
 73
               6
 40
58.870000000000005
 49
16.82
 74
               0
 49
-8.4100000000000001
 74
               0
 49
16.82
 74
               0
 49
-8.4100000000000001
 74
               0
 49
0.0
 74
               0
 49
-8.4100000000000001
 74
               0
  0
LTYPE
  5
32
100
AcDbSymbolTableRecord
100
AcDbLinetypeTableRecord
  2
BORDER2
 70
               0
  3
CADPAC FUSION LINETYPE
 72
              65
 73
               6
 40
44.152499999999996
 49
12.615
 74
               0
 49
-6.3075000000000001
 74
               0
 49
12.615
 74
               0
 49
-6.3075000000000001
 74
               0
 49
0.0
 74
               0
 49
-6.3075000000000001
 74
               0
  0
LTYPE
  5
33
100
AcDbSymbolTableRecord
100
AcDbLinetypeTableRecord
  2
PHANTOMX2
 70
               0
  3
CADPAC FUSION LINETYPE
 72
              65
 73
               6
 40
63.074999999999996
 49
21.024999999999999
 74
               0
 49
-8.4100000000000001
 74
               0
 49
8.4100000000000001
 74
               0
 49
-8.4100000000000001
 74
               0
 49
8.4100000000000001
 74
               0
 49
-8.4100000000000001
 74
               0
  0
LTYPE
  5
34
100
AcDbSymbolTableRecord
100
AcDbLinetypeTableRecord
  2
PHANTOM
 70
               0
  3
CADPAC FUSION LINETYPE
 72
              65
 73
               6
 40
52.141999999999996
 49
16.82
 74
               0
 49
-8.4100000000000001
 74
               0
 49
5.0460000000000003
 74
               0
 49
-8.4100000000000001
 74
               0
 49
5.0460000000000003
 74
               0
 49
-8.4100000000000001
 74
               0
  0
LTYPE
  5
35
100
AcDbSymbolTableRecord
100
AcDbLinetypeTableRecord
  2
PHANTOM2
 70
               0
  3
CADPAC FUSION LINETYPE
 72
              65
 73
               6
 40
44.573
 49
12.615
 74
               0
 49
-8.4100000000000001
 74
               0
 49
3.3640000000000003
 74
               0
 49
-8.4100000000000001
 74
               0
 49
3.3640000000000003
 74
               0
 49
-8.4100000000000001
 74
               0
  0
ENDTAB
  0
TABLE
  2
LAYER
  5
2
100
AcDbSymbolTable
 70
             256
  0
LAYER
  5
14
100
AcDbSymbolTableRecord
100
AcDbLayerTableRecord
  2
0
 70
               0
 62
               7
  6
CONTINUOUS
  0
LAYER
  5
36
100
AcDbSymbolTableRecord
100
AcDbLayerTableRecord
  2
LAYER001
 70
               0
 62
               7
  6
CONTINUOUS
  0
LAYER
  5
37
100
AcDbSymbolTableRecord
100
AcDbLayerTableRecord
  2
LAYER002
 70
               0
 62
               7
  6
CONTINUOUS
  0
LAYER
  5
38
100
AcDbSymbolTableRecord
100
AcDbLayerTableRecord
  2
LAYER003
 70
               0
 62
               7
  6
CONTINUOUS
  0
LAYER
  5
39
100
AcDbSymbolTableRecord
100
AcDbLayerTableRecord
  2
LAYER004
 70
               0
 62
               7
  6
CONTINUOUS
  0
LAYER
  5
3A
100
AcDbSymbolTableRecord
100
AcDbLayerTableRecord
  2
LAYER005
 70
               0
 62
               7
  6
CONTINUOUS
  0
LAYER
  5
3B
100
AcDbSymbolTableRecord
100
AcDbLayerTableRecord
  2
LAYER006
 70
               0
 62
               7
  6
CONTINUOUS
  0
LAYER
  5
3C
100
AcDbSymbolTableRecord
100
AcDbLayerTableRecord
  2
LAYER007
 70
               0
 62
               7
  6
CONTINUOUS
  0
LAYER
  5
3D
100
AcDbSymbolTableRecord
100
AcDbLayerTableRecord
  2
LAYER008
 70
               0
 62
               7
  6
CONTINUOUS
  0
LAYER
  5
3E
100
AcDbSymbolTableRecord
100
AcDbLayerTableRecord
  2
LAYER009
 70
               0
 62
               7
  6
CONTINUOUS
  0
LAYER
  5
3F
100
AcDbSymbolTableRecord
100
AcDbLayerTableRecord
  2
LAYER010
 70
               0
 62
               7
  6
CONTINUOUS
  0
LAYER
  5
40
100
AcDbSymbolTableRecord
100
AcDbLayerTableRecord
  2
LAYER011
 70
               0
 62
               7
  6
CONTINUOUS
  0
LAYER
  5
41
100
AcDbSymbolTableRecord
100
AcDbLayerTableRecord
  2
LAYER012
 70
               0
 62
               7
  6
CONTINUOUS
  0
LAYER
  5
42
100
AcDbSymbolTableRecord
100
AcDbLayerTableRecord
  2
LAYER013
 70
               0
 62
               7
  6
CONTINUOUS
  0
LAYER
  5
43
100
AcDbSymbolTableRecord
100
AcDbLayerTableRecord
  2
LAYER014
 70
               0
 62
               7
  6
CONTINUOUS
  0
LAYER
  5
44
100
AcDbSymbolTableRecord
100
AcDbLayerTableRecord
  2
LAYER015
 70
               0
 62
               7
  6
CONTINUOUS
  0
LAYER
  5
45
100
AcDbSymbolTableRecord
100
AcDbLayerTableRecord
  2
LAYER016
 70
               0
 62
               7
  6
CONTINUOUS
  0
LAYER
  5
46
100
AcDbSymbolTableRecord
100
AcDbLayerTableRecord
  2
LAYER017
 70
               0
 62
               7
  6
CONTINUOUS
  0
LAYER
  5
47
100
AcDbSymbolTableRecord
100
AcDbLayerTableRecord
  2
LAYER018
 70
               0
 62
               7
  6
CONTINUOUS
  0
LAYER
  5
48
100
AcDbSymbolTableRecord
100
AcDbLayerTableRecord
  2
LAYER019
 70
               0
 62
               7
  6
CONTINUOUS
  0
LAYER
  5
49
100
AcDbSymbolTableRecord
100
AcDbLayerTableRecord
  2
LAYER020
 70
               0
 62
               7
  6
CONTINUOUS
  0
LAYER
  5
4A
100
AcDbSymbolTableRecord
100
AcDbLayerTableRecord
  2
LAYER021
 70
               0
 62
               7
  6
CONTINUOUS
  0
LAYER
  5
4B
100
AcDbSymbolTableRecord
100
AcDbLayerTableRecord
  2
LAYER022
 70
               0
 62
               7
  6
CONTINUOUS
  0
LAYER
  5
4C
100
AcDbSymbolTableRecord
100
AcDbLayerTableRecord
  2
LAYER023
 70
               0
 62
               7
  6
CONTINUOUS
  0
LAYER
  5
4D
100
AcDbSymbolTableRecord
100
AcDbLayerTableRecord
  2
LAYER024
 70
               0
 62
               7
  6
CONTINUOUS
  0
LAYER
  5
4E
100
AcDbSymbolTableRecord
100
AcDbLayerTableRecord
  2
LAYER025
 70
               0
 62
               7
  6
CONTINUOUS
  0
LAYER
  5
4F
100
AcDbSymbolTableRecord
100
AcDbLayerTableRecord
  2
LAYER026
 70
               0
 62
               7
  6
CONTINUOUS
  0
LAYER
  5
50
100
AcDbSymbolTableRecord
100
AcDbLayerTableRecord
  2
LAYER027
 70
               0
 62
               7
  6
CONTINUOUS
  0
LAYER
  5
51
100
AcDbSymbolTableRecord
100
AcDbLayerTableRecord
  2
LAYER028
 70
               0
 62
               7
  6
CONTINUOUS
  0
LAYER
  5
52
100
AcDbSymbolTableRecord
100
AcDbLayerTableRecord
  2
LAYER029
 70
               0
 62
               7
  6
CONTINUOUS
  0
LAYER
  5
53
100
AcDbSymbolTableRecord
100
AcDbLayerTableRecord
  2
LAYER030
 70
               0
 62
               7
  6
CONTINUOUS
  0
LAYER
  5
54
100
AcDbSymbolTableRecord
100
AcDbLayerTableRecord
  2
LAYER031
 70
               0
 62
               7
  6
CONTINUOUS
  0
LAYER
  5
55
100
AcDbSymbolTableRecord
100
AcDbLayerTableRecord
  2
LAYER032
 70
               0
 62
               7
  6
CONTINUOUS
  0
LAYER
  5
56
100
AcDbSymbolTableRecord
100
AcDbLayerTableRecord
  2
LAYER033
 70
               0
 62
               7
  6
CONTINUOUS
  0
LAYER
  5
57
100
AcDbSymbolTableRecord
100
AcDbLayerTableRecord
  2
LAYER034
 70
               0
 62
               7
  6
CONTINUOUS
  0
LAYER
  5
58
100
AcDbSymbolTableRecord
100
AcDbLayerTableRecord
  2
LAYER035
 70
               0
 62
               7
  6
CONTINUOUS
  0
LAYER
  5
59
100
AcDbSymbolTableRecord
100
AcDbLayerTableRecord
  2
LAYER036
 70
               0
 62
               7
  6
CONTINUOUS
  0
LAYER
  5
5A
100
AcDbSymbolTableRecord
100
AcDbLayerTableRecord
  2
LAYER037
 70
               0
 62
               7
  6
CONTINUOUS
  0
LAYER
  5
5B
100
AcDbSymbolTableRecord
100
AcDbLayerTableRecord
  2
LAYER038
 70
               0
 62
               7
  6
CONTINUOUS
  0
LAYER
  5
5C
100
AcDbSymbolTableRecord
100
AcDbLayerTableRecord
  2
LAYER039
 70
               0
 62
               7
  6
CONTINUOUS
  0
LAYER
  5
5D
100
AcDbSymbolTableRecord
100
AcDbLayerTableRecord
  2
LAYER040
 70
               0
 62
               7
  6
CONTINUOUS
  0
LAYER
  5
5E
100
AcDbSymbolTableRecord
100
AcDbLayerTableRecord
  2
LAYER041
 70
               0
 62
               7
  6
CONTINUOUS
  0
LAYER
  5
5F
100
AcDbSymbolTableRecord
100
AcDbLayerTableRecord
  2
LAYER042
 70
               0
 62
               7
  6
CONTINUOUS
  0
LAYER
  5
60
100
AcDbSymbolTableRecord
100
AcDbLayerTableRecord
  2
LAYER043
 70
               0
 62
               7
  6
CONTINUOUS
  0
LAYER
  5
61
100
AcDbSymbolTableRecord
100
AcDbLayerTableRecord
  2
LAYER044
 70
               0
 62
               7
  6
CONTINUOUS
  0
LAYER
  5
62
100
AcDbSymbolTableRecord
100
AcDbLayerTableRecord
  2
LAYER045
 70
               0
 62
               7
  6
CONTINUOUS
  0
LAYER
  5
63
100
AcDbSymbolTableRecord
100
AcDbLayerTableRecord
  2
LAYER046
 70
               0
 62
               7
  6
CONTINUOUS
  0
LAYER
  5
64
100
AcDbSymbolTableRecord
100
AcDbLayerTableRecord
  2
LAYER047
 70
               0
 62
               7
  6
CONTINUOUS
  0
LAYER
  5
65
100
AcDbSymbolTableRecord
100
AcDbLayerTableRecord
  2
LAYER048
 70
               0
 62
               7
  6
CONTINUOUS
  0
LAYER
  5
66
100
AcDbSymbolTableRecord
100
AcDbLayerTableRecord
  2
LAYER049
 70
               0
 62
               7
  6
CONTINUOUS
  0
LAYER
  5
67
100
AcDbSymbolTableRecord
100
AcDbLayerTableRecord
  2
LAYER050
 70
               0
 62
               7
  6
CONTINUOUS
  0
LAYER
  5
68
100
AcDbSymbolTableRecord
100
AcDbLayerTableRecord
  2
LAYER051
 70
               0
 62
               7
  6
CONTINUOUS
  0
LAYER
  5
69
100
AcDbSymbolTableRecord
100
AcDbLayerTableRecord
  2
LAYER052
 70
               0
 62
               7
  6
CONTINUOUS
  0
LAYER
  5
6A
100
AcDbSymbolTableRecord
100
AcDbLayerTableRecord
  2
LAYER053
 70
               0
 62
               7
  6
CONTINUOUS
  0
LAYER
  5
6B
100
AcDbSymbolTableRecord
100
AcDbLayerTableRecord
  2
LAYER054
 70
               0
 62
               7
  6
CONTINUOUS
  0
LAYER
  5
6C
100
AcDbSymbolTableRecord
100
AcDbLayerTableRecord
  2
LAYER055
 70
               0
 62
               7
  6
CONTINUOUS
  0
LAYER
  5
6D
100
AcDbSymbolTableRecord
100
AcDbLayerTableRecord
  2
LAYER056
 70
               0
 62
               7
  6
CONTINUOUS
  0
LAYER
  5
6E
100
AcDbSymbolTableRecord
100
AcDbLayerTableRecord
  2
LAYER057
 70
               0
 62
               7
  6
CONTINUOUS
  0
LAYER
  5
6F
100
AcDbSymbolTableRecord
100
AcDbLayerTableRecord
  2
LAYER058
 70
               0
 62
               7
  6
CONTINUOUS
  0
LAYER
  5
70
100
AcDbSymbolTableRecord
100
AcDbLayerTableRecord
  2
LAYER059
 70
               0
 62
               7
  6
CONTINUOUS
  0
LAYER
  5
71
100
AcDbSymbolTableRecord
100
AcDbLayerTableRecord
  2
LAYER060
 70
               0
 62
               7
  6
CONTINUOUS
  0
LAYER
  5
72
100
AcDbSymbolTableRecord
100
AcDbLayerTableRecord
  2
LAYER061
 70
               0
 62
               7
  6
CONTINUOUS
  0
LAYER
  5
73
100
AcDbSymbolTableRecord
100
AcDbLayerTableRecord
  2
LAYER062
 70
               0
 62
               7
  6
CONTINUOUS
  0
LAYER
  5
74
100
AcDbSymbolTableRecord
100
AcDbLayerTableRecord
  2
LAYER063
 70
               0
 62
               7
  6
CONTINUOUS
  0
LAYER
  5
75
100
AcDbSymbolTableRecord
100
AcDbLayerTableRecord
  2
LAYER064
 70
               0
 62
               7
  6
CONTINUOUS
  0
LAYER
  5
76
100
AcDbSymbolTableRecord
100
AcDbLayerTableRecord
  2
LAYER065
 70
               0
 62
               7
  6
CONTINUOUS
  0
LAYER
  5
77
100
AcDbSymbolTableRecord
100
AcDbLayerTableRecord
  2
LAYER066
 70
               0
 62
               7
  6
CONTINUOUS
  0
LAYER
  5
78
100
AcDbSymbolTableRecord
100
AcDbLayerTableRecord
  2
LAYER067
 70
               0
 62
               7
  6
CONTINUOUS
  0
LAYER
  5
79
100
AcDbSymbolTableRecord
100
AcDbLayerTableRecord
  2
LAYER068
 70
               0
 62
               7
  6
CONTINUOUS
  0
LAYER
  5
7A
100
AcDbSymbolTableRecord
100
AcDbLayerTableRecord
  2
LAYER069
 70
               0
 62
               7
  6
CONTINUOUS
  0
LAYER
  5
7B
100
AcDbSymbolTableRecord
100
AcDbLayerTableRecord
  2
LAYER070
 70
               0
 62
               7
  6
CONTINUOUS
  0
LAYER
  5
7C
100
AcDbSymbolTableRecord
100
AcDbLayerTableRecord
  2
LAYER071
 70
               0
 62
               7
  6
CONTINUOUS
  0
LAYER
  5
7D
100
AcDbSymbolTableRecord
100
AcDbLayerTableRecord
  2
LAYER072
 70
               0
 62
               7
  6
CONTINUOUS
  0
LAYER
  5
7E
100
AcDbSymbolTableRecord
100
AcDbLayerTableRecord
  2
LAYER073
 70
               0
 62
               7
  6
CONTINUOUS
  0
LAYER
  5
7F
100
AcDbSymbolTableRecord
100
AcDbLayerTableRecord
  2
LAYER074
 70
               0
 62
               7
  6
CONTINUOUS
  0
LAYER
  5
80
100
AcDbSymbolTableRecord
100
AcDbLayerTableRecord
  2
LAYER075
 70
               0
 62
               7
  6
CONTINUOUS
  0
LAYER
  5
81
100
AcDbSymbolTableRecord
100
AcDbLayerTableRecord
  2
LAYER076
 70
               0
 62
               7
  6
CONTINUOUS
  0
LAYER
  5
82
100
AcDbSymbolTableRecord
100
AcDbLayerTableRecord
  2
LAYER077
 70
               0
 62
               7
  6
CONTINUOUS
  0
LAYER
  5
83
100
AcDbSymbolTableRecord
100
AcDbLayerTableRecord
  2
LAYER078
 70
               0
 62
               7
  6
CONTINUOUS
  0
LAYER
  5
84
100
AcDbSymbolTableRecord
100
AcDbLayerTableRecord
  2
LAYER079
 70
               0
 62
               7
  6
CONTINUOUS
  0
LAYER
  5
85
100
AcDbSymbolTableRecord
100
AcDbLayerTableRecord
  2
LAYER080
 70
               0
 62
               7
  6
CONTINUOUS
  0
LAYER
  5
86
100
AcDbSymbolTableRecord
100
AcDbLayerTableRecord
  2
LAYER081
 70
               0
 62
               7
  6
CONTINUOUS
  0
LAYER
  5
87
100
AcDbSymbolTableRecord
100
AcDbLayerTableRecord
  2
LAYER082
 70
               0
 62
               7
  6
CONTINUOUS
  0
LAYER
  5
88
100
AcDbSymbolTableRecord
100
AcDbLayerTableRecord
  2
LAYER083
 70
               0
 62
               7
  6
CONTINUOUS
  0
LAYER
  5
89
100
AcDbSymbolTableRecord
100
AcDbLayerTableRecord
  2
LAYER084
 70
               0
 62
               7
  6
CONTINUOUS
  0
LAYER
  5
8A
100
AcDbSymbolTableRecord
100
AcDbLayerTableRecord
  2
LAYER085
 70
               0
 62
               7
  6
CONTINUOUS
  0
LAYER
  5
8B
100
AcDbSymbolTableRecord
100
AcDbLayerTableRecord
  2
LAYER086
 70
               0
 62
               7
  6
CONTINUOUS
  0
LAYER
  5
8C
100
AcDbSymbolTableRecord
100
AcDbLayerTableRecord
  2
LAYER087
 70
               0
 62
               7
  6
CONTINUOUS
  0
LAYER
  5
8D
100
AcDbSymbolTableRecord
100
AcDbLayerTableRecord
  2
LAYER088
 70
               0
 62
               7
  6
CONTINUOUS
  0
LAYER
  5
8E
100
AcDbSymbolTableRecord
100
AcDbLayerTableRecord
  2
LAYER089
 70
               0
 62
               7
  6
CONTINUOUS
  0
LAYER
  5
8F
100
AcDbSymbolTableRecord
100
AcDbLayerTableRecord
  2
LAYER090
 70
               0
 62
               7
  6
CONTINUOUS
  0
LAYER
  5
90
100
AcDbSymbolTableRecord
100
AcDbLayerTableRecord
  2
LAYER091
 70
               0
 62
               7
  6
CONTINUOUS
  0
LAYER
  5
91
100
AcDbSymbolTableRecord
100
AcDbLayerTableRecord
  2
LAYER092
 70
               0
 62
               7
  6
CONTINUOUS
  0
LAYER
  5
92
100
AcDbSymbolTableRecord
100
AcDbLayerTableRecord
  2
LAYER093
 70
               0
 62
               7
  6
CONTINUOUS
  0
LAYER
  5
93
100
AcDbSymbolTableRecord
100
AcDbLayerTableRecord
  2
LAYER094
 70
               0
 62
               7
  6
CONTINUOUS
  0
LAYER
  5
94
100
AcDbSymbolTableRecord
100
AcDbLayerTableRecord
  2
LAYER095
 70
               0
 62
               7
  6
CONTINUOUS
  0
LAYER
  5
95
100
AcDbSymbolTableRecord
100
AcDbLayerTableRecord
  2
LAYER096
 70
               0
 62
               7
  6
CONTINUOUS
  0
LAYER
  5
96
100
AcDbSymbolTableRecord
100
AcDbLayerTableRecord
  2
LAYER097
 70
               0
 62
               7
  6
CONTINUOUS
  0
LAYER
  5
97
100
AcDbSymbolTableRecord
100
AcDbLayerTableRecord
  2
LAYER098
 70
               0
 62
               7
  6
CONTINUOUS
  0
LAYER
  5
98
100
AcDbSymbolTableRecord
100
AcDbLayerTableRecord
  2
LAYER099
 70
               0
 62
               7
  6
CONTINUOUS
  0
LAYER
  5
99
100
AcDbSymbolTableRecord
100
AcDbLayerTableRecord
  2
LAYER100
 70
               0
 62
               7
  6
CONTINUOUS
  0
LAYER
  5
9A
100
AcDbSymbolTableRecord
100
AcDbLayerTableRecord
  2
LAYER101
 70
               0
 62
               7
  6
CONTINUOUS
  0
LAYER
  5
9B
100
AcDbSymbolTableRecord
100
AcDbLayerTableRecord
  2
LAYER102
 70
               0
 62
               7
  6
CONTINUOUS
  0
LAYER
  5
9C
100
AcDbSymbolTableRecord
100
AcDbLayerTableRecord
  2
LAYER103
 70
               0
 62
               7
  6
CONTINUOUS
  0
LAYER
  5
9D
100
AcDbSymbolTableRecord
100
AcDbLayerTableRecord
  2
LAYER104
 70
               0
 62
               7
  6
CONTINUOUS
  0
LAYER
  5
9E
100
AcDbSymbolTableRecord
100
AcDbLayerTableRecord
  2
LAYER105
 70
               0
 62
               7
  6
CONTINUOUS
  0
LAYER
  5
9F
100
AcDbSymbolTableRecord
100
AcDbLayerTableRecord
  2
LAYER106
 70
               0
 62
               7
  6
CONTINUOUS
  0
LAYER
  5
A0
100
AcDbSymbolTableRecord
100
AcDbLayerTableRecord
  2
LAYER107
 70
               0
 62
               7
  6
CONTINUOUS
  0
LAYER
  5
A1
100
AcDbSymbolTableRecord
100
AcDbLayerTableRecord
  2
LAYER108
 70
               0
 62
               7
  6
CONTINUOUS
  0
LAYER
  5
A2
100
AcDbSymbolTableRecord
100
AcDbLayerTableRecord
  2
LAYER109
 70
               0
 62
               7
  6
CONTINUOUS
  0
LAYER
  5
A3
100
AcDbSymbolTableRecord
100
AcDbLayerTableRecord
  2
LAYER110
 70
               0
 62
               7
  6
CONTINUOUS
  0
LAYER
  5
A4
100
AcDbSymbolTableRecord
100
AcDbLayerTableRecord
  2
LAYER111
 70
               0
 62
               7
  6
CONTINUOUS
  0
LAYER
  5
A5
100
AcDbSymbolTableRecord
100
AcDbLayerTableRecord
  2
LAYER112
 70
               0
 62
               7
  6
CONTINUOUS
  0
LAYER
  5
A6
100
AcDbSymbolTableRecord
100
AcDbLayerTableRecord
  2
LAYER113
 70
               0
 62
               7
  6
CONTINUOUS
  0
LAYER
  5
A7
100
AcDbSymbolTableRecord
100
AcDbLayerTableRecord
  2
LAYER114
 70
               0
 62
               7
  6
CONTINUOUS
  0
LAYER
  5
A8
100
AcDbSymbolTableRecord
100
AcDbLayerTableRecord
  2
LAYER115
 70
               0
 62
               7
  6
CONTINUOUS
  0
LAYER
  5
A9
100
AcDbSymbolTableRecord
100
AcDbLayerTableRecord
  2
LAYER116
 70
               0
 62
               7
  6
CONTINUOUS
  0
LAYER
  5
AA
100
AcDbSymbolTableRecord
100
AcDbLayerTableRecord
  2
LAYER117
 70
               0
 62
               7
  6
CONTINUOUS
  0
LAYER
  5
AB
100
AcDbSymbolTableRecord
100
AcDbLayerTableRecord
  2
LAYER118
 70
               0
 62
               7
  6
CONTINUOUS
  0
LAYER
  5
AC
100
AcDbSymbolTableRecord
100
AcDbLayerTableRecord
  2
LAYER119
 70
               0
 62
               7
  6
CONTINUOUS
  0
LAYER
  5
AD
100
AcDbSymbolTableRecord
100
AcDbLayerTableRecord
  2
LAYER120
 70
               0
 62
               7
  6
CONTINUOUS
  0
LAYER
  5
AE
100
AcDbSymbolTableRecord
100
AcDbLayerTableRecord
  2
LAYER121
 70
               0
 62
               7
  6
CONTINUOUS
  0
LAYER
  5
AF
100
AcDbSymbolTableRecord
100
AcDbLayerTableRecord
  2
LAYER122
 70
               0
 62
               7
  6
CONTINUOUS
  0
LAYER
  5
B0
100
AcDbSymbolTableRecord
100
AcDbLayerTableRecord
  2
LAYER123
 70
               0
 62
               7
  6
CONTINUOUS
  0
LAYER
  5
B1
100
AcDbSymbolTableRecord
100
AcDbLayerTableRecord
  2
LAYER124
 70
               0
 62
               7
  6
CONTINUOUS
  0
LAYER
  5
B2
100
AcDbSymbolTableRecord
100
AcDbLayerTableRecord
  2
LAYER125
 70
               0
 62
               7
  6
CONTINUOUS
  0
LAYER
  5
B3
100
AcDbSymbolTableRecord
100
AcDbLayerTableRecord
  2
LAYER126
 70
               0
 62
               7
  6
CONTINUOUS
  0
LAYER
  5
B4
100
AcDbSymbolTableRecord
100
AcDbLayerTableRecord
  2
LAYER127
 70
               0
 62
               7
  6
CONTINUOUS
  0
LAYER
  5
B5
100
AcDbSymbolTableRecord
100
AcDbLayerTableRecord
  2
LAYER128
 70
               0
 62
               7
  6
CONTINUOUS
  0
LAYER
  5
B6
100
AcDbSymbolTableRecord
100
AcDbLayerTableRecord
  2
LAYER129
 70
               0
 62
               7
  6
CONTINUOUS
  0
LAYER
  5
B7
100
AcDbSymbolTableRecord
100
AcDbLayerTableRecord
  2
LAYER130
 70
               0
 62
               7
  6
CONTINUOUS
  0
LAYER
  5
B8
100
AcDbSymbolTableRecord
100
AcDbLayerTableRecord
  2
LAYER131
 70
               0
 62
               7
  6
CONTINUOUS
  0
LAYER
  5
B9
100
AcDbSymbolTableRecord
100
AcDbLayerTableRecord
  2
LAYER132
 70
               0
 62
               7
  6
CONTINUOUS
  0
LAYER
  5
BA
100
AcDbSymbolTableRecord
100
AcDbLayerTableRecord
  2
LAYER133
 70
               0
 62
               7
  6
CONTINUOUS
  0
LAYER
  5
BB
100
AcDbSymbolTableRecord
100
AcDbLayerTableRecord
  2
LAYER134
 70
               0
 62
               7
  6
CONTINUOUS
  0
LAYER
  5
BC
100
AcDbSymbolTableRecord
100
AcDbLayerTableRecord
  2
LAYER135
 70
               0
 62
               7
  6
CONTINUOUS
  0
LAYER
  5
BD
100
AcDbSymbolTableRecord
100
AcDbLayerTableRecord
  2
LAYER136
 70
               0
 62
               7
  6
CONTINUOUS
  0
LAYER
  5
BE
100
AcDbSymbolTableRecord
100
AcDbLayerTableRecord
  2
LAYER137
 70
               0
 62
               7
  6
CONTINUOUS
  0
LAYER
  5
BF
100
AcDbSymbolTableRecord
100
AcDbLayerTableRecord
  2
LAYER138
 70
               0
 62
               7
  6
CONTINUOUS
  0
LAYER
  5
C0
100
AcDbSymbolTableRecord
100
AcDbLayerTableRecord
  2
LAYER139
 70
               0
 62
               7
  6
CONTINUOUS
  0
LAYER
  5
C1
100
AcDbSymbolTableRecord
100
AcDbLayerTableRecord
  2
LAYER140
 70
               0
 62
               7
  6
CONTINUOUS
  0
LAYER
  5
C2
100
AcDbSymbolTableRecord
100
AcDbLayerTableRecord
  2
LAYER141
 70
               0
 62
               7
  6
CONTINUOUS
  0
LAYER
  5
C3
100
AcDbSymbolTableRecord
100
AcDbLayerTableRecord
  2
LAYER142
 70
               0
 62
               7
  6
CONTINUOUS
  0
LAYER
  5
C4
100
AcDbSymbolTableRecord
100
AcDbLayerTableRecord
  2
LAYER143
 70
               0
 62
               7
  6
CONTINUOUS
  0
LAYER
  5
C5
100
AcDbSymbolTableRecord
100
AcDbLayerTableRecord
  2
LAYER144
 70
               0
 62
               7
  6
CONTINUOUS
  0
LAYER
  5
C6
100
AcDbSymbolTableRecord
100
AcDbLayerTableRecord
  2
LAYER145
 70
               0
 62
               7
  6
CONTINUOUS
  0
LAYER
  5
C7
100
AcDbSymbolTableRecord
100
AcDbLayerTableRecord
  2
LAYER146
 70
               0
 62
               7
  6
CONTINUOUS
  0
LAYER
  5
C8
100
AcDbSymbolTableRecord
100
AcDbLayerTableRecord
  2
LAYER147
 70
               0
 62
               7
  6
CONTINUOUS
  0
LAYER
  5
C9
100
AcDbSymbolTableRecord
100
AcDbLayerTableRecord
  2
LAYER148
 70
               0
 62
               7
  6
CONTINUOUS
  0
LAYER
  5
CA
100
AcDbSymbolTableRecord
100
AcDbLayerTableRecord
  2
LAYER149
 70
               0
 62
               7
  6
CONTINUOUS
  0
LAYER
  5
CB
100
AcDbSymbolTableRecord
100
AcDbLayerTableRecord
  2
LAYER150
 70
               0
 62
               7
  6
CONTINUOUS
  0
LAYER
  5
CC
100
AcDbSymbolTableRecord
100
AcDbLayerTableRecord
  2
LAYER151
 70
               0
 62
               7
  6
CONTINUOUS
  0
LAYER
  5
CD
100
AcDbSymbolTableRecord
100
AcDbLayerTableRecord
  2
LAYER152
 70
               0
 62
               7
  6
CONTINUOUS
  0
LAYER
  5
CE
100
AcDbSymbolTableRecord
100
AcDbLayerTableRecord
  2
LAYER153
 70
               0
 62
               7
  6
CONTINUOUS
  0
LAYER
  5
CF
100
AcDbSymbolTableRecord
100
AcDbLayerTableRecord
  2
LAYER154
 70
               0
 62
               7
  6
CONTINUOUS
  0
LAYER
  5
D0
100
AcDbSymbolTableRecord
100
AcDbLayerTableRecord
  2
LAYER155
 70
               0
 62
               7
  6
CONTINUOUS
  0
LAYER
  5
D1
100
AcDbSymbolTableRecord
100
AcDbLayerTableRecord
  2
LAYER156
 70
               0
 62
               7
  6
CONTINUOUS
  0
LAYER
  5
D2
100
AcDbSymbolTableRecord
100
AcDbLayerTableRecord
  2
LAYER157
 70
               0
 62
               7
  6
CONTINUOUS
  0
LAYER
  5
D3
100
AcDbSymbolTableRecord
100
AcDbLayerTableRecord
  2
LAYER158
 70
               0
 62
               7
  6
CONTINUOUS
  0
LAYER
  5
D4
100
AcDbSymbolTableRecord
100
AcDbLayerTableRecord
  2
LAYER159
 70
               0
 62
               7
  6
CONTINUOUS
  0
LAYER
  5
D5
100
AcDbSymbolTableRecord
100
AcDbLayerTableRecord
  2
LAYER160
 70
               0
 62
               7
  6
CONTINUOUS
  0
LAYER
  5
D6
100
AcDbSymbolTableRecord
100
AcDbLayerTableRecord
  2
LAYER161
 70
               0
 62
               7
  6
CONTINUOUS
  0
LAYER
  5
D7
100
AcDbSymbolTableRecord
100
AcDbLayerTableRecord
  2
LAYER162
 70
               0
 62
               7
  6
CONTINUOUS
  0
LAYER
  5
D8
100
AcDbSymbolTableRecord
100
AcDbLayerTableRecord
  2
LAYER163
 70
               0
 62
               7
  6
CONTINUOUS
  0
LAYER
  5
D9
100
AcDbSymbolTableRecord
100
AcDbLayerTableRecord
  2
LAYER164
 70
               0
 62
               7
  6
CONTINUOUS
  0
LAYER
  5
DA
100
AcDbSymbolTableRecord
100
AcDbLayerTableRecord
  2
LAYER165
 70
               0
 62
               7
  6
CONTINUOUS
  0
LAYER
  5
DB
100
AcDbSymbolTableRecord
100
AcDbLayerTableRecord
  2
LAYER166
 70
               0
 62
               7
  6
CONTINUOUS
  0
LAYER
  5
DC
100
AcDbSymbolTableRecord
100
AcDbLayerTableRecord
  2
LAYER167
 70
               0
 62
               7
  6
CONTINUOUS
  0
LAYER
  5
DD
100
AcDbSymbolTableRecord
100
AcDbLayerTableRecord
  2
LAYER168
 70
               0
 62
               7
  6
CONTINUOUS
  0
LAYER
  5
DE
100
AcDbSymbolTableRecord
100
AcDbLayerTableRecord
  2
LAYER169
 70
               0
 62
               7
  6
CONTINUOUS
  0
LAYER
  5
DF
100
AcDbSymbolTableRecord
100
AcDbLayerTableRecord
  2
LAYER170
 70
               0
 62
               7
  6
CONTINUOUS
  0
LAYER
  5
E0
100
AcDbSymbolTableRecord
100
AcDbLayerTableRecord
  2
LAYER171
 70
               0
 62
               7
  6
CONTINUOUS
  0
LAYER
  5
E1
100
AcDbSymbolTableRecord
100
AcDbLayerTableRecord
  2
LAYER172
 70
               0
 62
               7
  6
CONTINUOUS
  0
LAYER
  5
E2
100
AcDbSymbolTableRecord
100
AcDbLayerTableRecord
  2
LAYER173
 70
               0
 62
               7
  6
CONTINUOUS
  0
LAYER
  5
E3
100
AcDbSymbolTableRecord
100
AcDbLayerTableRecord
  2
LAYER174
 70
               0
 62
               7
  6
CONTINUOUS
  0
LAYER
  5
E4
100
AcDbSymbolTableRecord
100
AcDbLayerTableRecord
  2
LAYER175
 70
               0
 62
               7
  6
CONTINUOUS
  0
LAYER
  5
E5
100
AcDbSymbolTableRecord
100
AcDbLayerTableRecord
  2
LAYER176
 70
               0
 62
               7
  6
CONTINUOUS
  0
LAYER
  5
E6
100
AcDbSymbolTableRecord
100
AcDbLayerTableRecord
  2
LAYER177
 70
               0
 62
               7
  6
CONTINUOUS
  0
LAYER
  5
E7
100
AcDbSymbolTableRecord
100
AcDbLayerTableRecord
  2
LAYER178
 70
               0
 62
               7
  6
CONTINUOUS
  0
LAYER
  5
E8
100
AcDbSymbolTableRecord
100
AcDbLayerTableRecord
  2
LAYER179
 70
               0
 62
               7
  6
CONTINUOUS
  0
LAYER
  5
E9
100
AcDbSymbolTableRecord
100
AcDbLayerTableRecord
  2
LAYER180
 70
               0
 62
               7
  6
CONTINUOUS
  0
LAYER
  5
EA
100
AcDbSymbolTableRecord
100
AcDbLayerTableRecord
  2
LAYER181
 70
               0
 62
               7
  6
CONTINUOUS
  0
LAYER
  5
EB
100
AcDbSymbolTableRecord
100
AcDbLayerTableRecord
  2
LAYER182
 70
               0
 62
               7
  6
CONTINUOUS
  0
LAYER
  5
EC
100
AcDbSymbolTableRecord
100
AcDbLayerTableRecord
  2
LAYER183
 70
               0
 62
               7
  6
CONTINUOUS
  0
LAYER
  5
ED
100
AcDbSymbolTableRecord
100
AcDbLayerTableRecord
  2
LAYER184
 70
               0
 62
               7
  6
CONTINUOUS
  0
LAYER
  5
EE
100
AcDbSymbolTableRecord
100
AcDbLayerTableRecord
  2
LAYER185
 70
               0
 62
               7
  6
CONTINUOUS
  0
LAYER
  5
EF
100
AcDbSymbolTableRecord
100
AcDbLayerTableRecord
  2
LAYER186
 70
               0
 62
               7
  6
CONTINUOUS
  0
LAYER
  5
F0
100
AcDbSymbolTableRecord
100
AcDbLayerTableRecord
  2
LAYER187
 70
               0
 62
               7
  6
CONTINUOUS
  0
LAYER
  5
F1
100
AcDbSymbolTableRecord
100
AcDbLayerTableRecord
  2
LAYER188
 70
               0
 62
               7
  6
CONTINUOUS
  0
LAYER
  5
F2
100
AcDbSymbolTableRecord
100
AcDbLayerTableRecord
  2
LAYER189
 70
               0
 62
               7
  6
CONTINUOUS
  0
LAYER
  5
F3
100
AcDbSymbolTableRecord
100
AcDbLayerTableRecord
  2
LAYER190
 70
               0
 62
               7
  6
CONTINUOUS
  0
LAYER
  5
F4
100
AcDbSymbolTableRecord
100
AcDbLayerTableRecord
  2
LAYER191
 70
               0
 62
               7
  6
CONTINUOUS
  0
LAYER
  5
F5
100
AcDbSymbolTableRecord
100
AcDbLayerTableRecord
  2
LAYER192
 70
               0
 62
               7
  6
CONTINUOUS
  0
LAYER
  5
F6
100
AcDbSymbolTableRecord
100
AcDbLayerTableRecord
  2
LAYER193
 70
               0
 62
               7
  6
CONTINUOUS
  0
LAYER
  5
F7
100
AcDbSymbolTableRecord
100
AcDbLayerTableRecord
  2
LAYER194
 70
               0
 62
               7
  6
CONTINUOUS
  0
LAYER
  5
F8
100
AcDbSymbolTableRecord
100
AcDbLayerTableRecord
  2
LAYER195
 70
               0
 62
               7
  6
CONTINUOUS
  0
LAYER
  5
F9
100
AcDbSymbolTableRecord
100
AcDbLayerTableRecord
  2
LAYER196
 70
               0
 62
               7
  6
CONTINUOUS
  0
LAYER
  5
FA
100
AcDbSymbolTableRecord
100
AcDbLayerTableRecord
  2
LAYER197
 70
               0
 62
               7
  6
CONTINUOUS
  0
LAYER
  5
FB
100
AcDbSymbolTableRecord
100
AcDbLayerTableRecord
  2
LAYER198
 70
               0
 62
               7
  6
CONTINUOUS
  0
LAYER
  5
FC
100
AcDbSymbolTableRecord
100
AcDbLayerTableRecord
  2
LAYER199
 70
               0
 62
               7
  6
CONTINUOUS
  0
LAYER
  5
FD
100
AcDbSymbolTableRecord
100
AcDbLayerTableRecord
  2
LAYER200
 70
               0
 62
               7
  6
CONTINUOUS
  0
LAYER
  5
FE
100
AcDbSymbolTableRecord
100
AcDbLayerTableRecord
  2
LAYER201
 70
               0
 62
               7
  6
CONTINUOUS
  0
LAYER
  5
FF
100
AcDbSymbolTableRecord
100
AcDbLayerTableRecord
  2
LAYER202
 70
               0
 62
               7
  6
CONTINUOUS
  0
LAYER
  5
100
100
AcDbSymbolTableRecord
100
AcDbLayerTableRecord
  2
LAYER203
 70
               0
 62
               7
  6
CONTINUOUS
  0
LAYER
  5
101
100
AcDbSymbolTableRecord
100
AcDbLayerTableRecord
  2
LAYER204
 70
               0
 62
               7
  6
CONTINUOUS
  0
LAYER
  5
102
100
AcDbSymbolTableRecord
100
AcDbLayerTableRecord
  2
LAYER205
 70
               0
 62
               7
  6
CONTINUOUS
  0
LAYER
  5
103
100
AcDbSymbolTableRecord
100
AcDbLayerTableRecord
  2
LAYER206
 70
               0
 62
               7
  6
CONTINUOUS
  0
LAYER
  5
104
100
AcDbSymbolTableRecord
100
AcDbLayerTableRecord
  2
LAYER207
 70
               0
 62
               7
  6
CONTINUOUS
  0
LAYER
  5
105
100
AcDbSymbolTableRecord
100
AcDbLayerTableRecord
  2
LAYER208
 70
               0
 62
               7
  6
CONTINUOUS
  0
LAYER
  5
106
100
AcDbSymbolTableRecord
100
AcDbLayerTableRecord
  2
LAYER209
 70
               0
 62
               7
  6
CONTINUOUS
  0
LAYER
  5
107
100
AcDbSymbolTableRecord
100
AcDbLayerTableRecord
  2
LAYER210
 70
               0
 62
               7
  6
CONTINUOUS
  0
LAYER
  5
108
100
AcDbSymbolTableRecord
100
AcDbLayerTableRecord
  2
LAYER211
 70
               0
 62
               7
  6
CONTINUOUS
  0
LAYER
  5
109
100
AcDbSymbolTableRecord
100
AcDbLayerTableRecord
  2
LAYER212
 70
               0
 62
               7
  6
CONTINUOUS
  0
LAYER
  5
10A
100
AcDbSymbolTableRecord
100
AcDbLayerTableRecord
  2
LAYER213
 70
               0
 62
               7
  6
CONTINUOUS
  0
LAYER
  5
10B
100
AcDbSymbolTableRecord
100
AcDbLayerTableRecord
  2
LAYER214
 70
               0
 62
               7
  6
CONTINUOUS
  0
LAYER
  5
10C
100
AcDbSymbolTableRecord
100
AcDbLayerTableRecord
  2
LAYER215
 70
               0
 62
               7
  6
CONTINUOUS
  0
LAYER
  5
10D
100
AcDbSymbolTableRecord
100
AcDbLayerTableRecord
  2
LAYER216
 70
               0
 62
               7
  6
CONTINUOUS
  0
LAYER
  5
10E
100
AcDbSymbolTableRecord
100
AcDbLayerTableRecord
  2
LAYER217
 70
               0
 62
               7
  6
CONTINUOUS
  0
LAYER
  5
10F
100
AcDbSymbolTableRecord
100
AcDbLayerTableRecord
  2
LAYER218
 70
               0
 62
               7
  6
CONTINUOUS
  0
LAYER
  5
110
100
AcDbSymbolTableRecord
100
AcDbLayerTableRecord
  2
LAYER219
 70
               0
 62
               7
  6
CONTINUOUS
  0
LAYER
  5
111
100
AcDbSymbolTableRecord
100
AcDbLayerTableRecord
  2
LAYER220
 70
               0
 62
               7
  6
CONTINUOUS
  0
LAYER
  5
112
100
AcDbSymbolTableRecord
100
AcDbLayerTableRecord
  2
LAYER221
 70
               0
 62
               7
  6
CONTINUOUS
  0
LAYER
  5
113
100
AcDbSymbolTableRecord
100
AcDbLayerTableRecord
  2
LAYER222
 70
               0
 62
               7
  6
CONTINUOUS
  0
LAYER
  5
114
100
AcDbSymbolTableRecord
100
AcDbLayerTableRecord
  2
LAYER223
 70
               0
 62
               7
  6
CONTINUOUS
  0
LAYER
  5
115
100
AcDbSymbolTableRecord
100
AcDbLayerTableRecord
  2
LAYER224
 70
               0
 62
               7
  6
CONTINUOUS
  0
LAYER
  5
116
100
AcDbSymbolTableRecord
100
AcDbLayerTableRecord
  2
LAYER225
 70
               0
 62
               7
  6
CONTINUOUS
  0
LAYER
  5
117
100
AcDbSymbolTableRecord
100
AcDbLayerTableRecord
  2
LAYER226
 70
               0
 62
               7
  6
CONTINUOUS
  0
LAYER
  5
118
100
AcDbSymbolTableRecord
100
AcDbLayerTableRecord
  2
LAYER227
 70
               0
 62
               7
  6
CONTINUOUS
  0
LAYER
  5
119
100
AcDbSymbolTableRecord
100
AcDbLayerTableRecord
  2
LAYER228
 70
               0
 62
               7
  6
CONTINUOUS
  0
LAYER
  5
11A
100
AcDbSymbolTableRecord
100
AcDbLayerTableRecord
  2
LAYER229
 70
               0
 62
               7
  6
CONTINUOUS
  0
LAYER
  5
11B
100
AcDbSymbolTableRecord
100
AcDbLayerTableRecord
  2
LAYER230
 70
               0
 62
               7
  6
CONTINUOUS
  0
LAYER
  5
11C
100
AcDbSymbolTableRecord
100
AcDbLayerTableRecord
  2
LAYER231
 70
               0
 62
               7
  6
CONTINUOUS
  0
LAYER
  5
11D
100
AcDbSymbolTableRecord
100
AcDbLayerTableRecord
  2
LAYER232
 70
               0
 62
               7
  6
CONTINUOUS
  0
LAYER
  5
11E
100
AcDbSymbolTableRecord
100
AcDbLayerTableRecord
  2
LAYER233
 70
               0
 62
               7
  6
CONTINUOUS
  0
LAYER
  5
11F
100
AcDbSymbolTableRecord
100
AcDbLayerTableRecord
  2
LAYER234
 70
               0
 62
               7
  6
CONTINUOUS
  0
LAYER
  5
120
100
AcDbSymbolTableRecord
100
AcDbLayerTableRecord
  2
LAYER235
 70
               0
 62
               7
  6
CONTINUOUS
  0
LAYER
  5
121
100
AcDbSymbolTableRecord
100
AcDbLayerTableRecord
  2
LAYER236
 70
               0
 62
               7
  6
CONTINUOUS
  0
LAYER
  5
122
100
AcDbSymbolTableRecord
100
AcDbLayerTableRecord
  2
LAYER237
 70
               0
 62
               7
  6
CONTINUOUS
  0
LAYER
  5
123
100
AcDbSymbolTableRecord
100
AcDbLayerTableRecord
  2
LAYER238
 70
               0
 62
               7
  6
CONTINUOUS
  0
LAYER
  5
124
100
AcDbSymbolTableRecord
100
AcDbLayerTableRecord
  2
LAYER239
 70
               0
 62
               7
  6
CONTINUOUS
  0
LAYER
  5
125
100
AcDbSymbolTableRecord
100
AcDbLayerTableRecord
  2
LAYER240
 70
               0
 62
               7
  6
CONTINUOUS
  0
LAYER
  5
126
100
AcDbSymbolTableRecord
100
AcDbLayerTableRecord
  2
LAYER241
 70
               0
 62
               7
  6
CONTINUOUS
  0
LAYER
  5
127
100
AcDbSymbolTableRecord
100
AcDbLayerTableRecord
  2
LAYER242
 70
               0
 62
               7
  6
CONTINUOUS
  0
LAYER
  5
128
100
AcDbSymbolTableRecord
100
AcDbLayerTableRecord
  2
LAYER243
 70
               0
 62
               7
  6
CONTINUOUS
  0
LAYER
  5
129
100
AcDbSymbolTableRecord
100
AcDbLayerTableRecord
  2
LAYER244
 70
               0
 62
               7
  6
CONTINUOUS
  0
LAYER
  5
12A
100
AcDbSymbolTableRecord
100
AcDbLayerTableRecord
  2
LAYER245
 70
               0
 62
               7
  6
CONTINUOUS
  0
LAYER
  5
12B
100
AcDbSymbolTableRecord
100
AcDbLayerTableRecord
  2
LAYER246
 70
               0
 62
               7
  6
CONTINUOUS
  0
LAYER
  5
12C
100
AcDbSymbolTableRecord
100
AcDbLayerTableRecord
  2
LAYER247
 70
               0
 62
               7
  6
CONTINUOUS
  0
LAYER
  5
12D
100
AcDbSymbolTableRecord
100
AcDbLayerTableRecord
  2
LAYER248
 70
               0
 62
               7
  6
CONTINUOUS
  0
LAYER
  5
12E
100
AcDbSymbolTableRecord
100
AcDbLayerTableRecord
  2
LAYER249
 70
               0
 62
               7
  6
CONTINUOUS
  0
LAYER
  5
12F
100
AcDbSymbolTableRecord
100
AcDbLayerTableRecord
  2
LAYER250
 70
               0
 62
               7
  6
CONTINUOUS
  0
LAYER
  5
130
100
AcDbSymbolTableRecord
100
AcDbLayerTableRecord
  2
LAYER251
 70
               0
 62
               7
  6
CONTINUOUS
  0
LAYER
  5
131
100
AcDbSymbolTableRecord
100
AcDbLayerTableRecord
  2
LAYER252
 70
               0
 62
               7
  6
CONTINUOUS
  0
LAYER
  5
132
100
AcDbSymbolTableRecord
100
AcDbLayerTableRecord
  2
LAYER253
 70
               0
 62
               7
  6
CONTINUOUS
  0
LAYER
  5
133
100
AcDbSymbolTableRecord
100
AcDbLayerTableRecord
  2
LAYER254
 70
               0
 62
               7
  6
CONTINUOUS
  0
LAYER
  5
134
100
AcDbSymbolTableRecord
100
AcDbLayerTableRecord
  2
LAYER255
 70
               0
 62
               7
  6
CONTINUOUS
  0
ENDTAB
  0
TABLE
  2
STYLE
  5
3
100
AcDbSymbolTable
 70
               1
  0
STYLE
  5
17
100
AcDbSymbolTableRecord
100
AcDbTextStyleTableRecord
  2
STANDARD
 70
               0
 40
0.0
 41
1.0
 50
0.0
 71
               0
 42
0.0
  3
txt
  4

  0
ENDTAB
  0
TABLE
  2
VIEW
  5
5
100
AcDbSymbolTable
 70
               1
  0
VIEW
  5
135
100
AcDbSymbolTableRecord
100
AcDbViewTableRecord
  2
QQQQ
 70
               0
 40
654.51758443449057
 10
17.495551311580499
 20
19.801802911534168
 41
331.35756839859289
 11
0.0
 21
0.0
 31
1.0
 12
100.0
 22
100.0
 32
0.0
 42
50.0
 43
0.0
 44
0.0
 50
0.0
 71
               0
  0
ENDTAB
  0
TABLE
  2
UCS
  5
6
100
AcDbSymbolTable
 70
               0
  0
ENDTAB
  0
TABLE
  2
APPID
  5
8
100
AcDbSymbolTable
 70
               1
  0
APPID
  5
16
100
AcDbSymbolTableRecord
100
AcDbRegAppTableRecord
  2
ACAD
 70
               0
  0
ENDTAB
  0
TABLE
  2
DIMSTYLE
  5
9
100
AcDbSymbolTable
 70
               1
  0
DIMSTYLE
105
18
100
AcDbSymbolTableRecord
100
AcDbDimStyleTableRecord
  2
STANDARD
 70
               0
  3

  4

  5

  6

  7

 40
1.0
 41
0.18
 42
0.0625
 43
0.38
 44
0.18
 45
0.0
 46
0.0
 47
0.0
 48
0.0
140
0.18
141
0.09
142
0.0
143
25.399999999999999
144
1.0
145
0.0
146
1.0
147
0.09
 71
               0
 72
               0
 73
               1
 74
               1
 75
               0
 76
               0
 77
               0
 78
               0
170
               0
171
               2
172
               0
173
               0
174
               0
175
               0
176
               0
177
               0
178
               0
270
               2
271
               4
272
               4
273
               2
274
               2
340
17
275
               0
280
               0
281
               0
282
               0
283
               1
284
               0
285
               0
286
               0
287
               0
288
               0
  0
ENDTAB
  0
TABLE
  2
BLOCK_RECORD
  5
1
100
AcDbSymbolTable
 70
               0
  0
BLOCK_RECORD
  5
A
100
AcDbSymbolTableRecord
100
AcDbBlockTableRecord
  2
*MODEL_SPACE
  0
BLOCK_RECORD
  5
B
100
AcDbSymbolTableRecord
100
AcDbBlockTableRecord
  2
*PAPER_SPACE
  0
ENDTAB
  0
ENDSEC
  0
SECTION
  2
BLOCKS
  0
BLOCK
  5
D
100
AcDbEntity
  8
0
100
AcDbBlockBegin
  2
*MODEL_SPACE
 70
               0
 10
0.0
 20
0.0
 30
0.0
  3
*MODEL_SPACE
  1

  0
ENDBLK
  5
E
100
AcDbEntity
  8
0
100
AcDbBlockEnd
  0
BLOCK
  5
F
100
AcDbEntity
 67
               1
  8
0
100
AcDbBlockBegin
  2
*PAPER_SPACE
 70
               0
 10
0.0
 20
0.0
 30
0.0
  3
*PAPER_SPACE
  1

  0
ENDBLK
  5
10
100
AcDbEntity
 67
               1
  8
0
100
AcDbBlockEnd
  0
ENDSEC
  0
SECTION
  2
ENTITIES
  0
LINE
  5
136
100
AcDbEntity
  8
0
  6
DASHDOT
 62
               7
100
AcDbLine
 10
-132.44
 20
181.15999999999997
 30
0.0
 11
135.40000000000001
 21
181.15999999999997
 31
0.0
  0
LINE
  5
137
100
AcDbEntity
  8
0
  6
DASHDOT
 62
               7
100
AcDbLine
 10
-0.0000000000000008
 20
-65.962704378434253
 30
0.0
 11
0.0
 21
-276.36000000000001
 31
0.0
  0
LINE
  5
138
100
AcDbEntity
  8
0
  6
DASHDOT
 62
               7
100
AcDbLine
 10
0.0
 20
52.739999999999895
 30
0.0
 11
0.0000000000000161
 21
315.96360582306835
 31
0.0
  0
LINE
  5
139
100
AcDbEntity
  8
0
  6
DASHDOT
 62
               7
100
AcDbLine
 10
165.12348233887664
 20
-200.93859247282631
 30
0.0
 11
66.918880938772091
 21
-198.95008815728903
 31
0.0
  0
LINE
  5
13A
100
AcDbEntity
  8
0
  6
DASHDOT
 62
               7
100
AcDbLine
 10
167.431102623161
 20
-200.00000000000009
 30
0.0
 11
52.78063109286812
 21
-200.00000000000009
 31
0.0
  0
ARC
  5
13B
100
AcDbEntity
  8
0
  6
CONTINUOUS
 62
               7
100
AcDbCircle
 10
0.0
 20
181.15999999999997
 30
0.0
 40
120.0
100
AcDbArc
 50
18.966666644994049
 51
179.99999979431962
  0
ARC
  5
13C
100
AcDbEntity
  8
0
  6
CONTINUOUS
 62
               7
100
AcDbCircle
 10
0.0
 20
181.15999999999997
 30
0.0
 40
111.99999999999999
100
AcDbArc
 50
0.0
 51
179.99999979431962
  0
ARC
  5
13D
100
AcDbEntity
  8
0
  6
CONTINUOUS
 62
               7
100
AcDbCircle
 10
0.0
 20
181.15999999999997
 30
0.0
 40
79.0
100
AcDbArc
 50
0.0
 51
179.9999999999996
  0
ARC
  5
13E
100
AcDbEntity
  8
0
  6
CONTINUOUS
 62
               7
100
AcDbCircle
 10
0.0
 20
181.15999999999997
 30
0.0
 40
76.0
100
AcDbArc
 50
0.0
 51
179.9999999999996
  0
LINE
  5
13F
100
AcDbEntity
  8
0
  6
CONTINUOUS
 62
               7
100
AcDbLine
 10
120.0
 20
181.15999999999997
 30
0.0
 11
120.0
 21
220.15999999999997
 31
0.0
  0
LINE
  5
140
100
AcDbEntity
  8
0
  6
CONTINUOUS
 62
               7
100
AcDbLine
 10
120.0
 20
220.15999999999997
 30
0.0
 11
113.48
 21
220.15999999999997
 31
0.0
  0
LINE
  5
141
100
AcDbEntity
  8
0
  6
CONTINUOUS
 62
               7
100
AcDbLine
 10
67.659999999999997
 20
181.15999999999997
 30
0.0
 11
67.659999999999997
 21
181.42000000000002
 31
0.0
  0
LINE
  5
142
100
AcDbEntity
  8
0
  6
CONTINUOUS
 62
               7
100
AcDbLine
 10
67.659999999999997
 20
181.42000000000002
 30
0.0
 11
67.620000000000005
 21
181.68000000000001
 31
0.0
  0
LINE
  5
143
100
AcDbEntity
  8
0
  6
CONTINUOUS
 62
               7
100
AcDbLine
 10
67.620000000000005
 20
181.68000000000001
 30
0.0
 11
67.579999999999998
 21
181.94
 31
0.0
  0
LINE
  5
144
100
AcDbEntity
  8
0
  6
CONTINUOUS
 62
               7
100
AcDbLine
 10
67.579999999999998
 20
181.94
 30
0.0
 11
67.5
 21
182.18000000000001
 31
0.0
  0
LINE
  5
145
100
AcDbEntity
  8
0
  6
CONTINUOUS
 62
               7
100
AcDbLine
 10
67.5
 20
182.18000000000001
 30
0.0
 11
67.419999999999987
 21
182.42000000000002
 31
0.0
  0
LINE
  5
146
100
AcDbEntity
  8
0
  6
CONTINUOUS
 62
               7
100
AcDbLine
 10
67.419999999999987
 20
182.42000000000002
 30
0.0
 11
67.319999999999993
 21
182.65999999999997
 31
0.0
  0
LINE
  5
147
100
AcDbEntity
  8
0
  6
CONTINUOUS
 62
               7
100
AcDbLine
 10
67.319999999999993
 20
182.65999999999997
 30
0.0
 11
67.179999999999993
 21
182.88
 31
0.0
  0
LINE
  5
148
100
AcDbEntity
  8
0
  6
CONTINUOUS
 62
               7
100
AcDbLine
 10
67.179999999999993
 20
182.88
 30
0.0
 11
67.060000000000002
 21
183.07999999999998
 31
0.0
  0
LINE
  5
149
100
AcDbEntity
  8
0
  6
CONTINUOUS
 62
               7
100
AcDbLine
 10
67.060000000000002
 20
183.07999999999998
 30
0.0
 11
66.899999999999991
 21
183.27999999999997
 31
0.0
  0
LINE
  5
14A
100
AcDbEntity
  8
0
  6
CONTINUOUS
 62
               7
100
AcDbLine
 10
66.899999999999991
 20
183.27999999999997
 30
0.0
 11
66.739999999999995
 21
183.45999999999998
 31
0.0
  0
LINE
  5
14B
100
AcDbEntity
  8
0
  6
CONTINUOUS
 62
               7
100
AcDbLine
 10
66.739999999999995
 20
183.45999999999998
 30
0.0
 11
66.559999999999988
 21
183.62
 31
0.0
  0
LINE
  5
14C
100
AcDbEntity
  8
0
  6
CONTINUOUS
 62
               7
100
AcDbLine
 10
66.559999999999988
 20
183.62
 30
0.0
 11
66.359999999999999
 21
183.75999999999999
 31
0.0
  0
LINE
  5
14D
100
AcDbEntity
  8
0
  6
CONTINUOUS
 62
               7
100
AcDbLine
 10
66.359999999999999
 20
183.75999999999999
 30
0.0
 11
66.159999999999997
 21
183.88000000000005
 31
0.0
  0
LINE
  5
14E
100
AcDbEntity
  8
0
  6
CONTINUOUS
 62
               7
100
AcDbLine
 10
66.159999999999997
 20
183.88000000000005
 30
0.0
 11
65.939999999999998
 21
183.98000000000002
 31
0.0
  0
LINE
  5
14F
100
AcDbEntity
  8
0
  6
CONTINUOUS
 62
               7
100
AcDbLine
 10
65.939999999999998
 20
183.98000000000002
 30
0.0
 11
65.740000000000009
 21
184.06
 31
0.0
  0
LINE
  5
150
100
AcDbEntity
  8
0
  6
CONTINUOUS
 62
               7
100
AcDbLine
 10
65.740000000000009
 20
184.06
 30
0.0
 11
65.519999999999996
 21
184.11999999999995
 31
0.0
  0
LINE
  5
151
100
AcDbEntity
  8
0
  6
CONTINUOUS
 62
               7
100
AcDbLine
 10
65.519999999999996
 20
184.11999999999995
 30
0.0
 11
65.280000000000001
 21
184.13999999999999
 31
0.0
  0
LINE
  5
152
100
AcDbEntity
  8
0
  6
CONTINUOUS
 62
               7
100
AcDbLine
 10
65.280000000000001
 20
184.13999999999999
 30
0.0
 11
65.059999999999988
 21
184.15999999999997
 31
0.0
  0
LINE
  5
153
100
AcDbEntity
  8
0
  6
CONTINUOUS
 62
               7
100
AcDbLine
 10
65.059999999999988
 20
184.15999999999997
 30
0.0
 11
64.93127196001079
 21
184.14829745091004
 31
0.0
  0
LINE
  5
154
100
AcDbEntity
  8
0
  6
CONTINUOUS
 62
               7
100
AcDbLine
 10
-33.82
 20
239.75999999999999
 30
0.0
 11
-34.060000000000016
 21
239.61999999999995
 31
0.0
  0
LINE
  5
155
100
AcDbEntity
  8
0
  6
CONTINUOUS
 62
               7
100
AcDbLine
 10
-34.060000000000016
 20
239.61999999999995
 30
0.0
 11
-34.260000000000005
 21
239.45999999999998
 31
0.0
  0
LINE
  5
156
100
AcDbEntity
  8
0
  6
CONTINUOUS
 62
               7
100
AcDbLine
 10
-34.260000000000005
 20
239.45999999999998
 30
0.0
 11
-34.459999999999994
 21
239.30000000000001
 31
0.0
  0
LINE
  5
157
100
AcDbEntity
  8
0
  6
CONTINUOUS
 62
               7
100
AcDbLine
 10
-34.459999999999994
 20
239.30000000000001
 30
0.0
 11
-34.640000000000001
 21
239.09999999999997
 31
0.0
  0
LINE
  5
158
100
AcDbEntity
  8
0
  6
CONTINUOUS
 62
               7
100
AcDbLine
 10
-34.640000000000001
 20
239.09999999999997
 30
0.0
 11
-34.799999999999983
 21
238.92000000000002
 31
0.0
  0
LINE
  5
159
100
AcDbEntity
  8
0
  6
CONTINUOUS
 62
               7
100
AcDbLine
 10
-34.799999999999983
 20
238.92000000000002
 30
0.0
 11
-34.959999999999987
 21
238.71999999999997
 31
0.0
  0
LINE
  5
15A
100
AcDbEntity
  8
0
  6
CONTINUOUS
 62
               7
100
AcDbLine
 10
-34.959999999999987
 20
238.71999999999997
 30
0.0
 11
-35.079999999999984
 21
238.47999999999996
 31
0.0
  0
LINE
  5
15B
100
AcDbEntity
  8
0
  6
CONTINUOUS
 62
               7
100
AcDbLine
 10
-35.079999999999984
 20
238.47999999999996
 30
0.0
 11
-35.200000000000003
 21
238.28000000000003
 31
0.0
  0
LINE
  5
15C
100
AcDbEntity
  8
0
  6
CONTINUOUS
 62
               7
100
AcDbLine
 10
-35.200000000000003
 20
238.28000000000003
 30
0.0
 11
-35.280000000000015
 21
238.03999999999996
 31
0.0
  0
LINE
  5
15D
100
AcDbEntity
  8
0
  6
CONTINUOUS
 62
               7
100
AcDbLine
 10
-35.280000000000015
 20
238.03999999999996
 30
0.0
 11
-35.359999999999985
 21
237.80000000000001
 31
0.0
  0
LINE
  5
15E
100
AcDbEntity
  8
0
  6
CONTINUOUS
 62
               7
100
AcDbLine
 10
-35.359999999999985
 20
237.80000000000001
 30
0.0
 11
-35.419999999999995
 21
237.57999999999998
 31
0.0
  0
LINE
  5
15F
100
AcDbEntity
  8
0
  6
CONTINUOUS
 62
               7
100
AcDbLine
 10
-35.419999999999995
 20
237.57999999999998
 30
0.0
 11
-35.439999999999998
 21
237.31999999999999
 31
0.0
  0
LINE
  5
160
100
AcDbEntity
  8
0
  6
CONTINUOUS
 62
               7
100
AcDbLine
 10
-35.439999999999998
 20
237.31999999999999
 30
0.0
 11
-35.439999999999998
 21
237.09999999999997
 31
0.0
  0
LINE
  5
161
100
AcDbEntity
  8
0
  6
CONTINUOUS
 62
               7
100
AcDbLine
 10
-35.439999999999998
 20
237.09999999999997
 30
0.0
 11
-35.419999999999995
 21
236.86000000000001
 31
0.0
  0
LINE
  5
162
100
AcDbEntity
  8
0
  6
CONTINUOUS
 62
               7
100
AcDbLine
 10
-35.419999999999995
 20
236.86000000000001
 30
0.0
 11
-35.38000000000001
 21
236.63999999999999
 31
0.0
  0
LINE
  5
163
100
AcDbEntity
  8
0
  6
CONTINUOUS
 62
               7
100
AcDbLine
 10
-35.38000000000001
 20
236.63999999999999
 30
0.0
 11
-35.32
 21
236.42000000000002
 31
0.0
  0
LINE
  5
164
100
AcDbEntity
  8
0
  6
CONTINUOUS
 62
               7
100
AcDbLine
 10
-35.32
 20
236.42000000000002
 30
0.0
 11
-35.220000000000006
 21
236.19999999999999
 31
0.0
  0
LINE
  5
165
100
AcDbEntity
  8
0
  6
CONTINUOUS
 62
               7
100
AcDbLine
 10
-35.220000000000006
 20
236.19999999999999
 30
0.0
 11
-35.120000000000012
 21
236.0
 31
0.0
  0
LINE
  5
166
100
AcDbEntity
  8
0
  6
CONTINUOUS
 62
               7
100
AcDbLine
 10
-35.120000000000012
 20
236.0
 30
0.0
 11
-35.052463691655007
 21
235.89869553748247
 31
0.0
  0
LINE
  5
167
100
AcDbEntity
  8
0
  6
CONTINUOUS
 62
               7
100
AcDbLine
 10
-29.882020298623608
 20
238.88404059724721
 30
0.0
 11
-29.940000000000012
 21
239.0
 31
0.0
  0
LINE
  5
168
100
AcDbEntity
  8
0
  6
CONTINUOUS
 62
               7
100
AcDbLine
 10
-29.940000000000012
 20
239.0
 30
0.0
 11
-30.060000000000009
 21
239.18000000000001
 31
0.0
  0
LINE
  5
169
100
AcDbEntity
  8
0
  6
CONTINUOUS
 62
               7
100
AcDbLine
 10
-30.060000000000009
 20
239.18000000000001
 30
0.0
 11
-30.199999999999989
 21
239.38
 31
0.0
  0
LINE
  5
16A
100
AcDbEntity
  8
0
  6
CONTINUOUS
 62
               7
100
AcDbLine
 10
-30.199999999999989
 20
239.38
 30
0.0
 11
-30.359999999999992
 21
239.53999999999996
 31
0.0
  0
LINE
  5
16B
100
AcDbEntity
  8
0
  6
CONTINUOUS
 62
               7
100
AcDbLine
 10
-30.359999999999992
 20
239.53999999999996
 30
0.0
 11
-30.519999999999996
 21
239.68000000000001
 31
0.0
  0
LINE
  5
16C
100
AcDbEntity
  8
0
  6
CONTINUOUS
 62
               7
100
AcDbLine
 10
-30.519999999999996
 20
239.68000000000001
 30
0.0
 11
-30.720000000000006
 21
239.81999999999999
 31
0.0
  0
LINE
  5
16D
100
AcDbEntity
  8
0
  6
CONTINUOUS
 62
               7
100
AcDbLine
 10
-30.720000000000006
 20
239.81999999999999
 30
0.0
 11
-30.919999999999995
 21
239.92000000000002
 31
0.0
  0
LINE
  5
16E
100
AcDbEntity
  8
0
  6
CONTINUOUS
 62
               7
100
AcDbLine
 10
-30.919999999999995
 20
239.92000000000002
 30
0.0
 11
-31.139999999999986
 21
240.03999999999996
 31
0.0
  0
LINE
  5
16F
100
AcDbEntity
  8
0
  6
CONTINUOUS
 62
               7
100
AcDbLine
 10
-31.139999999999986
 20
240.03999999999996
 30
0.0
 11
-31.380000000000003
 21
240.09999999999997
 31
0.0
  0
LINE
  5
170
100
AcDbEntity
  8
0
  6
CONTINUOUS
 62
               7
100
AcDbLine
 10
-31.380000000000003
 20
240.09999999999997
 30
0.0
 11
-31.620000000000019
 21
240.16000000000003
 31
0.0
  0
LINE
  5
171
100
AcDbEntity
  8
0
  6
CONTINUOUS
 62
               7
100
AcDbLine
 10
-31.620000000000019
 20
240.16000000000003
 30
0.0
 11
-31.859999999999992
 21
240.19999999999999
 31
0.0
  0
LINE
  5
172
100
AcDbEntity
  8
0
  6
CONTINUOUS
 62
               7
100
AcDbLine
 10
-31.859999999999992
 20
240.19999999999999
 30
0.0
 11
-32.100000000000009
 21
240.19999999999999
 31
0.0
  0
LINE
  5
173
100
AcDbEntity
  8
0
  6
CONTINUOUS
 62
               7
100
AcDbLine
 10
-32.100000000000009
 20
240.19999999999999
 30
0.0
 11
-32.359999999999985
 21
240.21999999999997
 31
0.0
  0
LINE
  5
174
100
AcDbEntity
  8
0
  6
CONTINUOUS
 62
               7
100
AcDbLine
 10
-32.359999999999985
 20
240.21999999999997
 30
0.0
 11
-32.620000000000005
 21
240.18000000000001
 31
0.0
  0
LINE
  5
175
100
AcDbEntity
  8
0
  6
CONTINUOUS
 62
               7
100
AcDbLine
 10
-32.620000000000005
 20
240.18000000000001
 30
0.0
 11
-32.859999999999999
 21
240.12
 31
0.0
  0
LINE
  5
176
100
AcDbEntity
  8
0
  6
CONTINUOUS
 62
               7
100
AcDbLine
 10
-32.859999999999999
 20
240.12
 30
0.0
 11
-33.120000000000019
 21
240.07999999999998
 31
0.0
  0
LINE
  5
177
100
AcDbEntity
  8
0
  6
CONTINUOUS
 62
               7
100
AcDbLine
 10
-33.120000000000019
 20
240.07999999999998
 30
0.0
 11
-33.359999999999992
 21
239.97999999999996
 31
0.0
  0
LINE
  5
178
100
AcDbEntity
  8
0
  6
CONTINUOUS
 62
               7
100
AcDbLine
 10
-33.359999999999992
 20
239.97999999999996
 30
0.0
 11
-33.600000000000009
 21
239.88
 31
0.0
  0
LINE
  5
179
100
AcDbEntity
  8
0
  6
CONTINUOUS
 62
               7
100
AcDbLine
 10
-33.600000000000009
 20
239.88
 30
0.0
 11
-33.82
 21
239.75999999999999
 31
0.0
  0
LINE
  5
17A
100
AcDbEntity
  8
0
  6
CONTINUOUS
 62
               7
100
AcDbLine
 10
-61.5
 20
-140.00000000000003
 30
0.0
 11
61.5
 21
-140.00000000000003
 31
0.0
  0
LINE
  5
17B
100
AcDbEntity
  8
0
  6
CONTINUOUS
 62
               7
100
AcDbLine
 10
-61.5
 20
-140.00000000000003
 30
0.0
 11
-62.474634146341458
 21
-158.50000000000006
 31
0.0
  0
LINE
  5
17C
100
AcDbEntity
  8
0
  6
CONTINUOUS
 62
               7
100
AcDbLine
 10
-45.759999999999991
 20
-266.0
 30
0.0
 11
0.0
 21
-266.0
 31
0.0
  0
ARC
  5
17D
100
AcDbEntity
  8
0
  6
CONTINUOUS
 62
               7
100
AcDbCircle
 10
-45.759999999999991
 20
-251.0
 30
0.0
 40
15.0
100
AcDbArc
 50
182.99999979089159
 51
269.99999969147945
  0
LINE
  5
17E
100
AcDbEntity
  8
0
  6
CONTINUOUS
 62
               7
100
AcDbLine
 10
-60.739999999999966
 20
-251.80000000000001
 30
0.0
 11
-64.536445150805122
 21
-179.54702006642265
 31
0.0
  0
ARC
  5
17F
100
AcDbEntity
  8
0
  6
CONTINUOUS
 62
               7
100
AcDbCircle
 10
-74.499999999999986
 20
-180.40000000000003
 30
0.0
 40
10.0
100
AcDbArc
 50
2.9999999965719932
 51
86.999999900587824
  0
LINE
  5
180
100
AcDbEntity
  8
0
  6
CONTINUOUS
 62
               7
100
AcDbLine
 10
119.55969485340094
 20
-161.0
 30
0.0
 11
-119.99999999999996
 21
-161.0
 31
0.0
  0
LINE
  5
181
100
AcDbEntity
  8
0
  6
CONTINUOUS
 62
               7
100
AcDbLine
 10
-119.99999999999996
 20
-161.0
 30
0.0
 11
-119.99999999999996
 21
-168.0
 31
0.0
  0
LINE
  5
182
100
AcDbEntity
  8
0
  6
CONTINUOUS
 62
               7
100
AcDbLine
 10
-119.99999999999996
 20
-168.0
 30
0.0
 11
-73.978491716238125
 21
-170.40007865886633
 31
0.0
  0
ARC
  5
183
100
AcDbEntity
  8
0
  6
CONTINUOUS
 62
               7
100
AcDbCircle
 10
-77.499999999999986
 20
-160.00000000000006
 30
0.0
 40
1.5
100
AcDbArc
 50
89.999999999999801
 51
179.99999979431962
  0
LINE
  5
184
100
AcDbEntity
  8
0
  6
CONTINUOUS
 62
               7
100
AcDbLine
 10
-78.999999999999986
 20
-160.00000000000006
 30
0.0
 11
-79.080459770114928
 21
-161.0
 31
0.0
  0
LINE
  5
185
100
AcDbEntity
  8
0
  6
CONTINUOUS
 62
               7
100
AcDbLine
 10
61.5
 20
-140.00000000000003
 30
0.0
 11
62.474634146341458
 21
-158.50000000000006
 31
0.0
  0
LINE
  5
186
100
AcDbEntity
  8
0
  6
CONTINUOUS
 62
               7
100
AcDbLine
 10
45.759999999999991
 20
-266.0
 30
0.0
 11
0.0
 21
-266.0
 31
0.0
  0
ARC
  5
187
100
AcDbEntity
  8
0
  6
CONTINUOUS
 62
               7
100
AcDbCircle
 10
45.759999999999991
 20
-251.0
 30
0.0
 40
15.0
100
AcDbArc
 50
269.99999969147945
 51
356.99999959206724
  0
LINE
  5
188
100
AcDbEntity
  8
0
  6
CONTINUOUS
 62
               7
100
AcDbLine
 10
60.739999999999995
 20
-251.80000000000001
 30
0.0
 11
62.32
 21
-221.88000000000005
 31
0.0
  0
ARC
  5
189
100
AcDbEntity
  8
0
  6
CONTINUOUS
 62
               7
100
AcDbCircle
 10
77.5
 20
-160.00000000000006
 30
0.0
 40
1.5
100
AcDbArc
 50
0.0
 51
89.999999999999801
  0
LINE
  5
18A
100
AcDbEntity
  8
0
  6
CONTINUOUS
 62
               7
100
AcDbLine
 10
79.0
 20
-160.00000000000006
 30
0.0
 11
79.080459770114942
 21
-161.0
 31
0.0
  0
LINE
  5
18B
100
AcDbEntity
  8
0
  6
CONTINUOUS
 62
               7
100
AcDbLine
 10
-77.499999999999986
 20
-158.50000000000006
 30
0.0
 11
77.5
 21
-158.50000000000006
 31
0.0
  0
LINE
  5
18C
100
AcDbEntity
  8
0
  6
CONTINUOUS
 62
               7
100
AcDbLine
 10
97.359999999999999
 20
-234.86000000000001
 30
0.0
 11
101.5933289617932
 21
-234.98828269581196
 31
0.0
  0
ARC
  5
18D
100
AcDbEntity
  8
0
  6
CONTINUOUS
 62
               7
100
AcDbCircle
 10
97.599999999999994
 20
-227.34000000000003
 30
0.0
 40
7.5
100
AcDbArc
 50
185.88099101587292
 51
268.17777747133943
  0
LINE
  5
18E
100
AcDbEntity
  8
0
  6
CONTINUOUS
 62
               7
100
AcDbLine
 10
86.560000000000002
 20
-228.0
 30
0.0
 11
90.139473506598861
 21
-228.10846889413938
 31
0.0
  0
ARC
  5
18F
100
AcDbEntity
  8
0
  6
CONTINUOUS
 62
               7
100
AcDbCircle
 10
87.519999999999996
 20
-199.00000000000006
 30
0.0
 40
29.0
100
AcDbArc
 50
226.04444418615049
 51
268.0888885825521
  0
ARC
  5
190
100
AcDbEntity
  8
0
  6
CONTINUOUS
 62
               7
100
AcDbCircle
 10
65.319999999999993
 20
-222.04000000000002
 30
0.0
 40
3.0
100
AcDbArc
 50
46.033333280732492
 51
176.99999979774762
  0
ARC
  5
191
100
AcDbEntity
  8
0
  6
CONTINUOUS
 62
               7
100
AcDbCircle
 10
87.780000000000001
 20
-231.04000000000002
 30
0.0
 40
3.0
100
AcDbArc
 50
20.645509892935237
 51
88.033333232740404
  0
LINE
  5
192
100
AcDbEntity
  8
0
  6
CONTINUOUS
 62
               7
100
AcDbLine
 10
-64.992436286477229
 20
-170.86871257958398
 30
0.0
 11
0.0
 21
-170.86871257958398
 31
0.0
  0
LINE
  5
193
100
AcDbEntity
  8
0
  6
CONTINUOUS
 62
               7
100
AcDbLine
 10
64.992436286477229
 20
-170.86871257958398
 30
0.0
 11
0.0
 21
-170.86871257958398
 31
0.0
  0
POINT
  5
194
100
AcDbEntity
  8
0
  6
CONTINUOUS
 62
               7
100
AcDbPoint
 10
0.0
 20
-140.00000000000003
 30
0.0
  0
LINE
  5
195
100
AcDbEntity
  8
0
  6
CONTINUOUS
 62
               7
100
AcDbLine
 10
-58.5
 20
-86.000000000000028
 30
0.0
 11
58.5
 21
-86.000000000000028
 31
0.0
  0
LINE
  5
196
100
AcDbEntity
  8
0
  6
CONTINUOUS
 62
               7
100
AcDbLine
 10
-4.0
 20
-86.000008162637101
 30
0.0
 11
-4.0
 21
-96.000000325274186
 31
0.0
  0
LINE
  5
197
100
AcDbEntity
  8
0
  6
CONTINUOUS
 62
               7
100
AcDbLine
 10
4.0
 20
-96.000000325274186
 30
0.0
 11
4.0
 21
-86.000008162637101
 31
0.0
  0
ARC
  5
198
100
AcDbEntity
  8
0
  6
CONTINUOUS
 62
               7
100
AcDbCircle
 10
0.0
 20
181.15999999999997
 30
0.0
 40
120.0
100
AcDbArc
 50
180.00000020567958
 51
341.03333335500514
  0
ARC
  5
199
100
AcDbEntity
  8
0
  6
CONTINUOUS
 62
               7
100
AcDbCircle
 10
0.0
 20
181.15999999999997
 30
0.0
 40
111.99999999999999
100
AcDbArc
 50
180.00000020567958
 51
359.9999999999992
  0
ARC
  5
19A
100
AcDbEntity
  8
0
  6
CONTINUOUS
 62
               7
100
AcDbCircle
 10
0.0
 20
181.15999999999997
 30
0.0
 40
79.0
100
AcDbArc
 50
179.9999999999996
 51
359.9999999999992
  0
ARC
  5
19B
100
AcDbEntity
  8
0
  6
CONTINUOUS
 62
               7
100
AcDbCircle
 10
0.0
 20
181.15999999999997
 30
0.0
 40
76.0
100
AcDbArc
 50
179.9999999999996
 51
359.9999999999992
  0
LINE
  5
19C
100
AcDbEntity
  8
0
  6
CONTINUOUS
 62
               7
100
AcDbLine
 10
120.0
 20
181.15999999999997
 30
0.0
 11
120.0
 21
142.15999999999997
 31
0.0
  0
LINE
  5
19D
100
AcDbEntity
  8
0
  6
CONTINUOUS
 62
               7
100
AcDbLine
 10
120.0
 20
142.15999999999997
 30
0.0
 11
113.48
 21
142.15999999999997
 31
0.0
  0
LINE
  5
19E
100
AcDbEntity
  8
0
  6
CONTINUOUS
 62
               7
100
AcDbLine
 10
67.659999999999997
 20
181.15999999999997
 30
0.0
 11
67.659999999999997
 21
180.89999999999992
 31
0.0
  0
LINE
  5
19F
100
AcDbEntity
  8
0
  6
CONTINUOUS
 62
               7
100
AcDbLine
 10
67.659999999999997
 20
180.89999999999992
 30
0.0
 11
67.620000000000005
 21
180.63999999999993
 31
0.0
  0
LINE
  5
1A0
100
AcDbEntity
  8
0
  6
CONTINUOUS
 62
               7
100
AcDbLine
 10
67.620000000000005
 20
180.63999999999993
 30
0.0
 11
67.579999999999998
 21
180.37999999999994
 31
0.0
  0
LINE
  5
1A1
100
AcDbEntity
  8
0
  6
CONTINUOUS
 62
               7
100
AcDbLine
 10
67.579999999999998
 20
180.37999999999994
 30
0.0
 11
67.5
 21
180.13999999999993
 31
0.0
  0
LINE
  5
1A2
100
AcDbEntity
  8
0
  6
CONTINUOUS
 62
               7
100
AcDbLine
 10
67.5
 20
180.13999999999993
 30
0.0
 11
67.419999999999987
 21
179.89999999999992
 31
0.0
  0
LINE
  5
1A3
100
AcDbEntity
  8
0
  6
CONTINUOUS
 62
               7
100
AcDbLine
 10
67.419999999999987
 20
179.89999999999992
 30
0.0
 11
67.319999999999993
 21
179.65999999999997
 31
0.0
  0
LINE
  5
1A4
100
AcDbEntity
  8
0
  6
CONTINUOUS
 62
               7
100
AcDbLine
 10
67.319999999999993
 20
179.65999999999997
 30
0.0
 11
67.179999999999993
 21
179.43999999999994
 31
0.0
  0
LINE
  5
1A5
100
AcDbEntity
  8
0
  6
CONTINUOUS
 62
               7
100
AcDbLine
 10
67.179999999999993
 20
179.43999999999994
 30
0.0
 11
67.060000000000002
 21
179.23999999999995
 31
0.0
  0
LINE
  5
1A6
100
AcDbEntity
  8
0
  6
CONTINUOUS
 62
               7
100
AcDbLine
 10
67.060000000000002
 20
179.23999999999995
 30
0.0
 11
66.899999999999991
 21
179.03999999999996
 31
0.0
  0
LINE
  5
1A7
100
AcDbEntity
  8
0
  6
CONTINUOUS
 62
               7
100
AcDbLine
 10
66.899999999999991
 20
179.03999999999996
 30
0.0
 11
66.739999999999995
 21
178.85999999999996
 31
0.0
  0
LINE
  5
1A8
100
AcDbEntity
  8
0
  6
CONTINUOUS
 62
               7
100
AcDbLine
 10
66.739999999999995
 20
178.85999999999996
 30
0.0
 11
66.559999999999988
 21
178.69999999999993
 31
0.0
  0
LINE
  5
1A9
100
AcDbEntity
  8
0
  6
CONTINUOUS
 62
               7
100
AcDbLine
 10
66.559999999999988
 20
178.69999999999993
 30
0.0
 11
66.359999999999999
 21
178.55999999999995
 31
0.0
  0
LINE
  5
1AA
100
AcDbEntity
  8
0
  6
CONTINUOUS
 62
               7
100
AcDbLine
 10
66.359999999999999
 20
178.55999999999995
 30
0.0
 11
66.159999999999997
 21
178.43999999999988
 31
0.0
  0
LINE
  5
1AB
100
AcDbEntity
  8
0
  6
CONTINUOUS
 62
               7
100
AcDbLine
 10
66.159999999999997
 20
178.43999999999988
 30
0.0
 11
65.939999999999998
 21
178.33999999999992
 31
0.0
  0
LINE
  5
1AC
100
AcDbEntity
  8
0
  6
CONTINUOUS
 62
               7
100
AcDbLine
 10
65.939999999999998
 20
178.33999999999992
 30
0.0
 11
65.740000000000009
 21
178.25999999999993
 31
0.0
  0
LINE
  5
1AD
100
AcDbEntity
  8
0
  6
CONTINUOUS
 62
               7
100
AcDbLine
 10
65.740000000000009
 20
178.25999999999993
 30
0.0
 11
65.519999999999996
 21
178.19999999999999
 31
0.0
  0
LINE
  5
1AE
100
AcDbEntity
  8
0
  6
CONTINUOUS
 62
               7
100
AcDbLine
 10
65.519999999999996
 20
178.19999999999999
 30
0.0
 11
65.280000000000001
 21
178.17999999999995
 31
0.0
  0
LINE
  5
1AF
100
AcDbEntity
  8
0
  6
CONTINUOUS
 62
               7
100
AcDbLine
 10
65.280000000000001
 20
178.17999999999995
 30
0.0
 11
65.059999999999988
 21
178.15999999999997
 31
0.0
  0
LINE
  5
1B0
100
AcDbEntity
  8
0
  6
CONTINUOUS
 62
               7
100
AcDbLine
 10
65.059999999999988
 20
178.15999999999997
 30
0.0
 11
64.93127196001079
 21
178.1717025490899
 31
0.0
  0
LINE
  5
1B1
100
AcDbEntity
  8
0
  6
CONTINUOUS
 62
               7
100
AcDbLine
 10
-33.82
 20
122.55999999999995
 30
0.0
 11
-34.060000000000016
 21
122.69999999999999
 31
0.0
  0
LINE
  5
1B2
100
AcDbEntity
  8
0
  6
CONTINUOUS
 62
               7
100
AcDbLine
 10
-34.060000000000016
 20
122.69999999999999
 30
0.0
 11
-34.260000000000005
 21
122.85999999999996
 31
0.0
  0
LINE
  5
1B3
100
AcDbEntity
  8
0
  6
CONTINUOUS
 62
               7
100
AcDbLine
 10
-34.260000000000005
 20
122.85999999999996
 30
0.0
 11
-34.459999999999994
 21
123.01999999999992
 31
0.0
  0
LINE
  5
1B4
100
AcDbEntity
  8
0
  6
CONTINUOUS
 62
               7
100
AcDbLine
 10
-34.459999999999994
 20
123.01999999999992
 30
0.0
 11
-34.640000000000001
 21
123.21999999999997
 31
0.0
  0
LINE
  5
1B5
100
AcDbEntity
  8
0
  6
CONTINUOUS
 62
               7
100
AcDbLine
 10
-34.640000000000001
 20
123.21999999999997
 30
0.0
 11
-34.799999999999983
 21
123.39999999999992
 31
0.0
  0
LINE
  5
1B6
100
AcDbEntity
  8
0
  6
CONTINUOUS
 62
               7
100
AcDbLine
 10
-34.799999999999983
 20
123.39999999999992
 30
0.0
 11
-34.959999999999987
 21
123.59999999999997
 31
0.0
  0
LINE
  5
1B7
100
AcDbEntity
  8
0
  6
CONTINUOUS
 62
               7
100
AcDbLine
 10
-34.959999999999987
 20
123.59999999999997
 30
0.0
 11
-35.079999999999984
 21
123.83999999999997
 31
0.0
  0
LINE
  5
1B8
100
AcDbEntity
  8
0
  6
CONTINUOUS
 62
               7
100
AcDbLine
 10
-35.079999999999984
 20
123.83999999999997
 30
0.0
 11
-35.200000000000003
 21
124.03999999999991
 31
0.0
  0
LINE
  5
1B9
100
AcDbEntity
  8
0
  6
CONTINUOUS
 62
               7
100
AcDbLine
 10
-35.200000000000003
 20
124.03999999999991
 30
0.0
 11
-35.280000000000015
 21
124.27999999999997
 31
0.0
  0
LINE
  5
1BA
100
AcDbEntity
  8
0
  6
CONTINUOUS
 62
               7
100
AcDbLine
 10
-35.280000000000015
 20
124.27999999999997
 30
0.0
 11
-35.359999999999985
 21
124.51999999999992
 31
0.0
  0
LINE
  5
1BB
100
AcDbEntity
  8
0
  6
CONTINUOUS
 62
               7
100
AcDbLine
 10
-35.359999999999985
 20
124.51999999999992
 30
0.0
 11
-35.419999999999995
 21
124.73999999999995
 31
0.0
  0
LINE
  5
1BC
100
AcDbEntity
  8
0
  6
CONTINUOUS
 62
               7
100
AcDbLine
 10
-35.419999999999995
 20
124.73999999999995
 30
0.0
 11
-35.439999999999998
 21
124.99999999999994
 31
0.0
  0
LINE
  5
1BD
100
AcDbEntity
  8
0
  6
CONTINUOUS
 62
               7
100
AcDbLine
 10
-35.439999999999998
 20
124.99999999999994
 30
0.0
 11
-35.439999999999998
 21
125.21999999999997
 31
0.0
  0
LINE
  5
1BE
100
AcDbEntity
  8
0
  6
CONTINUOUS
 62
               7
100
AcDbLine
 10
-35.439999999999998
 20
125.21999999999997
 30
0.0
 11
-35.419999999999995
 21
125.45999999999992
 31
0.0
  0
LINE
  5
1BF
100
AcDbEntity
  8
0
  6
CONTINUOUS
 62
               7
100
AcDbLine
 10
-35.419999999999995
 20
125.45999999999992
 30
0.0
 11
-35.38000000000001
 21
125.67999999999995
 31
0.0
  0
LINE
  5
1C0
100
AcDbEntity
  8
0
  6
CONTINUOUS
 62
               7
100
AcDbLine
 10
-35.38000000000001
 20
125.67999999999995
 30
0.0
 11
-35.32
 21
125.89999999999992
 31
0.0
  0
LINE
  5
1C1
100
AcDbEntity
  8
0
  6
CONTINUOUS
 62
               7
100
AcDbLine
 10
-35.32
 20
125.89999999999992
 30
0.0
 11
-35.220000000000006
 21
126.11999999999995
 31
0.0
  0
LINE
  5
1C2
100
AcDbEntity
  8
0
  6
CONTINUOUS
 62
               7
100
AcDbLine
 10
-35.220000000000006
 20
126.11999999999995
 30
0.0
 11
-35.120000000000012
 21
126.31999999999994
 31
0.0
  0
LINE
  5
1C3
100
AcDbEntity
  8
0
  6
CONTINUOUS
 62
               7
100
AcDbLine
 10
-35.120000000000012
 20
126.31999999999994
 30
0.0
 11
-35.052463691655007
 21
126.42130446251747
 31
0.0
  0
LINE
  5
1C4
100
AcDbEntity
  8
0
  6
CONTINUOUS
 62
               7
100
AcDbLine
 10
-29.882020298623608
 20
123.43595940275273
 30
0.0
 11
-29.940000000000012
 21
123.31999999999994
 31
0.0
  0
LINE
  5
1C5
100
AcDbEntity
  8
0
  6
CONTINUOUS
 62
               7
100
AcDbLine
 10
-29.940000000000012
 20
123.31999999999994
 30
0.0
 11
-30.060000000000009
 21
123.13999999999993
 31
0.0
  0
LINE
  5
1C6
100
AcDbEntity
  8
0
  6
CONTINUOUS
 62
               7
100
AcDbLine
 10
-30.060000000000009
 20
123.13999999999993
 30
0.0
 11
-30.199999999999989
 21
122.93999999999994
 31
0.0
  0
LINE
  5
1C7
100
AcDbEntity
  8
0
  6
CONTINUOUS
 62
               7
100
AcDbLine
 10
-30.199999999999989
 20
122.93999999999994
 30
0.0
 11
-30.359999999999992
 21
122.77999999999997
 31
0.0
  0
LINE
  5
1C8
100
AcDbEntity
  8
0
  6
CONTINUOUS
 62
               7
100
AcDbLine
 10
-30.359999999999992
 20
122.77999999999997
 30
0.0
 11
-30.519999999999996
 21
122.63999999999993
 31
0.0
  0
LINE
  5
1C9
100
AcDbEntity
  8
0
  6
CONTINUOUS
 62
               7
100
AcDbLine
 10
-30.519999999999996
 20
122.63999999999993
 30
0.0
 11
-30.720000000000006
 21
122.49999999999994
 31
0.0
  0
LINE
  5
1CA
100
AcDbEntity
  8
0
  6
CONTINUOUS
 62
               7
100
AcDbLine
 10
-30.720000000000006
 20
122.49999999999994
 30
0.0
 11
-30.919999999999995
 21
122.39999999999992
 31
0.0
  0
LINE
  5
1CB
100
AcDbEntity
  8
0
  6
CONTINUOUS
 62
               7
100
AcDbLine
 10
-30.919999999999995
 20
122.39999999999992
 30
0.0
 11
-31.139999999999986
 21
122.27999999999997
 31
0.0
  0
LINE
  5
1CC
100
AcDbEntity
  8
0
  6
CONTINUOUS
 62
               7
100
AcDbLine
 10
-31.139999999999986
 20
122.27999999999997
 30
0.0
 11
-31.380000000000003
 21
122.21999999999997
 31
0.0
  0
LINE
  5
1CD
100
AcDbEntity
  8
0
  6
CONTINUOUS
 62
               7
100
AcDbLine
 10
-31.380000000000003
 20
122.21999999999997
 30
0.0
 11
-31.620000000000019
 21
122.15999999999991
 31
0.0
  0
LINE
  5
1CE
100
AcDbEntity
  8
0
  6
CONTINUOUS
 62
               7
100
AcDbLine
 10
-31.620000000000019
 20
122.15999999999991
 30
0.0
 11
-31.859999999999992
 21
122.11999999999995
 31
0.0
  0
LINE
  5
1CF
100
AcDbEntity
  8
0
  6
CONTINUOUS
 62
               7
100
AcDbLine
 10
-31.859999999999992
 20
122.11999999999995
 30
0.0
 11
-32.100000000000009
 21
122.11999999999995
 31
0.0
  0
LINE
  5
1D0
100
AcDbEntity
  8
0
  6
CONTINUOUS
 62
               7
100
AcDbLine
 10
-32.100000000000009
 20
122.11999999999995
 30
0.0
 11
-32.359999999999985
 21
122.09999999999997
 31
0.0
  0
LINE
  5
1D1
100
AcDbEntity
  8
0
  6
CONTINUOUS
 62
               7
100
AcDbLine
 10
-32.359999999999985
 20
122.09999999999997
 30
0.0
 11
-32.620000000000005
 21
122.13999999999993
 31
0.0
  0
LINE
  5
1D2
100
AcDbEntity
  8
0
  6
CONTINUOUS
 62
               7
100
AcDbLine
 10
-32.620000000000005
 20
122.13999999999993
 30
0.0
 11
-32.859999999999999
 21
122.19999999999993
 31
0.0
  0
LINE
  5
1D3
100
AcDbEntity
  8
0
  6
CONTINUOUS
 62
               7
100
AcDbLine
 10
-32.859999999999999
 20
122.19999999999993
 30
0.0
 11
-33.120000000000019
 21
122.23999999999995
 31
0.0
  0
LINE
  5
1D4
100
AcDbEntity
  8
0
  6
CONTINUOUS
 62
               7
100
AcDbLine
 10
-33.120000000000019
 20
122.23999999999995
 30
0.0
 11
-33.359999999999992
 21
122.33999999999997
 31
0.0
  0
LINE
  5
1D5
100
AcDbEntity
  8
0
  6
CONTINUOUS
 62
               7
100
AcDbLine
 10
-33.359999999999992
 20
122.33999999999997
 30
0.0
 11
-33.600000000000009
 21
122.43999999999994
 31
0.0
  0
LINE
  5
1D6
100
AcDbEntity
  8
0
  6
CONTINUOUS
 62
               7
100
AcDbLine
 10
-33.600000000000009
 20
122.43999999999994
 30
0.0
 11
-33.82
 21
122.55999999999995
 31
0.0
  0
LINE
  5
1D7
100
AcDbEntity
  8
0
  6
CONTINUOUS
 62
               7
100
AcDbLine
 10
119.55969485340094
 20
-161.0
 30
0.0
 11
117.98046698634612
 21
-238.99200735561527
 31
0.0
  0
LINE
  5
1D8
100
AcDbEntity
  8
0
  6
CONTINUOUS
 62
               7
100
AcDbLine
 10
117.98046698634612
 20
-238.99200735561527
 30
0.0
 11
104.98313120114105
 21
-238.72882968439734
 31
0.0
  0
LINE
  5
1D9
100
AcDbEntity
  8
0
  6
CONTINUOUS
 62
               7
100
AcDbLine
 10
104.98313120114105
 20
-238.72882968439734
 30
0.0
 11
106.55703009249095
 21
-161.0
 31
0.0
  0
ARC
  5
1DA
100
AcDbEntity
  8
0
  6
CONTINUOUS
 62
               7
100
AcDbCircle
 10
101.48731701855048
 20
-238.48667682282121
 30
0.0
 40
3.5
100
AcDbArc
 50
358.83999999999583
 51
448.26429541107041
  0
LINE
  5
1DB
100
AcDbEntity
  8
0
  6
DASHED2
 62
               7
100
AcDbLine
 10
-56.499999999999986
 20
-140.00000000000003
 30
0.0
 11
-56.499999999999986
 21
-96.000000325274186
 31
0.0
  0
LINE
  5
1DC
100
AcDbEntity
  8
0
  6
DASHED2
 62
               7
100
AcDbLine
 10
56.500000000000007
 20
-96.000000325274186
 30
0.0
 11
56.500000000000007
 21
-140.00000000000003
 31
0.0
  0
LINE
  5
1DD
100
AcDbEntity
  8
0
  6
DASHED2
 62
               7
100
AcDbLine
 10
57.0
 20
-156.00000000000003
 30
0.0
 11
-57.0
 21
-156.00000000000003
 31
0.0
  0
LINE
  5
1DE
100
AcDbEntity
  8
LAYER001
  6
CONTINUOUS
 62
               7
100
AcDbLine
 10
65.0
 20
-74.000000325274186
 30
0.0
 11
65.0
 21
-77.000000325274186
 31
0.0
  0
ARC
  5
1DF
100
AcDbEntity
  8
LAYER001
  6
CONTINUOUS
 62
               7
100
AcDbCircle
 10
60.5
 20
-87.936492325274202
 30
0.0
 40
2.0
100
AcDbArc
 50
104.47751199998018
 51
179.99999999996541
  0
ARC
  5
1E0
100
AcDbEntity
  8
LAYER001
  6
CONTINUOUS
 62
               7
100
AcDbCircle
 10
59.5
 20
-84.063508325274199
 30
0.0
 40
2.0
100
AcDbArc
 50
284.47751199994536
 51
359.9999999999992
  0
ARC
  5
1E1
100
AcDbEntity
  8
LAYER001
  6
CONTINUOUS
 62
               7
100
AcDbCircle
 10
63.5
 20
-79.000000325274186
 30
0.0
 40
2.0
100
AcDbArc
 50
89.999999999982705
 51
179.99999999996541
  0
LINE
  5
1E2
100
AcDbEntity
  8
LAYER001
  6
CONTINUOUS
 62
               7
100
AcDbLine
 10
59.0
 20
-96.000000325274186
 30
0.0
 11
-59.0
 21
-96.000000325274186
 31
0.0
  0
ARC
  5
1E3
100
AcDbEntity
  8
LAYER001
  6
CONTINUOUS
 62
               7
100
AcDbCircle
 10
59.0
 20
-95.000000325274186
 30
0.0
 40
1.0
100
AcDbArc
 50
269.9999999999489
 51
359.9999999999992
  0
ARC
  5
1E4
100
AcDbEntity
  8
LAYER001
  6
CONTINUOUS
 62
               7
100
AcDbCircle
 10
57.5
 20
-95.000000325274186
 30
0.0
 40
1.0
100
AcDbArc
 50
269.9999999999489
 51
359.9999999999992
  0
LINE
  5
1E5
100
AcDbEntity
  8
LAYER001
  6
CONTINUOUS
 62
               7
100
AcDbLine
 10
60.0
 20
-86.000000325274186
 30
0.0
 11
60.0
 21
-95.000000325274186
 31
0.0
  0
LINE
  5
1E6
100
AcDbEntity
  8
LAYER001
  6
CONTINUOUS
 62
               7
100
AcDbLine
 10
58.5
 20
-95.000000325274186
 30
0.0
 11
58.5
 21
-87.936492325274202
 31
0.0
  0
LINE
  5
1E7
100
AcDbEntity
  8
LAYER001
  6
CONTINUOUS
 62
               7
100
AcDbLine
 10
61.5
 20
-79.000000325274186
 30
0.0
 11
61.5
 21
-84.063508325274199
 31
0.0
  0
LINE
  5
1E8
100
AcDbEntity
  8
LAYER001
  6
CONTINUOUS
 62
               7
100
AcDbLine
 10
-65.0
 20
-74.000000325274186
 30
0.0
 11
-65.0
 21
-77.000000325274186
 31
0.0
  0
LINE
  5
1E9
100
AcDbEntity
  8
LAYER001
  6
CONTINUOUS
 62
               7
100
AcDbLine
 10
-65.0
 20
-77.000000325274186
 30
0.0
 11
65.0
 21
-77.000000325274186
 31
0.0
  0
ARC
  5
1EA
100
AcDbEntity
  8
LAYER001
  6
CONTINUOUS
 62
               7
100
AcDbCircle
 10
-63.5
 20
-79.000000325274186
 30
0.0
 40
2.0
100
AcDbArc
 50
0.0
 51
89.999999999982705
  0
LINE
  5
1EB
100
AcDbEntity
  8
LAYER001
  6
CONTINUOUS
 62
               7
100
AcDbLine
 10
-61.5
 20
-79.000000325274186
 30
0.0
 11
-61.5
 21
-84.063508325274199
 31
0.0
  0
ARC
  5
1EC
100
AcDbEntity
  8
LAYER001
  6
CONTINUOUS
 62
               7
100
AcDbCircle
 10
-59.5
 20
-84.063508325274199
 30
0.0
 40
2.0
100
AcDbArc
 50
179.99999999996541
 51
255.5224879999511
  0
ARC
  5
1ED
100
AcDbEntity
  8
LAYER001
  6
CONTINUOUS
 62
               7
100
AcDbCircle
 10
-60.5
 20
-87.936492325274202
 30
0.0
 40
2.0
100
AcDbArc
 50
0.0
 51
75.522487999985671
  0
LINE
  5
1EE
100
AcDbEntity
  8
LAYER001
  6
CONTINUOUS
 62
               7
100
AcDbLine
 10
-60.0
 20
-86.00000065054806
 30
0.0
 11
-60.0
 21
-95.000000325274186
 31
0.0
  0
LINE
  5
1EF
100
AcDbEntity
  8
LAYER001
  6
CONTINUOUS
 62
               7
100
AcDbLine
 10
-58.5
 20
-95.000000325274186
 30
0.0
 11
-58.5
 21
-87.936492325274202
 31
0.0
  0
ARC
  5
1F0
100
AcDbEntity
  8
LAYER001
  6
CONTINUOUS
 62
               7
100
AcDbCircle
 10
-59.0
 20
-95.000000325274186
 30
0.0
 40
1.0
100
AcDbArc
 50
179.99999999996541
 51
269.9999999999485
  0
ARC
  5
1F1
100
AcDbEntity
  8
LAYER001
  6
CONTINUOUS
 62
               7
100
AcDbCircle
 10
-57.5
 20
-95.000000325274186
 30
0.0
 40
1.0
100
AcDbArc
 50
179.99999999996541
 51
269.9999999999485
  0
LINE
  5
1F2
100
AcDbEntity
  8
LAYER001
  6
CONTINUOUS
 62
               7
100
AcDbLine
 10
-65.0
 20
-74.000000325274186
 30
0.0
 11
65.0
 21
-74.000000325274186
 31
0.0
  0
ARC
  5
1F3
100
AcDbEntity
  8
LAYER001
  6
CONTINUOUS
 62
               7
100
AcDbCircle
 10
0.0
 20
181.15999999999997
 30
0.0
 40
59.0
100
AcDbArc
 50
0.0
 51
179.99999999996561
  0
ARC
  5
1F4
100
AcDbEntity
  8
LAYER001
  6
CONTINUOUS
 62
               7
100
AcDbCircle
 10
0.0
 20
181.15999999999997
 30
0.0
 40
65.0
100
AcDbArc
 50
0.0
 51
179.99999999996561
  0
ARC
  5
1F5
100
AcDbEntity
  8
LAYER001
  6
CONTINUOUS
 62
               7
100
AcDbCircle
 10
-48.662392000000004
 20
187.95999999999998
 30
0.0
 40
2.5
100
AcDbArc
 50
339.37000699993513
 51
449.99999999998204
  0
ARC
  5
1F6
100
AcDbEntity
  8
LAYER001
  6
CONTINUOUS
 62
               7
100
AcDbCircle
 10
-24.537608000000006
 20
187.95999999999998
 30
0.0
 40
2.5
100
AcDbArc
 50
89.999999999982862
 51
200.62999299996136
  0
ARC
  5
1F7
100
AcDbEntity
  8
LAYER001
  6
CONTINUOUS
 62
               7
100
AcDbCircle
 10
24.537608000000006
 20
187.95999999999998
 30
0.0
 40
2.5
100
AcDbArc
 50
339.37000699993507
 51
449.99999999998204
  0
ARC
  5
1F8
100
AcDbEntity
  8
LAYER001
  6
CONTINUOUS
 62
               7
100
AcDbCircle
 10
48.662392000000004
 20
187.95999999999998
 30
0.0
 40
2.5
100
AcDbArc
 50
89.999999999982862
 51
200.62999299996147
  0
ARC
  5
1F9
100
AcDbEntity
  8
LAYER001
  6
CONTINUOUS
 62
               7
100
AcDbCircle
 10
-35.400000000000013
 20
196.65999999999997
 30
0.0
 40
2.5
100
AcDbArc
 50
269.99999999994827
 51
359.9999999999992
  0
LINE
  5
1FA
100
AcDbEntity
  8
LAYER001
  6
CONTINUOUS
 62
               7
100
AcDbLine
 10
-35.400000000000013
 20
194.15999999999997
 30
0.0
 11
-37.800000000000004
 21
194.15999999999997
 31
0.0
  0
LINE
  5
1FB
100
AcDbEntity
  8
LAYER001
  6
CONTINUOUS
 62
               7
100
AcDbLine
 10
-32.900000000000006
 20
196.65999999999997
 30
0.0
 11
-32.900000000000006
 21
198.75999999999999
 31
0.0
  0
ARC
  5
1FC
100
AcDbEntity
  8
LAYER001
  6
CONTINUOUS
 62
               7
100
AcDbCircle
 10
-37.800000000000004
 20
196.65999999999997
 30
0.0
 40
2.5
100
AcDbArc
 50
179.99999999996572
 51
269.99999999994827
  0
LINE
  5
1FD
100
AcDbEntity
  8
LAYER001
  6
CONTINUOUS
 62
               7
100
AcDbLine
 10
-40.300000000000004
 20
196.65999999999997
 30
0.0
 11
-40.300000000000004
 21
198.75999999999999
 31
0.0
  0
LINE
  5
1FE
100
AcDbEntity
  8
LAYER001
  6
CONTINUOUS
 62
               7
100
AcDbLine
 10
-48.662392000000004
 20
190.45999999999998
 30
0.0
 11
-49.53544200000001
 21
190.45999999999998
 31
0.0
  0
ARC
  5
1FF
100
AcDbEntity
  8
LAYER001
  6
CONTINUOUS
 62
               7
100
AcDbCircle
 10
-49.53544200000001
 20
187.95999999999998
 30
0.0
 40
2.5
100
AcDbArc
 50
89.999999999982862
 51
172.18355099996731
  0
ARC
  5
200
100
AcDbEntity
  8
LAYER001
  6
CONTINUOUS
 62
               7
100
AcDbCircle
 10
35.399999999999999
 20
196.65999999999997
 30
0.0
 40
2.5
100
AcDbArc
 50
179.99999999996572
 51
269.99999999994861
  0
ARC
  5
201
100
AcDbEntity
  8
LAYER001
  6
CONTINUOUS
 62
               7
100
AcDbCircle
 10
37.800000000000004
 20
196.65999999999997
 30
0.0
 40
2.5
100
AcDbArc
 50
269.99999999994861
 51
359.9999999999992
  0
LINE
  5
202
100
AcDbEntity
  8
LAYER001
  6
CONTINUOUS
 62
               7
100
AcDbLine
 10
35.399999999999999
 20
194.15999999999997
 30
0.0
 11
37.800000000000004
 21
194.15999999999997
 31
0.0
  0
ARC
  5
203
100
AcDbEntity
  8
LAYER001
  6
CONTINUOUS
 62
               7
100
AcDbCircle
 10
49.535441999999982
 20
187.95999999999998
 30
0.0
 40
2.5
100
AcDbArc
 50
7.816448999998733
 51
89.999999999982862
  0
ARC
  5
204
100
AcDbEntity
  8
LAYER001
  6
CONTINUOUS
 62
               7
100
AcDbCircle
 10
-46.600000000000001
 20
201.88293399999998
 30
0.0
 40
1.5
100
AcDbArc
 50
0.0
 51
156.02537299997044
  0
LINE
  5
205
100
AcDbEntity
  8
LAYER001
  6
CONTINUOUS
 62
               7
100
AcDbLine
 10
-45.100000000000001
 20
195.95999999999998
 30
0.0
 11
-45.100000000000001
 21
201.88293399999998
 31
0.0
  0
ARC
  5
206
100
AcDbEntity
  8
LAYER001
  6
CONTINUOUS
 62
               7
100
AcDbCircle
 10
0.0
 20
181.15999999999997
 30
0.0
 40
52.5
100
AcDbArc
 50
156.02537299997022
 51
162.7824889999689
  0
ARC
  5
207
100
AcDbEntity
  8
LAYER001
  6
CONTINUOUS
 62
               7
100
AcDbCircle
 10
-47.759397
 20
195.95999999999998
 30
0.0
 40
2.5
100
AcDbArc
 50
162.78248899996862
 51
269.99999999994839
  0
LINE
  5
208
100
AcDbEntity
  8
LAYER001
  6
CONTINUOUS
 62
               7
100
AcDbLine
 10
-47.600000000000001
 20
193.45999999999998
 30
0.0
 11
-47.759397
 21
193.45999999999998
 31
0.0
  0
ARC
  5
209
100
AcDbEntity
  8
LAYER001
  6
CONTINUOUS
 62
               7
100
AcDbCircle
 10
-35.400000000000013
 20
216.47062200000002
 30
0.0
 40
2.5
100
AcDbArc
 50
0.0
 51
135.07242199997415
  0
LINE
  5
20A
100
AcDbEntity
  8
LAYER001
  6
CONTINUOUS
 62
               7
100
AcDbLine
 10
-32.900000000000006
 20
206.75999999999999
 30
0.0
 11
-32.900000000000006
 21
216.47062200000002
 31
0.0
  0
ARC
  5
20B
100
AcDbEntity
  8
LAYER001
  6
CONTINUOUS
 62
               7
100
AcDbCircle
 10
0.0
 20
181.15999999999997
 30
0.0
 40
52.5
100
AcDbArc
 50
135.07242199997418
 51
139.11282399997339
  0
ARC
  5
20C
100
AcDbEntity
  8
LAYER001
  6
CONTINUOUS
 62
               7
100
AcDbCircle
 10
-37.800000000000004
 20
213.88858099999999
 30
0.0
 40
2.5
100
AcDbArc
 50
139.11282399997361
 51
179.99999999996572
  0
LINE
  5
20D
100
AcDbEntity
  8
LAYER001
  6
CONTINUOUS
 62
               7
100
AcDbLine
 10
-40.300000000000004
 20
206.75999999999999
 30
0.0
 11
-40.300000000000004
 21
213.88858099999999
 31
0.0
  0
ARC
  5
20E
100
AcDbEntity
  8
LAYER001
  6
CONTINUOUS
 62
               7
100
AcDbCircle
 10
-25.599999999999994
 20
224.109272
 30
0.0
 40
2.5
100
AcDbArc
 50
120.7971409999772
 51
179.99999999996572
  0
ARC
  5
20F
100
AcDbEntity
  8
LAYER001
  6
CONTINUOUS
 62
               7
100
AcDbCircle
 10
0.0
 20
181.15999999999997
 30
0.0
 40
52.5
100
AcDbArc
 50
117.64552299997752
 51
120.79714099997692
  0
LINE
  5
210
100
AcDbEntity
  8
LAYER001
  6
CONTINUOUS
 62
               7
100
AcDbLine
 10
-28.099999999999994
 20
217.55999999999997
 30
0.0
 11
-28.099999999999994
 21
224.109272
 31
0.0
  0
ARC
  5
211
100
AcDbEntity
  8
LAYER001
  6
CONTINUOUS
 62
               7
100
AcDbCircle
 10
-23.200000000000003
 20
225.45176000000001
 30
0.0
 40
2.5
100
AcDbArc
 50
0.0
 51
117.64552299997739
  0
LINE
  5
212
100
AcDbEntity
  8
LAYER001
  6
CONTINUOUS
 62
               7
100
AcDbLine
 10
-20.700000000000003
 20
217.55999999999997
 30
0.0
 11
-20.700000000000003
 21
225.45176000000001
 31
0.0
  0
ARC
  5
213
100
AcDbEntity
  8
LAYER001
  6
CONTINUOUS
 62
               7
100
AcDbCircle
 10
-47.600000000000001
 20
195.95999999999998
 30
0.0
 40
2.5
100
AcDbArc
 50
269.99999999994839
 51
359.9999999999992
  0
ARC
  5
214
100
AcDbEntity
  8
LAYER001
  6
CONTINUOUS
 62
               7
100
AcDbCircle
 10
-35.400000000000013
 20
206.75999999999999
 30
0.0
 40
2.5
100
AcDbArc
 50
269.99999999994827
 51
359.9999999999992
  0
LINE
  5
215
100
AcDbEntity
  8
LAYER001
  6
CONTINUOUS
 62
               7
100
AcDbLine
 10
-37.800000000000004
 20
204.25999999999999
 30
0.0
 11
-35.400000000000013
 21
204.25999999999999
 31
0.0
  0
ARC
  5
216
100
AcDbEntity
  8
LAYER001
  6
CONTINUOUS
 62
               7
100
AcDbCircle
 10
-37.800000000000004
 20
206.75999999999999
 30
0.0
 40
2.5
100
AcDbArc
 50
179.99999999996572
 51
269.99999999994827
  0
ARC
  5
217
100
AcDbEntity
  8
LAYER001
  6
CONTINUOUS
 62
               7
100
AcDbCircle
 10
-37.800000000000004
 20
198.75999999999999
 30
0.0
 40
2.5
100
AcDbArc
 50
89.999999999982862
 51
179.99999999996572
  0
LINE
  5
218
100
AcDbEntity
  8
LAYER001
  6
CONTINUOUS
 62
               7
100
AcDbLine
 10
-37.800000000000004
 20
201.25999999999999
 30
0.0
 11
-35.400000000000013
 21
201.25999999999999
 31
0.0
  0
ARC
  5
219
100
AcDbEntity
  8
LAYER001
  6
CONTINUOUS
 62
               7
100
AcDbCircle
 10
-35.400000000000013
 20
198.75999999999999
 30
0.0
 40
2.5
100
AcDbArc
 50
0.0
 51
89.999999999982862
  0
ARC
  5
21A
100
AcDbEntity
  8
LAYER001
  6
CONTINUOUS
 62
               7
100
AcDbCircle
 10
-23.200000000000003
 20
217.55999999999997
 30
0.0
 40
2.5
100
AcDbArc
 50
269.99999999994827
 51
359.9999999999992
  0
LINE
  5
21B
100
AcDbEntity
  8
LAYER001
  6
CONTINUOUS
 62
               7
100
AcDbLine
 10
-25.599999999999994
 20
215.05999999999997
 30
0.0
 11
-23.200000000000003
 21
215.05999999999997
 31
0.0
  0
ARC
  5
21C
100
AcDbEntity
  8
LAYER001
  6
CONTINUOUS
 62
               7
100
AcDbCircle
 10
-25.599999999999994
 20
217.55999999999997
 30
0.0
 40
2.5
100
AcDbArc
 50
179.99999999996572
 51
269.99999999994827
  0
ARC
  5
21D
100
AcDbEntity
  8
LAYER001
  6
CONTINUOUS
 62
               7
100
AcDbCircle
 10
-23.200000000000003
 20
209.55999999999997
 30
0.0
 40
2.5
100
AcDbArc
 50
0.0
 51
89.999999999982862
  0
LINE
  5
21E
100
AcDbEntity
  8
LAYER001
  6
CONTINUOUS
 62
               7
100
AcDbLine
 10
-25.599999999999994
 20
212.05999999999997
 30
0.0
 11
-23.200000000000003
 21
212.05999999999997
 31
0.0
  0
LINE
  5
21F
100
AcDbEntity
  8
LAYER001
  6
CONTINUOUS
 62
               7
100
AcDbLine
 10
-20.700000000000003
 20
195.95999999999998
 30
0.0
 11
-20.700000000000003
 21
209.55999999999997
 31
0.0
  0
ARC
  5
220
100
AcDbEntity
  8
LAYER001
  6
CONTINUOUS
 62
               7
100
AcDbCircle
 10
-25.599999999999994
 20
209.55999999999997
 30
0.0
 40
2.5
100
AcDbArc
 50
89.999999999982862
 51
179.99999999996572
  0
LINE
  5
221
100
AcDbEntity
  8
LAYER001
  6
CONTINUOUS
 62
               7
100
AcDbLine
 10
-28.099999999999994
 20
195.95999999999998
 30
0.0
 11
-28.099999999999994
 21
209.55999999999997
 31
0.0
  0
ARC
  5
222
100
AcDbEntity
  8
LAYER001
  6
CONTINUOUS
 62
               7
100
AcDbCircle
 10
-25.599999999999994
 20
195.95999999999998
 30
0.0
 40
2.5
100
AcDbArc
 50
179.99999999996572
 51
269.99999999994827
  0
LINE
  5
223
100
AcDbEntity
  8
LAYER001
  6
CONTINUOUS
 62
               7
100
AcDbLine
 10
-25.599999999999994
 20
193.45999999999998
 30
0.0
 11
-23.200000000000003
 21
193.45999999999998
 31
0.0
  0
ARC
  5
224
100
AcDbEntity
  8
LAYER001
  6
CONTINUOUS
 62
               7
100
AcDbCircle
 10
-23.200000000000003
 20
195.95999999999998
 30
0.0
 40
2.5
100
AcDbArc
 50
269.99999999994827
 51
359.9999999999992
  0
ARC
  5
225
100
AcDbEntity
  8
LAYER001
  6
CONTINUOUS
 62
               7
100
AcDbCircle
 10
-23.200000000000003
 20
187.95999999999998
 30
0.0
 40
2.5
100
AcDbArc
 50
0.0
 51
89.999999999982862
  0
LINE
  5
226
100
AcDbEntity
  8
LAYER001
  6
CONTINUOUS
 62
               7
100
AcDbLine
 10
-24.537608000000006
 20
190.45999999999998
 30
0.0
 11
-23.200000000000003
 21
190.45999999999998
 31
0.0
  0
ARC
  5
227
100
AcDbEntity
  8
LAYER001
  6
CONTINUOUS
 62
               7
100
AcDbCircle
 10
-13.400000000000006
 20
229.33094600000001
 30
0.0
 40
2.5
100
AcDbArc
 50
105.54528999997974
 51
179.99999999996572
  0
ARC
  5
228
100
AcDbEntity
  8
LAYER001
  6
CONTINUOUS
 62
               7
100
AcDbCircle
 10
0.0
 20
181.15999999999997
 30
0.0
 40
52.5
100
AcDbArc
 50
102.70903299998038
 51
105.54528999997983
  0
LINE
  5
229
100
AcDbEntity
  8
LAYER001
  6
CONTINUOUS
 62
               7
100
AcDbLine
 10
-15.900000000000006
 20
228.35999999999999
 30
0.0
 11
-15.900000000000006
 21
229.33094600000001
 31
0.0
  0
ARC
  5
22A
100
AcDbEntity
  8
LAYER001
  6
CONTINUOUS
 62
               7
100
AcDbCircle
 10
-11.0
 20
229.93499399999999
 30
0.0
 40
2.5
100
AcDbArc
 50
0.0
 51
102.70903299998038
  0
LINE
  5
22B
100
AcDbEntity
  8
LAYER001
  6
CONTINUOUS
 62
               7
100
AcDbLine
 10
-8.5
 20
228.35999999999999
 30
0.0
 11
-8.5
 21
229.93499399999999
 31
0.0
  0
ARC
  5
22C
100
AcDbEntity
  8
LAYER001
  6
CONTINUOUS
 62
               7
100
AcDbCircle
 10
-13.400000000000006
 20
228.35999999999999
 30
0.0
 40
2.5
100
AcDbArc
 50
179.99999999996572
 51
269.99999999994827
  0
LINE
  5
22D
100
AcDbEntity
  8
LAYER001
  6
CONTINUOUS
 62
               7
100
AcDbLine
 10
-11.0
 20
225.85999999999999
 30
0.0
 11
-13.400000000000006
 21
225.85999999999999
 31
0.0
  0
ARC
  5
22E
100
AcDbEntity
  8
LAYER001
  6
CONTINUOUS
 62
               7
100
AcDbCircle
 10
-11.0
 20
228.35999999999999
 30
0.0
 40
2.5
100
AcDbArc
 50
269.99999999994827
 51
359.9999999999992
  0
ARC
  5
22F
100
AcDbEntity
  8
LAYER001
  6
CONTINUOUS
 62
               7
100
AcDbCircle
 10
-11.0
 20
220.35999999999999
 30
0.0
 40
2.5
100
AcDbArc
 50
0.0
 51
89.999999999982862
  0
LINE
  5
230
100
AcDbEntity
  8
LAYER001
  6
CONTINUOUS
 62
               7
100
AcDbLine
 10
-11.0
 20
222.85999999999999
 30
0.0
 11
-13.400000000000006
 21
222.85999999999999
 31
0.0
  0
LINE
  5
231
100
AcDbEntity
  8
LAYER001
  6
CONTINUOUS
 62
               7
100
AcDbLine
 10
-8.5
 20
206.75999999999999
 30
0.0
 11
-8.5
 21
220.35999999999999
 31
0.0
  0
ARC
  5
232
100
AcDbEntity
  8
LAYER001
  6
CONTINUOUS
 62
               7
100
AcDbCircle
 10
-13.400000000000006
 20
220.35999999999999
 30
0.0
 40
2.5
100
AcDbArc
 50
89.999999999982862
 51
179.99999999996572
  0
LINE
  5
233
100
AcDbEntity
  8
LAYER001
  6
CONTINUOUS
 62
               7
100
AcDbLine
 10
-15.900000000000006
 20
206.75999999999999
 30
0.0
 11
-15.900000000000006
 21
220.35999999999999
 31
0.0
  0
ARC
  5
234
100
AcDbEntity
  8
LAYER001
  6
CONTINUOUS
 62
               7
100
AcDbCircle
 10
-13.400000000000006
 20
206.75999999999999
 30
0.0
 40
2.5
100
AcDbArc
 50
179.99999999996572
 51
269.99999999994827
  0
LINE
  5
235
100
AcDbEntity
  8
LAYER001
  6
CONTINUOUS
 62
               7
100
AcDbLine
 10
-11.0
 20
204.25999999999999
 30
0.0
 11
-13.400000000000006
 21
204.25999999999999
 31
0.0
  0
ARC
  5
236
100
AcDbEntity
  8
LAYER001
  6
CONTINUOUS
 62
               7
100
AcDbCircle
 10
-11.0
 20
206.75999999999999
 30
0.0
 40
2.5
100
AcDbArc
 50
269.99999999994827
 51
359.9999999999992
  0
ARC
  5
237
100
AcDbEntity
  8
LAYER001
  6
CONTINUOUS
 62
               7
100
AcDbCircle
 10
-11.0
 20
198.75999999999999
 30
0.0
 40
2.5
100
AcDbArc
 50
0.0
 51
89.999999999982862
  0
LINE
  5
238
100
AcDbEntity
  8
LAYER001
  6
CONTINUOUS
 62
               7
100
AcDbLine
 10
-11.0
 20
201.25999999999999
 30
0.0
 11
-13.400000000000006
 21
201.25999999999999
 31
0.0
  0
LINE
  5
239
100
AcDbEntity
  8
LAYER001
  6
CONTINUOUS
 62
               7
100
AcDbLine
 10
-8.5
 20
185.15999999999997
 30
0.0
 11
-8.5
 21
198.75999999999999
 31
0.0
  0
ARC
  5
23A
100
AcDbEntity
  8
LAYER001
  6
CONTINUOUS
 62
               7
100
AcDbCircle
 10
-13.400000000000006
 20
198.75999999999999
 30
0.0
 40
2.5
100
AcDbArc
 50
89.999999999982862
 51
179.99999999996572
  0
LINE
  5
23B
100
AcDbEntity
  8
LAYER001
  6
CONTINUOUS
 62
               7
100
AcDbLine
 10
-15.900000000000006
 20
185.15999999999997
 30
0.0
 11
-15.900000000000006
 21
198.75999999999999
 31
0.0
  0
ARC
  5
23C
100
AcDbEntity
  8
LAYER001
  6
CONTINUOUS
 62
               7
100
AcDbCircle
 10
-13.400000000000006
 20
185.15999999999997
 30
0.0
 40
2.5
100
AcDbArc
 50
179.99999999996572
 51
269.99999999994827
  0
LINE
  5
23D
100
AcDbEntity
  8
LAYER001
  6
CONTINUOUS
 62
               7
100
AcDbLine
 10
-11.0
 20
182.65999999999997
 30
0.0
 11
-13.400000000000006
 21
182.65999999999997
 31
0.0
  0
ARC
  5
23E
100
AcDbEntity
  8
LAYER001
  6
CONTINUOUS
 62
               7
100
AcDbCircle
 10
-11.0
 20
185.15999999999997
 30
0.0
 40
2.5
100
AcDbArc
 50
269.99999999994827
 51
359.9999999999992
  0
ARC
  5
23F
100
AcDbEntity
  8
LAYER001
  6
CONTINUOUS
 62
               7
100
AcDbCircle
 10
46.599999999999987
 20
201.88293399999998
 30
0.0
 40
1.5
100
AcDbArc
 50
23.974626999995753
 51
179.99999999996595
  0
ARC
  5
240
100
AcDbEntity
  8
LAYER001
  6
CONTINUOUS
 62
               7
100
AcDbCircle
 10
47.759397
 20
195.95999999999998
 30
0.0
 40
2.5
100
AcDbArc
 50
269.99999999994861
 51
377.21751099999614
  0
ARC
  5
241
100
AcDbEntity
  8
LAYER001
  6
CONTINUOUS
 62
               7
100
AcDbCircle
 10
35.399999999999999
 20
216.47062200000002
 30
0.0
 40
2.5
100
AcDbArc
 50
44.927577999991129
 51
179.99999999996572
  0
ARC
  5
242
100
AcDbEntity
  8
LAYER001
  6
CONTINUOUS
 62
               7
100
AcDbCircle
 10
37.800000000000004
 20
213.88858099999999
 30
0.0
 40
2.5
100
AcDbArc
 50
0.0
 51
40.887175999992202
  0
ARC
  5
243
100
AcDbEntity
  8
LAYER001
  6
CONTINUOUS
 62
               7
100
AcDbCircle
 10
25.599999999999994
 20
224.109272
 30
0.0
 40
2.5
100
AcDbArc
 50
0.0
 51
59.202858999988841
  0
ARC
  5
244
100
AcDbEntity
  8
LAYER001
  6
CONTINUOUS
 62
               7
100
AcDbCircle
 10
23.200000000000003
 20
225.45176000000001
 30
0.0
 40
2.5
100
AcDbArc
 50
62.354476999988137
 51
179.99999999996572
  0
ARC
  5
245
100
AcDbEntity
  8
LAYER001
  6
CONTINUOUS
 62
               7
100
AcDbCircle
 10
0.0
 20
181.15999999999997
 30
0.0
 40
52.5
100
AcDbArc
 50
40.887175999992181
 51
44.927577999991406
  0
ARC
  5
246
100
AcDbEntity
  8
LAYER001
  6
CONTINUOUS
 62
               7
100
AcDbCircle
 10
0.0
 20
181.15999999999997
 30
0.0
 40
52.5
100
AcDbArc
 50
17.217510999996708
 51
23.974626999995415
  0
ARC
  5
247
100
AcDbEntity
  8
LAYER001
  6
CONTINUOUS
 62
               7
100
AcDbCircle
 10
0.0
 20
181.15999999999997
 30
0.0
 40
52.5
100
AcDbArc
 50
59.202858999988685
 51
62.354476999988073
  0
LINE
  5
248
100
AcDbEntity
  8
LAYER001
  6
CONTINUOUS
 62
               7
100
AcDbLine
 10
45.099999999999987
 20
195.95999999999998
 30
0.0
 11
45.099999999999987
 21
201.88293399999998
 31
0.0
  0
ARC
  5
249
100
AcDbEntity
  8
LAYER001
  6
CONTINUOUS
 62
               7
100
AcDbCircle
 10
47.599999999999987
 20
195.95999999999998
 30
0.0
 40
2.5
100
AcDbArc
 50
179.99999999996572
 51
269.99999999994861
  0
LINE
  5
24A
100
AcDbEntity
  8
LAYER001
  6
CONTINUOUS
 62
               7
100
AcDbLine
 10
47.599999999999987
 20
193.45999999999998
 30
0.0
 11
47.759397
 21
193.45999999999998
 31
0.0
  0
LINE
  5
24B
100
AcDbEntity
  8
LAYER001
  6
CONTINUOUS
 62
               7
100
AcDbLine
 10
48.662392000000004
 20
190.45999999999998
 30
0.0
 11
49.535441999999982
 21
190.45999999999998
 31
0.0
  0
LINE
  5
24C
100
AcDbEntity
  8
LAYER001
  6
CONTINUOUS
 62
               7
100
AcDbLine
 10
40.300000000000004
 20
206.75999999999999
 30
0.0
 11
40.300000000000004
 21
213.88858099999999
 31
0.0
  0
LINE
  5
24D
100
AcDbEntity
  8
LAYER001
  6
CONTINUOUS
 62
               7
100
AcDbLine
 10
32.899999999999999
 20
206.75999999999999
 30
0.0
 11
32.899999999999999
 21
216.47062200000002
 31
0.0
  0
ARC
  5
24E
100
AcDbEntity
  8
LAYER001
  6
CONTINUOUS
 62
               7
100
AcDbCircle
 10
35.399999999999999
 20
206.75999999999999
 30
0.0
 40
2.5
100
AcDbArc
 50
179.99999999996572
 51
269.99999999994861
  0
LINE
  5
24F
100
AcDbEntity
  8
LAYER001
  6
CONTINUOUS
 62
               7
100
AcDbLine
 10
37.800000000000004
 20
204.25999999999999
 30
0.0
 11
35.399999999999999
 21
204.25999999999999
 31
0.0
  0
ARC
  5
250
100
AcDbEntity
  8
LAYER001
  6
CONTINUOUS
 62
               7
100
AcDbCircle
 10
37.800000000000004
 20
206.75999999999999
 30
0.0
 40
2.5
100
AcDbArc
 50
269.99999999994861
 51
359.9999999999992
  0
ARC
  5
251
100
AcDbEntity
  8
LAYER001
  6
CONTINUOUS
 62
               7
100
AcDbCircle
 10
37.800000000000004
 20
198.75999999999999
 30
0.0
 40
2.5
100
AcDbArc
 50
0.0
 51
89.999999999982862
  0
LINE
  5
252
100
AcDbEntity
  8
LAYER001
  6
CONTINUOUS
 62
               7
100
AcDbLine
 10
37.800000000000004
 20
201.25999999999999
 30
0.0
 11
35.399999999999999
 21
201.25999999999999
 31
0.0
  0
LINE
  5
253
100
AcDbEntity
  8
LAYER001
  6
CONTINUOUS
 62
               7
100
AcDbLine
 10
40.300000000000004
 20
196.65999999999997
 30
0.0
 11
40.300000000000004
 21
198.75999999999999
 31
0.0
  0
ARC
  5
254
100
AcDbEntity
  8
LAYER001
  6
CONTINUOUS
 62
               7
100
AcDbCircle
 10
35.399999999999999
 20
198.75999999999999
 30
0.0
 40
2.5
100
AcDbArc
 50
89.999999999982862
 51
179.99999999996572
  0
LINE
  5
255
100
AcDbEntity
  8
LAYER001
  6
CONTINUOUS
 62
               7
100
AcDbLine
 10
32.899999999999999
 20
196.65999999999997
 30
0.0
 11
32.899999999999999
 21
198.75999999999999
 31
0.0
  0
ARC
  5
256
100
AcDbEntity
  8
LAYER001
  6
CONTINUOUS
 62
               7
100
AcDbCircle
 10
23.200000000000003
 20
217.55999999999997
 30
0.0
 40
2.5
100
AcDbArc
 50
179.99999999996572
 51
269.99999999994827
  0
LINE
  5
257
100
AcDbEntity
  8
LAYER001
  6
CONTINUOUS
 62
               7
100
AcDbLine
 10
25.599999999999994
 20
215.05999999999997
 30
0.0
 11
23.200000000000003
 21
215.05999999999997
 31
0.0
  0
LINE
  5
258
100
AcDbEntity
  8
LAYER001
  6
CONTINUOUS
 62
               7
100
AcDbLine
 10
20.700000000000003
 20
217.55999999999997
 30
0.0
 11
20.700000000000003
 21
225.45176000000001
 31
0.0
  0
ARC
  5
259
100
AcDbEntity
  8
LAYER001
  6
CONTINUOUS
 62
               7
100
AcDbCircle
 10
25.599999999999994
 20
217.55999999999997
 30
0.0
 40
2.5
100
AcDbArc
 50
269.99999999994827
 51
359.9999999999992
  0
LINE
  5
25A
100
AcDbEntity
  8
LAYER001
  6
CONTINUOUS
 62
               7
100
AcDbLine
 10
28.099999999999994
 20
217.55999999999997
 30
0.0
 11
28.099999999999994
 21
224.109272
 31
0.0
  0
ARC
  5
25B
100
AcDbEntity
  8
LAYER001
  6
CONTINUOUS
 62
               7
100
AcDbCircle
 10
23.200000000000003
 20
209.55999999999997
 30
0.0
 40
2.5
100
AcDbArc
 50
89.999999999982862
 51
179.99999999996572
  0
LINE
  5
25C
100
AcDbEntity
  8
LAYER001
  6
CONTINUOUS
 62
               7
100
AcDbLine
 10
25.599999999999994
 20
212.05999999999997
 30
0.0
 11
23.200000000000003
 21
212.05999999999997
 31
0.0
  0
LINE
  5
25D
100
AcDbEntity
  8
LAYER001
  6
CONTINUOUS
 62
               7
100
AcDbLine
 10
20.700000000000003
 20
195.95999999999998
 30
0.0
 11
20.700000000000003
 21
209.55999999999997
 31
0.0
  0
ARC
  5
25E
100
AcDbEntity
  8
LAYER001
  6
CONTINUOUS
 62
               7
100
AcDbCircle
 10
25.599999999999994
 20
209.55999999999997
 30
0.0
 40
2.5
100
AcDbArc
 50
0.0
 51
89.999999999982862
  0
LINE
  5
25F
100
AcDbEntity
  8
LAYER001
  6
CONTINUOUS
 62
               7
100
AcDbLine
 10
28.099999999999994
 20
195.95999999999998
 30
0.0
 11
28.099999999999994
 21
209.55999999999997
 31
0.0
  0
ARC
  5
260
100
AcDbEntity
  8
LAYER001
  6
CONTINUOUS
 62
               7
100
AcDbCircle
 10
25.599999999999994
 20
195.95999999999998
 30
0.0
 40
2.5
100
AcDbArc
 50
269.99999999994827
 51
359.9999999999992
  0
LINE
  5
261
100
AcDbEntity
  8
LAYER001
  6
CONTINUOUS
 62
               7
100
AcDbLine
 10
25.599999999999994
 20
193.45999999999998
 30
0.0
 11
23.200000000000003
 21
193.45999999999998
 31
0.0
  0
ARC
  5
262
100
AcDbEntity
  8
LAYER001
  6
CONTINUOUS
 62
               7
100
AcDbCircle
 10
23.200000000000003
 20
195.95999999999998
 30
0.0
 40
2.5
100
AcDbArc
 50
179.99999999996572
 51
269.99999999994827
  0
ARC
  5
263
100
AcDbEntity
  8
LAYER001
  6
CONTINUOUS
 62
               7
100
AcDbCircle
 10
23.200000000000003
 20
187.95999999999998
 30
0.0
 40
2.5
100
AcDbArc
 50
89.999999999982862
 51
179.99999999996572
  0
LINE
  5
264
100
AcDbEntity
  8
LAYER001
  6
CONTINUOUS
 62
               7
100
AcDbLine
 10
24.537608000000006
 20
190.45999999999998
 30
0.0
 11
23.200000000000003
 21
190.45999999999998
 31
0.0
  0
ARC
  5
265
100
AcDbEntity
  8
LAYER001
  6
CONTINUOUS
 62
               7
100
AcDbCircle
 10
13.400000000000006
 20
229.33094600000001
 30
0.0
 40
2.5
100
AcDbArc
 50
0.0
 51
74.454709999985724
  0
ARC
  5
266
100
AcDbEntity
  8
LAYER001
  6
CONTINUOUS
 62
               7
100
AcDbCircle
 10
11.0
 20
229.93499399999999
 30
0.0
 40
2.5
100
AcDbArc
 50
77.290966999985088
 51
179.99999999996572
  0
ARC
  5
267
100
AcDbEntity
  8
LAYER001
  6
CONTINUOUS
 62
               7
100
AcDbCircle
 10
1.2000000000000028
 20
217.55999999999997
 30
0.0
 40
2.5
100
AcDbArc
 50
269.99999999994827
 51
359.9999999999992
  0
ARC
  5
268
100
AcDbEntity
  8
LAYER001
  6
CONTINUOUS
 62
               7
100
AcDbCircle
 10
-1.2000000000000028
 20
217.55999999999997
 30
0.0
 40
2.5
100
AcDbArc
 50
179.99999999996572
 51
269.99999999994827
  0
ARC
  5
269
100
AcDbEntity
  8
LAYER001
  6
CONTINUOUS
 62
               7
100
AcDbCircle
 10
-1.2000000000000028
 20
231.14559799999998
 30
0.0
 40
2.5
100
AcDbArc
 50
91.375230999982662
 51
179.99999999996572
  0
ARC
  5
26A
100
AcDbEntity
  8
LAYER001
  6
CONTINUOUS
 62
               7
100
AcDbCircle
 10
1.2000000000000028
 20
231.14559799999998
 30
0.0
 40
2.5
100
AcDbArc
 50
0.0
 51
88.624768999983075
  0
ARC
  5
26B
100
AcDbEntity
  8
LAYER001
  6
CONTINUOUS
 62
               7
100
AcDbCircle
 10
13.400000000000006
 20
228.35999999999999
 30
0.0
 40
2.5
100
AcDbArc
 50
269.99999999994827
 51
359.9999999999992
  0
ARC
  5
26C
100
AcDbEntity
  8
LAYER001
  6
CONTINUOUS
 62
               7
100
AcDbCircle
 10
11.0
 20
228.35999999999999
 30
0.0
 40
2.5
100
AcDbArc
 50
179.99999999996572
 51
269.99999999994827
  0
ARC
  5
26D
100
AcDbEntity
  8
LAYER001
  6
CONTINUOUS
 62
               7
100
AcDbCircle
 10
11.0
 20
220.35999999999999
 30
0.0
 40
2.5
100
AcDbArc
 50
89.999999999982862
 51
179.99999999996572
  0
ARC
  5
26E
100
AcDbEntity
  8
LAYER001
  6
CONTINUOUS
 62
               7
100
AcDbCircle
 10
13.400000000000006
 20
220.35999999999999
 30
0.0
 40
2.5
100
AcDbArc
 50
0.0
 51
89.999999999982862
  0
ARC
  5
26F
100
AcDbEntity
  8
LAYER001
  6
CONTINUOUS
 62
               7
100
AcDbCircle
 10
13.400000000000006
 20
206.75999999999999
 30
0.0
 40
2.5
100
AcDbArc
 50
269.99999999994827
 51
359.9999999999992
  0
ARC
  5
270
100
AcDbEntity
  8
LAYER001
  6
CONTINUOUS
 62
               7
100
AcDbCircle
 10
11.0
 20
206.75999999999999
 30
0.0
 40
2.5
100
AcDbArc
 50
179.99999999996572
 51
269.99999999994827
  0
ARC
  5
271
100
AcDbEntity
  8
LAYER001
  6
CONTINUOUS
 62
               7
100
AcDbCircle
 10
11.0
 20
198.75999999999999
 30
0.0
 40
2.5
100
AcDbArc
 50
89.999999999982862
 51
179.99999999996572
  0
ARC
  5
272
100
AcDbEntity
  8
LAYER001
  6
CONTINUOUS
 62
               7
100
AcDbCircle
 10
13.400000000000006
 20
198.75999999999999
 30
0.0
 40
2.5
100
AcDbArc
 50
0.0
 51
89.999999999982862
  0
ARC
  5
273
100
AcDbEntity
  8
LAYER001
  6
CONTINUOUS
 62
               7
100
AcDbCircle
 10
13.400000000000006
 20
185.15999999999997
 30
0.0
 40
2.5
100
AcDbArc
 50
269.99999999994827
 51
359.9999999999992
  0
ARC
  5
274
100
AcDbEntity
  8
LAYER001
  6
CONTINUOUS
 62
               7
100
AcDbCircle
 10
11.0
 20
185.15999999999997
 30
0.0
 40
2.5
100
AcDbArc
 50
179.99999999996572
 51
269.99999999994827
  0
ARC
  5
275
100
AcDbEntity
  8
LAYER001
  6
CONTINUOUS
 62
               7
100
AcDbCircle
 10
1.2000000000000028
 20
209.55999999999997
 30
0.0
 40
2.5
100
AcDbArc
 50
0.0
 51
89.999999999982862
  0
ARC
  5
276
100
AcDbEntity
  8
LAYER001
  6
CONTINUOUS
 62
               7
100
AcDbCircle
 10
-1.2000000000000028
 20
209.55999999999997
 30
0.0
 40
2.5
100
AcDbArc
 50
89.999999999982862
 51
179.99999999996572
  0
ARC
  5
277
100
AcDbEntity
  8
LAYER001
  6
CONTINUOUS
 62
               7
100
AcDbCircle
 10
-1.2000000000000028
 20
195.95999999999998
 30
0.0
 40
2.5
100
AcDbArc
 50
179.99999999996572
 51
269.99999999994827
  0
ARC
  5
278
100
AcDbEntity
  8
LAYER001
  6
CONTINUOUS
 62
               7
100
AcDbCircle
 10
1.2000000000000028
 20
195.95999999999998
 30
0.0
 40
2.5
100
AcDbArc
 50
269.99999999994827
 51
359.9999999999992
  0
ARC
  5
279
100
AcDbEntity
  8
LAYER001
  6
CONTINUOUS
 62
               7
100
AcDbCircle
 10
0.0
 20
181.15999999999997
 30
0.0
 40
52.5
100
AcDbArc
 50
74.454709999985781
 51
77.29096699998523
  0
LINE
  5
27A
100
AcDbEntity
  8
LAYER001
  6
CONTINUOUS
 62
               7
100
AcDbLine
 10
15.900000000000006
 20
228.35999999999999
 30
0.0
 11
15.900000000000006
 21
229.33094600000001
 31
0.0
  0
LINE
  5
27B
100
AcDbEntity
  8
LAYER001
  6
CONTINUOUS
 62
               7
100
AcDbLine
 10
8.5
 20
228.35999999999999
 30
0.0
 11
8.5
 21
229.93499399999999
 31
0.0
  0
ARC
  5
27C
100
AcDbEntity
  8
LAYER001
  6
CONTINUOUS
 62
               7
100
AcDbCircle
 10
0.0
 20
181.15999999999997
 30
0.0
 40
52.5
100
AcDbArc
 50
88.62476899998309
 51
91.375230999982548
  0
LINE
  5
27D
100
AcDbEntity
  8
LAYER001
  6
CONTINUOUS
 62
               7
100
AcDbLine
 10
11.0
 20
225.85999999999999
 30
0.0
 11
13.400000000000006
 21
225.85999999999999
 31
0.0
  0
LINE
  5
27E
100
AcDbEntity
  8
LAYER001
  6
CONTINUOUS
 62
               7
100
AcDbLine
 10
11.0
 20
222.85999999999999
 30
0.0
 11
13.400000000000006
 21
222.85999999999999
 31
0.0
  0
LINE
  5
27F
100
AcDbEntity
  8
LAYER001
  6
CONTINUOUS
 62
               7
100
AcDbLine
 10
15.900000000000006
 20
206.75999999999999
 30
0.0
 11
15.900000000000006
 21
220.35999999999999
 31
0.0
  0
LINE
  5
280
100
AcDbEntity
  8
LAYER001
  6
CONTINUOUS
 62
               7
100
AcDbLine
 10
8.5
 20
206.75999999999999
 30
0.0
 11
8.5
 21
220.35999999999999
 31
0.0
  0
LINE
  5
281
100
AcDbEntity
  8
LAYER001
  6
CONTINUOUS
 62
               7
100
AcDbLine
 10
11.0
 20
204.25999999999999
 30
0.0
 11
13.400000000000006
 21
204.25999999999999
 31
0.0
  0
LINE
  5
282
100
AcDbEntity
  8
LAYER001
  6
CONTINUOUS
 62
               7
100
AcDbLine
 10
11.0
 20
201.25999999999999
 30
0.0
 11
13.400000000000006
 21
201.25999999999999
 31
0.0
  0
LINE
  5
283
100
AcDbEntity
  8
LAYER001
  6
CONTINUOUS
 62
               7
100
AcDbLine
 10
15.900000000000006
 20
185.15999999999997
 30
0.0
 11
15.900000000000006
 21
198.75999999999999
 31
0.0
  0
LINE
  5
284
100
AcDbEntity
  8
LAYER001
  6
CONTINUOUS
 62
               7
100
AcDbLine
 10
8.5
 20
185.15999999999997
 30
0.0
 11
8.5
 21
198.75999999999999
 31
0.0
  0
LINE
  5
285
100
AcDbEntity
  8
LAYER001
  6
CONTINUOUS
 62
               7
100
AcDbLine
 10
11.0
 20
182.65999999999997
 30
0.0
 11
13.400000000000006
 21
182.65999999999997
 31
0.0
  0
LINE
  5
286
100
AcDbEntity
  8
LAYER001
  6
CONTINUOUS
 62
               7
100
AcDbLine
 10
3.7000000000000028
 20
217.55999999999997
 30
0.0
 11
3.7000000000000028
 21
231.14559799999998
 31
0.0
  0
LINE
  5
287
100
AcDbEntity
  8
LAYER001
  6
CONTINUOUS
 62
               7
100
AcDbLine
 10
-3.7000000000000028
 20
217.55999999999997
 30
0.0
 11
-3.7000000000000028
 21
231.14559799999998
 31
0.0
  0
LINE
  5
288
100
AcDbEntity
  8
LAYER001
  6
CONTINUOUS
 62
               7
100
AcDbLine
 10
-1.2000000000000028
 20
215.05999999999997
 30
0.0
 11
1.2000000000000028
 21
215.05999999999997
 31
0.0
  0
LINE
  5
289
100
AcDbEntity
  8
LAYER001
  6
CONTINUOUS
 62
               7
100
AcDbLine
 10
-1.2000000000000028
 20
212.05999999999997
 30
0.0
 11
1.2000000000000028
 21
212.05999999999997
 31
0.0
  0
LINE
  5
28A
100
AcDbEntity
  8
LAYER001
  6
CONTINUOUS
 62
               7
100
AcDbLine
 10
3.7000000000000028
 20
195.95999999999998
 30
0.0
 11
3.7000000000000028
 21
209.55999999999997
 31
0.0
  0
LINE
  5
28B
100
AcDbEntity
  8
LAYER001
  6
CONTINUOUS
 62
               7
100
AcDbLine
 10
-3.7000000000000028
 20
195.95999999999998
 30
0.0
 11
-3.7000000000000028
 21
209.55999999999997
 31
0.0
  0
LINE
  5
28C
100
AcDbEntity
  8
LAYER001
  6
CONTINUOUS
 62
               7
100
AcDbLine
 10
-1.2000000000000028
 20
193.45999999999998
 30
0.0
 11
1.2000000000000028
 21
193.45999999999998
 31
0.0
  0
ARC
  5
28D
100
AcDbEntity
  8
LAYER001
  6
CONTINUOUS
 62
               7
100
AcDbCircle
 10
0.0
 20
181.15999999999997
 30
0.0
 40
58.5
100
AcDbArc
 50
0.0
 51
179.99999999996561
  0
ARC
  5
28E
100
AcDbEntity
  8
LAYER001
  6
CONTINUOUS
 62
               7
100
AcDbCircle
 10
0.0
 20
181.15999999999997
 30
0.0
 40
52.5
100
AcDbArc
 50
172.18355099996708
 51
179.99999999996561
  0
ARC
  5
28F
100
AcDbEntity
  8
LAYER001
  6
CONTINUOUS
 62
               7
100
AcDbCircle
 10
-30.599999999999994
 20
181.15999999999997
 30
0.0
 40
16.800000000000001
100
AcDbArc
 50
159.37000699996949
 51
179.99999999996558
  0
ELLIPSE
  5
290
100
AcDbEntity
  8
LAYER001
  6
CONTINUOUS
 62
               7
100
AcDbEllipse
 10
-36.600000000000001
 20
181.15999999999997
 30
0.0
 11
0.0
 21
10.0
 31
0.0
210
0.0
220
0.0
230
1.0
 40
0.6
 41
4.7123889803852901
 42
7.8539816339738824
  0
ARC
  5
291
100
AcDbEntity
  8
LAYER001
  6
CONTINUOUS
 62
               7
100
AcDbCircle
 10
-42.600000000000001
 20
181.15999999999997
 30
0.0
 40
16.800000000000001
100
AcDbArc
 50
0.0
 51
20.629992999996055
  0
LINE
  5
292
100
AcDbEntity
  8
LAYER001
  6
CONTINUOUS
 62
               7
100
AcDbLine
 10
-20.700000000000003
 20
181.15999999999997
 30
0.0
 11
-20.700000000000003
 21
187.95999999999998
 31
0.0
  0
LINE
  5
293
100
AcDbEntity
  8
LAYER001
  6
CONTINUOUS
 62
               7
100
AcDbLine
 10
20.700000000000003
 20
181.15999999999997
 30
0.0
 11
20.700000000000003
 21
187.95999999999998
 31
0.0
  0
ARC
  5
294
100
AcDbEntity
  8
LAYER001
  6
CONTINUOUS
 62
               7
100
AcDbCircle
 10
42.599999999999987
 20
181.15999999999997
 30
0.0
 40
16.800000000000001
100
AcDbArc
 50
159.37000699996949
 51
179.99999999996558
  0
ELLIPSE
  5
295
100
AcDbEntity
  8
LAYER001
  6
CONTINUOUS
 62
               7
100
AcDbEllipse
 10
36.599999999999987
 20
181.15999999999997
 30
0.0
 11
0.0
 21
10.0
 31
0.0
210
0.0
220
0.0
230
1.0
 40
0.6
 41
4.7123889803852901
 42
7.8539816339738824
  0
ARC
  5
296
100
AcDbEntity
  8
LAYER001
  6
CONTINUOUS
 62
               7
100
AcDbCircle
 10
30.599999999999991
 20
181.15999999999997
 30
0.0
 40
16.800000000000001
100
AcDbArc
 50
0.0
 51
20.629992999996048
  0
ARC
  5
297
100
AcDbEntity
  8
LAYER001
  6
CONTINUOUS
 62
               7
100
AcDbCircle
 10
0.0
 20
181.15999999999997
 30
0.0
 40
52.5
100
AcDbArc
 50
0.0
 51
7.8164489999985163
  0
LINE
  5
298
100
AcDbEntity
  8
LAYER001
  6
CONTINUOUS
 62
               7
100
AcDbLine
 10
-3.8609349999999978
 20
177.42521699999998
 30
0.0
 11
-3.8609349999999978
 21
178.85709399999999
 31
0.0
  0
LINE
  5
299
100
AcDbEntity
  8
LAYER001
  6
CONTINUOUS
 62
               7
100
AcDbLine
 10
-3.8609349999999978
 20
177.42476399999998
 30
0.0
 11
0.5574320000000057
 21
177.42476399999998
 31
0.0
  0
LINE
  5
29A
100
AcDbEntity
  8
LAYER001
  6
CONTINUOUS
 62
               7
100
AcDbLine
 10
0.4367079999999959
 20
179.55460299999999
 30
0.0
 11
-0.7602700000000056
 21
179.55460299999999
 31
0.0
  0
LINE
  5
29B
100
AcDbEntity
  8
LAYER001
  6
CONTINUOUS
 62
               7
100
AcDbLine
 10
-1.372201000000004
 20
180.11737099999999
 30
0.0
 11
-1.372201000000004
 21
185.01988899999998
 31
0.0
  0
LINE
  5
29C
100
AcDbEntity
  8
LAYER001
  6
CONTINUOUS
 62
               7
100
AcDbLine
 10
-1.372201000000004
 20
185.01988899999998
 30
0.0
 11
0.1073540000000008
 21
185.01988899999998
 31
0.0
  0
LINE
  5
29D
100
AcDbEntity
  8
LAYER001
  6
CONTINUOUS
 62
               7
100
AcDbLine
 10
0.1073540000000008
 20
185.01988899999998
 30
0.0
 11
0.1073540000000008
 21
181.35782599999999
 31
0.0
  0
LINE
  5
29E
100
AcDbEntity
  8
LAYER001
  6
CONTINUOUS
 62
               7
100
AcDbLine
 10
-1.7383370000000014
 20
182.96076999999997
 30
0.0
 11
-1.7383370000000014
 21
183.46866699999998
 31
0.0
  0
LINE
  5
29F
100
AcDbEntity
  8
LAYER001
  6
CONTINUOUS
 62
               7
100
AcDbLine
 10
-1.7383370000000014
 20
183.46866699999998
 30
0.0
 11
-3.289828
 21
183.46866699999998
 31
0.0
  0
LINE
  5
2A0
100
AcDbEntity
  8
LAYER001
  6
CONTINUOUS
 62
               7
100
AcDbLine
 10
-3.289828
 20
183.46866699999998
 30
0.0
 11
-1.7352360000000004
 21
183.86206699999997
 31
0.0
  0
LINE
  5
2A1
100
AcDbEntity
  8
LAYER001
  6
CONTINUOUS
 62
               7
100
AcDbLine
 10
-1.7352360000000004
 20
183.86206699999997
 30
0.0
 11
-1.7352360000000004
 21
184.12395399999997
 31
0.0
  0
LINE
  5
2A2
100
AcDbEntity
  8
LAYER001
  6
CONTINUOUS
 62
               7
100
AcDbLine
 10
-1.7352360000000004
 20
184.12395399999997
 30
0.0
 11
-3.2676299999999969
 21
184.50584999999998
 31
0.0
  0
LINE
  5
2A3
100
AcDbEntity
  8
LAYER001
  6
CONTINUOUS
 62
               7
100
AcDbLine
 10
-3.2676299999999969
 20
184.50584999999998
 30
0.0
 11
-1.7383370000000014
 21
184.50584999999998
 31
0.0
  0
LINE
  5
2A4
100
AcDbEntity
  8
LAYER001
  6
CONTINUOUS
 62
               7
100
AcDbLine
 10
-1.7383370000000014
 20
184.50584999999998
 30
0.0
 11
-1.7383370000000014
 21
185.01374699999997
 31
0.0
  0
LINE
  5
2A5
100
AcDbEntity
  8
LAYER001
  6
CONTINUOUS
 62
               7
100
AcDbLine
 10
-1.7383370000000014
 20
185.01374699999997
 30
0.0
 11
-3.865128999999996
 21
185.01374699999997
 31
0.0
  0
LINE
  5
2A6
100
AcDbEntity
  8
LAYER001
  6
CONTINUOUS
 62
               7
100
AcDbLine
 10
-3.865128999999996
 20
185.01374699999997
 30
0.0
 11
-3.865128999999996
 21
184.20615699999999
 31
0.0
  0
LINE
  5
2A7
100
AcDbEntity
  8
LAYER001
  6
CONTINUOUS
 62
               7
100
AcDbLine
 10
-3.865128999999996
 20
184.20615699999999
 30
0.0
 11
-3.0010989999999964
 21
183.99408899999997
 31
0.0
  0
LINE
  5
2A8
100
AcDbEntity
  8
LAYER001
  6
CONTINUOUS
 62
               7
100
AcDbLine
 10
-3.0010989999999964
 20
183.99193199999999
 30
0.0
 11
-3.865128999999996
 21
183.77986399999998
 31
0.0
  0
LINE
  5
2A9
100
AcDbEntity
  8
LAYER001
  6
CONTINUOUS
 62
               7
100
AcDbLine
 10
-3.865128999999996
 20
183.77986399999998
 30
0.0
 11
-3.865128999999996
 21
182.96076999999997
 31
0.0
  0
LINE
  5
2AA
100
AcDbEntity
  8
LAYER001
  6
CONTINUOUS
 62
               7
100
AcDbLine
 10
-3.865128999999996
 20
182.96076999999997
 30
0.0
 11
-1.7383370000000014
 21
182.96076999999997
 31
0.0
  0
LINE
  5
2AB
100
AcDbEntity
  8
LAYER001
  6
CONTINUOUS
 62
               7
100
AcDbLine
 10
-3.8733380000000039
 20
182.39405099999999
 30
0.0
 11
-3.8733380000000039
 21
181.56274599999998
 31
0.0
  0
LINE
  5
2AC
100
AcDbEntity
  8
LAYER001
  6
CONTINUOUS
 62
               7
100
AcDbLine
 10
-2.3248349999999931
 20
182.15360499999997
 30
0.0
 11
-3.2763570000000044
 21
182.15360499999997
 31
0.0
  0
LINE
  5
2AD
100
AcDbEntity
  8
LAYER001
  6
CONTINUOUS
 62
               7
100
AcDbLine
 10
-3.4899429999999967
 20
182.08970299999999
 30
0.0
 11
-3.4899429999999967
 21
181.87526799999998
 31
0.0
  0
LINE
  5
2AE
100
AcDbEntity
  8
LAYER001
  6
CONTINUOUS
 62
               7
100
AcDbLine
 10
-3.1581659999999943
 20
181.01022799999998
 30
0.0
 11
-3.1581659999999943
 21
180.46775699999998
 31
0.0
  0
LINE
  5
2AF
100
AcDbEntity
  8
LAYER001
  6
CONTINUOUS
 62
               7
100
AcDbLine
 10
-2.4191359999999946
 20
180.46708299999997
 30
0.0
 11
-2.4191359999999946
 21
181.01291999999998
 31
0.0
  0
LINE
  5
2B0
100
AcDbEntity
  8
LAYER001
  6
CONTINUOUS
 62
               7
100
AcDbLine
 10
-2.4191359999999946
 20
181.01291999999998
 30
0.0
 11
-2.0372959999999978
 21
181.01291999999998
 31
0.0
  0
LINE
  5
2B1
100
AcDbEntity
  8
LAYER001
  6
CONTINUOUS
 62
               7
100
AcDbLine
 10
-2.0372959999999978
 20
179.57191199999997
 30
0.0
 11
-3.5614110000000068
 21
179.57191199999997
 31
0.0
  0
LINE
  5
2B2
100
AcDbEntity
  8
LAYER001
  6
CONTINUOUS
 62
               7
100
AcDbLine
 10
-3.8657579999999996
 20
179.87625999999997
 30
0.0
 11
-3.8657579999999996
 21
180.70857299999997
 31
0.0
  0
ARC
  5
2B3
100
AcDbEntity
  8
LAYER001
  6
CONTINUOUS
 62
               7
100
AcDbCircle
 10
-3.5614110000000068
 20
179.87625999999997
 30
0.0
 40
0.304348
100
AcDbArc
 50
179.99999999996751
 51
269.99999999994856
  0
LINE
  5
2B4
100
AcDbEntity
  8
LAYER001
  6
CONTINUOUS
 62
               7
100
AcDbLine
 10
-3.1581659999999943
 20
181.01291999999998
 30
0.0
 11
-3.5614110000000068
 21
181.01291999999998
 31
0.0
  0
ARC
  5
2B5
100
AcDbEntity
  8
LAYER001
  6
CONTINUOUS
 62
               7
100
AcDbCircle
 10
-3.5614110000000068
 20
180.70857299999997
 30
0.0
 40
0.304348
100
AcDbArc
 50
89.999999999983757
 51
179.99999999996751
  0
LINE
  5
2B6
100
AcDbEntity
  8
LAYER001
  6
CONTINUOUS
 62
               7
100
AcDbLine
 10
-1.7329479999999933
 20
179.87625999999997
 30
0.0
 11
-1.7329479999999933
 21
180.70857299999997
 31
0.0
  0
ARC
  5
2B7
100
AcDbEntity
  8
LAYER001
  6
CONTINUOUS
 62
               7
100
AcDbCircle
 10
-2.0372959999999978
 20
179.87625999999997
 30
0.0
 40
0.304348
100
AcDbArc
 50
269.99999999994856
 51
359.9999999999992
  0
ARC
  5
2B8
100
AcDbEntity
  8
LAYER001
  6
CONTINUOUS
 62
               7
100
AcDbCircle
 10
-2.0372959999999978
 20
180.70857299999997
 30
0.0
 40
0.304348
100
AcDbArc
 50
0.0
 51
89.999999999983757
  0
LINE
  5
2B9
100
AcDbEntity
  8
LAYER001
  6
CONTINUOUS
 62
               7
100
AcDbLine
 10
-3.5689899999999994
 20
181.25839799999997
 30
0.0
 11
-2.0441830000000039
 21
181.25839799999997
 31
0.0
  0
LINE
  5
2BA
100
AcDbEntity
  8
LAYER001
  6
CONTINUOUS
 62
               7
100
AcDbLine
 10
-1.7398349999999994
 20
181.56274599999998
 30
0.0
 11
-1.7398349999999994
 21
182.39405099999999
 31
0.0
  0
LINE
  5
2BB
100
AcDbEntity
  8
LAYER001
  6
CONTINUOUS
 62
               7
100
AcDbLine
 10
-2.0441830000000039
 20
182.69839799999997
 30
0.0
 11
-3.5689899999999994
 21
182.69839799999997
 31
0.0
  0
ARC
  5
2BC
100
AcDbEntity
  8
LAYER001
  6
CONTINUOUS
 62
               7
100
AcDbCircle
 10
-3.5689899999999994
 20
181.56274599999998
 30
0.0
 40
0.304348
100
AcDbArc
 50
179.99999999996751
 51
269.99999999994856
  0
ARC
  5
2BD
100
AcDbEntity
  8
LAYER001
  6
CONTINUOUS
 62
               7
100
AcDbCircle
 10
-3.5689899999999994
 20
182.39405099999999
 30
0.0
 40
0.304348
100
AcDbArc
 50
89.999999999983757
 51
179.99999999996751
  0
ARC
  5
2BE
100
AcDbEntity
  8
LAYER001
  6
CONTINUOUS
 62
               7
100
AcDbCircle
 10
-2.0441830000000039
 20
181.56274599999998
 30
0.0
 40
0.304348
100
AcDbArc
 50
269.99999999994856
 51
359.9999999999992
  0
ARC
  5
2BF
100
AcDbEntity
  8
LAYER001
  6
CONTINUOUS
 62
               7
100
AcDbCircle
 10
-2.0441830000000039
 20
182.39405099999999
 30
0.0
 40
0.304348
100
AcDbArc
 50
0.0
 51
89.999999999983757
  0
ARC
  5
2C0
100
AcDbEntity
  8
LAYER001
  6
CONTINUOUS
 62
               7
100
AcDbCircle
 10
-3.279950999999997
 20
181.47845999999998
 30
0.0
 40
0.675155
100
AcDbArc
 50
89.695009999983313
 51
98.731642999981233
  0
ARC
  5
2C1
100
AcDbEntity
  8
LAYER001
  6
CONTINUOUS
 62
               7
100
AcDbCircle
 10
-3.3509030000000024
 20
181.91431099999997
 30
0.0
 40
0.233617
100
AcDbArc
 50
97.759080999981904
 51
119.98554399997823
  0
ARC
  5
2C2
100
AcDbEntity
  8
LAYER001
  6
CONTINUOUS
 62
               7
100
AcDbCircle
 10
-3.4283949999999948
 20
182.06151399999999
 30
0.0
 40
0.067696
100
AcDbArc
 50
125.45260699997533
 51
155.39268699997774
  0
ARC
  5
2C3
100
AcDbEntity
  8
LAYER001
  6
CONTINUOUS
 62
               7
100
AcDbCircle
 10
-3.279950999999997
 20
182.48651099999998
 30
0.0
 40
0.675155
100
AcDbArc
 50
261.26835699994973
 51
270.46741399994801
  0
ARC
  5
2C4
100
AcDbEntity
  8
LAYER001
  6
CONTINUOUS
 62
               7
100
AcDbCircle
 10
-3.3509030000000024
 20
182.05065899999997
 30
0.0
 40
0.233617
100
AcDbArc
 50
240.01445599995569
 51
262.24091899995074
  0
ARC
  5
2C5
100
AcDbEntity
  8
LAYER001
  6
CONTINUOUS
 62
               7
100
AcDbCircle
 10
-3.4283949999999948
 20
181.90345599999998
 30
0.0
 40
0.067696
100
AcDbArc
 50
204.60731299996269
 51
234.5473929999568
  0
LINE
  5
2C6
100
AcDbEntity
  8
LAYER001
  6
CONTINUOUS
 62
               7
100
AcDbLine
 10
-3.2744430000000051
 20
181.81137899999999
 30
0.0
 11
-2.3248349999999931
 21
181.81137899999999
 31
0.0
  0
LINE
  5
2C7
100
AcDbEntity
  8
LAYER001
  6
CONTINUOUS
 62
               7
100
AcDbLine
 10
-2.1234759999999966
 20
181.93378999999999
 30
0.0
 11
-2.1234759999999966
 21
182.03119399999997
 31
0.0
  0
ARC
  5
2C8
100
AcDbEntity
  8
LAYER001
  6
CONTINUOUS
 62
               7
100
AcDbCircle
 10
-2.3357380000000063
 20
182.39085899999998
 30
0.0
 40
0.579583
100
AcDbArc
 50
271.07788699994848
 51
285.1584829999461
  0
ARC
  5
2C9
100
AcDbEntity
  8
LAYER001
  6
CONTINUOUS
 62
               7
100
AcDbCircle
 10
-2.2165609999999987
 20
181.95164099999997
 30
0.0
 40
0.124484
100
AcDbArc
 50
285.07586699994499
 51
309.33215599993719
  0
ARC
  5
2CA
100
AcDbEntity
  8
LAYER001
  6
CONTINUOUS
 62
               7
100
AcDbCircle
 10
-2.1676889999999958
 20
181.88336099999998
 30
0.0
 40
0.041061
100
AcDbArc
 50
316.99614599995124
 51
354.8891549999405
  0
ARC
  5
2CB
100
AcDbEntity
  8
LAYER001
  6
CONTINUOUS
 62
               7
100
AcDbCircle
 10
-2.5727949999999993
 20
181.93418999999997
 30
0.0
 40
0.449319
100
AcDbArc
 50
353.03486499993375
 51
359.94900399993213
  0
ARC
  5
2CC
100
AcDbEntity
  8
LAYER001
  6
CONTINUOUS
 62
               7
100
AcDbCircle
 10
-2.3357380000000063
 20
181.57412499999998
 30
0.0
 40
0.579583
100
AcDbArc
 50
74.841516999986325
 51
88.922112999983256
  0
ARC
  5
2CD
100
AcDbEntity
  8
LAYER001
  6
CONTINUOUS
 62
               7
100
AcDbCircle
 10
-2.2165609999999987
 20
182.01334199999997
 30
0.0
 40
0.124484
100
AcDbArc
 50
50.667843999988342
 51
74.924132999984224
  0
ARC
  5
2CE
100
AcDbEntity
  8
LAYER001
  6
CONTINUOUS
 62
               7
100
AcDbCircle
 10
-2.1676889999999958
 20
182.08162299999998
 30
0.0
 40
0.041061
100
AcDbArc
 50
5.1108450000174228
 51
43.003853999991868
  0
ARC
  5
2CF
100
AcDbEntity
  8
LAYER001
  6
CONTINUOUS
 62
               7
100
AcDbCircle
 10
-2.5727949999999993
 20
182.03079399999999
 30
0.0
 40
0.449319
100
AcDbArc
 50
0.0509959999982509
 51
6.9651349999998287
  0
ARC
  5
2D0
100
AcDbEntity
  8
LAYER001
  6
CONTINUOUS
 62
               7
100
AcDbCircle
 10
-3.2720159999999936
 20
179.79193799999999
 30
0.0
 40
0.675155
100
AcDbArc
 50
89.695009999983313
 51
98.731642999981233
  0
ARC
  5
2D1
100
AcDbEntity
  8
LAYER001
  6
CONTINUOUS
 62
               7
100
AcDbCircle
 10
-3.3429689999999965
 20
180.22778999999997
 30
0.0
 40
0.233617
100
AcDbArc
 50
97.759080999981904
 51
119.98554399997823
  0
ARC
  5
2D2
100
AcDbEntity
  8
LAYER001
  6
CONTINUOUS
 62
               7
100
AcDbCircle
 10
-3.4204610000000031
 20
180.37499299999999
 30
0.0
 40
0.067696
100
AcDbArc
 50
125.45260699997533
 51
155.39268699997774
  0
ARC
  5
2D3
100
AcDbEntity
  8
LAYER001
  6
CONTINUOUS
 62
               7
100
AcDbCircle
 10
-3.3429689999999965
 20
180.36413799999997
 30
0.0
 40
0.233617
100
AcDbArc
 50
240.01445599995569
 51
262.24091899995074
  0
ARC
  5
2D4
100
AcDbEntity
  8
LAYER001
  6
CONTINUOUS
 62
               7
100
AcDbCircle
 10
-3.4204610000000031
 20
180.21693499999998
 30
0.0
 40
0.067696
100
AcDbArc
 50
204.60731299996269
 51
234.5473929999568
  0
ARC
  5
2D5
100
AcDbEntity
  8
LAYER001
  6
CONTINUOUS
 62
               7
100
AcDbCircle
 10
-3.2720159999999936
 20
180.79998899999998
 30
0.0
 40
0.675155
100
AcDbArc
 50
261.26835699994973
 51
270.46741399994801
  0
LINE
  5
2D6
100
AcDbEntity
  8
LAYER001
  6
CONTINUOUS
 62
               7
100
AcDbLine
 10
-3.482009000000005
 20
180.40318099999999
 30
0.0
 11
-3.482009000000005
 21
180.18874599999998
 31
0.0
  0
LINE
  5
2D7
100
AcDbEntity
  8
LAYER001
  6
CONTINUOUS
 62
               7
100
AcDbLine
 10
-3.268422000000001
 20
180.46708299999997
 30
0.0
 11
-3.1581659999999943
 21
180.46708299999997
 31
0.0
  0
LINE
  5
2D8
100
AcDbEntity
  8
LAYER001
  6
CONTINUOUS
 62
               7
100
AcDbLine
 10
-3.2665080000000017
 20
180.12485699999999
 30
0.0
 11
-2.3172260000000051
 21
180.12485699999999
 31
0.0
  0
ARC
  5
2D9
100
AcDbEntity
  8
LAYER001
  6
CONTINUOUS
 62
               7
100
AcDbCircle
 10
-2.3281290000000041
 20
180.70433699999998
 30
0.0
 40
0.579583
100
AcDbArc
 50
271.07788699994848
 51
285.1584829999461
  0
ARC
  5
2DA
100
AcDbEntity
  8
LAYER001
  6
CONTINUOUS
 62
               7
100
AcDbCircle
 10
-2.2089519999999965
 20
180.26511899999997
 30
0.0
 40
0.124484
100
AcDbArc
 50
285.07586699994499
 51
309.33215599993719
  0
ARC
  5
2DB
100
AcDbEntity
  8
LAYER001
  6
CONTINUOUS
 62
               7
100
AcDbCircle
 10
-2.1600810000000052
 20
180.19683899999998
 30
0.0
 40
0.041061
100
AcDbArc
 50
316.99614599995124
 51
354.8891549999405
  0
ARC
  5
2DC
100
AcDbEntity
  8
LAYER001
  6
CONTINUOUS
 62
               7
100
AcDbCircle
 10
-2.5651859999999971
 20
180.24766799999998
 30
0.0
 40
0.449319
100
AcDbArc
 50
353.03486499993375
 51
359.94900399993213
  0
ARC
  5
2DD
100
AcDbEntity
  8
LAYER001
  6
CONTINUOUS
 62
               7
100
AcDbCircle
 10
-2.3281290000000041
 20
179.88760299999998
 30
0.0
 40
0.579583
100
AcDbArc
 50
74.841516999986325
 51
88.922112999983256
  0
ARC
  5
2DE
100
AcDbEntity
  8
LAYER001
  6
CONTINUOUS
 62
               7
100
AcDbCircle
 10
-2.2089519999999965
 20
180.32682099999997
 30
0.0
 40
0.124484
100
AcDbArc
 50
50.667843999988342
 51
74.924132999984224
  0
ARC
  5
2DF
100
AcDbEntity
  8
LAYER001
  6
CONTINUOUS
 62
               7
100
AcDbCircle
 10
-2.1600810000000052
 20
180.39510099999998
 30
0.0
 40
0.041061
100
AcDbArc
 50
5.1108450000174228
 51
43.003853999991868
  0
ARC
  5
2E0
100
AcDbEntity
  8
LAYER001
  6
CONTINUOUS
 62
               7
100
AcDbCircle
 10
-2.5651859999999971
 20
180.34427199999999
 30
0.0
 40
0.449319
100
AcDbArc
 50
0.0509959999982509
 51
6.9651349999998287
  0
LINE
  5
2E1
100
AcDbEntity
  8
LAYER001
  6
CONTINUOUS
 62
               7
100
AcDbLine
 10
-2.1158669999999944
 20
180.24726799999999
 30
0.0
 11
-2.1158669999999944
 21
180.34467199999997
 31
0.0
  0
LINE
  5
2E2
100
AcDbEntity
  8
LAYER001
  6
CONTINUOUS
 62
               7
100
AcDbLine
 10
-2.3172260000000051
 20
180.46708299999997
 30
0.0
 11
-2.4191359999999946
 21
180.46708299999997
 31
0.0
  0
ARC
  5
2E3
100
AcDbEntity
  8
LAYER001
  6
CONTINUOUS
 62
               7
100
AcDbCircle
 10
-0.7238480000000038
 20
180.20828399999999
 30
0.0
 40
0.654695
100
AcDbArc
 50
187.98212499996419
 51
266.81094599994879
  0
ARC
  5
2E4
100
AcDbEntity
  8
LAYER001
  6
CONTINUOUS
 62
               7
100
AcDbCircle
 10
0.4136400000000009
 20
179.20616999999999
 30
0.0
 40
0.349195
100
AcDbArc
 50
268.50222199994869
 51
446.21227299998304
  0
LINE
  5
2E5
100
AcDbEntity
  8
LAYER001
  6
CONTINUOUS
 62
               7
100
AcDbLine
 10
0.4045129999999944
 20
178.85709399999999
 30
0.0
 11
-3.8609349999999978
 21
178.85709399999999
 31
0.0
  0
ARC
  5
2E6
100
AcDbEntity
  8
LAYER001
  6
CONTINUOUS
 62
               7
100
AcDbCircle
 10
0.5774729999999977
 20
181.35868099999999
 30
0.0
 40
0.47012
100
AcDbArc
 50
180.10421699996394
 51
214.90013699995885
  0
ARC
  5
2E7
100
AcDbEntity
  8
LAYER001
  6
CONTINUOUS
 62
               7
100
AcDbCircle
 10
0.4642220000000066
 20
181.32201999999998
 30
0.0
 40
0.35795
100
AcDbArc
 50
220.46781599995967
 51
271.5790089999478
  0
ARC
  5
2E8
100
AcDbEntity
  8
LAYER001
  6
CONTINUOUS
 62
               7
100
AcDbCircle
 10
0.5002130000000022
 20
179.20941999999997
 30
0.0
 40
1.75498
100
AcDbArc
 50
8.3281729999985536
 51
90.85302599998262
  0
ARC
  5
2E9
100
AcDbEntity
  8
LAYER001
  6
CONTINUOUS
 62
               7
100
AcDbCircle
 10
0.4897420000000068
 20
179.19148099999998
 30
0.0
 40
1.768014
100
AcDbArc
 50
272.19415599994807
 51
368.85422699999782
  0
ELLIPSE
  5
2EA
100
AcDbEntity
  8
LAYER001
  6
CONTINUOUS
 62
               7
100
AcDbEllipse
 10
0.0
 20
181.15996999999999
 30
0.0
 11
1.695230275614179
 21
-4.6576069030257656
 31
0.0
210
0.0
220
0.0
230
1.0
 40
0.5438599999999996
 41
5.6025769877894209
 42
9.6324738471232418
  0
ELLIPSE
  5
2EB
100
AcDbEntity
  8
LAYER001
  6
CONTINUOUS
 62
               7
100
AcDbEllipse
 10
0.0
 20
181.15996999999999
 30
0.0
 11
1.7844529216991276
 21
-4.9027441084481893
 31
0.0
210
0.0
220
0.0
230
1.0
 40
0.5666669999999998
 41
5.5845956283909102
 42
9.6447957894924681
  0
ARC
  5
2EC
100
AcDbEntity
  8
LAYER001
  6
CONTINUOUS
 62
               7
100
AcDbCircle
 10
-0.3535279999999972
 20
176.86126499999997
 30
0.0
 40
0.125217
100
AcDbArc
 50
52.017939999989316
 51
237.75533399995106
  0
ARC
  5
2ED
100
AcDbEntity
  8
LAYER001
  6
CONTINUOUS
 62
               7
100
AcDbCircle
 10
-2.2713580000000064
 20
185.61974499999997
 30
0.0
 40
0.12913
100
AcDbArc
 50
126.28353599997862
 51
314.32277599994143
  0
ARC
  5
2EE
100
AcDbEntity
  8
LAYER001
  6
CONTINUOUS
 62
               7
100
AcDbCircle
 10
0.0
 20
181.15994000000001
 30
0.0
 40
59.0
100
AcDbArc
 50
180.00000000003359
 51
359.9999999999992
  0
ARC
  5
2EF
100
AcDbEntity
  8
LAYER001
  6
CONTINUOUS
 62
               7
100
AcDbCircle
 10
0.0
 20
181.15994000000001
 30
0.0
 40
65.0
100
AcDbArc
 50
180.00000000003359
 51
359.9999999999992
  0
ARC
  5
2F0
100
AcDbEntity
  8
LAYER001
  6
CONTINUOUS
 62
               7
100
AcDbCircle
 10
-48.662392000000004
 20
174.35993999999999
 30
0.0
 40
2.5
100
AcDbArc
 50
270.00000000001631
 51
380.62999300006328
  0
ARC
  5
2F1
100
AcDbEntity
  8
LAYER001
  6
CONTINUOUS
 62
               7
100
AcDbCircle
 10
-24.537608000000006
 20
174.35993999999999
 30
0.0
 40
2.5
100
AcDbArc
 50
159.37000700003782
 51
270.00000000001631
  0
ARC
  5
2F2
100
AcDbEntity
  8
LAYER001
  6
CONTINUOUS
 62
               7
100
AcDbCircle
 10
24.537608000000006
 20
174.35993999999999
 30
0.0
 40
2.5
100
AcDbArc
 50
270.00000000001631
 51
380.62999300006328
  0
ARC
  5
2F3
100
AcDbEntity
  8
LAYER001
  6
CONTINUOUS
 62
               7
100
AcDbCircle
 10
48.662392000000004
 20
174.35993999999999
 30
0.0
 40
2.5
100
AcDbArc
 50
159.37000700003773
 51
270.00000000001631
  0
ARC
  5
2F4
100
AcDbEntity
  8
LAYER001
  6
CONTINUOUS
 62
               7
100
AcDbCircle
 10
-35.400000000000013
 20
165.65994000000001
 30
0.0
 40
2.5
100
AcDbArc
 50
0.0
 51
90.000000000050932
  0
LINE
  5
2F5
100
AcDbEntity
  8
LAYER001
  6
CONTINUOUS
 62
               7
100
AcDbLine
 10
-35.400000000000013
 20
168.15994000000001
 30
0.0
 11
-37.800000000000004
 21
168.15994000000001
 31
0.0
  0
LINE
  5
2F6
100
AcDbEntity
  8
LAYER001
  6
CONTINUOUS
 62
               7
100
AcDbLine
 10
-32.900000000000006
 20
165.65994000000001
 30
0.0
 11
-32.900000000000006
 21
163.55993999999998
 31
0.0
  0
ARC
  5
2F7
100
AcDbEntity
  8
LAYER001
  6
CONTINUOUS
 62
               7
100
AcDbCircle
 10
-37.800000000000004
 20
165.65994000000001
 30
0.0
 40
2.5
100
AcDbArc
 50
90.000000000050932
 51
180.00000000003345
  0
LINE
  5
2F8
100
AcDbEntity
  8
LAYER001
  6
CONTINUOUS
 62
               7
100
AcDbLine
 10
-40.300000000000004
 20
165.65994000000001
 30
0.0
 11
-40.300000000000004
 21
163.55993999999998
 31
0.0
  0
LINE
  5
2F9
100
AcDbEntity
  8
LAYER001
  6
CONTINUOUS
 62
               7
100
AcDbLine
 10
-48.662392000000004
 20
171.85993999999999
 30
0.0
 11
-49.53544200000001
 21
171.85993999999999
 31
0.0
  0
ARC
  5
2FA
100
AcDbEntity
  8
LAYER001
  6
CONTINUOUS
 62
               7
100
AcDbCircle
 10
-49.53544200000001
 20
174.35993999999999
 30
0.0
 40
2.5
100
AcDbArc
 50
187.81644900003189
 51
270.00000000001631
  0
ARC
  5
2FB
100
AcDbEntity
  8
LAYER001
  6
CONTINUOUS
 62
               7
100
AcDbCircle
 10
35.399999999999999
 20
165.65994000000001
 30
0.0
 40
2.5
100
AcDbArc
 50
90.000000000050605
 51
180.00000000003345
  0
ARC
  5
2FC
100
AcDbEntity
  8
LAYER001
  6
CONTINUOUS
 62
               7
100
AcDbCircle
 10
37.800000000000004
 20
165.65994000000001
 30
0.0
 40
2.5
100
AcDbArc
 50
0.0
 51
90.000000000050605
  0
LINE
  5
2FD
100
AcDbEntity
  8
LAYER001
  6
CONTINUOUS
 62
               7
100
AcDbLine
 10
35.399999999999999
 20
168.15994000000001
 30
0.0
 11
37.800000000000004
 21
168.15994000000001
 31
0.0
  0
ARC
  5
2FE
100
AcDbEntity
  8
LAYER001
  6
CONTINUOUS
 62
               7
100
AcDbCircle
 10
49.535441999999982
 20
174.35993999999999
 30
0.0
 40
2.5
100
AcDbArc
 50
270.00000000001631
 51
352.18355100000048
  0
ARC
  5
2FF
100
AcDbEntity
  8
LAYER001
  6
CONTINUOUS
 62
               7
100
AcDbCircle
 10
-46.600000000000001
 20
160.437006
 30
0.0
 40
1.5
100
AcDbArc
 50
203.97462700002873
 51
359.9999999999992
  0
LINE
  5
300
100
AcDbEntity
  8
LAYER001
  6
CONTINUOUS
 62
               7
100
AcDbLine
 10
-45.100000000000001
 20
166.35993999999999
 30
0.0
 11
-45.100000000000001
 21
160.437006
 31
0.0
  0
ARC
  5
301
100
AcDbEntity
  8
LAYER001
  6
CONTINUOUS
 62
               7
100
AcDbCircle
 10
0.0
 20
181.15994000000001
 30
0.0
 40
52.5
100
AcDbArc
 50
197.2175110000303
 51
203.97462700002896
  0
ARC
  5
302
100
AcDbEntity
  8
LAYER001
  6
CONTINUOUS
 62
               7
100
AcDbCircle
 10
-47.759397
 20
166.35993999999999
 30
0.0
 40
2.5
100
AcDbArc
 50
90.000000000050775
 51
197.21751100003058
  0
LINE
  5
303
100
AcDbEntity
  8
LAYER001
  6
CONTINUOUS
 62
               7
100
AcDbLine
 10
-47.600000000000001
 20
168.85993999999999
 30
0.0
 11
-47.759397
 21
168.85993999999999
 31
0.0
  0
ARC
  5
304
100
AcDbEntity
  8
LAYER001
  6
CONTINUOUS
 62
               7
100
AcDbCircle
 10
-35.400000000000013
 20
145.84931799999995
 30
0.0
 40
2.5
100
AcDbArc
 50
224.92757800002505
 51
359.9999999999992
  0
LINE
  5
305
100
AcDbEntity
  8
LAYER001
  6
CONTINUOUS
 62
               7
100
AcDbLine
 10
-32.900000000000006
 20
155.55993999999998
 30
0.0
 11
-32.900000000000006
 21
145.84931799999995
 31
0.0
  0
ARC
  5
306
100
AcDbEntity
  8
LAYER001
  6
CONTINUOUS
 62
               7
100
AcDbCircle
 10
0.0
 20
181.15994000000001
 30
0.0
 40
52.5
100
AcDbArc
 50
220.88717600002579
 51
224.92757800002502
  0
ARC
  5
307
100
AcDbEntity
  8
LAYER001
  6
CONTINUOUS
 62
               7
100
AcDbCircle
 10
-37.800000000000004
 20
148.43135899999999
 30
0.0
 40
2.5
100
AcDbArc
 50
180.00000000003345
 51
220.88717600002559
  0
LINE
  5
308
100
AcDbEntity
  8
LAYER001
  6
CONTINUOUS
 62
               7
100
AcDbLine
 10
-40.300000000000004
 20
155.55993999999998
 30
0.0
 11
-40.300000000000004
 21
148.43135899999999
 31
0.0
  0
ARC
  5
309
100
AcDbEntity
  8
LAYER001
  6
CONTINUOUS
 62
               7
100
AcDbCircle
 10
-25.599999999999994
 20
138.21066799999997
 30
0.0
 40
2.5
100
AcDbArc
 50
180.00000000003345
 51
239.20285900002196
  0
ARC
  5
30A
100
AcDbEntity
  8
LAYER001
  6
CONTINUOUS
 62
               7
100
AcDbCircle
 10
0.0
 20
181.15994000000001
 30
0.0
 40
52.5
100
AcDbArc
 50
239.20285900002227
 51
242.35447700002166
  0
LINE
  5
30B
100
AcDbEntity
  8
LAYER001
  6
CONTINUOUS
 62
               7
100
AcDbLine
 10
-28.099999999999994
 20
144.75994
 30
0.0
 11
-28.099999999999994
 21
138.21066799999997
 31
0.0
  0
ARC
  5
30C
100
AcDbEntity
  8
LAYER001
  6
CONTINUOUS
 62
               7
100
AcDbCircle
 10
-23.200000000000003
 20
136.86817999999997
 30
0.0
 40
2.5
100
AcDbArc
 50
242.3544770000218
 51
359.9999999999992
  0
LINE
  5
30D
100
AcDbEntity
  8
LAYER001
  6
CONTINUOUS
 62
               7
100
AcDbLine
 10
-20.700000000000003
 20
144.75994
 30
0.0
 11
-20.700000000000003
 21
136.86817999999997
 31
0.0
  0
ARC
  5
30E
100
AcDbEntity
  8
LAYER001
  6
CONTINUOUS
 62
               7
100
AcDbCircle
 10
-47.600000000000001
 20
166.35993999999999
 30
0.0
 40
2.5
100
AcDbArc
 50
0.0
 51
90.000000000050775
  0
ARC
  5
30F
100
AcDbEntity
  8
LAYER001
  6
CONTINUOUS
 62
               7
100
AcDbCircle
 10
-35.400000000000013
 20
155.55993999999998
 30
0.0
 40
2.5
100
AcDbArc
 50
0.0
 51
90.000000000050932
  0
LINE
  5
310
100
AcDbEntity
  8
LAYER001
  6
CONTINUOUS
 62
               7
100
AcDbLine
 10
-37.800000000000004
 20
158.05993999999998
 30
0.0
 11
-35.400000000000013
 21
158.05993999999998
 31
0.0
  0
ARC
  5
311
100
AcDbEntity
  8
LAYER001
  6
CONTINUOUS
 62
               7
100
AcDbCircle
 10
-37.800000000000004
 20
155.55993999999998
 30
0.0
 40
2.5
100
AcDbArc
 50
90.000000000050932
 51
180.00000000003345
  0
ARC
  5
312
100
AcDbEntity
  8
LAYER001
  6
CONTINUOUS
 62
               7
100
AcDbCircle
 10
-37.800000000000004
 20
163.55993999999998
 30
0.0
 40
2.5
100
AcDbArc
 50
180.00000000003345
 51
270.00000000001631
  0
LINE
  5
313
100
AcDbEntity
  8
LAYER001
  6
CONTINUOUS
 62
               7
100
AcDbLine
 10
-37.800000000000004
 20
161.05993999999998
 30
0.0
 11
-35.400000000000013
 21
161.05993999999998
 31
0.0
  0
ARC
  5
314
100
AcDbEntity
  8
LAYER001
  6
CONTINUOUS
 62
               7
100
AcDbCircle
 10
-35.400000000000013
 20
163.55993999999998
 30
0.0
 40
2.5
100
AcDbArc
 50
270.00000000001631
 51
359.9999999999992
  0
ARC
  5
315
100
AcDbEntity
  8
LAYER001
  6
CONTINUOUS
 62
               7
100
AcDbCircle
 10
-23.200000000000003
 20
144.75994
 30
0.0
 40
2.5
100
AcDbArc
 50
0.0
 51
90.000000000050932
  0
LINE
  5
316
100
AcDbEntity
  8
LAYER001
  6
CONTINUOUS
 62
               7
100
AcDbLine
 10
-25.599999999999994
 20
147.25994
 30
0.0
 11
-23.200000000000003
 21
147.25994
 31
0.0
  0
ARC
  5
317
100
AcDbEntity
  8
LAYER001
  6
CONTINUOUS
 62
               7
100
AcDbCircle
 10
-25.599999999999994
 20
144.75994
 30
0.0
 40
2.5
100
AcDbArc
 50
90.000000000050932
 51
180.00000000003345
  0
ARC
  5
318
100
AcDbEntity
  8
LAYER001
  6
CONTINUOUS
 62
               7
100
AcDbCircle
 10
-23.200000000000003
 20
152.75994
 30
0.0
 40
2.5
100
AcDbArc
 50
270.00000000001631
 51
359.9999999999992
  0
LINE
  5
319
100
AcDbEntity
  8
LAYER001
  6
CONTINUOUS
 62
               7
100
AcDbLine
 10
-25.599999999999994
 20
150.25994
 30
0.0
 11
-23.200000000000003
 21
150.25994
 31
0.0
  0
LINE
  5
31A
100
AcDbEntity
  8
LAYER001
  6
CONTINUOUS
 62
               7
100
AcDbLine
 10
-20.700000000000003
 20
166.35993999999999
 30
0.0
 11
-20.700000000000003
 21
152.75994
 31
0.0
  0
ARC
  5
31B
100
AcDbEntity
  8
LAYER001
  6
CONTINUOUS
 62
               7
100
AcDbCircle
 10
-25.599999999999994
 20
152.75994
 30
0.0
 40
2.5
100
AcDbArc
 50
180.00000000003345
 51
270.00000000001631
  0
LINE
  5
31C
100
AcDbEntity
  8
LAYER001
  6
CONTINUOUS
 62
               7
100
AcDbLine
 10
-28.099999999999994
 20
166.35993999999999
 30
0.0
 11
-28.099999999999994
 21
152.75994
 31
0.0
  0
ARC
  5
31D
100
AcDbEntity
  8
LAYER001
  6
CONTINUOUS
 62
               7
100
AcDbCircle
 10
-25.599999999999994
 20
166.35993999999999
 30
0.0
 40
2.5
100
AcDbArc
 50
90.000000000050932
 51
180.00000000003345
  0
LINE
  5
31E
100
AcDbEntity
  8
LAYER001
  6
CONTINUOUS
 62
               7
100
AcDbLine
 10
-25.599999999999994
 20
168.85993999999999
 30
0.0
 11
-23.200000000000003
 21
168.85993999999999
 31
0.0
  0
ARC
  5
31F
100
AcDbEntity
  8
LAYER001
  6
CONTINUOUS
 62
               7
100
AcDbCircle
 10
-23.200000000000003
 20
166.35993999999999
 30
0.0
 40
2.5
100
AcDbArc
 50
0.0
 51
90.000000000050932
  0
ARC
  5
320
100
AcDbEntity
  8
LAYER001
  6
CONTINUOUS
 62
               7
100
AcDbCircle
 10
-23.200000000000003
 20
174.35993999999999
 30
0.0
 40
2.5
100
AcDbArc
 50
270.00000000001631
 51
359.9999999999992
  0
LINE
  5
321
100
AcDbEntity
  8
LAYER001
  6
CONTINUOUS
 62
               7
100
AcDbLine
 10
-24.537608000000006
 20
171.85993999999999
 30
0.0
 11
-23.200000000000003
 21
171.85993999999999
 31
0.0
  0
ARC
  5
322
100
AcDbEntity
  8
LAYER001
  6
CONTINUOUS
 62
               7
100
AcDbCircle
 10
-13.400000000000006
 20
132.98899399999996
 30
0.0
 40
2.5
100
AcDbArc
 50
180.00000000003345
 51
254.45471000001942
  0
ARC
  5
323
100
AcDbEntity
  8
LAYER001
  6
CONTINUOUS
 62
               7
100
AcDbCircle
 10
0.0
 20
181.15994000000001
 30
0.0
 40
52.5
100
AcDbArc
 50
254.45471000001939
 51
257.29096700001884
  0
LINE
  5
324
100
AcDbEntity
  8
LAYER001
  6
CONTINUOUS
 62
               7
100
AcDbLine
 10
-15.900000000000006
 20
133.95993999999999
 30
0.0
 11
-15.900000000000006
 21
132.98899399999996
 31
0.0
  0
ARC
  5
325
100
AcDbEntity
  8
LAYER001
  6
CONTINUOUS
 62
               7
100
AcDbCircle
 10
-11.0
 20
132.38494599999999
 30
0.0
 40
2.5
100
AcDbArc
 50
257.29096700001884
 51
359.9999999999992
  0
LINE
  5
326
100
AcDbEntity
  8
LAYER001
  6
CONTINUOUS
 62
               7
100
AcDbLine
 10
-8.5
 20
133.95993999999999
 30
0.0
 11
-8.5
 21
132.38494599999999
 31
0.0
  0
ARC
  5
327
100
AcDbEntity
  8
LAYER001
  6
CONTINUOUS
 62
               7
100
AcDbCircle
 10
-13.400000000000006
 20
133.95993999999999
 30
0.0
 40
2.5
100
AcDbArc
 50
90.000000000050932
 51
180.00000000003345
  0
LINE
  5
328
100
AcDbEntity
  8
LAYER001
  6
CONTINUOUS
 62
               7
100
AcDbLine
 10
-11.0
 20
136.45993999999999
 30
0.0
 11
-13.400000000000006
 21
136.45993999999999
 31
0.0
  0
ARC
  5
329
100
AcDbEntity
  8
LAYER001
  6
CONTINUOUS
 62
               7
100
AcDbCircle
 10
-11.0
 20
133.95993999999999
 30
0.0
 40
2.5
100
AcDbArc
 50
0.0
 51
90.000000000050932
  0
ARC
  5
32A
100
AcDbEntity
  8
LAYER001
  6
CONTINUOUS
 62
               7
100
AcDbCircle
 10
-11.0
 20
141.95993999999999
 30
0.0
 40
2.5
100
AcDbArc
 50
270.00000000001631
 51
359.9999999999992
  0
LINE
  5
32B
100
AcDbEntity
  8
LAYER001
  6
CONTINUOUS
 62
               7
100
AcDbLine
 10
-11.0
 20
139.45993999999999
 30
0.0
 11
-13.400000000000006
 21
139.45993999999999
 31
0.0
  0
LINE
  5
32C
100
AcDbEntity
  8
LAYER001
  6
CONTINUOUS
 62
               7
100
AcDbLine
 10
-8.5
 20
155.55993999999998
 30
0.0
 11
-8.5
 21
141.95993999999999
 31
0.0
  0
ARC
  5
32D
100
AcDbEntity
  8
LAYER001
  6
CONTINUOUS
 62
               7
100
AcDbCircle
 10
-13.400000000000006
 20
141.95993999999999
 30
0.0
 40
2.5
100
AcDbArc
 50
180.00000000003345
 51
270.00000000001631
  0
LINE
  5
32E
100
AcDbEntity
  8
LAYER001
  6
CONTINUOUS
 62
               7
100
AcDbLine
 10
-15.900000000000006
 20
155.55993999999998
 30
0.0
 11
-15.900000000000006
 21
141.95993999999999
 31
0.0
  0
ARC
  5
32F
100
AcDbEntity
  8
LAYER001
  6
CONTINUOUS
 62
               7
100
AcDbCircle
 10
-13.400000000000006
 20
155.55993999999998
 30
0.0
 40
2.5
100
AcDbArc
 50
90.000000000050932
 51
180.00000000003345
  0
LINE
  5
330
100
AcDbEntity
  8
LAYER001
  6
CONTINUOUS
 62
               7
100
AcDbLine
 10
-11.0
 20
158.05993999999998
 30
0.0
 11
-13.400000000000006
 21
158.05993999999998
 31
0.0
  0
ARC
  5
331
100
AcDbEntity
  8
LAYER001
  6
CONTINUOUS
 62
               7
100
AcDbCircle
 10
-11.0
 20
155.55993999999998
 30
0.0
 40
2.5
100
AcDbArc
 50
0.0
 51
90.000000000050932
  0
ARC
  5
332
100
AcDbEntity
  8
LAYER001
  6
CONTINUOUS
 62
               7
100
AcDbCircle
 10
-11.0
 20
163.55993999999998
 30
0.0
 40
2.5
100
AcDbArc
 50
270.00000000001631
 51
359.9999999999992
  0
LINE
  5
333
100
AcDbEntity
  8
LAYER001
  6
CONTINUOUS
 62
               7
100
AcDbLine
 10
-11.0
 20
161.05993999999998
 30
0.0
 11
-13.400000000000006
 21
161.05993999999998
 31
0.0
  0
LINE
  5
334
100
AcDbEntity
  8
LAYER001
  6
CONTINUOUS
 62
               7
100
AcDbLine
 10
-8.5
 20
177.15994000000001
 30
0.0
 11
-8.5
 21
163.55993999999998
 31
0.0
  0
ARC
  5
335
100
AcDbEntity
  8
LAYER001
  6
CONTINUOUS
 62
               7
100
AcDbCircle
 10
-13.400000000000006
 20
163.55993999999998
 30
0.0
 40
2.5
100
AcDbArc
 50
180.00000000003345
 51
270.00000000001631
  0
LINE
  5
336
100
AcDbEntity
  8
LAYER001
  6
CONTINUOUS
 62
               7
100
AcDbLine
 10
-15.900000000000006
 20
177.15994000000001
 30
0.0
 11
-15.900000000000006
 21
163.55993999999998
 31
0.0
  0
ARC
  5
337
100
AcDbEntity
  8
LAYER001
  6
CONTINUOUS
 62
               7
100
AcDbCircle
 10
-13.400000000000006
 20
177.15994000000001
 30
0.0
 40
2.5
100
AcDbArc
 50
90.000000000050932
 51
180.00000000003345
  0
LINE
  5
338
100
AcDbEntity
  8
LAYER001
  6
CONTINUOUS
 62
               7
100
AcDbLine
 10
-11.0
 20
179.65994000000001
 30
0.0
 11
-13.400000000000006
 21
179.65994000000001
 31
0.0
  0
ARC
  5
339
100
AcDbEntity
  8
LAYER001
  6
CONTINUOUS
 62
               7
100
AcDbCircle
 10
-11.0
 20
177.15994000000001
 30
0.0
 40
2.5
100
AcDbArc
 50
0.0
 51
90.000000000050932
  0
ARC
  5
33A
100
AcDbEntity
  8
LAYER001
  6
CONTINUOUS
 62
               7
100
AcDbCircle
 10
46.599999999999987
 20
160.437006
 30
0.0
 40
1.5
100
AcDbArc
 50
180.00000000003322
 51
336.02537300000341
  0
ARC
  5
33B
100
AcDbEntity
  8
LAYER001
  6
CONTINUOUS
 62
               7
100
AcDbCircle
 10
47.759397
 20
166.35993999999999
 30
0.0
 40
2.5
100
AcDbArc
 50
342.78248900000222
 51
450.00000000004979
  0
ARC
  5
33C
100
AcDbEntity
  8
LAYER001
  6
CONTINUOUS
 62
               7
100
AcDbCircle
 10
35.399999999999999
 20
145.84931799999995
 30
0.0
 40
2.5
100
AcDbArc
 50
180.00000000003345
 51
315.07242200000803
  0
ARC
  5
33D
100
AcDbEntity
  8
LAYER001
  6
CONTINUOUS
 62
               7
100
AcDbCircle
 10
37.800000000000004
 20
148.43135899999999
 30
0.0
 40
2.5
100
AcDbArc
 50
319.11282400000698
 51
359.9999999999992
  0
ARC
  5
33E
100
AcDbEntity
  8
LAYER001
  6
CONTINUOUS
 62
               7
100
AcDbCircle
 10
25.599999999999994
 20
138.21066799999997
 30
0.0
 40
2.5
100
AcDbArc
 50
300.79714100001036
 51
359.9999999999992
  0
ARC
  5
33F
100
AcDbEntity
  8
LAYER001
  6
CONTINUOUS
 62
               7
100
AcDbCircle
 10
23.200000000000003
 20
136.86817999999997
 30
0.0
 40
2.5
100
AcDbArc
 50
180.00000000003345
 51
297.64552300001105
  0
ARC
  5
340
100
AcDbEntity
  8
LAYER001
  6
CONTINUOUS
 62
               7
100
AcDbCircle
 10
0.0
 20
181.15994000000001
 30
0.0
 40
52.5
100
AcDbArc
 50
315.0724220000078
 51
319.11282400000704
  0
ARC
  5
341
100
AcDbEntity
  8
LAYER001
  6
CONTINUOUS
 62
               7
100
AcDbCircle
 10
0.0
 20
181.15994000000001
 30
0.0
 40
52.5
100
AcDbArc
 50
336.02537300000381
 51
342.7824890000025
  0
ARC
  5
342
100
AcDbEntity
  8
LAYER001
  6
CONTINUOUS
 62
               7
100
AcDbCircle
 10
0.0
 20
181.15994000000001
 30
0.0
 40
52.5
100
AcDbArc
 50
297.64552300001111
 51
300.79714100001053
  0
LINE
  5
343
100
AcDbEntity
  8
LAYER001
  6
CONTINUOUS
 62
               7
100
AcDbLine
 10
45.099999999999987
 20
166.35993999999999
 30
0.0
 11
45.099999999999987
 21
160.437006
 31
0.0
  0
ARC
  5
344
100
AcDbEntity
  8
LAYER001
  6
CONTINUOUS
 62
               7
100
AcDbCircle
 10
47.599999999999987
 20
166.35993999999999
 30
0.0
 40
2.5
100
AcDbArc
 50
90.000000000050605
 51
180.00000000003345
  0
LINE
  5
345
100
AcDbEntity
  8
LAYER001
  6
CONTINUOUS
 62
               7
100
AcDbLine
 10
47.599999999999987
 20
168.85993999999999
 30
0.0
 11
47.759397
 21
168.85993999999999
 31
0.0
  0
LINE
  5
346
100
AcDbEntity
  8
LAYER001
  6
CONTINUOUS
 62
               7
100
AcDbLine
 10
48.662392000000004
 20
171.85993999999999
 30
0.0
 11
49.535441999999982
 21
171.85993999999999
 31
0.0
  0
LINE
  5
347
100
AcDbEntity
  8
LAYER001
  6
CONTINUOUS
 62
               7
100
AcDbLine
 10
40.300000000000004
 20
155.55993999999998
 30
0.0
 11
40.300000000000004
 21
148.43135899999999
 31
0.0
  0
LINE
  5
348
100
AcDbEntity
  8
LAYER001
  6
CONTINUOUS
 62
               7
100
AcDbLine
 10
32.899999999999999
 20
155.55993999999998
 30
0.0
 11
32.899999999999999
 21
145.84931799999995
 31
0.0
  0
ARC
  5
349
100
AcDbEntity
  8
LAYER001
  6
CONTINUOUS
 62
               7
100
AcDbCircle
 10
35.399999999999999
 20
155.55993999999998
 30
0.0
 40
2.5
100
AcDbArc
 50
90.000000000050605
 51
180.00000000003345
  0
LINE
  5
34A
100
AcDbEntity
  8
LAYER001
  6
CONTINUOUS
 62
               7
100
AcDbLine
 10
37.800000000000004
 20
158.05993999999998
 30
0.0
 11
35.399999999999999
 21
158.05993999999998
 31
0.0
  0
ARC
  5
34B
100
AcDbEntity
  8
LAYER001
  6
CONTINUOUS
 62
               7
100
AcDbCircle
 10
37.800000000000004
 20
155.55993999999998
 30
0.0
 40
2.5
100
AcDbArc
 50
0.0
 51
90.000000000050605
  0
ARC
  5
34C
100
AcDbEntity
  8
LAYER001
  6
CONTINUOUS
 62
               7
100
AcDbCircle
 10
37.800000000000004
 20
163.55993999999998
 30
0.0
 40
2.5
100
AcDbArc
 50
270.00000000001631
 51
359.9999999999992
  0
LINE
  5
34D
100
AcDbEntity
  8
LAYER001
  6
CONTINUOUS
 62
               7
100
AcDbLine
 10
37.800000000000004
 20
161.05993999999998
 30
0.0
 11
35.399999999999999
 21
161.05993999999998
 31
0.0
  0
LINE
  5
34E
100
AcDbEntity
  8
LAYER001
  6
CONTINUOUS
 62
               7
100
AcDbLine
 10
40.300000000000004
 20
165.65994000000001
 30
0.0
 11
40.300000000000004
 21
163.55993999999998
 31
0.0
  0
ARC
  5
34F
100
AcDbEntity
  8
LAYER001
  6
CONTINUOUS
 62
               7
100
AcDbCircle
 10
35.399999999999999
 20
163.55993999999998
 30
0.0
 40
2.5
100
AcDbArc
 50
180.00000000003345
 51
270.00000000001631
  0
LINE
  5
350
100
AcDbEntity
  8
LAYER001
  6
CONTINUOUS
 62
               7
100
AcDbLine
 10
32.899999999999999
 20
165.65994000000001
 30
0.0
 11
32.899999999999999
 21
163.55993999999998
 31
0.0
  0
ARC
  5
351
100
AcDbEntity
  8
LAYER001
  6
CONTINUOUS
 62
               7
100
AcDbCircle
 10
23.200000000000003
 20
144.75994
 30
0.0
 40
2.5
100
AcDbArc
 50
90.000000000050932
 51
180.00000000003345
  0
LINE
  5
352
100
AcDbEntity
  8
LAYER001
  6
CONTINUOUS
 62
               7
100
AcDbLine
 10
25.599999999999994
 20
147.25994
 30
0.0
 11
23.200000000000003
 21
147.25994
 31
0.0
  0
LINE
  5
353
100
AcDbEntity
  8
LAYER001
  6
CONTINUOUS
 62
               7
100
AcDbLine
 10
20.700000000000003
 20
144.75994
 30
0.0
 11
20.700000000000003
 21
136.86817999999997
 31
0.0
  0
ARC
  5
354
100
AcDbEntity
  8
LAYER001
  6
CONTINUOUS
 62
               7
100
AcDbCircle
 10
25.599999999999994
 20
144.75994
 30
0.0
 40
2.5
100
AcDbArc
 50
0.0
 51
90.000000000050932
  0
LINE
  5
355
100
AcDbEntity
  8
LAYER001
  6
CONTINUOUS
 62
               7
100
AcDbLine
 10
28.099999999999994
 20
144.75994
 30
0.0
 11
28.099999999999994
 21
138.21066799999997
 31
0.0
  0
ARC
  5
356
100
AcDbEntity
  8
LAYER001
  6
CONTINUOUS
 62
               7
100
AcDbCircle
 10
23.200000000000003
 20
152.75994
 30
0.0
 40
2.5
100
AcDbArc
 50
180.00000000003345
 51
270.00000000001631
  0
LINE
  5
357
100
AcDbEntity
  8
LAYER001
  6
CONTINUOUS
 62
               7
100
AcDbLine
 10
25.599999999999994
 20
150.25994
 30
0.0
 11
23.200000000000003
 21
150.25994
 31
0.0
  0
LINE
  5
358
100
AcDbEntity
  8
LAYER001
  6
CONTINUOUS
 62
               7
100
AcDbLine
 10
20.700000000000003
 20
166.35993999999999
 30
0.0
 11
20.700000000000003
 21
152.75994
 31
0.0
  0
ARC
  5
359
100
AcDbEntity
  8
LAYER001
  6
CONTINUOUS
 62
               7
100
AcDbCircle
 10
25.599999999999994
 20
152.75994
 30
0.0
 40
2.5
100
AcDbArc
 50
270.00000000001631
 51
359.9999999999992
  0
LINE
  5
35A
100
AcDbEntity
  8
LAYER001
  6
CONTINUOUS
 62
               7
100
AcDbLine
 10
28.099999999999994
 20
166.35993999999999
 30
0.0
 11
28.099999999999994
 21
152.75994
 31
0.0
  0
ARC
  5
35B
100
AcDbEntity
  8
LAYER001
  6
CONTINUOUS
 62
               7
100
AcDbCircle
 10
25.599999999999994
 20
166.35993999999999
 30
0.0
 40
2.5
100
AcDbArc
 50
0.0
 51
90.000000000050932
  0
LINE
  5
35C
100
AcDbEntity
  8
LAYER001
  6
CONTINUOUS
 62
               7
100
AcDbLine
 10
25.599999999999994
 20
168.85993999999999
 30
0.0
 11
23.200000000000003
 21
168.85993999999999
 31
0.0
  0
ARC
  5
35D
100
AcDbEntity
  8
LAYER001
  6
CONTINUOUS
 62
               7
100
AcDbCircle
 10
23.200000000000003
 20
166.35993999999999
 30
0.0
 40
2.5
100
AcDbArc
 50
90.000000000050932
 51
180.00000000003345
  0
ARC
  5
35E
100
AcDbEntity
  8
LAYER001
  6
CONTINUOUS
 62
               7
100
AcDbCircle
 10
23.200000000000003
 20
174.35993999999999
 30
0.0
 40
2.5
100
AcDbArc
 50
180.00000000003345
 51
270.00000000001631
  0
LINE
  5
35F
100
AcDbEntity
  8
LAYER001
  6
CONTINUOUS
 62
               7
100
AcDbLine
 10
24.537608000000006
 20
171.85993999999999
 30
0.0
 11
23.200000000000003
 21
171.85993999999999
 31
0.0
  0
ARC
  5
360
100
AcDbEntity
  8
LAYER001
  6
CONTINUOUS
 62
               7
100
AcDbCircle
 10
13.400000000000006
 20
132.98899399999996
 30
0.0
 40
2.5
100
AcDbArc
 50
285.54529000001344
 51
359.9999999999992
  0
ARC
  5
361
100
AcDbEntity
  8
LAYER001
  6
CONTINUOUS
 62
               7
100
AcDbCircle
 10
11.0
 20
132.38494599999999
 30
0.0
 40
2.5
100
AcDbArc
 50
180.00000000003345
 51
282.70903300001413
  0
ARC
  5
362
100
AcDbEntity
  8
LAYER001
  6
CONTINUOUS
 62
               7
100
AcDbCircle
 10
1.2000000000000028
 20
144.75994
 30
0.0
 40
2.5
100
AcDbArc
 50
0.0
 51
90.000000000050932
  0
ARC
  5
363
100
AcDbEntity
  8
LAYER001
  6
CONTINUOUS
 62
               7
100
AcDbCircle
 10
-1.2000000000000028
 20
144.75994
 30
0.0
 40
2.5
100
AcDbArc
 50
90.000000000050932
 51
180.00000000003345
  0
ARC
  5
364
100
AcDbEntity
  8
LAYER001
  6
CONTINUOUS
 62
               7
100
AcDbCircle
 10
-1.2000000000000028
 20
131.174342
 30
0.0
 40
2.5
100
AcDbArc
 50
180.00000000003345
 51
268.62476900001656
  0
ARC
  5
365
100
AcDbEntity
  8
LAYER001
  6
CONTINUOUS
 62
               7
100
AcDbCircle
 10
1.2000000000000028
 20
131.174342
 30
0.0
 40
2.5
100
AcDbArc
 50
271.37523100001607
 51
359.9999999999992
  0
ARC
  5
366
100
AcDbEntity
  8
LAYER001
  6
CONTINUOUS
 62
               7
100
AcDbCircle
 10
13.400000000000006
 20
133.95993999999999
 30
0.0
 40
2.5
100
AcDbArc
 50
0.0
 51
90.000000000050932
  0
ARC
  5
367
100
AcDbEntity
  8
LAYER001
  6
CONTINUOUS
 62
               7
100
AcDbCircle
 10
11.0
 20
133.95993999999999
 30
0.0
 40
2.5
100
AcDbArc
 50
90.000000000050932
 51
180.00000000003345
  0
ARC
  5
368
100
AcDbEntity
  8
LAYER001
  6
CONTINUOUS
 62
               7
100
AcDbCircle
 10
11.0
 20
141.95993999999999
 30
0.0
 40
2.5
100
AcDbArc
 50
180.00000000003345
 51
270.00000000001631
  0
ARC
  5
369
100
AcDbEntity
  8
LAYER001
  6
CONTINUOUS
 62
               7
100
AcDbCircle
 10
13.400000000000006
 20
141.95993999999999
 30
0.0
 40
2.5
100
AcDbArc
 50
270.00000000001631
 51
359.9999999999992
  0
ARC
  5
36A
100
AcDbEntity
  8
LAYER001
  6
CONTINUOUS
 62
               7
100
AcDbCircle
 10
13.400000000000006
 20
155.55993999999998
 30
0.0
 40
2.5
100
AcDbArc
 50
0.0
 51
90.000000000050932
  0
ARC
  5
36B
100
AcDbEntity
  8
LAYER001
  6
CONTINUOUS
 62
               7
100
AcDbCircle
 10
11.0
 20
155.55993999999998
 30
0.0
 40
2.5
100
AcDbArc
 50
90.000000000050932
 51
180.00000000003345
  0
ARC
  5
36C
100
AcDbEntity
  8
LAYER001
  6
CONTINUOUS
 62
               7
100
AcDbCircle
 10
11.0
 20
163.55993999999998
 30
0.0
 40
2.5
100
AcDbArc
 50
180.00000000003345
 51
270.00000000001631
  0
ARC
  5
36D
100
AcDbEntity
  8
LAYER001
  6
CONTINUOUS
 62
               7
100
AcDbCircle
 10
13.400000000000006
 20
163.55993999999998
 30
0.0
 40
2.5
100
AcDbArc
 50
270.00000000001631
 51
359.9999999999992
  0
ARC
  5
36E
100
AcDbEntity
  8
LAYER001
  6
CONTINUOUS
 62
               7
100
AcDbCircle
 10
13.400000000000006
 20
177.15994000000001
 30
0.0
 40
2.5
100
AcDbArc
 50
0.0
 51
90.000000000050932
  0
ARC
  5
36F
100
AcDbEntity
  8
LAYER001
  6
CONTINUOUS
 62
               7
100
AcDbCircle
 10
11.0
 20
177.15994000000001
 30
0.0
 40
2.5
100
AcDbArc
 50
90.000000000050932
 51
180.00000000003345
  0
ARC
  5
370
100
AcDbEntity
  8
LAYER001
  6
CONTINUOUS
 62
               7
100
AcDbCircle
 10
1.2000000000000028
 20
152.75994
 30
0.0
 40
2.5
100
AcDbArc
 50
270.00000000001631
 51
359.9999999999992
  0
ARC
  5
371
100
AcDbEntity
  8
LAYER001
  6
CONTINUOUS
 62
               7
100
AcDbCircle
 10
-1.2000000000000028
 20
152.75994
 30
0.0
 40
2.5
100
AcDbArc
 50
180.00000000003345
 51
270.00000000001631
  0
ARC
  5
372
100
AcDbEntity
  8
LAYER001
  6
CONTINUOUS
 62
               7
100
AcDbCircle
 10
-1.2000000000000028
 20
166.35993999999999
 30
0.0
 40
2.5
100
AcDbArc
 50
90.000000000050932
 51
180.00000000003345
  0
ARC
  5
373
100
AcDbEntity
  8
LAYER001
  6
CONTINUOUS
 62
               7
100
AcDbCircle
 10
1.2000000000000028
 20
166.35993999999999
 30
0.0
 40
2.5
100
AcDbArc
 50
0.0
 51
90.000000000050932
  0
ARC
  5
374
100
AcDbEntity
  8
LAYER001
  6
CONTINUOUS
 62
               7
100
AcDbCircle
 10
0.0
 20
181.15994000000001
 30
0.0
 40
52.5
100
AcDbArc
 50
282.70903300001396
 51
285.54529000001338
  0
LINE
  5
375
100
AcDbEntity
  8
LAYER001
  6
CONTINUOUS
 62
               7
100
AcDbLine
 10
15.900000000000006
 20
133.95993999999999
 30
0.0
 11
15.900000000000006
 21
132.98899399999996
 31
0.0
  0
LINE
  5
376
100
AcDbEntity
  8
LAYER001
  6
CONTINUOUS
 62
               7
100
AcDbLine
 10
8.5
 20
133.95993999999999
 30
0.0
 11
8.5
 21
132.38494599999999
 31
0.0
  0
ARC
  5
377
100
AcDbEntity
  8
LAYER001
  6
CONTINUOUS
 62
               7
100
AcDbCircle
 10
0.0
 20
181.15994000000001
 30
0.0
 40
52.5
100
AcDbArc
 50
268.62476900001661
 51
271.37523100001607
  0
LINE
  5
378
100
AcDbEntity
  8
LAYER001
  6
CONTINUOUS
 62
               7
100
AcDbLine
 10
11.0
 20
136.45993999999999
 30
0.0
 11
13.400000000000006
 21
136.45993999999999
 31
0.0
  0
LINE
  5
379
100
AcDbEntity
  8
LAYER001
  6
CONTINUOUS
 62
               7
100
AcDbLine
 10
11.0
 20
139.45993999999999
 30
0.0
 11
13.400000000000006
 21
139.45993999999999
 31
0.0
  0
LINE
  5
37A
100
AcDbEntity
  8
LAYER001
  6
CONTINUOUS
 62
               7
100
AcDbLine
 10
15.900000000000006
 20
155.55993999999998
 30
0.0
 11
15.900000000000006
 21
141.95993999999999
 31
0.0
  0
LINE
  5
37B
100
AcDbEntity
  8
LAYER001
  6
CONTINUOUS
 62
               7
100
AcDbLine
 10
8.5
 20
155.55993999999998
 30
0.0
 11
8.5
 21
141.95993999999999
 31
0.0
  0
LINE
  5
37C
100
AcDbEntity
  8
LAYER001
  6
CONTINUOUS
 62
               7
100
AcDbLine
 10
11.0
 20
158.05993999999998
 30
0.0
 11
13.400000000000006
 21
158.05993999999998
 31
0.0
  0
LINE
  5
37D
100
AcDbEntity
  8
LAYER001
  6
CONTINUOUS
 62
               7
100
AcDbLine
 10
11.0
 20
161.05993999999998
 30
0.0
 11
13.400000000000006
 21
161.05993999999998
 31
0.0
  0
LINE
  5
37E
100
AcDbEntity
  8
LAYER001
  6
CONTINUOUS
 62
               7
100
AcDbLine
 10
15.900000000000006
 20
177.15994000000001
 30
0.0
 11
15.900000000000006
 21
163.55993999999998
 31
0.0
  0
LINE
  5
37F
100
AcDbEntity
  8
LAYER001
  6
CONTINUOUS
 62
               7
100
AcDbLine
 10
8.5
 20
177.15994000000001
 30
0.0
 11
8.5
 21
163.55993999999998
 31
0.0
  0
LINE
  5
380
100
AcDbEntity
  8
LAYER001
  6
CONTINUOUS
 62
               7
100
AcDbLine
 10
11.0
 20
179.65994000000001
 30
0.0
 11
13.400000000000006
 21
179.65994000000001
 31
0.0
  0
LINE
  5
381
100
AcDbEntity
  8
LAYER001
  6
CONTINUOUS
 62
               7
100
AcDbLine
 10
3.7000000000000028
 20
144.75994
 30
0.0
 11
3.7000000000000028
 21
131.174342
 31
0.0
  0
LINE
  5
382
100
AcDbEntity
  8
LAYER001
  6
CONTINUOUS
 62
               7
100
AcDbLine
 10
-3.7000000000000028
 20
144.75994
 30
0.0
 11
-3.7000000000000028
 21
131.174342
 31
0.0
  0
LINE
  5
383
100
AcDbEntity
  8
LAYER001
  6
CONTINUOUS
 62
               7
100
AcDbLine
 10
-1.2000000000000028
 20
147.25994
 30
0.0
 11
1.2000000000000028
 21
147.25994
 31
0.0
  0
LINE
  5
384
100
AcDbEntity
  8
LAYER001
  6
CONTINUOUS
 62
               7
100
AcDbLine
 10
-1.2000000000000028
 20
150.25994
 30
0.0
 11
1.2000000000000028
 21
150.25994
 31
0.0
  0
LINE
  5
385
100
AcDbEntity
  8
LAYER001
  6
CONTINUOUS
 62
               7
100
AcDbLine
 10
3.7000000000000028
 20
166.35993999999999
 30
0.0
 11
3.7000000000000028
 21
152.75994
 31
0.0
  0
LINE
  5
386
100
AcDbEntity
  8
LAYER001
  6
CONTINUOUS
 62
               7
100
AcDbLine
 10
-3.7000000000000028
 20
166.35993999999999
 30
0.0
 11
-3.7000000000000028
 21
152.75994
 31
0.0
  0
LINE
  5
387
100
AcDbEntity
  8
LAYER001
  6
CONTINUOUS
 62
               7
100
AcDbLine
 10
-1.2000000000000028
 20
168.85993999999999
 30
0.0
 11
1.2000000000000028
 21
168.85993999999999
 31
0.0
  0
ARC
  5
388
100
AcDbEntity
  8
LAYER001
  6
CONTINUOUS
 62
               7
100
AcDbCircle
 10
0.0
 20
181.15994000000001
 30
0.0
 40
58.5
100
AcDbArc
 50
180.00000000003359
 51
359.9999999999992
  0
ARC
  5
389
100
AcDbEntity
  8
LAYER001
  6
CONTINUOUS
 62
               7
100
AcDbCircle
 10
0.0
 20
181.15994000000001
 30
0.0
 40
52.5
100
AcDbArc
 50
180.00000000003359
 51
187.81644900003209
  0
ARC
  5
38A
100
AcDbEntity
  8
LAYER001
  6
CONTINUOUS
 62
               7
100
AcDbCircle
 10
-30.599999999999994
 20
181.15994000000001
 30
0.0
 40
16.800000000000001
100
AcDbArc
 50
180.00000000003362
 51
200.62999300002971
  0
ELLIPSE
  5
38B
100
AcDbEntity
  8
LAYER001
  6
CONTINUOUS
 62
               7
100
AcDbEllipse
 10
-36.600000000000001
 20
181.15994000000001
 30
0.0
 11
0.0
 21
-10.0
 31
0.0
210
0.0
220
0.0
230
1.0
 40
0.6
 41
4.7123889803852901
 42
7.8539816339738824
  0
ARC
  5
38C
100
AcDbEntity
  8
LAYER001
  6
CONTINUOUS
 62
               7
100
AcDbCircle
 10
-42.600000000000001
 20
181.15994000000001
 30
0.0
 40
16.800000000000001
100
AcDbArc
 50
339.37000700000311
 51
359.9999999999992
  0
LINE
  5
38D
100
AcDbEntity
  8
LAYER001
  6
CONTINUOUS
 62
               7
100
AcDbLine
 10
-20.700000000000003
 20
181.15994000000001
 30
0.0
 11
-20.700000000000003
 21
174.35993999999999
 31
0.0
  0
LINE
  5
38E
100
AcDbEntity
  8
LAYER001
  6
CONTINUOUS
 62
               7
100
AcDbLine
 10
20.700000000000003
 20
181.15994000000001
 30
0.0
 11
20.700000000000003
 21
174.35993999999999
 31
0.0
  0
ARC
  5
38F
100
AcDbEntity
  8
LAYER001
  6
CONTINUOUS
 62
               7
100
AcDbCircle
 10
42.599999999999987
 20
181.15994000000001
 30
0.0
 40
16.800000000000001
100
AcDbArc
 50
180.00000000003362
 51
200.62999300002971
  0
ELLIPSE
  5
390
100
AcDbEntity
  8
LAYER001
  6
CONTINUOUS
 62
               7
100
AcDbEllipse
 10
36.599999999999987
 20
181.15994000000001
 30
0.0
 11
0.0
 21
-10.0
 31
0.0
210
0.0
220
0.0
230
1.0
 40
0.6
 41
4.7123889803852901
 42
7.8539816339738824
  0
ARC
  5
391
100
AcDbEntity
  8
LAYER001
  6
CONTINUOUS
 62
               7
100
AcDbCircle
 10
30.599999999999991
 20
181.15994000000001
 30
0.0
 40
16.800000000000001
100
AcDbArc
 50
339.37000700000317
 51
359.9999999999992
  0
ARC
  5
392
100
AcDbEntity
  8
LAYER001
  6
CONTINUOUS
 62
               7
100
AcDbCircle
 10
0.0
 20
181.15994000000001
 30
0.0
 40
52.5
100
AcDbArc
 50
352.1835510000007
 51
359.9999999999992
  0
POINT
  5
393
100
AcDbEntity
  8
0
  6
CONTINUOUS
 62
               5
100
AcDbPoint
 10
118.76999999999998
 20
-200.0
 30
0.0
  0
POINT
  5
394
100
AcDbEntity
  8
0
  6
CONTINUOUS
 62
               5
100
AcDbPoint
 10
118.76999999999998
 20
-200.00000000000009
 30
0.0
  0
ENDSEC
  0
SECTION
  2
OBJECTS
  0
DICTIONARY
  5
19
100
AcDbDictionary
  3
ACAD_GROUP
350
1A
  3
ACAD_MLINESTYLE
350
1B
  0
DICTIONARY
  5
1A
102
{ACAD_REACTORS
330
19
102
}
100
AcDbDictionary
  0
DICTIONARY
  5
1B
102
{ACAD_REACTORS
330
19
102
}
100
AcDbDictionary
  3
STANDARD
350
1C
  0
MLINESTYLE
  5
1C
102
{ACAD_REACTORS
330
1B
102
}
100
AcDbMlineStyle
  2
STANDARD
 70
               0
  3

 62
               0
 51
90.0
 52
90.0
 71
               2
 49
0.5
 62
             256
  6
BYLAYER
 49
-0.5
 62
             256
  6
BYLAYER
  0
ENDSEC
  0
EOF
